  0
SECTION
  2
HEADER
  9
$ACADVER
  1
AC1015
  9
$ACADMAINTVER
 70
     6
  9
$DWGCODEPAGE
  3
ANSI_932
  9
$INSBASE
 10
0.0
 20
0.0
 30
0.0
  9
$EXTMIN
 10
-27.0312334387384
 20
88.62859459459463
 30
0.0
  9
$EXTMAX
 10
240.9813407610451
 20
328.552326126231
 30
0.0
  9
$LIMMIN
 10
0.0
 20
0.0
  9
$LIMMAX
 10
210.0
 20
297.0
  9
$ORTHOMODE
 70
     0
  9
$REGENMODE
 70
     1
  9
$FILLMODE
 70
     1
  9
$QTEXTMODE
 70
     0
  9
$MIRRTEXT
 70
     1
  9
$LTSCALE
 40
1.0
  9
$ATTMODE
 70
     1
  9
$TEXTSIZE
 40
3.5
  9
$TRACEWID
 40
1.0
  9
$TEXTSTYLE
  7
Standard
  9
$CLAYER
  8
0
  9
$CELTYPE
  6
ByLayer
  9
$CECOLOR
 62
   256
  9
$CELTSCALE
 40
1.0
  9
$DISPSILH
 70
     0
  9
$DIMSCALE
 40
1.0
  9
$DIMASZ
 40
3.302
  9
$DIMEXO
 40
1.0
  9
$DIMDLI
 40
3.75
  9
$DIMRND
 40
0.0
  9
$DIMDLE
 40
0.0
  9
$DIMEXE
 40
1.0
  9
$DIMTP
 40
0.0
  9
$DIMTM
 40
0.0
  9
$DIMTXT
 40
3.5
  9
$DIMCEN
 40
2.5
  9
$DIMTSZ
 40
0.0
  9
$DIMTOL
 70
     0
  9
$DIMLIM
 70
     0
  9
$DIMTIH
 70
     1
  9
$DIMTOH
 70
     1
  9
$DIMSE1
 70
     0
  9
$DIMSE2
 70
     0
  9
$DIMTAD
 70
     1
  9
$DIMZIN
 70
     0
  9
$DIMBLK
  1

  9
$DIMASO
 70
     1
  9
$DIMSHO
 70
     1
  9
$DIMPOST
  1

  9
$DIMAPOST
  1

  9
$DIMALT
 70
     0
  9
$DIMALTD
 70
     3
  9
$DIMALTF
 40
0.0393700787401575
  9
$DIMLFAC
 40
2.0
  9
$DIMTOFL
 70
     1
  9
$DIMTVP
 40
0.0
  9
$DIMTIX
 70
     0
  9
$DIMSOXD
 70
     0
  9
$DIMSAH
 70
     0
  9
$DIMBLK1
  1

  9
$DIMBLK2
  1

  9
$DIMSTYLE
  2
ISO-25
  9
$DIMCLRD
 70
     0
  9
$DIMCLRE
 70
     0
  9
$DIMCLRT
 70
     0
  9
$DIMTFAC
 40
1.0
  9
$DIMGAP
 40
1.524
  9
$DIMJUST
 70
     0
  9
$DIMSD1
 70
     0
  9
$DIMSD2
 70
     0
  9
$DIMTOLJ
 70
     0
  9
$DIMTZIN
 70
     0
  9
$DIMALTZ
 70
     0
  9
$DIMALTTZ
 70
     0
  9
$DIMUPT
 70
     0
  9
$DIMDEC
 70
     2
  9
$DIMTDEC
 70
     2
  9
$DIMALTU
 70
     2
  9
$DIMALTTD
 70
     3
  9
$DIMTXSTY
  7
Standard
  9
$DIMAUNIT
 70
     0
  9
$DIMADEC
 70
     2
  9
$DIMALTRND
 40
0.0
  9
$DIMAZIN
 70
     0
  9
$DIMDSEP
 70
    44
  9
$DIMATFIT
 70
     3
  9
$DIMFRAC
 70
     0
  9
$DIMLDRBLK
  1

  9
$DIMLUNIT
 70
     2
  9
$DIMLWD
 70
    -2
  9
$DIMLWE
 70
    -2
  9
$DIMTMOVE
 70
     0
  9
$LUNITS
 70
     2
  9
$LUPREC
 70
     2
  9
$SKETCHINC
 40
1.0
  9
$FILLETRAD
 40
10.0
  9
$AUNITS
 70
     0
  9
$AUPREC
 70
     2
  9
$MENU
  1
.
  9
$ELEVATION
 40
0.0
  9
$PELEVATION
 40
0.0
  9
$THICKNESS
 40
0.0
  9
$LIMCHECK
 70
     0
  9
$CHAMFERA
 40
0.0
  9
$CHAMFERB
 40
0.0
  9
$CHAMFERC
 40
0.0
  9
$CHAMFERD
 40
0.0
  9
$SKPOLY
 70
     0
  9
$TDCREATE
 40
2458025.90167044
  9
$TDUCREATE
 40
2458025.52667044
  9
$TDUPDATE
 40
2458375.8061986
  9
$TDUUPDATE
 40
2458375.4311986
  9
$TDINDWG
 40
0.0049500347
  9
$TDUSRTIMER
 40
0.0002929051
  9
$USRTIMER
 70
     1
  9
$ANGBASE
 50
0.0
  9
$ANGDIR
 70
     0
  9
$PDMODE
 70
     0
  9
$PDSIZE
 40
-1.0
  9
$PLINEWID
 40
0.0
  9
$SPLFRAME
 70
     0
  9
$SPLINETYPE
 70
     6
  9
$SPLINESEGS
 70
     8
  9
$HANDSEED
  5
DA3
  9
$SURFTAB1
 70
     6
  9
$SURFTAB2
 70
     6
  9
$SURFTYPE
 70
     6
  9
$SURFU
 70
     6
  9
$SURFV
 70
     6
  9
$UCSBASE
  2

  9
$UCSNAME
  2

  9
$UCSORG
 10
0.0
 20
0.0
 30
0.0
  9
$UCSXDIR
 10
1.0
 20
0.0
 30
0.0
  9
$UCSYDIR
 10
0.0
 20
1.0
 30
0.0
  9
$UCSORTHOREF
  2

  9
$UCSORTHOVIEW
 70
     0
  9
$UCSORGTOP
 10
0.0
 20
0.0
 30
0.0
  9
$UCSORGBOTTOM
 10
0.0
 20
0.0
 30
0.0
  9
$UCSORGLEFT
 10
0.0
 20
0.0
 30
0.0
  9
$UCSORGRIGHT
 10
0.0
 20
0.0
 30
0.0
  9
$UCSORGFRONT
 10
0.0
 20
0.0
 30
0.0
  9
$UCSORGBACK
 10
0.0
 20
0.0
 30
0.0
  9
$PUCSBASE
  2

  9
$PUCSNAME
  2

  9
$PUCSORG
 10
0.0
 20
0.0
 30
0.0
  9
$PUCSXDIR
 10
1.0
 20
0.0
 30
0.0
  9
$PUCSYDIR
 10
0.0
 20
1.0
 30
0.0
  9
$PUCSORTHOREF
  2

  9
$PUCSORTHOVIEW
 70
     0
  9
$PUCSORGTOP
 10
0.0
 20
0.0
 30
0.0
  9
$PUCSORGBOTTOM
 10
0.0
 20
0.0
 30
0.0
  9
$PUCSORGLEFT
 10
0.0
 20
0.0
 30
0.0
  9
$PUCSORGRIGHT
 10
0.0
 20
0.0
 30
0.0
  9
$PUCSORGFRONT
 10
0.0
 20
0.0
 30
0.0
  9
$PUCSORGBACK
 10
0.0
 20
0.0
 30
0.0
  9
$USERI1
 70
     0
  9
$USERI2
 70
     0
  9
$USERI3
 70
     0
  9
$USERI4
 70
     0
  9
$USERI5
 70
     0
  9
$USERR1
 40
0.0
  9
$USERR2
 40
0.0
  9
$USERR3
 40
0.0
  9
$USERR4
 40
0.0
  9
$USERR5
 40
0.0
  9
$WORLDVIEW
 70
     1
  9
$SHADEDGE
 70
     3
  9
$SHADEDIF
 70
    70
  9
$TILEMODE
 70
     1
  9
$MAXACTVP
 70
    64
  9
$PINSBASE
 10
0.0
 20
0.0
 30
0.0
  9
$PLIMCHECK
 70
     0
  9
$PEXTMIN
 10
1.000000000000000E+20
 20
1.000000000000000E+20
 30
1.000000000000000E+20
  9
$PEXTMAX
 10
-1.000000000000000E+20
 20
-1.000000000000000E+20
 30
-1.000000000000000E+20
  9
$PLIMMIN
 10
0.0
 20
0.0
  9
$PLIMMAX
 10
0.0
 20
0.0
  9
$UNITMODE
 70
     0
  9
$VISRETAIN
 70
     1
  9
$PLINEGEN
 70
     0
  9
$PSLTSCALE
 70
     1
  9
$TREEDEPTH
 70
  3020
  9
$CMLSTYLE
  2
Standard
  9
$CMLJUST
 70
     0
  9
$CMLSCALE
 40
20.0
  9
$PROXYGRAPHICS
 70
     1
  9
$MEASUREMENT
 70
     1
  9
$CELWEIGHT
370
    -1
  9
$ENDCAPS
280
     0
  9
$JOINSTYLE
280
     0
  9
$LWDISPLAY
290
     1
  9
$INSUNITS
 70
     4
  9
$HYPERLINKBASE
  1

  9
$STYLESHEET
  1

  9
$XEDIT
290
     1
  9
$CEPSNTYPE
380
     0
  9
$PSTYLEMODE
290
     1
  9
$FINGERPRINTGUID
  2
{75375FFD-739C-48ED-822E-76A46AAE9E82}
  9
$VERSIONGUID
  2
{FAEB1C32-E019-11D5-929B-00C0DF256EC4}
  9
$EXTNAMES
290
     1
  9
$PSVPSCALE
 40
0.0
  9
$OLESTARTUP
290
     0
  0
ENDSEC
  0
SECTION
  2
CLASSES
  0
CLASS
  1
ACDBDICTIONARYWDFLT
  2
AcDbDictionaryWithDefault
  3
ObjectDBX Classes
 90
        0
280
     0
281
     0
  0
CLASS
  1
VISUALSTYLE
  2
AcDbVisualStyle
  3
ObjectDBX Classes
 90
     4095
280
     0
281
     0
  0
CLASS
  1
MATERIAL
  2
AcDbMaterial
  3
ObjectDBX Classes
 90
     1153
280
     0
281
     0
  0
CLASS
  1
SCALE
  2
AcDbScale
  3
ObjectDBX Classes
 90
     1153
280
     0
281
     0
  0
CLASS
  1
TABLESTYLE
  2
AcDbTableStyle
  3
ObjectDBX Classes
 90
     4095
280
     0
281
     0
  0
CLASS
  1
MLEADERSTYLE
  2
AcDbMLeaderStyle
  3
ACDB_MLEADERSTYLE_CLASS
 90
     4095
280
     0
281
     0
  0
CLASS
  1
SUN
  2
AcDbSun
  3
SCENEOE
 90
     1153
280
     0
281
     0
  0
CLASS
  1
ACDBPLACEHOLDER
  2
AcDbPlaceHolder
  3
ObjectDBX Classes
 90
        0
280
     0
281
     0
  0
CLASS
  1
LAYOUT
  2
AcDbLayout
  3
ObjectDBX Classes
 90
        0
280
     0
281
     0
  0
CLASS
  1
RASTERVARIABLES
  2
AcDbRasterVariables
  3
ISM
 90
        0
280
     0
281
     0
  0
CLASS
  1
DICTIONARYVAR
  2
AcDbDictionaryVar
  3
ObjectDBX Classes
 90
        0
280
     0
281
     0
  0
CLASS
  1
SORTENTSTABLE
  2
AcDbSortentsTable
  3
ObjectDBX Classes
 90
        0
280
     0
281
     0
  0
ENDSEC
  0
SECTION
  2
TABLES
  0
TABLE
  2
VPORT
  5
8
330
0
100
AcDbSymbolTable
 70
     1
  0
VPORT
  5
29
330
8
100
AcDbSymbolTableRecord
100
AcDbViewportTableRecord
  2
*Active
 70
     0
 10
0.0
 20
0.0
 11
1.0
 21
1.0
 12
106.9750536611534
 22
208.5904603604128
 13
0.0
 23
0.0
 14
10.0
 24
10.0
 15
10.0
 25
10.0
 16
0.0
 26
0.0
 36
1.0
 17
0.0
 27
0.0
 37
0.0
 40
244.7222061622691
 41
2.043890865954923
 42
50.0
 43
0.0
 44
0.0
 50
0.0
 51
0.0
 71
    16
 72
  2000
 73
     1
 74
     3
 75
     0
 76
     0
 77
     0
 78
     0
281
     0
 65
     1
110
0.0
120
0.0
130
0.0
111
1.0
121
0.0
131
0.0
112
0.0
122
1.0
132
0.0
 79
     0
146
0.0
  0
ENDTAB
  0
TABLE
  2
LTYPE
  5
5
330
0
100
AcDbSymbolTable
 70
     6
  0
LTYPE
  5
14
330
5
100
AcDbSymbolTableRecord
100
AcDbLinetypeTableRecord
  2
ByBlock
 70
     0
  3

 72
    65
 73
     0
 40
0.0
  0
LTYPE
  5
15
330
5
100
AcDbSymbolTableRecord
100
AcDbLinetypeTableRecord
  2
ByLayer
 70
     0
  3

 72
    65
 73
     0
 40
0.0
  0
LTYPE
  5
16
330
5
100
AcDbSymbolTableRecord
100
AcDbLinetypeTableRecord
  2
Continuous
 70
     0
  3
Solid line
 72
    65
 73
     0
 40
0.0
  0
LTYPE
  5
6E
330
5
100
AcDbSymbolTableRecord
100
AcDbLinetypeTableRecord
  2
HIDDEN
 70
     0
  3
Hidden __ __ __ __ __ __ __ __ __ __ __ __ __ __
 72
    65
 73
     2
 40
1.905
 49
1.27
 74
     0
 49
-0.635
 74
     0
  0
LTYPE
  5
6F
330
5
100
AcDbSymbolTableRecord
100
AcDbLinetypeTableRecord
  2
PHANTOM
 70
     0
  3
Phantom ______  __  __  ______  __  __  ______
 72
    65
 73
     6
 40
12.7
 49
6.35
 74
     0
 49
-1.27
 74
     0
 49
1.27
 74
     0
 49
-1.27
 74
     0
 49
1.27
 74
     0
 49
-1.27
 74
     0
  0
LTYPE
  5
70
330
5
100
AcDbSymbolTableRecord
100
AcDbLinetypeTableRecord
  2
CENTER
 70
     0
  3
Center ____ _ ____ _ ____ _ ____ _ ____ _ ____
 72
    65
 73
     4
 40
10.16
 49
6.35
 74
     0
 49
-1.27
 74
     0
 49
1.27
 74
     0
 49
-1.27
 74
     0
  0
LTYPE
  5
71
330
5
100
AcDbSymbolTableRecord
100
AcDbLinetypeTableRecord
  2
CENTERX2
 70
     0
  3
Center (2x) ________  __  ________  __  _____
 72
    65
 73
     4
 40
20.32
 49
12.7
 74
     0
 49
-2.54
 74
     0
 49
2.54
 74
     0
 49
-2.54
 74
     0
  0
LTYPE
  5
72
330
5
100
AcDbSymbolTableRecord
100
AcDbLinetypeTableRecord
  2
DOT2
 70
     0
  3
Dot (.5x) ........................................
 72
    65
 73
     2
 40
0.635
 49
0.0
 74
     0
 49
-0.635
 74
     0
  0
ENDTAB
  0
TABLE
  2
LAYER
  5
2
102
{ACAD_XDICTIONARY
360
66F
102
}
330
0
100
AcDbSymbolTable
 70
    13
  0
LAYER
  5
10
330
2
100
AcDbSymbolTableRecord
100
AcDbLayerTableRecord
  2
0
 70
     0
 62
     7
  6
Continuous
370
    -3
390
F
  0
LAYER
  5
73
330
2
100
AcDbSymbolTableRecord
100
AcDbLayerTableRecord
  2
SLD-0
 70
     0
 62
   179
  6
Continuous
370
    -3
390
F
  0
LAYER
  5
74
330
2
100
AcDbSymbolTableRecord
100
AcDbLayerTableRecord
  2
中心線
 70
     0
 62
     1
  6
CENTER
370
    -3
390
F
  0
LAYER
  5
75
330
2
100
AcDbSymbolTableRecord
100
AcDbLayerTableRecord
  2
破線
 70
     0
 62
     3
  6
HIDDEN
370
    -3
390
F
  0
LAYER
  5
76
330
2
100
AcDbSymbolTableRecord
100
AcDbLayerTableRecord
  2
寸法線
 70
     0
 62
     7
  6
Continuous
370
    -3
390
F
  0
LAYER
  5
77
330
2
100
AcDbSymbolTableRecord
100
AcDbLayerTableRecord
  2
実線
 70
     0
 62
     4
  6
Continuous
370
    25
390
F
  0
LAYER
  5
78
330
2
100
AcDbSymbolTableRecord
100
AcDbLayerTableRecord
  2
ﾊｯﾁﾝｸﾞ
 70
     0
 62
     8
  6
Continuous
370
    -3
390
F
  0
LAYER
  5
79
330
2
100
AcDbSymbolTableRecord
100
AcDbLayerTableRecord
  2
輪郭線
 70
     0
 62
     6
  6
Continuous
370
    25
390
F
  0
LAYER
  5
7A
330
2
100
AcDbSymbolTableRecord
100
AcDbLayerTableRecord
  2
文字
 70
     0
 62
   179
  6
Continuous
370
    -3
390
F
  0
LAYER
  5
7B
330
2
100
AcDbSymbolTableRecord
100
AcDbLayerTableRecord
  2
想像線
 70
     0
 62
     3
  6
PHANTOM
370
    -3
390
F
  0
LAYER
  5
7C
330
2
100
AcDbSymbolTableRecord
100
AcDbLayerTableRecord
  2
姿図
 70
     0
 62
     8
  6
Continuous
370
    -3
390
F
  0
LAYER
  5
7D
330
2
100
AcDbSymbolTableRecord
100
AcDbLayerTableRecord
  2
注記
 70
     0
 62
     7
  6
Continuous
370
    25
390
F
  0
LAYER
  5
7E
330
2
100
AcDbSymbolTableRecord
100
AcDbLayerTableRecord
  2
ロゴ：MODULEX
 70
     0
 62
     7
  6
Continuous
370
    -3
390
F
  0
ENDTAB
  0
TABLE
  2
STYLE
  5
3
330
0
100
AcDbSymbolTable
 70
     1
  0
STYLE
  5
11
330
3
100
AcDbSymbolTableRecord
100
AcDbTextStyleTableRecord
  2
Standard
 70
     0
 40
0.0
 41
1.0
 50
0.0
 71
     0
 42
3.5
  3
txt
  4
bigfont
  0
ENDTAB
  0
TABLE
  2
VIEW
  5
6
330
0
100
AcDbSymbolTable
 70
     0
  0
ENDTAB
  0
TABLE
  2
UCS
  5
7
330
0
100
AcDbSymbolTable
 70
     0
  0
ENDTAB
  0
TABLE
  2
APPID
  5
9
330
0
100
AcDbSymbolTable
 70
     6
  0
APPID
  5
12
330
9
100
AcDbSymbolTableRecord
100
AcDbRegAppTableRecord
  2
ACAD
 70
     0
  0
APPID
  5
64B
330
9
100
AcDbSymbolTableRecord
100
AcDbRegAppTableRecord
  2
ACAD_DSTYLE_DIMJAG
 70
     0
  0
APPID
  5
64C
330
9
100
AcDbSymbolTableRecord
100
AcDbRegAppTableRecord
  2
ACAD_DSTYLE_DIMTALN
 70
     0
  0
APPID
  5
64D
330
9
100
AcDbSymbolTableRecord
100
AcDbRegAppTableRecord
  2
ACAD_PSEXT
 70
     0
  0
APPID
  5
974
330
9
100
AcDbSymbolTableRecord
100
AcDbRegAppTableRecord
  2
ACAD_SPLINE_DATA
 70
     0
  0
APPID
  5
975
330
9
100
AcDbSymbolTableRecord
100
AcDbRegAppTableRecord
  2
ACAD_SPLINE_DATA2
 70
     0
  0
ENDTAB
  0
TABLE
  2
DIMSTYLE
  5
A
330
0
100
AcDbSymbolTable
 70
     3
100
AcDbDimStyleTable
  0
DIMSTYLE
105
27
330
A
100
AcDbSymbolTableRecord
100
AcDbDimStyleTableRecord
  2
ISO-25
 70
     0
 41
2.5
 42
0.625
 43
3.75
 44
1.25
 73
     0
 74
     0
 77
     1
 78
     8
140
2.5
141
2.5
143
0.03937007874016
147
0.625
171
     3
172
     1
178
     0
271
     2
272
     2
274
     3
278
    44
283
     0
284
     8
340
11
  0
DIMSTYLE
105
643
330
A
100
AcDbSymbolTableRecord
100
AcDbDimStyleTableRecord
  2
STANDARD
 70
     0
 41
2.5
 42
1.5
 44
1.0
 73
     0
 74
     0
 77
     3
 78
     8
 79
     2
140
2.500000000000003
141
0.0
147
1.0
171
     0
172
     1
173
     1
176
     8
177
     8
271
     2
178
   256
179
     2
271
     2
272
     2
274
     0
289
     1
340
11
341
645
343
645
344
645
1001
ACAD_DSTYLE_DIMJAG
1070
   388
1040
1.5
1001
ACAD_DSTYLE_DIMTALN
1070
   392
1070
     0
  0
DIMSTYLE
105
6A7
330
A
100
AcDbSymbolTableRecord
100
AcDbDimStyleTableRecord
  2
STANDARD-10
 70
     0
 41
15.0
 42
15.0
 43
3.8
 44
1.0
 73
     0
 74
     0
 77
     1
 78
     8
 79
     2
140
20.0
141
0.0
147
0.0
171
     0
172
     1
173
     1
176
     8
177
     8
271
     2
178
   256
179
     2
271
     2
272
     2
274
     0
289
     2
340
11
341
645
343
645
344
645
  0
ENDTAB
  0
TABLE
  2
BLOCK_RECORD
  5
1
330
0
100
AcDbSymbolTable
 70
     3
  0
BLOCK_RECORD
  5
1F
330
1
100
AcDbSymbolTableRecord
100
AcDbBlockTableRecord
  2
*Model_Space
340
22
  0
BLOCK_RECORD
  5
1B
330
1
100
AcDbSymbolTableRecord
100
AcDbBlockTableRecord
  2
*Paper_Space
340
1E
  0
BLOCK_RECORD
  5
23
330
1
100
AcDbSymbolTableRecord
100
AcDbBlockTableRecord
  2
*Paper_Space0
340
26
  0
BLOCK_RECORD
  5
645
330
1
100
AcDbSymbolTableRecord
100
AcDbBlockTableRecord
  2
_OPEN
340
0
  0
ENDTAB
  0
ENDSEC
  0
SECTION
  2
BLOCKS
  0
BLOCK
  5
20
330
1F
100
AcDbEntity
  8
0
100
AcDbBlockBegin
  2
*Model_Space
 70
     0
 10
0.0
 20
0.0
 30
0.0
  3
*Model_Space
  1

  0
ENDBLK
  5
21
330
1F
100
AcDbEntity
  8
0
100
AcDbBlockEnd
  0
BLOCK
  5
1C
330
1B
100
AcDbEntity
 67
     1
  8
0
100
AcDbBlockBegin
  2
*Paper_Space
 70
     0
 10
0.0
 20
0.0
 30
0.0
  3
*Paper_Space
  1

  0
ENDBLK
  5
1D
330
1B
100
AcDbEntity
 67
     1
  8
0
100
AcDbBlockEnd
  0
BLOCK
  5
24
330
23
100
AcDbEntity
  8
0
100
AcDbBlockBegin
  2
*Paper_Space0
 70
     0
 10
0.0
 20
0.0
 30
0.0
  3
*Paper_Space0
  1

  0
ENDBLK
  5
25
330
23
100
AcDbEntity
  8
0
100
AcDbBlockEnd
  0
BLOCK
  5
646
330
645
100
AcDbEntity
  8
0
100
AcDbBlockBegin
  2
_OPEN
 70
     0
 10
0.0
 20
0.0
 30
0.0
  3
_OPEN
  1

  0
LINE
  5
647
330
645
100
AcDbEntity
  8
0
  6
ByBlock
 62
     0
100
AcDbLine
 10
-1.0
 20
0.1666666666666667
 30
0.0
 11
0.0
 21
0.0
 31
0.0
  0
LINE
  5
648
330
645
100
AcDbEntity
  8
0
  6
ByBlock
 62
     0
100
AcDbLine
 10
0.0
 20
0.0
 30
0.0
 11
-1.0
 21
-0.1666666666666667
 31
0.0
  0
LINE
  5
649
330
645
100
AcDbEntity
  8
0
  6
ByBlock
 62
     0
100
AcDbLine
 10
0.0
 20
0.0
 30
0.0
 11
-1.0
 21
0.0
 31
0.0
  0
ENDBLK
  5
64A
330
645
100
AcDbEntity
  8
0
100
AcDbBlockEnd
  0
ENDSEC
  0
SECTION
  2
ENTITIES
  0
TEXT
  5
674
330
1F
100
AcDbEntity
  8
文字
 62
     7
100
AcDbText
 10
42.97789864864868
 20
88.62859459459463
 30
0.0
 40
10.0
  1
MMT-135/NDC/01
 41
0.9
 11
42.97789864864868
 21
88.62859459459463
 31
0.0
100
AcDbText
 73
     1
  0
LINE
  5
D07
330
1F
100
AcDbEntity
  8
実線
 62
     8
 48
0.5
100
AcDbLine
 10
197.0303346286634
 20
168.7251351523855
 30
0.0
 11
195.2633346286563
 21
169.5478592859872
 31
0.0
  0
LINE
  5
D08
330
1F
100
AcDbEntity
  8
実線
 62
     8
 48
2.0
100
AcDbLine
 10
195.2633346286563
 20
169.5478592859872
 30
0.0
 11
195.2633346286563
 21
166.1924110187975
 31
0.0
  0
LINE
  5
D09
330
1F
100
AcDbEntity
  8
実線
 62
     8
 48
0.5
100
AcDbLine
 10
197.0303346286634
 20
167.0151351523855
 30
0.0
 11
195.2633346286563
 21
166.1924110187975
 31
0.0
  0
SPLINE
  5
D0A
330
1F
100
AcDbEntity
  8
寸法線
 62
     8
100
AcDbSpline
210
0.0
220
0.0
230
1.0
 70
    11
 71
     3
 72
    52
 73
    48
 74
     0
 42
0.000000001
 43
0.0000000001
 40
0.0
 40
0.0
 40
0.0
 40
0.0
 40
0.1660052751248561
 40
0.1660052751248561
 40
0.3320105502497122
 40
0.3320105502497122
 40
0.643099107781141
 40
0.643099107781141
 40
0.9541876653125698
 40
0.9541876653125698
 40
1.265276222843999
 40
1.265276222843999
 40
1.576364780375427
 40
1.576364780375427
 40
1.887453337906856
 40
1.887453337906856
 40
2.198541895438285
 40
2.198541895438285
 40
2.509630452969714
 40
2.509630452969714
 40
2.820719010501143
 40
2.820719010501143
 40
3.016413530868025
 40
3.016413530868025
 40
3.212108051234908
 40
3.212108051234908
 40
3.40780257160179
 40
3.40780257160179
 40
3.603497091968673
 40
3.603497091968673
 40
3.924117081040342
 40
3.924117081040342
 40
4.244737070112012
 40
4.244737070112012
 40
4.565357059183682
 40
4.565357059183682
 40
4.885977048255351
 40
4.885977048255351
 40
5.206597037327021
 40
5.206597037327021
 40
5.527217026398691
 40
5.527217026398691
 40
5.84783701547036
 40
5.84783701547036
 40
6.081404607723511
 40
6.081404607723511
 40
6.283185307179586
 40
6.283185307179586
 40
6.283185307179586
 40
6.283185307179586
 10
73.52499358043468
 20
147.3521403916848
 30
0.0
 10
73.53237773824702
 20
146.7682427945856
 30
0.0
 10
73.6691198786827
 20
146.1872426671326
 30
0.0
 10
74.17931236733028
 20
145.0708748687848
 30
0.0
 10
74.55129729272784
 20
144.5347914262029
 30
0.0
 10
75.91856783341399
 20
143.0685683386892
 30
0.0
 10
77.17584399906963
 20
142.2000379555102
 30
0.0
 10
80.30159550967409
 20
140.6675542053727
 30
0.0
 10
82.17145343430064
 20
140.0050811314614
 30
0.0
 10
86.35862549436905
 20
138.9361663598593
 30
0.0
 10
88.6752556045646
 20
138.5303452622038
 30
0.0
 10
93.54079002153202
 20
138.0107124724528
 30
0.0
 10
96.08887327173915
 20
137.8970760492903
 30
0.0
 10
101.1776949932134
 20
137.9721791817501
 30
0.0
 10
103.7175960646597
 20
138.1609052211016
 30
0.0
 10
108.5511925327552
 20
138.8237290774923
 30
0.0
 10
110.8440732351043
 20
139.2976219515704
 30
0.0
 10
114.9704682575427
 20
140.4895101612156
 30
0.0
 10
116.8033296668979
 20
141.2068401105253
 30
0.0
 10
119.845174190759
 20
142.8315746585058
 30
0.0
 10
121.0557830181166
 20
143.7375727112958
 30
0.0
 10
122.4251953762829
 20
145.3405452267716
 30
0.0
 10
122.8081346982687
 20
145.9924670054925
 30
0.0
 10
123.2373041823336
 20
147.3427175049619
 30
0.0
 10
123.2796005424277
 20
148.0405368236652
 30
0.0
 10
123.0079244708283
 20
149.4032138307557
 30
0.0
 10
122.6973499438206
 20
150.0648040481592
 30
0.0
 10
121.7746030247033
 20
151.3144510246748
 30
0.0
 10
121.1627414400388
 20
151.9048583111144
 30
0.0
 10
119.193732689582
 20
153.3658202677416
 30
0.0
 10
117.6069558380438
 20
154.1756713316709
 30
0.0
 10
113.8529422508033
 20
155.553384035602
 30
0.0
 10
111.6858836559292
 20
156.1198679661666
 30
0.0
 10
106.9807008528184
 20
156.9594487992536
 30
0.0
 10
104.4434906261992
 20
157.2321442411567
 30
0.0
 10
99.25030770091297
 20
157.4579786552031
 30
0.0
 10
96.59530510664962
 20
157.4110368790353
 30
0.0
 10
91.43193807032702
 20
157.0020380423776
 30
0.0
 10
88.92453923730835
 20
156.640104443407
 30
0.0
 10
84.30563263837729
 20
155.6353141336131
 30
0.0
 10
82.19501506497517
 20
154.9929261380449
 30
0.0
 10
78.57454874931472
 20
153.4831904309194
 30
0.0
 10
77.06463043854063
 20
152.6173336088614
 30
0.0
 10
75.09657507962737
 20
150.9708122163175
 30
0.0
 10
74.46194695714411
 20
150.2295789176524
 30
0.0
 10
73.69882841502448
 20
148.7710422962146
 30
0.0
 10
73.5160180793352
 20
148.0618724496872
 30
0.0
 10
73.52499358043468
 20
147.3521403916848
 30
0.0
  0
LINE
  5
D0B
330
1F
100
AcDbEntity
  8
寸法線
 62
     8
100
AcDbLine
 10
212.4813407610451
 20
144.9862605130211
 30
0.0
 11
221.3747825125134
 21
138.0749819549365
 31
0.0
  0
LINE
  5
D0C
330
1F
100
AcDbEntity
  8
寸法線
 62
     8
100
AcDbLine
 10
221.3747825125134
 20
130.3651435829325
 30
0.0
 11
221.3747825125134
 21
138.0785225548453
 31
0.0
  0
ELLIPSE
  5
D0D
330
1F
100
AcDbEntity
  8
実線
 62
     8
100
AcDbEllipse
 10
222.4813212372134
 20
180.0561608024946
 30
0.0
 11
-5.157428340220576
 21
0.9541970303638664
 31
0.0
210
0.0
220
0.0
230
1.0
 40
0.400615776736993
 41
0.0
 42
6.283185307179586
  0
ELLIPSE
  5
D0E
330
1F
100
AcDbEntity
  8
実線
 62
     8
100
AcDbEllipse
 10
222.4813212372134
 20
181.1367513881342
 30
0.0
 11
-5.157428340220576
 21
0.9541970303638664
 31
0.0
210
0.0
220
0.0
230
1.0
 40
0.400615776736993
 41
0.3303199014578144
 42
2.959241327695059
  0
LINE
  5
D0F
330
1F
100
AcDbEntity
  8
寸法線
 62
     8
100
AcDbLine
 10
216.8055587622545
 20
189.4446351523866
 30
0.0
 11
219.0612784063666
 21
187.6776351523868
 31
0.0
  0
LINE
  5
D10
330
1F
100
AcDbEntity
  8
実線
 62
     8
 48
0.5
100
AcDbLine
 10
215.9828346286628
 20
187.6776351523868
 30
0.0
 11
216.8055587622545
 21
189.4446351523866
 31
0.0
  0
LINE
  5
D11
330
1F
100
AcDbEntity
  8
実線
 62
     8
 48
0.5
100
AcDbLine
 10
214.2728346286636
 20
187.6776351523868
 30
0.0
 11
213.450110495072
 21
189.4446351523866
 31
0.0
  0
LINE
  5
D12
330
1F
100
AcDbEntity
  8
実線
 62
     8
 48
2.0
100
AcDbLine
 10
213.450110495072
 20
189.4446351523866
 30
0.0
 11
216.8055587622545
 21
189.4446351523866
 31
0.0
  0
LINE
  5
D13
330
1F
100
AcDbEntity
  8
実線
 62
     8
100
AcDbLine
 10
227.2403346286625
 20
185.9676351523877
 30
0.0
 11
227.2403346286625
 21
187.6776351523868
 31
0.0
  0
LINE
  5
D14
330
1F
100
AcDbEntity
  8
実線
 62
     8
100
AcDbLine
 10
215.9828346286628
 20
187.6776351523868
 30
0.0
 11
227.2403346286625
 21
187.6776351523868
 31
0.0
  0
LINE
  5
D15
330
1F
100
AcDbEntity
  8
実線
 62
     8
100
AcDbLine
 10
215.3313407610436
 20
175.2037275456724
 30
0.0
 11
240.9813407610451
 21
175.2037275456724
 31
0.0
  0
LINE
  5
D16
330
1F
100
AcDbEntity
  8
実線
 62
     8
100
AcDbLine
 10
240.9813407610451
 20
175.2037275456724
 30
0.0
 11
240.9813407610451
 21
176.9137275456724
 31
0.0
  0
LINE
  5
D17
330
1F
100
AcDbEntity
  8
寸法線
 62
     8
100
AcDbLine
 10
227.2403346286625
 20
185.9676351523877
 30
0.0
 11
240.9813407610451
 21
175.2037275456724
 31
0.0
  0
LINE
  5
D18
330
1F
100
AcDbEntity
  8
寸法線
 62
     8
100
AcDbLine
 10
227.2403346286625
 20
187.6776351523868
 30
0.0
 11
240.9813407610451
 21
176.9137275456724
 31
0.0
  0
LINE
  5
D19
330
1F
100
AcDbEntity
  8
寸法線
 62
     8
100
AcDbLine
 10
220.6088504988981
 20
250.7222199118792
 30
0.0
 11
220.608850498818
 21
187.6776351523868
 31
0.0
  0
LINE
  5
D1A
330
1F
100
AcDbEntity
  8
姿図
 62
     8
 48
2.0
100
AcDbLine
 10
214.9493367702631
 20
175.2037224229553
 30
0.0
 11
228.0498662580172
 21
175.2037224229562
 31
0.0
  0
LINE
  5
D1B
330
1F
100
AcDbEntity
  8
寸法線
 62
     8
100
AcDbLine
 10
220.6088504988253
 20
175.2037275456724
 30
0.0
 11
220.6088504988253
 21
138.2421507309446
 31
0.0
  0
LINE
  5
D1C
330
1F
100
AcDbEntity
  8
寸法線
 62
     8
100
AcDbLine
 10
129.8184686066704
 20
201.8843543848662
 30
0.0
 11
129.8184686066704
 21
327.886628668818
 31
0.0
  0
ELLIPSE
  5
D1D
330
1F
100
AcDbEntity
  8
寸法線
 62
     8
100
AcDbEllipse
 10
105.7167271472896
 20
301.6350382439937
 30
0.0
 11
0.06951109598740005
 21
2.152782340078776
 31
0.0
210
0.0
220
0.0
230
1.0
 40
0.4932152022865364
 41
0.0
 42
6.283185307179586
  0
LINE
  5
D1E
330
1F
100
AcDbEntity
  8
寸法線
 62
     8
100
AcDbLine
 10
99.95498404008293
 20
284.6820119435147
 30
0.0
 11
99.95498404008293
 21
316.4613164117677
 31
0.0
  0
ELLIPSE
  5
D1F
330
1F
100
AcDbEntity
  8
実線
 62
     8
100
AcDbEllipse
 10
173.1973203690902
 20
219.3468846846809
 30
0.0
 11
-5.157428340220576
 21
0.9541970303638664
 31
0.0
210
0.0
220
0.0
230
1.0
 40
0.400615776736993
 41
0.3303199014578144
 42
2.959241327695059
  0
ELLIPSE
  5
D20
330
1F
100
AcDbEntity
  8
実線
 62
     8
100
AcDbEllipse
 10
173.1973203690902
 20
218.2662940990413
 30
0.0
 11
-5.157428340220576
 21
0.9541970303638664
 31
0.0
210
0.0
220
0.0
230
1.0
 40
0.400615776736993
 41
0.0
 42
6.283185307179586
  0
LINE
  5
D21
330
1F
100
AcDbEntity
  8
実線
 62
     8
 48
0.5
100
AcDbLine
 10
147.7463337605329
 20
206.9352684489322
 30
0.0
 11
145.9793337605331
 21
207.757992582533
 31
0.0
  0
LINE
  5
D22
330
1F
100
AcDbEntity
  8
実線
 62
     8
 48
0.5
100
AcDbLine
 10
147.7463337605329
 20
205.2252684489313
 30
0.0
 11
145.9793337605331
 21
204.4025443153405
 31
0.0
  0
LINE
  5
D23
330
1F
100
AcDbEntity
  8
実線
 62
     8
 48
2.0
100
AcDbLine
 10
145.9793337605331
 20
207.757992582533
 30
0.0
 11
145.9793337605331
 21
204.4025443153405
 31
0.0
  0
LINE
  5
D24
330
1F
100
AcDbEntity
  8
実線
 62
     8
 48
2.0
100
AcDbLine
 10
145.9793337605331
 20
213.1729925825339
 30
0.0
 11
145.9793337605331
 21
209.8175443153414
 31
0.0
  0
LINE
  5
D25
330
1F
100
AcDbEntity
  8
実線
 62
     8
 48
0.5
100
AcDbLine
 10
147.7463337605329
 20
210.6402684489322
 30
0.0
 11
145.9793337605331
 21
209.8175443153414
 31
0.0
  0
LINE
  5
D26
330
1F
100
AcDbEntity
  8
実線
 62
     8
 48
2.0
100
AcDbLine
 10
145.9793337605331
 20
215.2325443153359
 30
0.0
 11
145.9793337605331
 21
218.587992582533
 31
0.0
  0
LINE
  5
D27
330
1F
100
AcDbEntity
  8
実線
 62
     8
 48
0.5
100
AcDbLine
 10
147.7463337605329
 20
216.0552684489321
 30
0.0
 11
145.9793337605331
 21
215.2325443153359
 31
0.0
  0
LINE
  5
D28
330
1F
100
AcDbEntity
  8
実線
 62
     8
 48
2.0
100
AcDbLine
 10
145.9793337605331
 20
220.6475443153368
 30
0.0
 11
145.9793337605331
 21
224.0029925825338
 31
0.0
  0
LINE
  5
D29
330
1F
100
AcDbEntity
  8
実線
 62
     8
 48
0.5
100
AcDbLine
 10
147.7463337605329
 20
221.4702684489321
 30
0.0
 11
145.9793337605331
 21
220.6475443153368
 31
0.0
  0
LINE
  5
D2A
330
1F
100
AcDbEntity
  8
寸法線
 62
     8
100
AcDbLine
 10
147.7463337605329
 20
195.2287331983926
 30
0.0
 11
129.8184686066631
 21
209.2252977536655
 31
0.0
  0
LINE
  5
D2B
330
1F
100
AcDbEntity
  8
実線
 62
     8
100
AcDbLine
 10
149.4563337605393
 20
192.8277684489322
 30
0.0
 11
149.4563337605393
 21
221.327768448934
 31
0.0
  0
LINE
  5
D2C
330
1F
100
AcDbEntity
  8
実線
 62
     8
100
AcDbLine
 10
147.7463337605329
 20
205.2252684489322
 30
0.0
 11
147.7463337605329
 21
192.827768448934
 31
0.0
  0
LINE
  5
D2D
330
1F
100
AcDbEntity
  8
実線
 62
     8
100
AcDbLine
 10
163.1973398929146
 20
182.0638608422178
 30
0.0
 11
163.1973398929146
 21
210.5638608422196
 31
0.0
  0
LINE
  5
D2E
330
1F
100
AcDbEntity
  8
実線
 62
     8
100
AcDbLine
 10
149.4563337605393
 20
192.8277684489322
 30
0.0
 11
147.7463337605329
 21
192.8277684489322
 31
0.0
  0
LINE
  5
D2F
330
1F
100
AcDbEntity
  8
実線
 62
     8
100
AcDbLine
 10
163.1973398929146
 20
182.0638608422178
 30
0.0
 11
161.4873398929155
 21
182.0638608422178
 31
0.0
  0
LINE
  5
D30
330
1F
100
AcDbEntity
  8
寸法線
 62
     8
100
AcDbLine
 10
149.4563337605393
 20
192.8277684489322
 30
0.0
 11
163.1973398929146
 21
182.0638608422178
 31
0.0
  0
LINE
  5
D31
330
1F
100
AcDbEntity
  8
寸法線
 62
     8
100
AcDbLine
 10
147.7463337605329
 20
192.8277684489322
 30
0.0
 11
161.4873398929155
 21
182.0638608422178
 31
0.0
  0
LINE
  5
D32
330
1F
100
AcDbEntity
  8
実線
 62
     8
100
AcDbLine
 10
152.3063337605378
 20
224.1777684489344
 30
0.0
 11
177.9563337605393
 21
224.1777684489344
 31
0.0
  0
LINE
  5
D33
330
1F
100
AcDbEntity
  8
姿図
 62
     8
 48
2.0
100
AcDbLine
 10
151.9243297697573
 20
224.1777633262173
 30
0.0
 11
173.0146832398129
 21
224.1777633262173
 31
0.0
  0
LINE
  5
D34
330
1F
100
AcDbEntity
  8
実線
 62
     8
100
AcDbLine
 10
166.6988337605396
 20
225.8877684489344
 30
0.0
 11
177.9563337605393
 21
225.8877684489344
 31
0.0
  0
LINE
  5
D35
330
1F
100
AcDbEntity
  8
実線
 62
     8
100
AcDbLine
 10
166.0473398929132
 20
213.4138608422191
 30
0.0
 11
191.6973398929146
 21
213.4138608422191
 31
0.0
  0
LINE
  5
D36
330
1F
100
AcDbEntity
  8
姿図
 62
     8
 48
2.0
100
AcDbLine
 10
165.6653359021327
 20
213.413855719502
 30
0.0
 11
186.7556893721955
 21
213.413855719502
 31
0.0
  0
LINE
  5
D37
330
1F
100
AcDbEntity
  8
実線
 62
     8
100
AcDbLine
 10
161.2838337605387
 20
225.8877684489326
 30
0.0
 11
164.9888337605404
 21
225.8877684489344
 31
0.0
  0
LINE
  5
D38
330
1F
100
AcDbEntity
  8
実線
 62
     8
 48
2.0
100
AcDbLine
 10
156.6915578941295
 20
227.6547684489333
 30
0.0
 11
153.3361096269397
 21
227.6547684489333
 31
0.0
  0
LINE
  5
D39
330
1F
100
AcDbEntity
  8
実線
 62
     8
 48
2.0
100
AcDbLine
 10
151.2765578941286
 20
227.6547684489333
 30
0.0
 11
147.9211096269461
 21
227.6547684489333
 31
0.0
  0
LINE
  5
D3A
330
1F
100
AcDbEntity
  8
実線
 62
     8
100
AcDbLine
 10
150.453833760537
 20
225.8877684489344
 30
0.0
 11
154.1588337605387
 21
225.8877684489344
 31
0.0
  0
LINE
  5
D3B
330
1F
100
AcDbEntity
  8
実線
 62
     8
 48
0.5
100
AcDbLine
 10
150.453833760537
 20
225.8877684489344
 30
0.0
 11
151.2765578941286
 21
227.6547684489333
 31
0.0
  0
LINE
  5
D3C
330
1F
100
AcDbEntity
  8
実線
 62
     8
 48
0.5
100
AcDbLine
 10
154.1588337605387
 20
225.8877684489344
 30
0.0
 11
153.3361096269397
 21
227.6547684489333
 31
0.0
  0
LINE
  5
D3D
330
1F
100
AcDbEntity
  8
実線
 62
     8
 48
2.0
100
AcDbLine
 10
158.7511096269406
 20
227.6547684489333
 30
0.0
 11
162.1065578941304
 21
227.6547684489333
 31
0.0
  0
LINE
  5
D3E
330
1F
100
AcDbEntity
  8
実線
 62
     8
100
AcDbLine
 10
155.8688337605378
 20
225.8877684489344
 30
0.0
 11
159.5738337605396
 21
225.8877684489344
 31
0.0
  0
LINE
  5
D3F
330
1F
100
AcDbEntity
  8
実線
 62
     8
 48
0.5
100
AcDbLine
 10
159.5738337605396
 20
225.8877684489344
 30
0.0
 11
158.7511096269406
 21
227.6547684489333
 31
0.0
  0
LINE
  5
D40
330
1F
100
AcDbEntity
  8
実線
 62
     8
 48
0.5
100
AcDbLine
 10
155.8688337605378
 20
225.8877684489344
 30
0.0
 11
156.6915578941295
 21
227.6547684489333
 31
0.0
  0
LINE
  5
D41
330
1F
100
AcDbEntity
  8
実線
 62
     8
 48
0.5
100
AcDbLine
 10
161.2838337605387
 20
225.8877684489344
 30
0.0
 11
162.1065578941304
 21
227.6547684489333
 31
0.0
  0
LINE
  5
D42
330
1F
100
AcDbEntity
  8
実線
 62
     8
 48
2.0
100
AcDbLine
 10
164.1661096269415
 20
227.6547684489333
 30
0.0
 11
167.5215578941313
 21
227.6547684489333
 31
0.0
  0
LINE
  5
D43
330
1F
100
AcDbEntity
  8
実線
 62
     8
 48
0.5
100
AcDbLine
 10
164.9888337605404
 20
225.8877684489344
 30
0.0
 11
164.1661096269415
 21
227.6547684489333
 31
0.0
  0
LINE
  5
D44
330
1F
100
AcDbEntity
  8
実線
 62
     8
 48
0.5
100
AcDbLine
 10
166.6988337605396
 20
225.8877684489344
 30
0.0
 11
167.5215578941313
 21
227.6547684489333
 31
0.0
  0
LINE
  5
D45
330
1F
100
AcDbEntity
  8
実線
 62
     8
 48
0.5
100
AcDbLine
 10
148.7438337605378
 20
225.8877684489344
 30
0.0
 11
147.9211096269461
 21
227.6547684489333
 31
0.0
  0
LINE
  5
D46
330
1F
100
AcDbEntity
  8
実線
 62
     8
100
AcDbLine
 10
147.7463337605329
 20
225.8877684489344
 30
0.0
 11
148.7438337605378
 21
225.8877684489344
 31
0.0
  0
LINE
  5
D47
330
1F
100
AcDbEntity
  8
実線
 62
     8
100
AcDbLine
 10
147.7463337605329
 20
225.8877684489344
 30
0.0
 11
147.7463337605329
 21
223.1802684489321
 31
0.0
  0
ARC
  5
D48
330
1F
100
AcDbEntity
  8
実線
 62
     8
100
AcDbCircle
 10
152.3063337605378
 20
221.327768448934
 30
0.0
 40
2.85
100
AcDbArc
 50
90.0
 51
180.0
  0
LINE
  5
D49
330
1F
100
AcDbEntity
  8
実線
 62
     8
 48
0.5
100
AcDbLine
 10
147.7463337605329
 20
223.1802684489321
 30
0.0
 11
145.9793337605331
 21
224.0029925825338
 31
0.0
  0
LINE
  5
D4A
330
1F
100
AcDbEntity
  8
実線
 62
     8
100
AcDbLine
 10
147.7463337605329
 20
221.4702684489321
 30
0.0
 11
147.7463337605329
 21
217.7652684489322
 31
0.0
  0
LINE
  5
D4B
330
1F
100
AcDbEntity
  8
実線
 62
     8
 48
0.5
100
AcDbLine
 10
147.7463337605329
 20
217.7652684489322
 30
0.0
 11
145.9793337605331
 21
218.587992582533
 31
0.0
  0
LINE
  5
D4C
330
1F
100
AcDbEntity
  8
実線
 62
     8
100
AcDbLine
 10
147.7463337605329
 20
216.0552684489321
 30
0.0
 11
147.7463337605329
 21
212.3502684489322
 31
0.0
  0
LINE
  5
D4D
330
1F
100
AcDbEntity
  8
実線
 62
     8
 48
0.5
100
AcDbLine
 10
147.7463337605329
 20
212.3502684489322
 30
0.0
 11
145.9793337605331
 21
213.1729925825339
 31
0.0
  0
LINE
  5
D4E
330
1F
100
AcDbEntity
  8
実線
 62
     8
100
AcDbLine
 10
147.7463337605329
 20
210.6402684489322
 30
0.0
 11
147.7463337605329
 21
206.9352684489322
 31
0.0
  0
LINE
  5
D4F
330
1F
100
AcDbEntity
  8
実線
 62
     8
 48
0.5
100
AcDbLine
 10
147.7463337605329
 20
206.9352684489322
 30
0.0
 11
146.5915658892733
 21
207.4729342080673
 31
0.0
  0
ARC
  5
D50
330
1F
100
AcDbEntity
  8
実線
 62
     8
100
AcDbCircle
 10
166.0473398929132
 20
210.5638608422196
 30
0.0
 40
2.85
100
AcDbArc
 50
90.0
 51
180.0
  0
LINE
  5
D51
330
1F
100
AcDbEntity
  8
寸法線
 62
     8
100
AcDbLine
 10
162.1065578941304
 20
227.6547684489333
 30
0.0
 11
164.3622775382425
 21
225.8877684489335
 31
0.0
  0
LINE
  5
D52
330
1F
100
AcDbEntity
  8
寸法線
 62
     8
100
AcDbLine
 10
156.6915578941295
 20
227.6547684489333
 30
0.0
 11
158.9472775382416
 21
225.8877684489344
 31
0.0
  0
LINE
  5
D53
330
1F
100
AcDbEntity
  8
寸法線
 62
     8
100
AcDbLine
 10
151.2765578941286
 20
227.6547684489333
 30
0.0
 11
153.532277538248
 21
225.8877684489344
 31
0.0
  0
LINE
  5
D54
330
1F
100
AcDbEntity
  8
寸法線
 62
     8
100
AcDbLine
 10
151.9201771522309
 20
222.7364577490462
 30
0.0
 11
163.0525265916182
 21
213.8366604501507
 31
0.0
  0
LINE
  5
D55
330
1F
100
AcDbEntity
  8
寸法線
 62
     8
100
AcDbLine
 10
167.5215578941313
 20
227.6547684489333
 30
0.0
 11
169.7772775382434
 21
225.8877684489344
 31
0.0
  0
LINE
  5
D56
330
1F
100
AcDbEntity
  8
実線
 62
     8
100
AcDbLine
 10
191.6973398929146
 20
213.4138608422191
 30
0.0
 11
191.6973398929146
 21
215.1238608422191
 31
0.0
  0
LINE
  5
D57
330
1F
100
AcDbEntity
  8
実線
 62
     8
100
AcDbLine
 10
177.9563337605393
 20
224.1777684489344
 30
0.0
 11
177.9563337605393
 21
225.8877684489344
 31
0.0
  0
LINE
  5
D58
330
1F
100
AcDbEntity
  8
寸法線
 62
     8
100
AcDbLine
 10
177.9563337605393
 20
225.8877684489344
 30
0.0
 11
191.6973398929146
 21
215.1238608422191
 31
0.0
  0
LINE
  5
D59
330
1F
100
AcDbEntity
  8
寸法線
 62
     8
100
AcDbLine
 10
177.9563337605393
 20
224.1777684489344
 30
0.0
 11
191.6973398929146
 21
213.4138608422191
 31
0.0
  0
LINE
  5
D5A
330
1F
100
AcDbEntity
  8
寸法線
 62
     8
100
AcDbLine
 10
160.9951930583154
 20
146.8068752299332
 30
0.0
 11
160.9951930583154
 21
137.6658420460999
 31
0.0
  0
LINE
  5
D5B
330
1F
100
AcDbEntity
  8
寸法線
 62
     8
100
AcDbLine
 10
87.26760833706402
 20
126.0519685823674
 30
0.0
 11
160.9951930583154
 21
137.665842046099
 31
0.0
  0
LINE
  5
D5C
330
1F
100
AcDbEntity
  8
実線
 62
     8
100
AcDbLine
 10
212.4813407610451
 20
143.8537275456702
 30
0.0
 11
212.4813407610451
 21
172.353727545672
 31
0.0
  0
LINE
  5
D5D
330
1F
100
AcDbEntity
  8
寸法線
 62
     8
100
AcDbLine
 10
197.0303346286634
 20
154.6176351523855
 30
0.0
 11
210.7713407610387
 21
143.8537275456702
 31
0.0
  0
LINE
  5
D5E
330
1F
100
AcDbEntity
  8
寸法線
 62
     8
100
AcDbLine
 10
198.7403346286625
 20
154.6176351523855
 30
0.0
 11
212.4813407610451
 21
143.8537275456702
 31
0.0
  0
LINE
  5
D5F
330
1F
100
AcDbEntity
  8
実線
 62
     8
100
AcDbLine
 10
212.4813407610451
 20
143.8537275456702
 30
0.0
 11
210.7713407610387
 21
143.8537275456702
 31
0.0
  0
LINE
  5
D60
330
1F
100
AcDbEntity
  8
寸法線
 62
     8
100
AcDbLine
 10
200.5605587622518
 20
189.4446351523866
 30
0.0
 11
202.8162784063712
 21
187.6776351523868
 31
0.0
  0
LINE
  5
D61
330
1F
100
AcDbEntity
  8
実線
 62
     8
100
AcDbLine
 10
199.7378346286602
 20
187.6776351523868
 30
0.0
 11
203.4428346286619
 21
187.6776351523868
 31
0.0
  0
LINE
  5
D62
330
1F
100
AcDbEntity
  8
実線
 62
     8
100
AcDbLine
 10
197.0303346286634
 20
187.6776351523868
 30
0.0
 11
198.027834628661
 21
187.6776351523868
 31
0.0
  0
LINE
  5
D63
330
1F
100
AcDbEntity
  8
実線
 62
     8
 48
0.5
100
AcDbLine
 10
198.027834628661
 20
187.6776351523868
 30
0.0
 11
197.2051104950693
 21
189.4446351523866
 31
0.0
  0
LINE
  5
D64
330
1F
100
AcDbEntity
  8
実線
 62
     8
 48
0.5
100
AcDbLine
 10
199.7378346286602
 20
187.6776351523868
 30
0.0
 11
200.5605587622518
 21
189.4446351523866
 31
0.0
  0
LINE
  5
D65
330
1F
100
AcDbEntity
  8
実線
 62
     8
 48
2.0
100
AcDbLine
 10
200.5605587622518
 20
189.4446351523866
 30
0.0
 11
197.2051104950693
 21
189.4446351523866
 31
0.0
  0
LINE
  5
D66
330
1F
100
AcDbEntity
  8
寸法線
 62
     8
100
AcDbLine
 10
205.9755587622527
 20
189.4446351523866
 30
0.0
 11
208.2312784063721
 21
187.6776351523868
 31
0.0
  0
LINE
  5
D67
330
1F
100
AcDbEntity
  8
実線
 62
     8
 48
0.5
100
AcDbLine
 10
210.5678346286619
 20
187.6776351523868
 30
0.0
 11
211.3905587622536
 21
189.4446351523866
 31
0.0
  0
LINE
  5
D68
330
1F
100
AcDbEntity
  8
実線
 62
     8
 48
0.5
100
AcDbLine
 10
208.8578346286628
 20
187.6776351523868
 30
0.0
 11
208.0351104950711
 21
189.4446351523866
 31
0.0
  0
LINE
  5
D69
330
1F
100
AcDbEntity
  8
実線
 62
     8
 48
2.0
100
AcDbLine
 10
208.0351104950711
 20
189.4446351523866
 30
0.0
 11
211.3905587622536
 21
189.4446351523866
 31
0.0
  0
LINE
  5
D6A
330
1F
100
AcDbEntity
  8
実線
 62
     8
 48
0.5
100
AcDbLine
 10
203.4428346286619
 20
187.6776351523868
 30
0.0
 11
202.6201104950702
 21
189.4446351523866
 31
0.0
  0
LINE
  5
D6B
330
1F
100
AcDbEntity
  8
実線
 62
     8
 48
0.5
100
AcDbLine
 10
205.152834628661
 20
187.6776351523868
 30
0.0
 11
205.9755587622527
 21
189.4446351523866
 31
0.0
  0
LINE
  5
D6C
330
1F
100
AcDbEntity
  8
実線
 62
     8
100
AcDbLine
 10
205.152834628661
 20
187.6776351523868
 30
0.0
 11
208.8578346286628
 21
187.6776351523868
 31
0.0
  0
LINE
  5
D6D
330
1F
100
AcDbEntity
  8
実線
 62
     8
 48
2.0
100
AcDbLine
 10
205.9755587622527
 20
189.4446351523866
 30
0.0
 11
202.6201104950702
 21
189.4446351523866
 31
0.0
  0
LINE
  5
D6E
330
1F
100
AcDbEntity
  8
実線
 62
     8
100
AcDbLine
 10
198.7403346286625
 20
154.6176351523855
 30
0.0
 11
198.7403346286625
 21
183.1176351523873
 31
0.0
  0
LINE
  5
D6F
330
1F
100
AcDbEntity
  8
寸法線
 62
     8
100
AcDbLine
 10
200.278745866675
 20
183.586913109114
 30
0.0
 11
212.187918805215
 21
174.6611436083404
 31
0.0
  0
LINE
  5
D70
330
1F
100
AcDbEntity
  8
実線
 62
     8
100
AcDbLine
 10
197.0303346286634
 20
167.0151351523855
 30
0.0
 11
197.0303346286634
 21
154.6176351523873
 31
0.0
  0
LINE
  5
D71
330
1F
100
AcDbEntity
  8
実線
 62
     8
100
AcDbLine
 10
198.7403346286625
 20
154.6176351523855
 30
0.0
 11
197.0303346286634
 21
154.6176351523855
 31
0.0
  0
LINE
  5
D72
330
1F
100
AcDbEntity
  8
実線
 62
     8
 48
0.5
100
AcDbLine
 10
197.0303346286634
 20
172.4301351523855
 30
0.0
 11
195.2633346286563
 21
171.6074110187974
 31
0.0
  0
LINE
  5
D73
330
1F
100
AcDbEntity
  8
実線
 62
     8
 48
2.0
100
AcDbLine
 10
195.2633346286563
 20
174.9628592859872
 30
0.0
 11
195.2633346286563
 21
171.6074110187974
 31
0.0
  0
LINE
  5
D74
330
1F
100
AcDbEntity
  8
実線
 62
     8
 48
0.5
100
AcDbLine
 10
197.0303346286634
 20
177.8451351523845
 30
0.0
 11
195.2633346286563
 21
177.0224110187947
 31
0.0
  0
LINE
  5
D75
330
1F
100
AcDbEntity
  8
実線
 62
     8
100
AcDbLine
 10
197.0303346286634
 20
172.4301351523855
 30
0.0
 11
197.0303346286634
 21
168.7251351523855
 31
0.0
  0
LINE
  5
D76
330
1F
100
AcDbEntity
  8
実線
 62
     8
 48
0.5
100
AcDbLine
 10
197.0303346286634
 20
174.1401351523855
 30
0.0
 11
195.2633346286563
 21
174.9628592859872
 31
0.0
  0
LINE
  5
D77
330
1F
100
AcDbEntity
  8
実線
 62
     8
100
AcDbLine
 10
197.0303346286634
 20
177.8451351523845
 30
0.0
 11
197.0303346286634
 21
174.1401351523855
 31
0.0
  0
LINE
  5
D78
330
1F
100
AcDbEntity
  8
実線
 62
     8
 48
2.0
100
AcDbLine
 10
195.2633346286563
 20
177.0224110187947
 30
0.0
 11
195.2633346286563
 21
180.3778592859872
 31
0.0
  0
LINE
  5
D79
330
1F
100
AcDbEntity
  8
実線
 62
     8
 48
0.5
100
AcDbLine
 10
197.0303346286634
 20
183.2601351523854
 30
0.0
 11
195.2633346286563
 21
182.4374110187928
 31
0.0
  0
LINE
  5
D7A
330
1F
100
AcDbEntity
  8
実線
 62
     8
 48
0.5
100
AcDbLine
 10
197.0303346286634
 20
179.5551351523855
 30
0.0
 11
195.2633346286563
 21
180.3778592859872
 31
0.0
  0
LINE
  5
D7B
330
1F
100
AcDbEntity
  8
実線
 62
     8
100
AcDbLine
 10
197.0303346286634
 20
183.2601351523854
 30
0.0
 11
197.0303346286634
 21
179.5551351523855
 31
0.0
  0
ARC
  5
D7C
330
1F
100
AcDbEntity
  8
実線
 62
     8
100
AcDbCircle
 10
201.590334628661
 20
183.1176351523873
 30
0.0
 40
2.85
100
AcDbArc
 50
90.0
 51
180.0
  0
LINE
  5
D7D
330
1F
100
AcDbEntity
  8
実線
 62
     8
 48
2.0
100
AcDbLine
 10
195.2633346286563
 20
182.4374110187928
 30
0.0
 11
195.2633346286563
 21
185.7928592859871
 31
0.0
  0
LINE
  5
D7E
330
1F
100
AcDbEntity
  8
実線
 62
     8
 48
0.5
100
AcDbLine
 10
197.0303346286634
 20
184.9701351523845
 30
0.0
 11
195.2633346286563
 21
185.7928592859871
 31
0.0
  0
LINE
  5
D7F
330
1F
100
AcDbEntity
  8
実線
 62
     8
100
AcDbLine
 10
197.0303346286634
 20
187.6776351523868
 30
0.0
 11
197.0303346286634
 21
184.9701351523845
 31
0.0
  0
LINE
  5
D80
330
1F
100
AcDbEntity
  8
寸法線
 62
     8
100
AcDbLine
 10
114.7415432240702
 20
180.6614073562978
 30
0.0
 11
114.7415432240702
 21
171.5203741724627
 31
0.0
  0
LINE
  5
D81
330
1F
100
AcDbEntity
  8
寸法線
 62
     8
100
AcDbLine
 10
114.7415432240702
 20
180.6614073562978
 30
0.0
 11
114.7415432240702
 21
171.5203741724627
 31
0.0
  0
LINE
  5
D82
330
1F
100
AcDbEntity
  8
寸法線
 62
     8
100
AcDbLine
 10
35.43542122286061
 20
166.5721832628206
 30
0.0
 11
35.43542122286061
 21
157.4311500789845
 31
0.0
  0
LINE
  5
D83
330
1F
100
AcDbEntity
  8
寸法線
 62
     8
100
AcDbLine
 10
35.43542122286061
 20
166.5721832628206
 30
0.0
 11
35.43542122286061
 21
157.4311500789845
 31
0.0
  0
LINE
  5
D84
330
1F
100
AcDbEntity
  8
寸法線
 62
     8
100
AcDbLine
 10
114.7415432240702
 20
171.5203741724627
 30
0.0
 11
35.43542122286061
 21
157.4311500789845
 31
0.0
  0
LINE
  5
D85
330
1F
100
AcDbEntity
  8
寸法線
 62
     8
100
AcDbLine
 10
114.7415432240702
 20
180.6614073562978
 30
0.0
 11
35.43542122286061
 21
166.5721832628206
 31
0.0
  0
LINE
  5
D86
330
1F
100
AcDbEntity
  8
寸法線
 62
     8
100
AcDbLine
 10
35.43542122286061
 20
157.4311500789845
 30
0.0
 11
87.26760833706402
 21
126.0519685823674
 31
0.0
  0
LINE
  5
D87
330
1F
100
AcDbEntity
  8
寸法線
 62
     8
100
AcDbLine
 10
160.9951930583154
 20
137.6658420460999
 30
0.0
 11
114.7415432240702
 21
171.5203741724627
 31
0.0
  0
LINE
  5
D88
330
1F
100
AcDbEntity
  8
寸法線
 62
     8
100
AcDbLine
 10
160.9951930583154
 20
146.8068752299323
 30
0.0
 11
114.7415432240702
 21
180.6614073562978
 31
0.0
  0
ELLIPSE
  5
D89
330
1F
100
AcDbEntity
  8
寸法線
 62
     8
100
AcDbEllipse
 10
98.37355222960076
 20
147.6663832990962
 30
0.0
 11
-24.34859862675003
 21
-0.3079202513064958
 31
0.0
210
0.0
220
0.0
230
1.0
 40
0.3792278995966104
 41
0.0
 42
6.283185307179586
  0
ELLIPSE
  5
D8A
330
1F
100
AcDbEntity
  8
寸法線
 62
     8
100
AcDbEllipse
 10
96.19782162076052
 20
151.5790496441141
 30
0.0
 11
-24.34859862675003
 21
-0.3079202513064959
 31
0.0
210
0.0
220
0.0
230
1.0
 40
0.3792278995966104
 41
0.4213615905304035
 42
3.123944321263648
  0
ELLIPSE
  5
D8B
330
1F
100
AcDbEntity
  8
寸法線
 62
     8
100
AcDbEllipse
 10
96.43029841252763
 20
150.4177278233992
 30
0.0
 11
-24.34859862675003
 21
-0.3079202513064959
 31
0.0
210
0.0
220
0.0
230
1.0
 40
0.3792278995966104
 41
0.4213615905304035
 42
3.123944321263648
  0
ELLIPSE
  5
D8C
330
1F
100
AcDbEntity
  8
寸法線
 62
     8
100
AcDbEllipse
 10
97.825218635309
 20
148.327348546105
 30
0.0
 11
-24.34859862675003
 21
-0.307920251306496
 31
0.0
210
0.0
220
0.0
230
1.0
 40
0.3792278995966104
 41
0.4213615905304035
 42
3.123944321263648
  0
ELLIPSE
  5
D8D
330
1F
100
AcDbEntity
  8
寸法線
 62
     8
100
AcDbEllipse
 10
97.59274184354189
 20
149.4886703668199
 30
0.0
 11
-24.34859862675003
 21
-0.3079202513064959
 31
0.0
210
0.0
220
0.0
230
1.0
 40
0.3792278995966104
 41
0.4213615905304035
 42
3.123944321263648
  0
LINE
  5
D8E
330
1F
100
AcDbEntity
  8
寸法線
 62
     8
100
AcDbLine
 10
-25.99832082769382
 20
181.5434793962695
 30
0.0
 11
-25.99832082769382
 21
301.0096567629212
 31
0.0
  0
LINE
  5
D8F
330
1F
100
AcDbEntity
  8
寸法線
 62
     8
100
AcDbLine
 10
-27.03123343873841
 20
174.0190327003784
 30
0.0
 11
-27.03123343873841
 21
181.3599760691787
 31
0.0
  0
ELLIPSE
  5
D90
330
1F
100
AcDbEntity
  8
寸法線
 62
     8
100
AcDbEllipse
 10
-7.598147234199416
 20
281.1955530719365
 30
0.0
 11
0.06951109598740005
 21
2.152782340078775
 31
0.0
210
0.0
220
0.0
230
1.0
 40
0.4932152022865365
 41
0.0
 42
6.283185307179586
  0
LINE
  5
D91
330
1F
100
AcDbEntity
  8
寸法線
 62
     8
100
AcDbLine
 10
-2.313521052641875
 20
266.5133781785912
 30
0.0
 11
-2.313521052641875
 21
298.2926826468433
 31
0.0
  0
LINE
  5
D92
330
1F
100
AcDbEntity
  8
寸法線
 62
     8
100
AcDbLine
 10
129.0352198608195
 20
328.552326126231
 30
0.0
 11
-25.99832082769382
 21
301.0096567629212
 31
0.0
  0
LINE
  5
D93
330
1F
100
AcDbEntity
  8
寸法線
 62
     8
100
AcDbLine
 10
129.8184686066631
 20
209.2252977536655
 30
0.0
 11
-27.03123343873841
 21
181.3599760691787
 31
0.0
  0
LINE
  5
D94
330
1F
100
AcDbEntity
  8
寸法線
 62
     8
100
AcDbLine
 10
129.8184686066704
 20
201.8843543848662
 30
0.0
 11
-27.03123343873841
 21
174.0190327003784
 31
0.0
  0
LINE
  5
D95
330
1F
100
AcDbEntity
  8
寸法線
 62
     8
100
AcDbLine
 10
99.95498404008293
 20
316.4613164117677
 30
0.0
 11
-2.313521052641875
 21
298.2926826468433
 31
0.0
  0
LINE
  5
D96
330
1F
100
AcDbEntity
  8
寸法線
 62
     8
100
AcDbLine
 10
99.95498404008293
 20
284.6820119435147
 30
0.0
 11
-2.313521052641875
 21
266.5133781785912
 31
0.0
  0
LINE
  5
D97
330
1F
100
AcDbEntity
  8
寸法線
 62
     8
100
AcDbLine
 10
99.95498404008293
 20
307.3369792541221
 30
0.0
 11
-2.313521052641875
 21
289.1683454891977
 31
0.0
  0
LINE
  5
D98
330
1F
100
AcDbEntity
  8
寸法線
 62
     8
100
AcDbLine
 10
-27.03123343873841
 20
174.0190327003784
 30
0.0
 11
86.32973286747045
 21
108.3575235495
 31
0.0
  0
LINE
  5
D99
330
1F
100
AcDbEntity
  8
寸法線
 62
     8
100
AcDbLine
 10
86.32973286747045
 20
108.3575235495
 30
0.0
 11
221.3747825125134
 21
130.3651435829325
 31
0.0
  0
LINE
  5
D9A
330
1F
100
AcDbEntity
  8
寸法線
 62
     8
100
AcDbLine
 10
129.0352198608195
 20
328.552326126231
 30
0.0
 11
220.6088504988326
 21
250.7222199119338
 31
0.0
  0
LINE
  5
D9B
330
1F
100
AcDbEntity
  8
寸法線
 62
     8
100
AcDbLine
 10
211.3905587622536
 20
189.4446351523866
 30
0.0
 11
213.646278406373
 21
187.6776351523868
 31
0.0
  0
LINE
  5
D9C
330
1F
100
AcDbEntity
  8
実線
 62
     8
100
AcDbLine
 10
210.5678346286619
 20
187.677635152385
 30
0.0
 11
214.2728346286636
 21
187.6776351523868
 31
0.0
  0
LINE
  5
D9D
330
1F
100
AcDbEntity
  8
姿図
 62
     8
 48
2.0
100
AcDbLine
 10
201.2083306378805
 20
185.9676300296706
 30
0.0
 11
222.2986841079434
 21
185.9676300296706
 31
0.0
  0
LINE
  5
D9E
330
1F
100
AcDbEntity
  8
実線
 62
     8
100
AcDbLine
 10
201.590334628661
 20
185.9676351523877
 30
0.0
 11
227.2403346286625
 21
185.9676351523877
 31
0.0
  0
ARC
  5
D9F
330
1F
100
AcDbEntity
  8
実線
 62
     8
100
AcDbCircle
 10
215.3313407610436
 20
172.353727545672
 30
0.0
 40
2.85
100
AcDbArc
 50
90.0
 51
180.0
  0
LINE
  5
DA0
330
1F
100
AcDbEntity
  8
寸法線
 62
     8
100
AcDbLine
 10
129.8184686066704
 20
201.8843543848662
 30
0.0
 11
221.3747825125134
 21
130.4702981503561
 31
0.0
  0
LINE
  5
DA1
330
1F
100
AcDbEntity
  8
寸法線
 62
     8
100
AcDbLine
 10
163.1973398929146
 20
183.2858826362754
 30
0.0
 11
197.0303346286634
 21
156.9935587410564
 31
0.0
  0
ENDSEC
  0
SECTION
  2
OBJECTS
  0
DICTIONARY
  5
C
330
0
100
AcDbDictionary
281
     1
  3
ACAD_DETAILVIEWSTYLE
350
639
  3
ACAD_GROUP
350
D
  3
ACAD_IMAGE_VARS
350
633
  3
ACAD_LAYOUT
350
1A
  3
ACAD_MLINESTYLE
350
17
  3
ACAD_PLOTSETTINGS
350
19
  3
ACAD_PLOTSTYLENAME
350
E
  3
ACAD_SCALELIST
350
47
  3
ACAD_SECTIONVIEWSTYLE
350
63A
  3
AcDbVariableDictionary
350
634
  3
APPDATA
350
631
  3
DWGPROPS
350
DA2
  0
DICTIONARY
  5
66F
330
2
100
AcDbDictionary
280
     1
281
     1
  3
ACAD_LAYERSTATES
360
670
  0
DICTIONARY
  5
639
102
{ACAD_REACTORS
330
C
102
}
330
C
100
AcDbDictionary
281
     1
  0
DICTIONARY
  5
D
102
{ACAD_REACTORS
330
C
102
}
330
C
100
AcDbDictionary
281
     1
  0
RASTERVARIABLES
  5
633
102
{ACAD_REACTORS
330
C
102
}
330
C
100
AcDbRasterVariables
 90
        0
 70
     1
 71
     1
 72
     1
  0
DICTIONARY
  5
1A
102
{ACAD_REACTORS
330
C
102
}
330
C
100
AcDbDictionary
281
     1
  3
Layout1
350
1E
  3
Layout2
350
26
  3
Model
350
22
  0
DICTIONARY
  5
17
102
{ACAD_REACTORS
330
C
102
}
330
C
100
AcDbDictionary
281
     1
  3
Standard
350
18
  0
DICTIONARY
  5
19
102
{ACAD_REACTORS
330
C
102
}
330
C
100
AcDbDictionary
281
     1
  0
ACDBDICTIONARYWDFLT
  5
E
102
{ACAD_REACTORS
330
C
102
}
330
C
100
AcDbDictionary
281
     1
  3
Normal
350
F
100
AcDbDictionaryWithDefault
340
F
  0
DICTIONARY
  5
47
102
{ACAD_REACTORS
330
C
102
}
330
C
100
AcDbDictionary
281
     1
  3
A0
350
48
  3
A1
350
49
  3
A2
350
4A
  3
A3
350
4B
  3
A4
350
4C
  3
A5
350
4D
  3
A6
350
4E
  3
A7
350
4F
  3
A8
350
50
  3
A9
350
51
  3
B0
350
52
  3
B1
350
53
  3
B2
350
54
  3
B3
350
55
  3
B4
350
56
  3
B5
350
57
  3
B6
350
58
  3
B7
350
59
  3
B8
350
5A
  3
B9
350
5B
  3
C0
350
5C
  3
C1
350
5D
  3
C2
350
5E
  3
C3
350
5F
  3
C4
350
60
  3
C5
350
61
  3
C6
350
62
  3
C7
350
63
  3
C8
350
64
  3
C9
350
65
  3
D0
350
66
  3
D1
350
67
  3
D2
350
68
  0
DICTIONARY
  5
63A
102
{ACAD_REACTORS
330
C
102
}
330
C
100
AcDbDictionary
281
     1
  0
DICTIONARY
  5
634
102
{ACAD_REACTORS
330
C
102
}
330
C
100
AcDbDictionary
281
     1
  0
DICTIONARY
  5
631
102
{ACAD_REACTORS
330
C
102
}
330
C
100
AcDbDictionary
281
     1
  0
XRECORD
  5
DA2
102
{ACAD_REACTORS
330
C
102
}
330
C
100
AcDbXrecord
280
     1
  1
DWGPROPS COOKIE
  2

  3

  4

  6

  7

  8
ModuleX
  9

300
=
301
=
302
=
303
=
304
=
305
=
306
=
307
=
308
=
309
=
 40
0.0
 41
2458025.52667044
 42
2458375.4311986
  1

 90
        0
  0
DICTIONARY
  5
670
102
{ACAD_REACTORS
330
66F
102
}
330
66F
100
AcDbDictionary
281
     1
  0
LAYOUT
  5
1E
102
{ACAD_REACTORS
330
1A
102
}
330
1A
100
AcDbPlotSettings
  1

  2
none_device
  4

  6

 40
0.0
 41
0.0
 42
0.0
 43
0.0
 44
0.0
 45
0.0
 46
0.0
 47
0.0
 48
0.0
 49
0.0
140
0.0
141
0.0
142
1.0
143
1.0
 70
   688
 72
     1
 73
     0
 74
     5
  7

 75
    16
147
1.0
148
0.0
149
0.0
100
AcDbLayout
  1
Layout1
 70
     1
 71
     1
 10
0.0
 20
0.0
 11
420.0
 21
297.0
 12
0.0
 22
0.0
 32
0.0
 14
1.000000000000000E+20
 24
1.000000000000000E+20
 34
1.000000000000000E+20
 15
-1.000000000000000E+20
 25
-1.000000000000000E+20
 35
-1.000000000000000E+20
146
0.0
 13
0.0
 23
0.0
 33
0.0
 16
1.0
 26
0.0
 36
0.0
 17
0.0
 27
1.0
 37
0.0
 76
     0
330
1B
  0
LAYOUT
  5
26
102
{ACAD_REACTORS
330
1A
102
}
330
1A
100
AcDbPlotSettings
  1

  2
none_device
  4

  6

 40
0.0
 41
0.0
 42
0.0
 43
0.0
 44
0.0
 45
0.0
 46
0.0
 47
0.0
 48
0.0
 49
0.0
140
0.0
141
0.0
142
1.0
143
1.0
 70
   688
 72
     1
 73
     0
 74
     5
  7

 75
    16
147
1.0
148
0.0
149
0.0
100
AcDbLayout
  1
Layout2
 70
     1
 71
     2
 10
0.0
 20
0.0
 11
0.0
 21
0.0
 12
0.0
 22
0.0
 32
0.0
 14
0.0
 24
0.0
 34
0.0
 15
0.0
 25
0.0
 35
0.0
146
0.0
 13
0.0
 23
0.0
 33
0.0
 16
1.0
 26
0.0
 36
0.0
 17
0.0
 27
1.0
 37
0.0
 76
     0
330
23
  0
LAYOUT
  5
22
102
{ACAD_REACTORS
330
1A
102
}
330
1A
100
AcDbPlotSettings
  1

  2
none_device
  4
Letter_(8.50_x_11.00_Inches)
  6

 40
6.35
 41
6.35
 42
6.35000508
 43
6.35000508
 44
215.9
 45
279.4
 46
0.0
 47
0.0
 48
0.0
 49
0.0
140
0.0
141
0.0
142
1.0
143
1.0
 70
  1712
 72
     1
 73
     0
 74
     0
  7

 75
     0
147
1.0
148
0.0
149
0.0
100
AcDbLayout
  1
Model
 70
     1
 71
     0
 10
0.0
 20
0.0
 11
210.0
 21
297.0
 12
0.0
 22
0.0
 32
0.0
 14
-27.0312334387384
 24
88.62859459459463
 34
0.0
 15
240.9813407610451
 25
328.552326126231
 35
0.0
146
0.0
 13
0.0
 23
0.0
 33
0.0
 16
1.0
 26
0.0
 36
0.0
 17
0.0
 27
1.0
 37
0.0
 76
     0
330
1F
331
29
  0
MLINESTYLE
  5
18
102
{ACAD_REACTORS
330
17
102
}
330
17
100
AcDbMlineStyle
  2
Standard
 70
     0
  3

 62
   256
 51
90.0
 52
90.0
 71
     2
 49
0.5
 62
   256
  6
BYLAYER
 49
-0.5
 62
   256
  6
BYLAYER
  0
ACDBPLACEHOLDER
  5
F
102
{ACAD_REACTORS
330
E
102
}
330
E
  0
SCALE
  5
48
102
{ACAD_REACTORS
330
47
102
}
330
47
100
AcDbScale
 70
     0
300
1:1
140
1.0
141
1.0
290
     1
  0
SCALE
  5
49
102
{ACAD_REACTORS
330
47
102
}
330
47
100
AcDbScale
 70
     0
300
1:2
140
1.0
141
2.0
290
     0
  0
SCALE
  5
4A
102
{ACAD_REACTORS
330
47
102
}
330
47
100
AcDbScale
 70
     0
300
1:4
140
1.0
141
4.0
290
     0
  0
SCALE
  5
4B
102
{ACAD_REACTORS
330
47
102
}
330
47
100
AcDbScale
 70
     0
300
1:5
140
1.0
141
5.0
290
     0
  0
SCALE
  5
4C
102
{ACAD_REACTORS
330
47
102
}
330
47
100
AcDbScale
 70
     0
300
1:8
140
1.0
141
8.0
290
     0
  0
SCALE
  5
4D
102
{ACAD_REACTORS
330
47
102
}
330
47
100
AcDbScale
 70
     0
300
1:10
140
1.0
141
10.0
290
     0
  0
SCALE
  5
4E
102
{ACAD_REACTORS
330
47
102
}
330
47
100
AcDbScale
 70
     0
300
1:16
140
1.0
141
16.0
290
     0
  0
SCALE
  5
4F
102
{ACAD_REACTORS
330
47
102
}
330
47
100
AcDbScale
 70
     0
300
1:20
140
1.0
141
20.0
290
     0
  0
SCALE
  5
50
102
{ACAD_REACTORS
330
47
102
}
330
47
100
AcDbScale
 70
     0
300
1:30
140
1.0
141
30.0
290
     0
  0
SCALE
  5
51
102
{ACAD_REACTORS
330
47
102
}
330
47
100
AcDbScale
 70
     0
300
1:40
140
1.0
141
40.0
290
     0
  0
SCALE
  5
52
102
{ACAD_REACTORS
330
47
102
}
330
47
100
AcDbScale
 70
     0
300
1:50
140
1.0
141
50.0
290
     0
  0
SCALE
  5
53
102
{ACAD_REACTORS
330
47
102
}
330
47
100
AcDbScale
 70
     0
300
1:100
140
1.0
141
100.0
290
     0
  0
SCALE
  5
54
102
{ACAD_REACTORS
330
47
102
}
330
47
100
AcDbScale
 70
     0
300
2:1
140
2.0
141
1.0
290
     0
  0
SCALE
  5
55
102
{ACAD_REACTORS
330
47
102
}
330
47
100
AcDbScale
 70
     0
300
4:1
140
4.0
141
1.0
290
     0
  0
SCALE
  5
56
102
{ACAD_REACTORS
330
47
102
}
330
47
100
AcDbScale
 70
     0
300
8:1
140
8.0
141
1.0
290
     0
  0
SCALE
  5
57
102
{ACAD_REACTORS
330
47
102
}
330
47
100
AcDbScale
 70
     0
300
10:1
140
10.0
141
1.0
290
     0
  0
SCALE
  5
58
102
{ACAD_REACTORS
330
47
102
}
330
47
100
AcDbScale
 70
     0
300
100:1
140
100.0
141
1.0
290
     0
  0
SCALE
  5
59
102
{ACAD_REACTORS
330
47
102
}
330
47
100
AcDbScale
 70
     0
300
1/128" = 1'-0"
140
0.0078125
141
12.0
290
     0
  0
SCALE
  5
5A
102
{ACAD_REACTORS
330
47
102
}
330
47
100
AcDbScale
 70
     0
300
1/64" = 1'-0"
140
0.015625
141
12.0
290
     0
  0
SCALE
  5
5B
102
{ACAD_REACTORS
330
47
102
}
330
47
100
AcDbScale
 70
     0
300
1/32" = 1'-0"
140
0.03125
141
12.0
290
     0
  0
SCALE
  5
5C
102
{ACAD_REACTORS
330
47
102
}
330
47
100
AcDbScale
 70
     0
300
1/16" = 1'-0"
140
0.0625
141
12.0
290
     0
  0
SCALE
  5
5D
102
{ACAD_REACTORS
330
47
102
}
330
47
100
AcDbScale
 70
     0
300
3/32" = 1'-0"
140
0.09375
141
12.0
290
     0
  0
SCALE
  5
5E
102
{ACAD_REACTORS
330
47
102
}
330
47
100
AcDbScale
 70
     0
300
1/8" = 1'-0"
140
0.125
141
12.0
290
     0
  0
SCALE
  5
5F
102
{ACAD_REACTORS
330
47
102
}
330
47
100
AcDbScale
 70
     0
300
3/16" = 1'-0"
140
0.1875
141
12.0
290
     0
  0
SCALE
  5
60
102
{ACAD_REACTORS
330
47
102
}
330
47
100
AcDbScale
 70
     0
300
1/4" = 1'-0"
140
0.25
141
12.0
290
     0
  0
SCALE
  5
61
102
{ACAD_REACTORS
330
47
102
}
330
47
100
AcDbScale
 70
     0
300
3/8" = 1'-0"
140
0.375
141
12.0
290
     0
  0
SCALE
  5
62
102
{ACAD_REACTORS
330
47
102
}
330
47
100
AcDbScale
 70
     0
300
1/2" = 1'-0"
140
0.5
141
12.0
290
     0
  0
SCALE
  5
63
102
{ACAD_REACTORS
330
47
102
}
330
47
100
AcDbScale
 70
     0
300
3/4" = 1'-0"
140
0.75
141
12.0
290
     0
  0
SCALE
  5
64
102
{ACAD_REACTORS
330
47
102
}
330
47
100
AcDbScale
 70
     0
300
1" = 1'-0"
140
1.0
141
12.0
290
     0
  0
SCALE
  5
65
102
{ACAD_REACTORS
330
47
102
}
330
47
100
AcDbScale
 70
     0
300
1-1/2" = 1'-0"
140
1.5
141
12.0
290
     0
  0
SCALE
  5
66
102
{ACAD_REACTORS
330
47
102
}
330
47
100
AcDbScale
 70
     0
300
3" = 1'-0"
140
3.0
141
12.0
290
     0
  0
SCALE
  5
67
102
{ACAD_REACTORS
330
47
102
}
330
47
100
AcDbScale
 70
     0
300
6" = 1'-0"
140
6.0
141
12.0
290
     0
  0
SCALE
  5
68
102
{ACAD_REACTORS
330
47
102
}
330
47
100
AcDbScale
 70
     0
300
1'-0" = 1'-0"
140
12.0
141
12.0
290
     0
  0
ENDSEC
  0
EOF
