  0
SECTION
  2
HEADER
  9
$ACADVER
  1
AC1015
  9
$ACADMAINTVER
 70
     6
  9
$DWGCODEPAGE
  3
ANSI_932
  9
$INSBASE
 10
0.0
 20
0.0
 30
0.0
  9
$EXTMIN
 10
10485.96016687845
 20
-10001.38930693694
 30
0.0
  9
$EXTMAX
 10
10673.16016687845
 20
-9750.222506066068
 30
0.0000000000378232
  9
$LIMMIN
 10
0.0
 20
0.0
  9
$LIMMAX
 10
420.0
 20
297.0
  9
$ORTHOMODE
 70
     0
  9
$REGENMODE
 70
     1
  9
$FILLMODE
 70
     1
  9
$QTEXTMODE
 70
     0
  9
$MIRRTEXT
 70
     1
  9
$LTSCALE
 40
5.0
  9
$ATTMODE
 70
     0
  9
$TEXTSIZE
 40
3.5
  9
$TRACEWID
 40
1.0
  9
$TEXTSTYLE
  7
資料用
  9
$CLAYER
  8
光線
  9
$CELTYPE
  6
BYLAYER
  9
$CECOLOR
 62
   256
  9
$CELTSCALE
 40
1.0
  9
$DISPSILH
 70
     0
  9
$DIMSCALE
 40
1.0
  9
$DIMASZ
 40
3.5
  9
$DIMEXO
 40
1.0
  9
$DIMDLI
 40
3.0
  9
$DIMRND
 40
0.0
  9
$DIMDLE
 40
0.0
  9
$DIMEXE
 40
1.0
  9
$DIMTP
 40
0.0
  9
$DIMTM
 40
0.0
  9
$DIMTXT
 40
2.5
  9
$DIMCEN
 40
0.0
  9
$DIMTSZ
 40
0.0
  9
$DIMTOL
 70
     0
  9
$DIMLIM
 70
     0
  9
$DIMTIH
 70
     0
  9
$DIMTOH
 70
     0
  9
$DIMSE1
 70
     0
  9
$DIMSE2
 70
     0
  9
$DIMTAD
 70
     3
  9
$DIMZIN
 70
     8
  9
$DIMBLK
  1

  9
$DIMASO
 70
     1
  9
$DIMSHO
 70
     0
  9
$DIMPOST
  1

  9
$DIMAPOST
  1

  9
$DIMALT
 70
     0
  9
$DIMALTD
 70
     0
  9
$DIMALTF
 40
25.4
  9
$DIMLFAC
 40
1.0
  9
$DIMTOFL
 70
     0
  9
$DIMTVP
 40
0.0
  9
$DIMTIX
 70
     0
  9
$DIMSOXD
 70
     0
  9
$DIMSAH
 70
     1
  9
$DIMBLK1
  1
OPEN
  9
$DIMBLK2
  1
OPEN
  9
$DIMSTYLE
  2
ｺﾋﾟｰ - STANDARD
  9
$DIMCLRD
 70
     8
  9
$DIMCLRE
 70
     8
  9
$DIMCLRT
 70
   256
  9
$DIMTFAC
 40
1.0
  9
$DIMGAP
 40
1.0
  9
$DIMJUST
 70
     0
  9
$DIMSD1
 70
     0
  9
$DIMSD2
 70
     0
  9
$DIMTOLJ
 70
     1
  9
$DIMTZIN
 70
     0
  9
$DIMALTZ
 70
     0
  9
$DIMALTTZ
 70
     0
  9
$DIMUPT
 70
     0
  9
$DIMDEC
 70
     2
  9
$DIMTDEC
 70
     2
  9
$DIMALTU
 70
     2
  9
$DIMALTTD
 70
     0
  9
$DIMTXSTY
  7
STANDARD
  9
$DIMAUNIT
 70
     0
  9
$DIMADEC
 70
     2
  9
$DIMALTRND
 40
0.0
  9
$DIMAZIN
 70
     2
  9
$DIMDSEP
 70
    46
  9
$DIMATFIT
 70
     3
  9
$DIMFRAC
 70
     0
  9
$DIMLDRBLK
  1
OPEN
  9
$DIMLUNIT
 70
     2
  9
$DIMLWD
 70
    -2
  9
$DIMLWE
 70
    -2
  9
$DIMTMOVE
 70
     0
  9
$LUNITS
 70
     2
  9
$LUPREC
 70
     2
  9
$SKETCHINC
 40
0.1
  9
$FILLETRAD
 40
7.0
  9
$AUNITS
 70
     0
  9
$AUPREC
 70
     1
  9
$MENU
  1
FM
  9
$ELEVATION
 40
0.0
  9
$PELEVATION
 40
0.0
  9
$THICKNESS
 40
0.0
  9
$LIMCHECK
 70
     0
  9
$CHAMFERA
 40
0.0
  9
$CHAMFERB
 40
0.0
  9
$CHAMFERC
 40
0.0
  9
$CHAMFERD
 40
0.0
  9
$SKPOLY
 70
     0
  9
$TDCREATE
 40
2448636.619629629
  9
$TDUCREATE
 40
2448636.244629629
  9
$TDUPDATE
 40
2456822.842748148
  9
$TDUUPDATE
 40
2456822.467748148
  9
$TDINDWG
 40
84.2207274653
  9
$TDUSRTIMER
 40
2456822.46762331
  9
$USRTIMER
 70
     1
  9
$ANGBASE
 50
0.0
  9
$ANGDIR
 70
     0
  9
$PDMODE
 70
     3
  9
$PDSIZE
 40
0.0
  9
$PLINEWID
 40
0.0
  9
$SPLFRAME
 70
     0
  9
$SPLINETYPE
 70
     6
  9
$SPLINESEGS
 70
     8
  9
$HANDSEED
  5
2FCFBA
  9
$SURFTAB1
 70
     6
  9
$SURFTAB2
 70
     6
  9
$SURFTYPE
 70
     6
  9
$SURFU
 70
     6
  9
$SURFV
 70
     6
  9
$UCSBASE
  2

  9
$UCSNAME
  2

  9
$UCSORG
 10
0.0
 20
0.0
 30
0.0
  9
$UCSXDIR
 10
1.0
 20
0.0
 30
0.0
  9
$UCSYDIR
 10
0.0
 20
1.0
 30
0.0
  9
$UCSORTHOREF
  2

  9
$UCSORTHOVIEW
 70
     0
  9
$UCSORGTOP
 10
0.0
 20
0.0
 30
0.0
  9
$UCSORGBOTTOM
 10
0.0
 20
0.0
 30
0.0
  9
$UCSORGLEFT
 10
0.0
 20
0.0
 30
0.0
  9
$UCSORGRIGHT
 10
0.0
 20
0.0
 30
0.0
  9
$UCSORGFRONT
 10
0.0
 20
0.0
 30
0.0
  9
$UCSORGBACK
 10
0.0
 20
0.0
 30
0.0
  9
$PUCSBASE
  2

  9
$PUCSNAME
  2

  9
$PUCSORG
 10
0.0
 20
0.0
 30
0.0
  9
$PUCSXDIR
 10
1.0
 20
0.0
 30
0.0
  9
$PUCSYDIR
 10
0.0
 20
1.0
 30
0.0
  9
$PUCSORTHOREF
  2

  9
$PUCSORTHOVIEW
 70
     0
  9
$PUCSORGTOP
 10
0.0
 20
0.0
 30
0.0
  9
$PUCSORGBOTTOM
 10
0.0
 20
0.0
 30
0.0
  9
$PUCSORGLEFT
 10
0.0
 20
0.0
 30
0.0
  9
$PUCSORGRIGHT
 10
0.0
 20
0.0
 30
0.0
  9
$PUCSORGFRONT
 10
0.0
 20
0.0
 30
0.0
  9
$PUCSORGBACK
 10
0.0
 20
0.0
 30
0.0
  9
$USERI1
 70
     0
  9
$USERI2
 70
     0
  9
$USERI3
 70
     0
  9
$USERI4
 70
     0
  9
$USERI5
 70
     0
  9
$USERR1
 40
0.0
  9
$USERR2
 40
0.0
  9
$USERR3
 40
0.0
  9
$USERR4
 40
0.0
  9
$USERR5
 40
0.0
  9
$WORLDVIEW
 70
     0
  9
$SHADEDGE
 70
     3
  9
$SHADEDIF
 70
    70
  9
$TILEMODE
 70
     1
  9
$MAXACTVP
 70
    16
  9
$PINSBASE
 10
0.0
 20
0.0
 30
0.0
  9
$PLIMCHECK
 70
     0
  9
$PEXTMIN
 10
1.049999952316284
 20
0.7999999523162842
 30
0.0
  9
$PEXTMAX
 10
9.44999957084656
 20
7.199999570846559
 30
0.0
  9
$PLIMMIN
 10
-0.2500002402958907
 20
-0.2499999962453767
  9
$PLIMMAX
 10
10.74999951940822
 20
8.249999763458733
  9
$UNITMODE
 70
     0
  9
$VISRETAIN
 70
     0
  9
$PLINEGEN
 70
     0
  9
$PSLTSCALE
 70
     0
  9
$TREEDEPTH
 70
  3020
  9
$CMLSTYLE
  2
STANDARD
  9
$CMLJUST
 70
     0
  9
$CMLSCALE
 40
1.0
  9
$PROXYGRAPHICS
 70
     1
  9
$MEASUREMENT
 70
     0
  9
$CELWEIGHT
370
    -1
  9
$ENDCAPS
280
     0
  9
$JOINSTYLE
280
     0
  9
$LWDISPLAY
290
     0
  9
$INSUNITS
 70
     0
  9
$HYPERLINKBASE
  1

  9
$STYLESHEET
  1
spax form.ctb
  9
$XEDIT
290
     1
  9
$CEPSNTYPE
380
     0
  9
$PSTYLEMODE
290
     1
  9
$FINGERPRINTGUID
  2
{BBAEEBA6-8B94-11D3-9160-00E0294F7E09}
  9
$VERSIONGUID
  2
{5D85AAA3-72F6-481D-8EC4-74705F1DF6F7}
  9
$EXTNAMES
290
     1
  9
$PSVPSCALE
 40
0.0
  9
$OLESTARTUP
290
     0
  0
ENDSEC
  0
SECTION
  2
CLASSES
  0
CLASS
  1
LWPOLYLINE
  2
AcDbPolyline
  3
ObjectDBX Classes
 90
        0
280
     0
281
     1
  0
CLASS
  1
ACDBDICTIONARYWDFLT
  2
AcDbDictionaryWithDefault
  3
ObjectDBX Classes
 90
        0
280
     0
281
     0
  0
CLASS
  1
ACDBPLACEHOLDER
  2
AcDbPlaceHolder
  3
ObjectDBX Classes
 90
        0
280
     0
281
     0
  0
CLASS
  1
LAYOUT
  2
AcDbLayout
  3
ObjectDBX Classes
 90
        0
280
     0
281
     0
  0
CLASS
  1
DICTIONARYVAR
  2
AcDbDictionaryVar
  3
ObjectDBX Classes
 90
        0
280
     0
281
     0
  0
CLASS
  1
MATERIAL
  2
AcDbMaterial
  3
ObjectDBX Classes
 90
     1153
280
     0
281
     0
  0
CLASS
  1
VISUALSTYLE
  2
AcDbVisualStyle
  3
ObjectDBX Classes
 90
     4095
280
     0
281
     0
  0
CLASS
  1
TABLESTYLE
  2
AcDbTableStyle
  3
ObjectDBX Classes
 90
     4095
280
     0
281
     0
  0
CLASS
  1
SCALE
  2
AcDbScale
  3
ObjectDBX Classes
 90
     1153
280
     0
281
     0
  0
CLASS
  1
MLEADERSTYLE
  2
AcDbMLeaderStyle
  3
ACDB_MLEADERSTYLE_CLASS
 90
     4095
280
     0
281
     0
  0
CLASS
  1
CELLSTYLEMAP
  2
AcDbCellStyleMap
  3
ObjectDBX Classes
 90
     1152
280
     0
281
     0
  0
CLASS
  1
SORTENTSTABLE
  2
AcDbSortentsTable
  3
ObjectDBX Classes
 90
        0
280
     0
281
     0
  0
CLASS
  1
DIMASSOC
  2
AcDbDimAssoc
  3
"AcDbDimAssoc|Product Desc:     AcDim ARX App For Dimension|Company:          Autodesk, Inc.|WEB Address:      www.autodesk.com"
 90
        0
280
     0
281
     0
  0
CLASS
  1
ACDB_RADIMOBJECTCONTEXTDATA_CLASS
  2
AcDbRadialDimensionObjectContextData
  3
ObjectDBX Classes
 90
     1153
280
     0
281
     0
  0
CLASS
  1
ACDB_DMDIMOBJECTCONTEXTDATA_CLASS
  2
AcDbDiametricDimensionObjectContextData
  3
ObjectDBX Classes
 90
     1153
280
     0
281
     0
  0
CLASS
  1
MULTILEADER
  2
AcDbMLeader
  3
ACDB_MLEADER_CLASS
 90
     1025
280
     0
281
     1
  0
CLASS
  1
SUN
  2
AcDbSun
  3
SCENEOE
 90
     1153
280
     0
281
     0
  0
CLASS
  1
RASTERVARIABLES
  2
AcDbRasterVariables
  3
ISM
 90
        0
280
     0
281
     0
  0
ENDSEC
  0
SECTION
  2
TABLES
  0
TABLE
  2
VPORT
  5
8
330
0
100
AcDbSymbolTable
 70
     2
  0
VPORT
  5
2FCF3E
330
8
100
AcDbSymbolTableRecord
100
AcDbViewportTableRecord
  2
*Active
 70
     0
 10
0.0
 20
0.0
 11
1.0
 21
1.0
 12
10579.56016687845
 22
-9875.805906501504
 13
0.0
 23
0.0
 14
1.0
 24
1.0
 15
20.0
 25
20.0
 16
0.0
 26
0.0
 36
1.0
 17
0.0
 27
0.0
 37
0.0
 40
256.1901368882886
 41
2.398097826086957
 42
50.0
 43
0.0
 44
0.0
 50
0.0
 51
0.0
 71
    16
 72
   100
 73
     1
 74
     0
 75
     0
 76
     0
 77
     0
 78
     0
281
     0
 65
     1
110
0.0
120
0.0
130
0.0
111
1.0
121
0.0
131
0.0
112
0.0
122
1.0
132
0.0
 79
     0
146
0.0
  0
ENDTAB
  0
TABLE
  2
LTYPE
  5
5
330
0
100
AcDbSymbolTable
 70
     1
  0
LTYPE
  5
12
330
5
100
AcDbSymbolTableRecord
100
AcDbLinetypeTableRecord
  2
BYBLOCK
 70
     0
  3

 72
    65
 73
     0
 40
0.0
  0
LTYPE
  5
13
330
5
100
AcDbSymbolTableRecord
100
AcDbLinetypeTableRecord
  2
BYLAYER
 70
     0
  3

 72
    65
 73
     0
 40
0.0
  0
LTYPE
  5
14
330
5
100
AcDbSymbolTableRecord
100
AcDbLinetypeTableRecord
  2
CONTINUOUS
 70
     0
  3
Solid line
 72
    65
 73
     0
 40
0.0
  0
ENDTAB
  0
TABLE
  2
LAYER
  5
2
102
{ACAD_XDICTIONARY
360
67DE7
102
}
330
0
100
AcDbSymbolTable
 70
    16
  0
LAYER
  5
F
102
{ACAD_XDICTIONARY
360
66C5B
102
}
330
2
100
AcDbSymbolTableRecord
100
AcDbLayerTableRecord
  2
0
 70
     0
 62
     7
  6
CONTINUOUS
370
    -3
390
616
  0
LAYER
  5
36
330
2
100
AcDbSymbolTableRecord
100
AcDbLayerTableRecord
  2
DEFPOINTS
 70
     0
 62
     7
  6
CONTINUOUS
290
     0
370
    -3
390
616
  0
LAYER
  5
280
102
{ACAD_XDICTIONARY
360
66C61
102
}
330
2
100
AcDbSymbolTableRecord
100
AcDbLayerTableRecord
  2
実線
 70
     0
 62
     4
  6
CONTINUOUS
370
    -3
390
616
  0
LAYER
  5
2F4
102
{ACAD_XDICTIONARY
360
66C67
102
}
330
2
100
AcDbSymbolTableRecord
100
AcDbLayerTableRecord
  2
文字
 70
     0
 62
     7
  6
CONTINUOUS
370
    -3
390
616
  0
LAYER
  5
13ADEA
330
2
100
AcDbSymbolTableRecord
100
AcDbLayerTableRecord
  2
寸法線
 70
     0
 62
     7
  6
CONTINUOUS
370
    -3
390
616
  0
LAYER
  5
13ADEC
330
2
100
AcDbSymbolTableRecord
100
AcDbLayerTableRecord
  2
ﾊｯﾁﾝｸﾞ
 70
     0
 62
     8
  6
CONTINUOUS
370
    -3
390
616
  0
LAYER
  5
1E393E
330
2
100
AcDbSymbolTableRecord
100
AcDbLayerTableRecord
  2
光線
 70
     0
 62
     1
  6
CONTINUOUS
370
    -3
390
616
  0
ENDTAB
  0
TABLE
  2
STYLE
  5
3
330
0
100
AcDbSymbolTable
 70
     3
  0
STYLE
  5
10
330
3
100
AcDbSymbolTableRecord
100
AcDbTextStyleTableRecord
  2
STANDARD
 70
     0
 40
0.0
 41
1.0
 50
0.0
 71
     0
 42
3.5
  3
MONOTXT
  4
BIGFONT
  0
STYLE
  5
2EC93D
330
3
100
AcDbSymbolTableRecord
100
AcDbTextStyleTableRecord
  2
資料用
 70
     0
 40
0.0
 41
1.0
 50
0.0
 71
     0
 42
3.5
  3
Apsimplx.shx
  4
BIGFONT
  0
ENDTAB
  0
TABLE
  2
VIEW
  5
6
330
0
100
AcDbSymbolTable
 70
     0
  0
ENDTAB
  0
TABLE
  2
UCS
  5
7
330
0
100
AcDbSymbolTable
 70
     0
  0
ENDTAB
  0
TABLE
  2
APPID
  5
9
330
0
100
AcDbSymbolTable
 70
    17
  0
APPID
  5
11
330
9
100
AcDbSymbolTableRecord
100
AcDbRegAppTableRecord
  2
ACAD
 70
     0
  0
APPID
  5
66C55
330
9
100
AcDbSymbolTableRecord
100
AcDbRegAppTableRecord
  2
ACAD_MLEADERVER
 70
     0
  0
APPID
  5
66CC8
330
9
100
AcDbSymbolTableRecord
100
AcDbRegAppTableRecord
  2
ACAD_PSEXT
 70
     0
  0
APPID
  5
67DE4
330
9
100
AcDbSymbolTableRecord
100
AcDbRegAppTableRecord
  2
ACAD_DSTYLE_DIMJAG
 70
     0
  0
APPID
  5
67DE5
330
9
100
AcDbSymbolTableRecord
100
AcDbRegAppTableRecord
  2
ACAD_DSTYLE_DIMBREAK
 70
     0
  0
APPID
  5
67DE6
330
9
100
AcDbSymbolTableRecord
100
AcDbRegAppTableRecord
  2
ACAD_DSTYLE_DIMTALN
 70
     0
  0
APPID
  5
68101
330
9
100
AcDbSymbolTableRecord
100
AcDbRegAppTableRecord
  2
ACAD_EXEMPT_FROM_CAD_STANDARDS
 70
     0
  0
APPID
  5
74C21
330
9
100
AcDbSymbolTableRecord
100
AcDbRegAppTableRecord
  2
ACAD_DSTYLE_DIMRADIAL_EXTENSION
 70
     0
  0
APPID
  5
86ADD
330
9
100
AcDbSymbolTableRecord
100
AcDbRegAppTableRecord
  2
AcAecLayerStandard
 70
     0
  0
APPID
  5
86ADE
330
9
100
AcDbSymbolTableRecord
100
AcDbRegAppTableRecord
  2
AcadAnnotative
 70
     0
  0
APPID
  5
86ADF
330
9
100
AcDbSymbolTableRecord
100
AcDbRegAppTableRecord
  2
AcadAnnotativeDecomposition
 70
     0
  0
APPID
  5
16E922
330
9
100
AcDbSymbolTableRecord
100
AcDbRegAppTableRecord
  2
ASK_MEN_XD
 70
     0
  0
APPID
  5
1A9AA5
330
9
100
AcDbSymbolTableRecord
100
AcDbRegAppTableRecord
  2
GENIUS_GENODEF_13
 70
     0
  0
APPID
  5
1A9AA6
330
9
100
AcDbSymbolTableRecord
100
AcDbRegAppTableRecord
  2
GENIUS_GENREC_14
 70
     0
  0
APPID
  5
1A9AA7
330
9
100
AcDbSymbolTableRecord
100
AcDbRegAppTableRecord
  2
GENIUS_GENOBJ-N-REC_13
 70
     0
  0
APPID
  5
2F04DD
330
9
100
AcDbSymbolTableRecord
100
AcDbRegAppTableRecord
  2
ACAD_SPLINE_DATA
 70
     0
  0
APPID
  5
2F04DE
330
9
100
AcDbSymbolTableRecord
100
AcDbRegAppTableRecord
  2
ACAD_SPLINE_DATA2
 70
     0
  0
ENDTAB
  0
TABLE
  2
DIMSTYLE
  5
A
330
0
100
AcDbSymbolTable
 70
     6
100
AcDbDimStyleTable
  0
DIMSTYLE
105
1CC
330
A
100
AcDbSymbolTableRecord
100
AcDbDimStyleTableRecord
  2
STANDARD
 70
     0
 41
1.5
 42
1.5
 44
1.0
 73
     0
 74
     0
 77
     3
 78
     8
 79
     2
140
2.500000000000003
141
0.0
147
1.0
171
     0
173
     1
176
     8
177
     8
178
     0
179
     2
271
     2
272
     2
274
     0
340
10
341
608
343
608
344
608
1001
ACAD_DSTYLE_DIMJAG
1070
   388
1040
1.5
1001
ACAD_DSTYLE_DIMTALN
1070
   392
1070
     0
  0
DIMSTYLE
105
1E3941
330
A
100
AcDbSymbolTableRecord
100
AcDbDimStyleTableRecord
  2
ｺﾋﾟｰ - STANDARD
 70
     0
 41
3.5
 42
1.0
 43
3.0
 44
1.0
 73
     0
 74
     0
 77
     3
 78
     8
 79
     2
140
2.5
141
0.0
147
1.0
171
     0
173
     1
176
     8
177
     8
271
     2
178
   256
179
     2
271
     2
272
     2
274
     0
340
10
341
608
343
608
344
608
1001
ACAD_DSTYLE_DIMJAG
1070
   388
1040
1.5
1001
ACAD_DSTYLE_DIMTALN
1070
   392
1070
     0
  0
ENDTAB
  0
TABLE
  2
BLOCK_RECORD
  5
1
330
0
100
AcDbSymbolTable
 70
     1
  0
BLOCK_RECORD
  5
18
102
{ACAD_XDICTIONARY
360
845D5
102
}
330
1
100
AcDbSymbolTableRecord
100
AcDbBlockTableRecord
  2
*MODEL_SPACE
340
619
  0
BLOCK_RECORD
  5
15
330
1
100
AcDbSymbolTableRecord
100
AcDbBlockTableRecord
  2
*PAPER_SPACE
340
61A
  0
BLOCK_RECORD
  5
608
330
1
100
AcDbSymbolTableRecord
100
AcDbBlockTableRecord
  2
_OPEN
340
0
  0
ENDTAB
  0
ENDSEC
  0
SECTION
  2
BLOCKS
  0
BLOCK
  5
39
330
18
100
AcDbEntity
  8
0
100
AcDbBlockBegin
  2
*MODEL_SPACE
 70
     0
 10
0.0
 20
0.0
 30
0.0
  3
*MODEL_SPACE
  1
*MODEL_SPACE
  0
ENDBLK
  5
3A
330
18
100
AcDbEntity
  8
0
100
AcDbBlockEnd
  0
BLOCK
  5
37
330
15
100
AcDbEntity
 67
     1
  8
0
100
AcDbBlockBegin
  2
*PAPER_SPACE
 70
     0
 10
0.0
 20
0.0
 30
0.0
  3
*PAPER_SPACE
  1
*PAPER_SPACE
  0
ENDBLK
  5
38
330
15
100
AcDbEntity
 67
     1
  8
0
100
AcDbBlockEnd
  0
BLOCK
  5
609
330
608
100
AcDbEntity
  8
0
100
AcDbBlockBegin
  2
_OPEN
 70
     0
 10
0.0
 20
0.0
 30
0.0
  3
_OPEN
  1
_OPEN
  0
LINE
  5
60A
330
608
100
AcDbEntity
  8
0
  6
ByBlock
 62
     0
100
AcDbLine
 10
-1.0
 20
0.1666666666666667
 30
0.0
 11
0.0
 21
0.0
 31
0.0
  0
LINE
  5
60B
330
608
100
AcDbEntity
  8
0
  6
ByBlock
 62
     0
100
AcDbLine
 10
0.0
 20
0.0
 30
0.0
 11
-1.0
 21
-0.1666666666666667
 31
0.0
  0
LINE
  5
60C
330
608
100
AcDbEntity
  8
0
  6
ByBlock
 62
     0
100
AcDbLine
 10
0.0
 20
0.0
 30
0.0
 11
-1.0
 21
0.0
 31
0.0
  0
ENDBLK
  5
60D
330
608
100
AcDbEntity
  8
0
100
AcDbBlockEnd
  0
ENDSEC
  0
SECTION
  2
ENTITIES
  0
TEXT
  5
11B04
330
18
100
AcDbEntity
  8
文字
100
AcDbText
 10
-1240.183388714458
 20
-1416.837204555437
 30
0.0
 40
6.75
  1

 41
1.0228
100
AcDbText
  0
MTEXT
  5
12B3E
330
18
100
AcDbEntity
  8
0
100
AcDbMText
 10
-974.1891318600246
 20
-2072.131137572738
 30
0.0
 40
2.500000000000003
 41
0.0
 71
     9
 72
     1
  1
\A1;
 73
     1
 44
1.0
  0
TEXT
  5
2F0518
330
18
100
AcDbEntity
  8
文字
100
AcDbText
 10
10485.96016687845
 20
-10001.38930693694
 30
0.0
 40
21.6
  1
MOD-300BF
100
AcDbText
  0
SPLINE
  5
2F05DB
330
18
100
AcDbEntity
  8
0
  6
Continuous
 62
     8
370
    15
100
AcDbSpline
210
0.0
220
0.0
230
1.0
 70
     8
 71
     3
 72
    34
 73
    30
 74
     0
 42
0.000000001
 43
0.0000000001
 40
0.0
 40
0.0
 40
0.0
 40
0.0
 40
0.0204158103711132
 40
0.0562240944653233
 40
0.0921081886836922
 40
0.1283957842231747
 40
0.1652666001452854
 40
0.2027195256040558
 40
0.24061791061045
 40
0.2787785824183824
 40
0.3170466092699444
 40
0.3553059369126048
 40
0.3935211765086423
 40
0.4316875620478391
 40
0.46981603585986
 40
0.5079255552278855
 40
0.5460388828806102
 40
0.5841749905952304
 40
0.6223560699249937
 40
0.6606057053122102
 40
0.6989444458042166
 40
0.7373832183083949
 40
0.7759137732738437
 40
0.8144790148479427
 40
0.8529383736972492
 40
0.8910931716501506
 40
0.928716248881813
 40
0.9656579709678575
 40
1.0
 40
1.0
 40
1.0
 40
1.0
 10
10583.77631527448
 20
-9825.646398198576
 30
0.0000000000378232
 10
10583.92786980014
 20
-9825.573518825153
 30
0.0000000000378232
 10
10584.3452431893
 20
-9825.372812769332
 30
0.0000000000378232
 10
10584.94374937864
 20
-9824.890781598206
 30
0.0000000000378232
 10
10585.5642961324
 20
-9824.227140415624
 30
0.0000000000378232
 10
10586.08470587292
 20
-9823.439839332143
 30
0.0000000000378232
 10
10586.50415543017
 20
-9822.5441116474
 30
0.0000000000378232
 10
10586.81553124625
 20
-9821.546548312206
 30
0.0000000000378232
 10
10587.01371600858
 20
-9820.460355415638
 30
0.0000000000378232
 10
10587.09506834819
 20
-9819.301214336156
 30
0.0000000000378232
 10
10587.05862183221
 20
-9818.087055588985
 30
0.0000000000378232
 10
10586.90579711004
 20
-9816.836066999538
 30
0.0000000000378232
 10
10586.63984874002
 20
-9815.566048104894
 30
0.0000000000378232
 10
10586.26535474351
 20
-9814.294065512186
 30
0.0000000000378232
 10
10585.7879830105
 20
-9813.036854745911
 30
0.0000000000378232
 10
10585.21441181709
 20
-9811.810833160394
 30
0.0000000000378232
 10
10584.55227403674
 20
-9810.632072845325
 30
0.0000000000378232
 10
10583.81008879856
 20
-9809.516116814993
 30
0.0000000000378232
 10
10582.99709422391
 20
-9808.477828833507
 30
0.0000000000378232
 10
10582.12310197261
 20
-9807.531193308987
 30
0.0000000000378232
 10
10581.19836196425
 20
-9806.689346131781
 30
0.0000000000378232
 10
10580.23355359906
 20
-9805.964575381797
 30
0.0000000000378232
 10
10579.24002660344
 20
-9805.368521683366
 30
0.0000000000378232
 10
10578.23035548845
 20
-9804.912057575882
 30
0.0000000000378232
 10
10577.21912081793
 20
-9804.605208350291
 30
0.0000000000378232
 10
10576.22236078448
 20
-9804.454064528549
 30
0.0000000000378232
 10
10575.26031753974
 20
-9804.466157615097
 30
0.0000000000378232
 10
10574.35989573491
 20
-9804.620840776195
 30
0.0000000000378232
 10
10573.81775101642
 20
-9804.848127721383
 30
0.0000000000378232
 10
10573.55656456972
 20
-9804.957626656946
 30
0.0000000000378232
  0
SPLINE
  5
2F05DC
330
18
100
AcDbEntity
  8
0
  6
Continuous
 62
     8
370
    15
100
AcDbSpline
210
0.0
220
0.0
230
1.0
 70
     8
 71
     3
 72
    11
 73
     7
 74
     0
 42
0.000000001
 43
0.0000000001
 40
0.0
 40
0.0
 40
0.0
 40
0.0
 40
0.0119471804958691
 40
0.3910274203760844
 40
0.7538892409292617
 40
1.0
 40
1.0
 40
1.0
 40
1.0
 10
10578.47867702907
 20
-9832.528406343365
 30
0.0000000000378232
 10
10578.48365447803
 20
-9832.526818588187
 30
0.0000000000378232
 10
10578.64656480028
 20
-9832.474851865878
 30
0.0000000000378232
 10
10578.9051966873
 20
-9832.245749914848
 30
0.0000000000378232
 10
10579.17590663683
 20
-9831.909305108376
 30
0.0000000000378232
 10
10579.27583198461
 20
-9831.660384778002
 30
0.0000000000378232
 10
10579.31621590996
 20
-9831.559785878308
 30
0.0000000000378232
  0
LINE
  5
2F05DD
330
18
100
AcDbEntity
  8
0
  6
Continuous
 62
     8
370
    15
100
AcDbLine
 10
10583.42934529538
 20
-9825.841753923203
 30
0.0000000000378232
 11
10583.78289874388
 21
-9825.664977198805
 31
0.0000000000378232
  0
LINE
  5
2F05DE
330
18
100
AcDbEntity
  8
0
  6
Continuous
 62
     8
370
    15
100
AcDbLine
 10
10573.45226626613
 20
-9805.003709888453
 30
0.0000000000378232
 11
10573.09871281763
 21
-9805.180486612702
 31
0.0000000000378232
  0
LINE
  5
2F05DF
330
18
100
AcDbEntity
  8
0
  6
Continuous
 62
     8
370
    15
100
AcDbLine
 10
10575.69375684218
 20
-9833.923491801954
 30
0.0000000000378232
 11
10578.49341657218
 21
-9832.523661936953
 31
0.0000000000378232
  0
LINE
  5
2F05E0
330
18
100
AcDbEntity
  8
0
  6
Continuous
 62
     8
370
    15
100
AcDbLine
 10
10579.31621591003
 20
-9831.559785878304
 30
0.0000000000378232
 11
10580.79208000673
 21
-9827.331499676457
 31
0.0000000000378232
  0
LINE
  5
2F05E1
330
18
100
AcDbEntity
  8
0
  6
Continuous
 62
     8
370
    15
100
AcDbLine
 10
10580.14189703843
 20
-9824.667072989752
 30
0.0000000000378232
 11
10579.71763369043
 21
-9822.982698210504
 31
0.0000000000378232
  0
ARC
  5
2F05E2
330
18
100
AcDbEntity
  8
0
  6
Continuous
 62
     8
370
    15
100
AcDbCircle
 10
10579.99644092333
 20
-9824.703711290753
 30
0.0000000000378232
 40
0.1500000000000485
100
AcDbArc
 50
296.5650511773887
 51
0.0
  0
ARC
  5
2F05E3
330
18
100
AcDbEntity
  8
0
  6
Continuous
 62
     8
370
    15
100
AcDbCircle
 10
10579.99644092333
 20
-9824.703711290753
 30
0.0000000000378232
 40
0.1500000000000341
100
AcDbArc
 50
0.0
 51
14.13769473282406
  0
SPLINE
  5
2F05E4
330
18
100
AcDbEntity
  8
0
  6
Continuous
 62
     8
370
    15
100
AcDbSpline
210
0.0
220
0.0
230
1.0
 70
     8
 71
     3
 72
    11
 73
     7
 74
     0
 42
0.000000001
 43
0.0000000001
 40
0.0
 40
0.0
 40
0.0
 40
0.0
 40
0.1622065300972875
 40
0.4830735570894587
 40
0.8139848442275941
 40
1.0
 40
1.0
 40
1.0
 40
1.0
 10
10580.7920800068
 20
-9827.33149967646
 30
0.0000000000378232
 10
10580.82427382603
 20
-9827.24725412605
 30
0.0000000000378232
 10
10580.92015148746
 20
-9826.996359185621
 30
0.0000000000378232
 10
10581.12789477732
 20
-9826.673086650764
 30
0.0000000000378232
 10
10581.35904152662
 20
-9826.429203633466
 30
0.0000000000378232
 10
10581.52799387192
 20
-9826.350934792321
 30
0.0000000000378232
 10
10581.58879110382
 20
-9826.32276987471
 30
0.0000000000378232
  0
LINE
  5
2F05E5
330
18
100
AcDbEntity
  8
0
  6
Continuous
 62
     8
370
    15
100
AcDbLine
 10
10579.92210188198
 20
-9824.908586320853
 30
0.0000000000378232
 11
10580.06352299798
 21
-9824.837875762852
 31
0.0000000000378232
  0
SPLINE
  5
2F05E6
330
18
100
AcDbEntity
  8
0
  6
Continuous
 62
     8
370
    15
100
AcDbSpline
210
0.0
220
0.0
230
1.0
 70
     8
 71
     3
 72
     9
 73
     5
 74
     0
 42
0.000000001
 43
0.0000000001
 40
0.0
 40
0.0
 40
0.0
 40
0.0
 40
0.4040515984835105
 40
1.0
 40
1.0
 40
1.0
 40
1.0
 10
10579.91222305583
 20
-9824.915728986962
 30
0.0000000000378232
 10
10579.91208691062
 20
-9824.915740532851
 30
0.0000000000378232
 10
10579.91174996055
 20
-9824.915769108138
 30
0.0000000000378232
 10
10579.91867868152
 20
-9824.911750904103
 30
0.0000000000378232
 10
10579.92280784171
 20
-9824.909356261829
 30
0.0000000000378232
  0
ARC
  5
2F05E7
330
18
100
AcDbEntity
  8
0
  6
Continuous
 62
     8
370
    15
100
AcDbCircle
 10
10579.57217685458
 20
-9823.019336070054
 30
0.0000000000378232
 40
0.1499999999999984
100
AcDbArc
 50
14.13769473282406
 51
116.5650511767673
  0
LINE
  5
2F05E8
330
18
100
AcDbEntity
  8
0
  6
Continuous
 62
     8
370
    15
100
AcDbLine
 10
10579.50509569448
 20
-9822.885172123402
 30
0.0000000000378232
 11
10579.36367457848
 21
-9822.955882681403
 31
0.0000000000378232
  0
SPLINE
  5
2F05E9
330
18
100
AcDbEntity
  8
0
  6
Continuous
 62
     8
370
    15
100
AcDbSpline
210
0.0
220
0.0
230
1.0
 70
     8
 71
     3
 72
     9
 73
     5
 74
     0
 42
0.000000001
 43
0.0000000001
 40
0.0
 40
0.0
 40
0.0
 40
0.0
 40
0.1641766994259832
 40
1.0
 40
1.0
 40
1.0
 40
1.0
 10
10579.36317540173
 20
-9822.955522666947
 30
0.0000000000378232
 10
10579.36230695097
 20
-9822.956130764374
 30
0.0000000000378232
 10
10579.35701721883
 20
-9822.95983468477
 30
0.0000000000378232
 10
10579.35415184485
 20
-9822.959464014028
 30
0.0000000000378232
 10
10579.35175689851
 20
-9822.959154198783
 30
0.0000000000378232
  0
SPLINE
  5
2F05EA
330
18
100
AcDbEntity
  8
0
  6
Continuous
 62
     8
370
    15
100
AcDbSpline
210
0.0
220
0.0
230
1.0
 70
     8
 71
     3
 72
     9
 73
     5
 74
     0
 42
0.000000001
 43
0.0000000001
 40
0.0
 40
0.0
 40
0.0
 40
0.0
 40
0.7089252188982323
 40
1.0
 40
1.0
 40
1.0
 40
1.0
 10
10578.27433297315
 20
-9819.491418772257
 30
0.0000000000378232
 10
10578.3610820789
 20
-9819.36019322124
 30
0.0000000000378232
 10
10578.48344915434
 20
-9819.175088294069
 30
0.0000000000378232
 10
10578.53974738143
 20
-9818.943248477124
 30
0.0000000000378232
 10
10578.55613437556
 20
-9818.875765753157
 30
0.0000000000378232
  0
SPLINE
  5
2F05EB
330
18
100
AcDbEntity
  8
0
  6
Continuous
 62
     8
370
    15
100
AcDbSpline
210
0.0
220
0.0
230
1.0
 70
     8
 71
     3
 72
    10
 73
     6
 74
     0
 42
0.000000001
 43
0.0000000001
 40
0.0
 40
0.0
 40
0.0
 40
0.0
 40
0.0798518395114611
 40
0.8979618287667079
 40
1.0
 40
1.0
 40
1.0
 40
1.0
 10
10575.81994615298
 20
-9813.27318863404
 30
0.0000000000378232
 10
10575.80059344274
 20
-9813.264773457468
 30
0.0000000000378232
 10
10575.58296545588
 20
-9813.170141857314
 30
0.0000000000378232
 10
10575.33136012583
 20
-9813.101870093276
 30
0.0000000000378232
 10
10575.10991880961
 20
-9813.113095239594
 30
0.0000000000378232
 10
10575.08536247411
 20
-9813.114340031956
 30
0.0000000000378232
  0
ARC
  5
2F05EC
330
18
100
AcDbEntity
  8
0
  6
Continuous
 62
     8
370
    15
100
AcDbCircle
 10
10575.66541188848
 20
-9816.810429122306
 30
0.0000000000378232
 40
3.584776841032074
100
AcDbArc
 50
312.4355284083424
 51
0.0
  0
ARC
  5
2F05ED
330
18
100
AcDbEntity
  8
0
  6
Continuous
 62
     8
370
    15
100
AcDbCircle
 10
10575.66541188848
 20
-9816.810429122306
 30
0.0000000000378232
 40
3.584776841032116
100
AcDbArc
 50
0.0
 51
100.6945739458797
  0
LINE
  5
2F05EE
330
18
100
AcDbEntity
  8
0
  6
Continuous
 62
     8
370
    15
100
AcDbLine
 10
10580.58120253088
 20
-9827.935662342203
 30
0.0000000000378232
 11
10583.05821331823
 21
-9826.628023111403
 31
0.0000000000378232
  0
SPLINE
  5
2F05EF
330
18
100
AcDbEntity
  8
0
  6
Continuous
 62
     8
370
    15
100
AcDbSpline
210
0.0
220
0.0
230
1.0
 70
     8
 71
     3
 72
     9
 73
     5
 74
     0
 42
0.000000001
 43
0.0000000001
 40
0.0
 40
0.0
 40
0.0
 40
0.0
 40
0.6360980919494963
 40
1.0
 40
1.0
 40
1.0
 40
1.0
 10
10584.81148994766
 20
-9825.068994459602
 30
0.0000000000378232
 10
10584.85841923711
 20
-9825.015850487645
 30
0.0000000000378232
 10
10584.93219604928
 20
-9824.932303668953
 30
0.0000000000378232
 10
10584.98766539649
 20
-9824.82835880149
 30
0.0000000000378232
 10
10585.00785079778
 20
-9824.790533065887
 30
0.0000000000378232
  0
LINE
  5
2F05F0
330
18
100
AcDbEntity
  8
0
  6
Continuous
 62
     8
370
    15
100
AcDbLine
 10
10582.65614292023
 20
-9823.312857477504
 30
0.0000000000378232
 11
10583.38180101608
 21
-9822.929776408851
 31
0.0000000000378232
  0
LINE
  5
2F05F1
330
18
100
AcDbEntity
  8
0
  6
Continuous
 62
     8
370
    15
100
AcDbLine
 10
10575.39976742723
 20
-9806.965710164903
 30
0.0000000000378232
 11
10574.65790650238
 21
-9807.316386481103
 31
0.0000000000378232
  0
LINE
  5
2F05F2
330
18
100
AcDbEntity
  8
0
  6
Continuous
 62
     8
370
    15
100
AcDbLine
 10
10572.24701720543
 20
-9805.005632905104
 30
0.0000000000378232
 11
10568.22093999533
 21
-9806.908759125054
 31
0.0000000000378232
  0
SPLINE
  5
2F05F3
330
18
100
AcDbEntity
  8
0
  6
Continuous
 62
     8
370
    15
100
AcDbSpline
210
0.0
220
0.0
230
1.0
 70
     8
 71
     3
 72
    11
 73
     7
 74
     0
 42
0.000000001
 43
0.0000000001
 40
0.0
 40
0.0
 40
0.0
 40
0.0
 40
0.0035998658904663
 40
0.3797587400578539
 40
0.7524788372486623
 40
1.0
 40
1.0
 40
1.0
 40
1.0
 10
10574.95942571513
 20
-9804.546404104229
 30
0.0000000000378232
 10
10574.95632008934
 20
-9804.545908811942
 30
0.0000000000378232
 10
10574.62869995771
 20
-9804.493659205891
 30
0.0000000000378232
 10
10574.00393716219
 20
-9804.532443114189
 30
0.0000000000378232
 10
10573.19458391315
 20
-9804.637951188652
 30
0.0000000000378232
 10
10572.73417060695
 20
-9804.820695332888
 30
0.0000000000378232
 10
10572.55043236789
 20
-9804.893623475517
 30
0.0000000000378232
  0
SPLINE
  5
2F05F4
330
18
100
AcDbEntity
  8
0
  6
Continuous
 62
     8
370
    15
100
AcDbSpline
210
0.0
220
0.0
230
1.0
 70
     8
 71
     3
 72
    12
 73
     8
 74
     0
 42
0.000000001
 43
0.0000000001
 40
0.0
 40
0.0
 40
0.0
 40
0.0
 40
0.1702580754883763
 40
0.4386693008777358
 40
0.6957759631634272
 40
0.9694864209279
 40
1.0
 40
1.0
 40
1.0
 40
1.0
 10
10579.29658996653
 20
-9819.437012086899
 30
0.0000000000378232
 10
10579.22513150206
 20
-9819.472085400172
 30
0.0000000000378232
 10
10579.04101903303
 20
-9819.56245166191
 30
0.0000000000378232
 10
10578.6769824911
 20
-9819.582308303583
 30
0.0000000000378232
 10
10578.20536728789
 20
-9819.491194698214
 30
0.0000000000378232
 10
10577.84310725705
 20
-9819.364623801892
 30
0.0000000000378232
 10
10577.64255718164
 20
-9819.229648054636
 30
0.0000000000378232
 10
10577.62244206961
 20
-9819.216110027923
 30
0.0000000000378232
  0
SPLINE
  5
2F05F5
330
18
100
AcDbEntity
  8
0
  6
Continuous
 62
     8
370
    15
100
AcDbSpline
210
0.0
220
0.0
230
1.0
 70
     8
 71
     3
 72
    12
 73
     8
 74
     0
 42
0.000000001
 43
0.0000000001
 40
0.0
 40
0.0
 40
0.0
 40
0.0
 40
0.0497327106853474
 40
0.3236831696186889
 40
0.5979446705280131
 40
0.8772713748053678
 40
1.0
 40
1.0
 40
1.0
 40
1.0
 10
10574.91629104985
 20
-9813.811520975552
 30
0.0000000000378232
 10
10574.91846404457
 20
-9813.773409757701
 30
0.0000000000378232
 10
10574.93260688554
 20
-9813.525364565292
 30
0.0000000000378232
 10
10575.05179694972
 20
-9813.148362656244
 30
0.0000000000378232
 10
10575.26692118125
 20
-9812.721263517207
 30
0.0000000000378232
 10
10575.48811161134
 20
-9812.459856533682
 30
0.0000000000378232
 10
10575.65090218637
 20
-9812.377766089267
 30
0.0000000000378232
 10
10575.7005945098
 20
-9812.352707728769
 30
0.0000000000378232
  0
LINE
  5
2F05F6
330
18
100
AcDbEntity
  8
0
  6
Continuous
 62
     8
370
    15
100
AcDbLine
 10
10596.24097044998
 20
-9820.846604085953
 30
0.0000000000378232
 11
10586.73189858773
 21
-9816.092068154754
 31
0.0000000000378232
  0
LINE
  5
2F05F7
330
18
100
AcDbEntity
  8
0
  6
Continuous
 62
     8
370
    15
100
AcDbLine
 10
10577.24259096323
 20
-9833.149077111353
 30
0.0000000000378232
 11
10587.52030543853
 21
-9838.287934349006
 31
0.0000000000378232
  0
LINE
  5
2F05F8
330
18
100
AcDbEntity
  8
0
  6
Continuous
 62
     8
370
    15
100
AcDbLine
 10
10597.46359421978
 20
-9818.938660632652
 30
0.0000000000378232
 11
10595.31480053333
 21
-9820.383519478106
 31
0.0000000000378232
  0
LINE
  5
2F05F9
330
18
100
AcDbEntity
  8
0
  6
Continuous
 62
     8
370
    15
100
AcDbLine
 10
10586.59413568644
 20
-9837.824849255754
 30
0.0000000000378232
 11
10586.72752453508
 21
-9840.410799521003
 31
0.0000000000378232
  0
SPLINE
  5
2F05FA
330
18
100
AcDbEntity
  8
0
  6
Continuous
 62
     8
370
    15
100
AcDbSpline
210
0.0
220
0.0
230
1.0
 70
     8
 71
     3
 72
    17
 73
    13
 74
     0
 42
0.000000001
 43
0.0000000001
 40
0.0
 40
0.0
 40
0.0
 40
0.0
 40
0.0615432452117695
 40
0.170097875716406
 40
0.2794673481416989
 40
0.3903238920967816
 40
0.5030885331195655
 40
0.6178681616520576
 40
0.7344600571675255
 40
0.8524414744538223
 40
0.9713119362667502
 40
1.0
 40
1.0
 40
1.0
 40
1.0
 10
10607.69013089637
 20
-9817.027586313256
 30
0.0000000000378232
 10
10607.48520941812
 20
-9816.95159445611
 30
0.0000000000378232
 10
10606.91883193806
 20
-9816.741562413968
 30
0.0000000000378232
 10
10605.93221359486
 20
-9816.560164427668
 30
0.0000000000378232
 10
10604.74957419925
 20
-9816.470656220648
 30
0.0000000000378232
 10
10603.53070636293
 20
-9816.536355206263
 30
0.0000000000378232
 10
10602.28556327434
 20
-9816.749014371548
 30
0.0000000000378232
 10
10601.02163843222
 20
-9817.112443081358
 30
0.0000000000378232
 10
10599.74845720589
 20
-9817.621703355158
 30
0.0000000000378232
 10
10598.48172795839
 20
-9818.286112721966
 30
0.0000000000378232
 10
10597.54105597549
 20
-9818.856988020689
 30
0.0000000000378232
 10
10597.0377958198
 20
-9819.242911755111
 30
0.0000000000378232
 10
10596.93995288347
 20
-9819.317942354995
 30
0.0000000000378232
  0
SPLINE
  5
2F05FB
330
18
100
AcDbEntity
  8
0
  6
Continuous
 62
     8
370
    15
100
AcDbSpline
210
0.0
220
0.0
230
1.0
 70
     8
 71
     3
 72
    17
 73
    13
 74
     0
 42
0.000000001
 43
0.0000000001
 40
0.0
 40
0.0
 40
0.0
 40
0.0
 40
0.0025976310920135
 40
0.1269125148891528
 40
0.2514481135307591
 40
0.3756599354545465
 40
0.4990000931654851
 40
0.6208293658176799
 40
0.7405845380510344
 40
0.8579752068524809
 40
0.9731022381267672
 40
1.0
 40
1.0
 40
1.0
 40
1.0
 10
10586.72010932393
 20
-9840.237824293814
 30
0.0000000000378232
 10
10586.72033499866
 20
-9840.248506394782
 30
0.0000000000378232
 10
10586.73136079329
 20
-9840.77040201817
 30
0.0000000000378232
 10
10586.83399072229
 20
-9841.772322243927
 30
0.0000000000378232
 10
10587.08367070534
 20
-9843.207570032631
 30
0.0000000000378232
 10
10587.4689343136
 20
-9844.562598803805
 30
0.0000000000378232
 10
10587.97763720195
 20
-9845.824952565716
 30
0.0000000000378232
 10
10588.60801859813
 20
-9846.976601406372
 30
0.0000000000378232
 10
10589.34833914122
 20
-9848.007766082312
 30
0.0000000000378232
 10
10590.19644465829
 20
-9848.89194216163
 30
0.0000000000378232
 10
10590.87907747229
 20
-9849.480761270803
 30
0.0000000000378232
 10
10591.30007291264
 20
-9849.727283632565
 30
0.0000000000378232
 10
10591.3798043092
 20
-9849.773971958144
 30
0.0000000000378232
  0
LINE
  5
2F05FC
330
18
100
AcDbEntity
  8
0
  6
Continuous
 62
     8
370
    15
100
AcDbLine
 10
10608.98952152873
 20
-9817.485632228007
 30
0.0000000000378232
 11
10607.77782070748
 21
-9817.038956891156
 31
0.0000000000378232
  0
LINE
  5
2F05FD
330
18
100
AcDbEntity
  8
0
  6
Continuous
 62
     8
370
    15
100
AcDbLine
 10
10591.39629755633
 20
-9849.802002659006
 30
0.0000000000378232
 11
10592.48065826033
 21
-9850.503358217004
 31
0.0000000000378232
  0
SPLINE
  5
2F05FE
330
18
100
AcDbEntity
  8
0
  6
Continuous
 62
     8
370
    15
100
AcDbSpline
210
0.0
220
0.0
230
1.0
 70
     8
 71
     3
 72
    15
 73
    11
 74
     0
 42
0.000000001
 43
0.0000000001
 40
0.0
 40
0.0
 40
0.0
 40
0.0
 40
0.073480296256301
 40
0.169778138493303
 40
0.2928906273760429
 40
0.4437924379757429
 40
0.5728159277317594
 40
0.7116698826705381
 40
0.8556901076913831
 40
1.0
 40
1.0
 40
1.0
 40
1.0
 10
10568.83636144492
 20
-9842.3812057207
 30
0.0000000000378232
 10
10569.045052267
 20
-9842.32914948653
 30
0.0000000000378232
 10
10569.52723784733
 20
-9842.20887220154
 30
0.0000000000378232
 10
10570.3151139682
 20
-9841.866318328375
 30
0.0000000000378232
 10
10571.27070635739
 20
-9841.354321666422
 30
0.0000000000378232
 10
10572.22479799433
 20
-9840.654378931133
 30
0.0000000000378232
 10
10573.1093013393
 20
-9839.803599777355
 30
0.0000000000378232
 10
10573.86139771949
 20
-9838.860103493571
 30
0.0000000000378232
 10
10574.51390605962
 20
-9837.788888405423
 30
0.0000000000378232
 10
10574.82210604057
 20
-9837.007687853311
 30
0.0000000000378232
 10
10574.97636084569
 20
-9836.616695165518
 30
0.0000000000378232
  0
LINE
  5
2F05FF
330
18
100
AcDbEntity
  8
0
  6
Continuous
 62
     8
370
    15
100
AcDbLine
 10
10574.97998547473
 20
-9836.606349041904
 30
0.0000000000378232
 11
10575.96350062388
 21
-9833.788619878553
 31
0.0000000000378232
  0
SPLINE
  5
2F0600
330
18
100
AcDbEntity
  8
0
  6
Continuous
 62
     8
370
    15
100
AcDbSpline
210
0.0
220
0.0
230
1.0
 70
     8
 71
     3
 72
    13
 73
     9
 74
     0
 42
0.000000001
 43
0.0000000001
 40
0.0
 40
0.0
 40
0.0
 40
0.0
 40
0.1337670452010633
 40
0.3578993925343159
 40
0.5596596835787021
 40
0.7391046310130821
 40
0.9443288178383356
 40
1.0
 40
1.0
 40
1.0
 40
1.0
 10
10574.11388025011
 20
-9824.137172978408
 30
0.0000000000378232
 10
10573.92777464549
 20
-9823.966626595171
 30
0.0000000000378232
 10
10573.42984122146
 20
-9823.510322526654
 30
0.0000000000378232
 10
10572.56072598207
 20
-9822.794707827168
 30
0.0000000000378232
 10
10571.60115299963
 20
-9822.050111469805
 30
0.0000000000378232
 10
10570.65337051739
 20
-9821.37322443983
 30
0.0000000000378232
 10
10569.93815846278
 20
-9820.892433300425
 30
0.0000000000378232
 10
10569.51540453361
 20
-9820.644643107848
 30
0.0000000000378232
 10
10569.42519514778
 20
-9820.59176837495
 30
0.0000000000378232
  0
LINE
  5
2F0601
330
18
100
AcDbEntity
  8
0
  6
Continuous
 62
     8
370
    15
100
AcDbLine
 10
10568.84309020568
 20
-9837.774874872204
 30
0.0000000000378232
 11
10567.44231598793
 21
-9768.279617732755
 31
0.0000000000378232
  0
LINE
  5
2F0602
330
18
100
AcDbEntity
  8
0
  6
Continuous
 62
     8
370
    15
100
AcDbLine
 10
10495.74764751428
 20
-9768.279617732755
 30
0.0000000000378232
 11
10494.34687329638
 21
-9837.774874872204
 31
0.0000000000378232
  0
SPLINE
  5
2F0603
330
18
100
AcDbEntity
  8
0
  6
Continuous
 62
     8
370
    15
100
AcDbSpline
210
0.0
220
0.0
230
1.0
 70
     8
 71
     3
 72
    13
 73
     9
 74
     0
 42
0.000000001
 43
0.0000000001
 40
0.0
 40
0.0
 40
0.0
 40
0.0
 40
0.0683179149708952
 40
0.2447852279865247
 40
0.4221840824868593
 40
0.6415491388561374
 40
0.8865809285402634
 40
1.0
 40
1.0
 40
1.0
 40
1.0
 10
10531.03335523833
 20
-9819.81118456398
 30
0.0000000000378232
 10
10531.03270809654
 20
-9819.811950671665
 30
0.0000000000378232
 10
10531.03038936724
 20
-9819.81469565948
 30
0.0000000000378232
 10
10531.04744675132
 20
-9819.800810012159
 30
0.0000000000378232
 10
10531.08868867108
 20
-9819.781667252395
 30
0.0000000000378232
 10
10531.1585917891
 20
-9819.761437741774
 30
0.0000000000378232
 10
10531.2340535549
 20
-9819.749214508829
 30
0.0000000000378232
 10
10531.2829593767
 20
-9819.750450841162
 30
0.0000000000378232
 10
10531.29843389078
 20
-9819.750842034711
 30
0.0000000000378232
  0
SPLINE
  5
2F0604
330
18
100
AcDbEntity
  8
0
  6
Continuous
 62
     8
370
    15
100
AcDbSpline
210
0.0
220
0.0
230
1.0
 70
     8
 71
     3
 72
    11
 73
     7
 74
     0
 42
0.000000001
 43
0.0000000001
 40
0.0
 40
0.0
 40
0.0
 40
0.0
 40
0.2323805135846141
 40
0.6240011572703593
 40
0.9467708049010574
 40
1.0
 40
1.0
 40
1.0
 40
1.0
 10
10529.46930412934
 20
-9819.781162880721
 30
0.0000000000378232
 10
10529.49136862778
 20
-9819.78041154869
 30
0.0000000000378232
 10
10529.55061745355
 20
-9819.778394029883
 30
0.0000000000378232
 10
10529.63507482308
 20
-9819.791748342948
 30
0.0000000000378232
 10
10529.69716181601
 20
-9819.809228729053
 30
0.0000000000378232
 10
10529.71376206775
 20
-9819.817663219852
 30
0.0000000000378232
 10
10529.71611212295
 20
-9819.818857269158
 30
0.0000000000378232
  0
SPLINE
  5
2F0605
330
18
100
AcDbEntity
  8
0
  6
Continuous
 62
     8
370
    15
100
AcDbSpline
210
0.0
220
0.0
230
1.0
 70
     8
 71
     3
 72
    11
 73
     7
 74
     0
 42
0.000000001
 43
0.0000000001
 40
0.0
 40
0.0
 40
0.0
 40
0.0
 40
0.007059472262392
 40
0.3481844678754037
 40
0.7207355815796358
 40
1.0
 40
1.0
 40
1.0
 40
1.0
 10
10529.70901433024
 20
-9819.824403835395
 30
0.0000000000378232
 10
10529.71847322182
 20
-9819.828274592674
 30
0.0000000000378232
 10
10530.18500088939
 20
-9820.019186535257
 30
0.0000000000378232
 10
10531.09768830536
 20
-9820.44346126901
 30
0.0000000000378232
 10
10532.27983455652
 20
-9821.06515747339
 30
0.0000000000378232
 10
10532.96667665836
 20
-9821.509645190377
 30
0.0000000000378232
 10
10533.26094789104
 20
-9821.70008189779
 30
0.0000000000378232
  0
SPLINE
  5
2F0606
330
18
100
AcDbEntity
  8
0
  6
Continuous
 62
     8
370
    15
100
AcDbSpline
210
0.0
220
0.0
230
1.0
 70
     8
 71
     3
 72
    10
 73
     6
 74
     0
 42
0.000000001
 43
0.0000000001
 40
0.0
 40
0.0
 40
0.0
 40
0.0
 40
0.2850870172555431
 40
0.7857753617273614
 40
1.0
 40
1.0
 40
1.0
 40
1.0
 10
10533.79137519917
 20
-9821.699458582312
 30
0.0000000000378232
 10
10534.02086985849
 20
-9821.524224324134
 30
0.0000000000378232
 10
10534.65341795094
 20
-9821.041232275144
 30
0.0000000000378232
 10
10535.35879296554
 20
-9820.42866830721
 30
0.0000000000378232
 10
10535.78654609039
 20
-9819.98855071572
 30
0.0000000000378232
 10
10535.91472289044
 20
-9819.85666888659
 30
0.0000000000378232
  0
SPLINE
  5
2F0607
330
18
100
AcDbEntity
  8
0
  6
Continuous
 62
     8
370
    15
100
AcDbSpline
210
0.0
220
0.0
230
1.0
 70
     8
 71
     3
 72
     9
 73
     5
 74
     0
 42
0.000000001
 43
0.0000000001
 40
0.0
 40
0.0
 40
0.0
 40
0.0
 40
0.3803380431447599
 40
1.0
 40
1.0
 40
1.0
 40
1.0
 10
10560.43047025386
 20
-9826.874383242666
 30
0.0000000000378232
 10
10560.63226980606
 20
-9827.001916762452
 30
0.0000000000378232
 10
10561.16284926253
 20
-9827.337232995164
 30
0.0000000000378232
 10
10561.63600400822
 20
-9827.692829831012
 30
0.0000000000378232
 10
10561.92920000383
 20
-9827.913179662166
 30
0.0000000000378232
  0
SPLINE
  5
2F0608
330
18
100
AcDbEntity
  8
0
  6
Continuous
 62
     8
370
    15
100
AcDbSpline
210
0.0
220
0.0
230
1.0
 70
     8
 71
     3
 72
    11
 73
     7
 74
     0
 42
0.000000001
 43
0.0000000001
 40
0.0
 40
0.0
 40
0.0
 40
0.0
 40
0.2679279921611984
 40
0.60529791916176
 40
0.960489033556537
 40
1.0
 40
1.0
 40
1.0
 40
1.0
 10
10547.90116148348
 20
-9821.680467210914
 30
0.0000000000378232
 10
10547.91907617135
 20
-9821.684927783685
 30
0.0000000000378232
 10
10547.95954869983
 20
-9821.695005026439
 30
0.0000000000378232
 10
10547.99717594295
 20
-9821.713454075394
 30
0.0000000000378232
 10
10548.01310644662
 20
-9821.729155138757
 30
0.0000000000378232
 10
10548.00985626314
 20
-9821.724440023132
 30
0.0000000000378232
 10
10548.00953090917
 20
-9821.723968024671
 30
0.0000000000378232
  0
SPLINE
  5
2F0609
330
18
100
AcDbEntity
  8
0
  6
Continuous
 62
     8
370
    15
100
AcDbSpline
210
0.0
220
0.0
230
1.0
 70
     8
 71
     3
 72
    15
 73
    11
 74
     0
 42
0.000000001
 43
0.0000000001
 40
0.0
 40
0.0
 40
0.0
 40
0.0
 40
0.0760703183411858
 40
0.193590096227282
 40
0.3301826741624664
 40
0.4804814018013817
 40
0.6494070291143371
 40
0.8324994657830812
 40
0.9968956663847424
 40
1.0
 40
1.0
 40
1.0
 40
1.0
 10
10549.07012540035
 20
-9822.149231041909
 30
0.0000000000378232
 10
10549.06983694402
 20
-9822.14949481828
 30
0.0000000000378232
 10
10549.06910285626
 20
-9822.150166098407
 30
0.0000000000378232
 10
10549.0921256601
 20
-9822.13394426418
 30
0.0000000000378232
 10
10549.14243408474
 20
-9822.113187000097
 30
0.0000000000378232
 10
10549.22037120406
 20
-9822.094028178268
 30
0.0000000000378232
 10
10549.32074557967
 20
-9822.084256338781
 30
0.0000000000378232
 10
10549.42342867767
 20
-9822.0897178507
 30
0.0000000000378232
 10
10549.49300322709
 20
-9822.101352191119
 30
0.0000000000378232
 10
10549.5155242055
 20
-9822.109558575514
 30
0.0000000000378232
 10
10549.51594159301
 20
-9822.1097106667
 30
0.0000000000378232
  0
SPLINE
  5
2F060A
330
18
100
AcDbEntity
  8
0
  6
Continuous
 62
     8
370
    15
100
AcDbSpline
210
0.0
220
0.0
230
1.0
 70
     8
 71
     3
 72
    11
 73
     7
 74
     0
 42
0.000000001
 43
0.0000000001
 40
0.0
 40
0.0
 40
0.0
 40
0.0
 40
0.1726522348301338
 40
0.5047511377780928
 40
0.8804166468136739
 40
1.0
 40
1.0
 40
1.0
 40
1.0
 10
10513.07568022299
 20
-9822.295758753287
 30
0.0000000000378232
 10
10513.07506768282
 20
-9822.296412863689
 30
0.0000000000378232
 10
10513.07327691337
 20
-9822.298325164284
 30
0.0000000000378232
 10
10513.09364129217
 20
-9822.283491710998
 30
0.0000000000378232
 10
10513.12546790851
 20
-9822.267584642443
 30
0.0000000000378232
 10
10513.15504280682
 20
-9822.260310550857
 30
0.0000000000378232
 10
10513.16218399538
 20
-9822.258554140437
 30
0.0000000000378232
  0
LINE
  5
2F060B
330
18
100
AcDbEntity
  8
0
  6
Continuous
 62
     8
370
    15
100
AcDbLine
 10
10550.17250058923
 20
-9822.919334616654
 30
0.0000000000378232
 11
10550.18260661333
 21
-9822.283649797704
 31
0.0000000000378232
  0
LINE
  5
2F060C
330
18
100
AcDbEntity
  8
0
  6
Continuous
 62
     8
370
    15
100
AcDbLine
 10
10500.00664648388
 20
-9828.938761685306
 30
0.0000000000378232
 11
10500.33791610338
 21
-9828.657839846903
 31
0.0000000000378232
  0
SPLINE
  5
2F060D
330
18
100
AcDbEntity
  8
0
  6
Continuous
 62
     8
370
    15
100
AcDbSpline
210
0.0
220
0.0
230
1.0
 70
     8
 71
     3
 72
    11
 73
     7
 74
     0
 42
0.000000001
 43
0.0000000001
 40
0.0
 40
0.0
 40
0.0
 40
0.0
 40
0.1897283484501538
 40
0.5322180340288889
 40
0.9176351638806156
 40
1.0
 40
1.0
 40
1.0
 40
1.0
 10
10511.61134789903
 20
-9822.741604014926
 30
0.0000000000378232
 10
10511.62406778041
 20
-9822.73722631016
 30
0.0000000000378232
 10
10511.65974906008
 20
-9822.7249461557
 30
0.0000000000378232
 10
10511.74419679635
 20
-9822.713084481547
 30
0.0000000000378232
 10
10511.82386769476
 20
-9822.709393186902
 30
0.0000000000378232
 10
10511.86559055945
 20
-9822.715381441085
 30
0.0000000000378232
 10
10511.87293692413
 20
-9822.71643582456
 30
0.0000000000378232
  0
SPLINE
  5
2F060E
330
18
100
AcDbEntity
  8
0
  6
Continuous
 62
     8
370
    15
100
AcDbSpline
210
0.0
220
0.0
230
1.0
 70
     8
 71
     3
 72
     9
 73
     5
 74
     0
 42
0.000000001
 43
0.0000000001
 40
0.0
 40
0.0
 40
0.0
 40
0.0
 40
0.7750710490359978
 40
1.0
 40
1.0
 40
1.0
 40
1.0
 10
10561.92636464045
 20
-9827.911586772745
 30
0.0000000000378232
 10
10561.92968447534
 20
-9827.914232600997
 30
0.0000000000378232
 10
10561.93396774058
 20
-9827.917646259986
 30
0.0000000000378232
 10
10561.9323165477
 20
-9827.915441619858
 30
0.0000000000378232
 10
10561.93194514661
 20
-9827.914945732471
 30
0.0000000000378232
  0
SPLINE
  5
2F060F
330
18
100
AcDbEntity
  8
0
  6
Continuous
 62
     8
370
    15
100
AcDbSpline
210
0.0
220
0.0
230
1.0
 70
     8
 71
     3
 72
    17
 73
    13
 74
     0
 42
0.000000001
 43
0.0000000001
 40
0.0
 40
0.0
 40
0.0
 40
0.0
 40
0.0060719094010246
 40
0.1057888700618989
 40
0.2025350275067281
 40
0.313822150835012
 40
0.4340719807459403
 40
0.5691011484924662
 40
0.7089075210304902
 40
0.8239248659674521
 40
0.9277006092364648
 40
1.0
 40
1.0
 40
1.0
 40
1.0
 10
10562.35063622026
 20
-9828.684498757037
 30
0.0000000000378232
 10
10562.35047506335
 20
-9828.684744048132
 30
0.0000000000378232
 10
10562.34766727971
 20
-9828.689017673798
 30
0.0000000000378232
 10
10562.35918872458
 20
-9828.676058412944
 30
0.0000000000378232
 10
10562.39834829627
 20
-9828.656942175588
 30
0.0000000000378232
 10
10562.4650099298
 20
-9828.635331141028
 30
0.0000000000378232
 10
10562.55634274098
 20
-9828.620837644528
 30
0.0000000000378232
 10
10562.66308737485
 20
-9828.618817183924
 30
0.0000000000378232
 10
10562.76356844313
 20
-9828.632436561653
 30
0.0000000000378232
 10
10562.83759039965
 20
-9828.654353120088
 30
0.0000000000378232
 10
10562.87934056079
 20
-9828.67611305934
 30
0.0000000000378232
 10
10562.88499378367
 20
-9828.680928474587
 30
0.0000000000378232
 10
10562.88731509141
 20
-9828.682905764515
 30
0.0000000000378232
  0
LINE
  5
2F0610
330
18
100
AcDbEntity
  8
0
  6
Continuous
 62
     8
370
    15
100
AcDbLine
 10
10500.00836923628
 20
-9828.937073817804
 30
0.0000000000378232
 11
10500.00879202178
 21
-9828.936853773655
 31
0.0000000000378232
  0
SPLINE
  5
2F0611
330
18
100
AcDbEntity
  8
0
  6
Continuous
 62
     8
370
    15
100
AcDbSpline
210
0.0
220
0.0
230
1.0
 70
     8
 71
     3
 72
    11
 73
     7
 74
     0
 42
0.000000001
 43
0.0000000001
 40
0.0
 40
0.0
 40
0.0
 40
0.0
 40
0.14043741914274
 40
0.4038821167747146
 40
0.6925872290886399
 40
1.0
 40
1.0
 40
1.0
 40
1.0
 10
10499.15534533983
 20
-9829.736028547042
 30
0.0000000000378232
 10
10499.15481055786
 20
-9829.736557774559
 30
0.0000000000378232
 10
10499.15327258546
 20
-9829.738079772964
 30
0.0000000000378232
 10
10499.17661173704
 20
-9829.721256912537
 30
0.0000000000378232
 10
10499.22526917075
 20
-9829.700547179127
 30
0.0000000000378232
 10
10499.2746177779
 20
-9829.689736030836
 30
0.0000000000378232
 10
10499.30006642236
 20
-9829.684160816356
 30
0.0000000000378232
  0
LINE
  5
2F0612
330
18
100
AcDbEntity
  8
0
  6
Continuous
 62
     8
370
    15
100
AcDbLine
 10
10510.77444360803
 20
-9823.202095193155
 30
0.0000000000378232
 11
10510.78217936573
 21
-9822.982077035005
 31
0.0000000000378232
  0
LINE
  5
2F0613
330
18
100
AcDbEntity
  8
0
  6
Continuous
 62
     8
370
    15
100
AcDbLine
 10
10557.39403710218
 20
-9825.067622432452
 30
0.0000000000378232
 11
10557.43394885063
 21
-9826.969409534755
 31
0.0000000000378232
  0
SPLINE
  5
2F0614
330
18
100
AcDbEntity
  8
0
  6
Continuous
 62
     8
370
    15
100
AcDbSpline
210
0.0
220
0.0
230
1.0
 70
     8
 71
     3
 72
    10
 73
     6
 74
     0
 42
0.000000001
 43
0.0000000001
 40
0.0
 40
0.0
 40
0.0
 40
0.0
 40
0.1925747293052044
 40
0.5910132793191588
 40
1.0
 40
1.0
 40
1.0
 40
1.0
 10
10560.73347547233
 20
-9757.949418821758
 30
0.0000000000378232
 10
10560.5130259247
 20
-9757.791107565296
 30
0.0000000000378232
 10
10559.83646462022
 20
-9757.305249139463
 30
0.0000000000378232
 10
10558.56080761065
 20
-9756.532384356338
 30
0.0000000000378232
 10
10557.44460719023
 20
-9755.94947265994
 30
0.0000000000378232
 10
10556.87921598173
 20
-9755.65420924448
 30
0.0000000000378232
  0
ARC
  5
2F0615
330
18
100
AcDbEntity
  8
0
  6
Continuous
 62
     8
370
    15
100
AcDbCircle
 10
10576.10423656418
 20
-9829.390553993006
 30
0.0000000000378232
 40
2.000000000000015
100
AcDbArc
 50
343.2423513173114
 51
0.0
  0
ARC
  5
2F0616
330
18
100
AcDbEntity
  8
0
  6
Continuous
 62
     8
370
    15
100
AcDbCircle
 10
10576.10423656418
 20
-9829.390553993006
 30
0.0000000000378232
 40
2.000000000000044
100
AcDbArc
 50
0.0
 51
69.88775103691053
  0
SPLINE
  5
2F0617
330
18
100
AcDbEntity
  8
0
  6
Continuous
 62
     8
370
    15
100
AcDbSpline
210
0.0
220
0.0
230
1.0
 70
     8
 71
     3
 72
    10
 73
     6
 74
     0
 42
0.000000001
 43
0.0000000001
 40
0.0
 40
0.0
 40
0.0
 40
0.0
 40
0.1386895616345634
 40
0.7191129046956922
 40
1.0
 40
1.0
 40
1.0
 40
1.0
 10
10577.70713747878
 20
-9830.464773503852
 30
0.0000000000378232
 10
10577.73171280811
 20
-9830.44701270526
 30
0.0000000000378232
 10
10577.85913722456
 20
-9830.35492200054
 30
0.0000000000378232
 10
10577.97045147109
 20
-9830.151109127455
 30
0.0000000000378232
 10
10578.01004095422
 20
-9829.961524470848
 30
0.0000000000378232
 10
10578.0229517172
 20
-9829.899697885288
 30
0.0000000000378232
  0
LINE
  5
2F0618
330
18
100
AcDbEntity
  8
0
  6
Continuous
 62
     8
370
    15
100
AcDbLine
 10
10494.34498063943
 20
-9840.344142712853
 30
0.0000000000378232
 11
10494.34498063943
 21
-9841.643180224852
 31
0.0000000000378232
  0
LINE
  5
2F0619
330
18
100
AcDbEntity
  8
0
  6
Continuous
 62
     8
370
    15
100
AcDbLine
 10
10568.84498286263
 20
-9841.643180224852
 30
0.0000000000378232
 11
10568.84498286263
 21
-9840.344142712853
 31
0.0000000000378232
  0
LINE
  5
2F061A
330
18
100
AcDbEntity
  8
0
  6
Continuous
 62
     8
370
    15
100
AcDbLine
 10
10556.51145970373
 20
-9826.499180928953
 30
0.0000000000378232
 11
10556.45410969673
 21
-9824.602679391355
 31
0.0000000000378232
  0
LINE
  5
2F061B
330
18
100
AcDbEntity
  8
0
  6
Continuous
 62
     8
370
    15
100
AcDbLine
 10
10551.47239838318
 20
-9842.763676621853
 30
0.0000000000378232
 11
10551.47239838318
 21
-9842.973443888153
 31
0.0000000000378232
  0
LINE
  5
2F061C
330
18
100
AcDbEntity
  8
0
  6
Continuous
 62
     8
370
    15
100
AcDbLine
 10
10556.96222559923
 20
-9842.860790630304
 30
0.0000000000378232
 11
10556.96222559923
 21
-9842.752138800355
 31
0.0000000000378232
  0
LINE
  5
2F061D
330
18
100
AcDbEntity
  8
0
  6
Continuous
 62
     8
370
    15
100
AcDbLine
 10
10554.24709269098
 20
-9844.218357084505
 30
0.0000000000378232
 11
10554.24709269098
 21
-9843.871947511405
 31
0.0000000000378232
  0
LINE
  5
2F061E
330
18
100
AcDbEntity
  8
0
  6
Continuous
 62
     8
370
    15
100
AcDbLine
 10
10506.21756487193
 20
-9865.391093377555
 30
0.0000000000378232
 11
10506.21756487193
 21
-9865.600860643703
 31
0.0000000000378232
  0
LINE
  5
2F061F
330
18
100
AcDbEntity
  8
0
  6
Continuous
 62
     8
370
    15
100
AcDbLine
 10
10511.70739208798
 20
-9865.488207386006
 30
0.0000000000378232
 11
10511.70739208798
 21
-9865.379555555905
 31
0.0000000000378232
  0
LINE
  5
2F0620
330
18
100
AcDbEntity
  8
0
  6
Continuous
 62
     8
370
    15
100
AcDbLine
 10
10508.99225786258
 20
-9866.845774498703
 30
0.0000000000378232
 11
10508.99225786258
 21
-9866.499364925603
 31
0.0000000000378232
  0
LINE
  5
2F0621
330
18
100
AcDbEntity
  8
0
  6
Continuous
 62
     8
370
    15
100
AcDbLine
 10
10506.92632331633
 20
-9843.348722004954
 30
0.0000000000378232
 11
10507.33457036798
 21
-9843.637397363153
 31
0.0000000000378232
  0
LINE
  5
2F0622
330
18
100
AcDbEntity
  8
0
  6
Continuous
 62
     8
370
    15
100
AcDbLine
 10
10510.60055762663
 20
-9843.637397867304
 30
0.0000000000378232
 11
10511.00880644813
 21
-9843.348722118055
 31
0.0000000000378232
  0
LINE
  5
2F0623
330
18
100
AcDbEntity
  8
0
  6
Continuous
 62
     8
370
    15
100
AcDbLine
 10
10511.46756408998
 20
-9842.627033862354
 30
0.0000000000378232
 11
10511.46756408998
 21
-9842.368731702954
 31
0.0000000000378232
  0
LINE
  5
2F0624
330
18
100
AcDbEntity
  8
0
  6
Continuous
 62
     8
370
    15
100
AcDbLine
 10
10506.46756458383
 20
-9842.368731867504
 30
0.0000000000378232
 11
10506.46756458383
 21
-9842.627034026904
 31
0.0000000000378232
  0
LINE
  5
2F0625
330
18
100
AcDbEntity
  8
0
  6
Continuous
 62
     8
370
    15
100
AcDbLine
 10
10560.46336685693
 20
-9850.521326026555
 30
0.0000000000378232
 11
10560.87161571953
 21
-9850.810001796355
 31
0.0000000000378232
  0
LINE
  5
2F0626
330
18
100
AcDbEntity
  8
0
  6
Continuous
 62
     8
370
    15
100
AcDbLine
 10
10564.13760135248
 20
-9850.810001796355
 30
0.0000000000378232
 11
10564.54585021508
 21
-9850.521326026555
 31
0.0000000000378232
  0
LINE
  5
2F0627
330
18
100
AcDbEntity
  8
0
  6
Continuous
 62
     8
370
    15
100
AcDbLine
 10
10565.00460812453
 20
-9849.799637637054
 30
0.0000000000378232
 11
10565.00460812453
 21
-9849.541335477654
 31
0.0000000000378232
  0
LINE
  5
2F0628
330
18
100
AcDbEntity
  8
0
  6
Continuous
 62
     8
370
    15
100
AcDbLine
 10
10560.00460763048
 20
-9849.541336136153
 30
0.0000000000378232
 11
10560.00460763048
 21
-9849.799638295553
 31
0.0000000000378232
  0
LINE
  5
2F0629
330
18
100
AcDbEntity
  8
0
  6
Continuous
 62
     8
370
    15
100
AcDbLine
 10
10521.27153135968
 20
-9870.117243775254
 30
0.0000000000378232
 11
10521.67977890528
 21
-9870.405920203553
 31
0.0000000000378232
  0
LINE
  5
2F062A
330
18
100
AcDbEntity
  8
0
  6
Continuous
 62
     8
370
    15
100
AcDbLine
 10
10524.94576585523
 20
-9870.405919545054
 30
0.0000000000378232
 11
10525.35401471798
 21
-9870.117243775254
 31
0.0000000000378232
  0
LINE
  5
2F062B
330
18
100
AcDbEntity
  8
0
  6
Continuous
 62
     8
370
    15
100
AcDbLine
 10
10525.81277262728
 20
-9869.395555385603
 30
0.0000000000378232
 11
10525.81277262728
 21
-9869.137253226203
 31
0.0000000000378232
  0
LINE
  5
2F062C
330
18
100
AcDbEntity
  8
0
  6
Continuous
 62
     8
370
    15
100
AcDbLine
 10
10520.81277213338
 20
-9869.137253884855
 30
0.0000000000378232
 11
10520.81277213338
 21
-9869.395556044103
 31
0.0000000000378232
  0
LINE
  5
2F062D
330
18
100
AcDbEntity
  8
0
  6
Continuous
 62
     8
370
    15
100
AcDbLine
 10
10568.77546163603
 20
-9819.213108391254
 30
0.0000000000378232
 11
10568.46582981353
 21
-9819.058292479855
 31
0.0000000000378232
  0
LINE
  5
2F062E
330
18
100
AcDbEntity
  8
0
  6
Continuous
 62
     8
370
    15
100
AcDbLine
 10
10569.42519613553
 20
-9820.918846149954
 30
0.0000000000378232
 11
10569.42519481853
 21
-9820.565292701453
 31
0.0000000000378232
  0
LINE
  5
2F062F
330
18
100
AcDbEntity
  8
0
  6
Continuous
 62
     8
370
    15
100
AcDbLine
 10
10494.34687329638
 20
-9842.047383394554
 30
0.0000000000378232
 11
10494.59923808858
 21
-9854.567737371355
 31
0.0000000000378232
  0
LINE
  5
2F0630
330
18
100
AcDbEntity
  8
0
  6
Continuous
 62
     8
370
    15
100
AcDbLine
 10
10568.59072541363
 20
-9854.567737371355
 30
0.0000000000378232
 11
10568.84309020568
 21
-9842.047383394554
 31
0.0000000000378232
  0
SPLINE
  5
2F0631
330
18
100
AcDbEntity
  8
0
  6
Continuous
 62
     8
370
    15
100
AcDbSpline
210
0.0
220
0.0
230
1.0
 70
     8
 71
     3
 72
    17
 73
    13
 74
     0
 42
0.000000001
 43
0.0000000001
 40
0.0
 40
0.0
 40
0.0
 40
0.0
 40
0.0088167948086405
 40
0.125029079827048
 40
0.2417279955273448
 40
0.3588603958408728
 40
0.4763276906799875
 40
0.5940216476272988
 40
0.7118478859927014
 40
0.8297345524776335
 40
0.9476271329980536
 40
1.0
 40
1.0
 40
1.0
 40
1.0
 10
10495.59508514228
 20
-9858.711344775278
 30
0.0000000000378232
 10
10495.60740675918
 20
-9858.741920846234
 30
0.0000000000378232
 10
10495.78213697087
 20
-9859.175513563252
 30
0.0000000000378232
 10
10496.26304560368
 20
-9859.99294983942
 30
0.0000000000378232
 10
10497.04656340695
 20
-9861.156902761148
 30
0.0000000000378232
 10
10497.99579911655
 20
-9862.289603463752
 30
0.0000000000378232
 10
10499.08556654055
 20
-9863.388810340239
 30
0.0000000000378232
 10
10500.3168107935
 20
-9864.448532190087
 30
0.0000000000378232
 10
10501.68186023584
 20
-9865.464435369453
 30
0.0000000000378232
 10
10503.17645642029
 20
-9866.431036620856
 30
0.0000000000378232
 10
10504.48910077818
 20
-9867.177927538538
 30
0.0000000000378232
 10
10505.31084143072
 20
-9867.596195514965
 30
0.0000000000378232
 10
10505.56360506852
 20
-9867.724852816955
 30
0.0000000000378232
  0
SPLINE
  5
2F0632
330
18
100
AcDbEntity
  8
0
  6
Continuous
 62
     8
370
    15
100
AcDbSpline
210
0.0
220
0.0
230
1.0
 70
     8
 71
     3
 72
    40
 73
    36
 74
     0
 42
0.000000001
 43
0.0000000001
 40
0.0
 40
0.0
 40
0.0
 40
0.0
 40
0.0162819698100344
 40
0.0472336884163823
 40
0.0781770953159071
 40
0.1091086193247297
 40
0.1400288663821253
 40
0.1709389019097508
 40
0.2018399773319292
 40
0.2327334427853734
 40
0.2636207088705362
 40
0.2945031169266317
 40
0.3253820520002971
 40
0.3562587702883389
 40
0.3871345685005148
 40
0.4180107140927306
 40
0.4488880683123222
 40
0.4797679759495866
 40
0.5106517119157558
 40
0.5415406471326816
 40
0.5724362376497992
 40
0.6033399125937802
 40
0.6342531562921271
 40
0.665177482032288
 40
0.6961142444323681
 40
0.7270646248044207
 40
0.7580292930900326
 40
0.7890080737762393
 40
0.8199993245096298
 40
0.8509990884046436
 40
0.8819973685302869
 40
0.9129788993065944
 40
0.94392281030074
 40
0.9748018930455168
 40
1.0
 40
1.0
 40
1.0
 40
1.0
 10
10505.56360506852
 20
-9867.724852816955
 30
0.0000000000378232
 10
10505.86845028276
 20
-9867.87412545017
 30
0.0000000000378232
 10
10506.75280052002
 20
-9868.30716255369
 30
0.0000000000378232
 10
10508.29914399432
 20
-9868.978830438089
 30
0.0000000000378232
 10
10510.22896237438
 20
-9869.716600064978
 30
0.0000000000378232
 10
10512.25091509265
 20
-9870.387826048525
 30
0.0000000000378232
 10
10514.35436569624
 20
-9870.990766666844
 30
0.0000000000378232
 10
10516.53090459008
 20
-9871.522797423055
 30
0.0000000000378232
 10
10518.77116812961
 20
-9871.981873243898
 30
0.0000000000378232
 10
10521.06570140155
 20
-9872.366142216964
 30
0.0000000000378232
 10
10523.40478741597
 20
-9872.674056820619
 30
0.0000000000378232
 10
10525.77852265909
 20
-9872.904405404504
 30
0.0000000000378232
 10
10528.17685887524
 20
-9873.056239506172
 30
0.0000000000378232
 10
10530.5896394926
 20
-9873.128968463247
 30
0.0000000000378232
 10
10533.00664661137
 20
-9873.122290784777
 30
0.0000000000378232
 10
10535.41763389807
 20
-9873.036228278215
 30
0.0000000000378232
 10
10537.81238264783
 20
-9872.871157571786
 30
0.0000000000378232
 10
10540.18074545127
 20
-9872.627726086143
 30
0.0000000000378232
 10
10542.51269874045
 20
-9872.306940380782
 30
0.0000000000378232
 10
10544.79838056285
 20
-9871.91008226389
 30
0.0000000000378232
 10
10547.0281262883
 20
-9871.438762072346
 30
0.0000000000378232
 10
10549.19251673336
 20
-9870.894840864657
 30
0.0000000000378232
 10
10551.2823964397
 20
-9870.280503126141
 30
0.0000000000378232
 10
10553.28894803576
 20
-9869.598157202
 30
0.0000000000378232
 10
10555.20366455233
 20
-9868.8504680537
 30
0.0000000000378232
 10
10557.01844263362
 20
-9868.040358461807
 30
0.0000000000378232
 10
10558.72553578028
 20
-9867.170921798373
 30
0.0000000000378232
 10
10560.31761570353
 20
-9866.245484471492
 30
0.0000000000378232
 10
10561.78772520317
 20
-9865.267578450239
 30
0.0000000000378232
 10
10563.1294009468
 20
-9864.240983648771
 30
0.0000000000378232
 10
10564.33602089956
 20
-9863.169717106044
 30
0.0000000000378232
 10
10565.40334166965
 20
-9862.05840256139
 30
0.0000000000378232
 10
10566.32032546456
 20
-9860.911028501956
 30
0.0000000000378232
 10
10567.05642754913
 20
-9859.807063459284
 30
0.0000000000378232
 10
10567.41224896263
 20
-9859.07493938833
 30
0.0000000000378232
 10
10567.57213618383
 20
-9858.745961764042
 30
0.0000000000378232
  0
LINE
  5
2F0633
330
18
100
AcDbEntity
  8
0
  6
Continuous
 62
     8
370
    15
100
AcDbLine
 10
10584.18367246793
 20
-9898.381818749305
 30
0.0000000000378232
 11
10603.29395447153
 21
-9908.692256481656
 31
0.0000000000378232
  0
LINE
  5
2F0634
330
18
100
AcDbEntity
  8
0
  6
Continuous
 62
     8
370
    15
100
AcDbLine
 10
10655.00540331773
 20
-9760.864532209856
 30
0.0000000000378232
 11
10635.21614085278
 21
-9751.725191255606
 31
0.0000000000378232
  0
SPLINE
  5
2F0635
330
18
100
AcDbEntity
  8
0
  6
Continuous
 62
     8
370
    15
100
AcDbSpline
210
0.0
220
0.0
230
1.0
 70
     8
 71
     3
 72
    16
 73
    12
 74
     0
 42
0.000000001
 43
0.0000000001
 40
0.0
 40
0.0
 40
0.0
 40
0.0
 40
0.0382729478084693
 40
0.1680770343595323
 40
0.2890103229758954
 40
0.418163956829344
 40
0.5441443944919618
 40
0.6696710885796994
 40
0.7955490594265727
 40
0.921891962958682
 40
1.0
 40
1.0
 40
1.0
 40
1.0
 10
10630.57060457444
 20
-9866.051856575752
 30
0.0000000000378232
 10
10630.60158370665
 20
-9866.063706872676
 30
0.0000000000378232
 10
10630.73762968603
 20
-9866.115747880165
 30
0.0000000000378232
 10
10630.91903058856
 20
-9866.313952759698
 30
0.0000000000378232
 10
10631.12396814375
 20
-9866.67041045049
 30
0.0000000000378232
 10
10631.24678174848
 20
-9867.15121483634
 30
0.0000000000378232
 10
10631.2721691643
 20
-9867.730967209955
 30
0.0000000000378232
 10
10631.19172757522
 20
-9868.36548171276
 30
0.0000000000378232
 10
10631.00600819445
 20
-9869.023532320829
 30
0.0000000000378232
 10
10630.76249353038
 20
-9869.593770879808
 30
0.0000000000378232
 10
10630.56931018136
 20
-9869.922047549924
 30
0.0000000000378232
 10
10630.49550679293
 20
-9870.04746172624
 30
0.0000000000378232
  0
SPLINE
  5
2F0636
330
18
100
AcDbEntity
  8
0
  6
Continuous
 62
     8
370
    15
100
AcDbSpline
210
0.0
220
0.0
230
1.0
 70
     8
 71
     3
 72
    15
 73
    11
 74
     0
 42
0.000000001
 43
0.0000000001
 40
0.0
 40
0.0
 40
0.0
 40
0.0
 40
0.0751647662387653
 40
0.2206510948967552
 40
0.3654768574851989
 40
0.5091053640860249
 40
0.6517613499420137
 40
0.7946407137446416
 40
0.9413184447306516
 40
1.0
 40
1.0
 40
1.0
 40
1.0
 10
10630.56065791819
 20
-9869.93720115727
 30
0.0000000000378232
 10
10630.49946881756
 20
-9870.041311053643
 30
0.0000000000378232
 10
10630.31984420453
 20
-9870.346932474076
 30
0.0000000000378232
 10
10629.97083860253
 20
-9870.803060149483
 30
0.0000000000378232
 10
10629.51692471151
 20
-9871.250063572374
 30
0.0000000000378232
 10
10629.04863122653
 20
-9871.575564133596
 30
0.0000000000378232
 10
10628.59632489219
 20
-9871.771648221544
 30
0.0000000000378232
 10
10628.19139044878
 20
-9871.830447793978
 30
0.0000000000378232
 10
10627.91144206419
 20
-9871.806805591743
 30
0.0000000000378232
 10
10627.78107564112
 20
-9871.726714336291
 30
0.0000000000378232
 10
10627.74382334735
 20
-9871.703828205751
 30
0.0000000000378232
  0
SPLINE
  5
2F0637
330
18
100
AcDbEntity
  8
0
  6
Continuous
 62
     8
370
    15
100
AcDbSpline
210
0.0
220
0.0
230
1.0
 70
     8
 71
     3
 72
    11
 73
     7
 74
     0
 42
0.000000001
 43
0.0000000001
 40
0.0
 40
0.0
 40
0.0
 40
0.0
 40
0.1726406864033936
 40
0.5057828026431921
 40
0.8400643444250012
 40
1.0
 40
1.0
 40
1.0
 40
1.0
 10
10635.10022648267
 20
-9872.514533441328
 30
0.0000000000378232
 10
10635.15657979684
 20
-9872.421829492188
 30
0.0000000000378232
 10
10635.32167724734
 20
-9872.150236137302
 30
0.0000000000378232
 10
10635.49726398678
 20
-9871.647442523874
 30
0.0000000000378232
 10
10635.59885761132
 20
-9871.156138159662
 30
0.0000000000378232
 10
10635.60711893652
 20
-9870.876950567046
 30
0.0000000000378232
 10
10635.60979241788
 20
-9870.786601524374
 30
0.0000000000378232
  0
SPLINE
  5
2F0638
330
18
100
AcDbEntity
  8
0
  6
Continuous
 62
     8
370
    15
100
AcDbSpline
210
0.0
220
0.0
230
1.0
 70
     8
 71
     3
 72
    11
 73
     7
 74
     0
 42
0.000000001
 43
0.0000000001
 40
0.0
 40
0.0
 40
0.0
 40
0.0
 40
0.1776065933671622
 40
0.5087876128555436
 40
0.8404956483537994
 40
1.0
 40
1.0
 40
1.0
 40
1.0
 10
10633.88084703245
 20
-9873.753842178587
 30
0.0000000000378232
 10
10633.96352264334
 20
-9873.708401265612
 30
0.0000000000378232
 10
10634.20036253713
 20
-9873.578227192676
 30
0.0000000000378232
 10
10634.56924990188
 20
-9873.259400393341
 30
0.0000000000378232
 10
10634.9027343115
 20
-9872.876586862509
 30
0.0000000000378232
 10
10635.05181699996
 20
-9872.603280345724
 30
0.0000000000378232
 10
10635.10022648267
 20
-9872.514533441328
 30
0.0000000000378232
  0
LINE
  5
2F0639
330
18
100
AcDbEntity
  8
0
  6
Continuous
 62
     8
370
    15
100
AcDbLine
 10
10635.60979241783
 20
-9870.786601524353
 30
0.0000000000378232
 11
10635.60979241783
 21
-9753.014176542503
 31
0.0000000000378232
  0
LINE
  5
2F063A
330
18
100
AcDbEntity
  8
0
  6
Continuous
 62
     8
370
    15
100
AcDbLine
 10
10585.09621759253
 20
-9898.146156898554
 30
0.0000000000378232
 11
10633.88084703248
 21
-9873.753842178652
 31
0.0000000000378232
  0
LINE
  5
2F063B
330
18
100
AcDbEntity
  8
0
  6
Continuous
 62
     8
370
    15
100
AcDbLine
 10
10613.66826491378
 20
-9819.210381150806
 30
0.0000000000378232
 11
10608.98952152873
 21
-9817.485632228007
 31
0.0000000000378232
  0
LINE
  5
2F063C
330
18
100
AcDbEntity
  8
0
  6
Continuous
 62
     8
370
    15
100
AcDbLine
 10
10592.48065826033
 20
-9850.503358217004
 30
0.0000000000378232
 11
10596.69093942428
 21
-9853.226532534656
 31
0.0000000000378232
  0
SPLINE
  5
2F063D
330
18
100
AcDbEntity
  8
0
  6
Continuous
 62
     8
370
    15
100
AcDbSpline
210
0.0
220
0.0
230
1.0
 70
     8
 71
     3
 72
    22
 73
    18
 74
     0
 42
0.000000001
 43
0.0000000001
 40
0.0
 40
0.0
 40
0.0
 40
0.0
 40
0.0353466772727375
 40
0.1041760843538972
 40
0.1777314130790248
 40
0.2488229180896002
 40
0.3194879061824282
 40
0.3902843504167043
 40
0.4613572463883239
 40
0.5325711593950789
 40
0.6036863914716369
 40
0.6744186634539224
 40
0.7445893966583007
 40
0.8142170352888959
 40
0.8837711019769157
 40
0.954569119652654
 40
1.0
 40
1.0
 40
1.0
 40
1.0
 10
10585.39703808965
 20
-9888.723436610679
 30
0.0000000000378232
 10
10585.43987195905
 20
-9888.760157777964
 30
0.0000000000378232
 10
10585.56611479531
 20
-9888.868384850946
 30
0.0000000000378232
 10
10585.75153511046
 20
-9889.14227973561
 30
0.0000000000378232
 10
10585.90956243366
 20
-9889.594487639857
 30
0.0000000000378232
 10
10585.97388271673
 20
-9890.158788612229
 30
0.0000000000378232
 10
10585.93489940505
 20
-9890.785215076401
 30
0.0000000000378232
 10
10585.79204767739
 20
-9891.446446393558
 30
0.0000000000378232
 10
10585.55024278148
 20
-9892.109844302315
 30
0.0000000000378232
 10
10585.22053448299
 20
-9892.741486197476
 30
0.0000000000378232
 10
10584.82042585432
 20
-9893.308235189172
 30
0.0000000000378232
 10
10584.37283091642
 20
-9893.781065698884
 30
0.0000000000378232
 10
10583.90523337924
 20
-9894.136969916352
 30
0.0000000000378232
 10
10583.44633352228
 20
-9894.364427068213
 30
0.0000000000378232
 10
10583.02822814276
 20
-9894.454828377537
 30
0.0000000000378232
 10
10582.70863886542
 20
-9894.446694110888
 30
0.0000000000378232
 10
10582.5537986808
 20
-9894.362331273689
 30
0.0000000000378232
 10
10582.49327564376
 20
-9894.329356015143
 30
0.0000000000378232
  0
SPLINE
  5
2F063E
330
18
100
AcDbEntity
  8
0
  6
Continuous
 62
     8
370
    15
100
AcDbSpline
210
0.0
220
0.0
230
1.0
 70
     8
 71
     3
 72
     9
 73
     5
 74
     0
 42
0.000000001
 43
0.0000000001
 40
0.0
 40
0.0
 40
0.0
 40
0.0
 40
0.0169463306433274
 40
1.0
 40
1.0
 40
1.0
 40
1.0
 10
10585.24081947856
 20
-9888.626425437247
 30
0.0000000000378232
 10
10585.24215804731
 20
-9888.626787350273
 30
0.0000000000378232
 10
10585.32114675439
 20
-9888.648143774426
 30
0.0000000000378232
 10
10585.38213204116
 20
-9888.705003647709
 30
0.0000000000378232
 10
10585.44208385109
 20
-9888.760899954781
 30
0.0000000000378232
  0
LINE
  5
2F063F
330
18
100
AcDbEntity
  8
0
  6
Continuous
 62
     8
370
    15
100
AcDbLine
 10
10580.90474248418
 20
-9896.601308924302
 30
0.0000000000378232
 11
10581.03926995628
 21
-9896.675367795204
 31
0.0000000000378232
  0
LINE
  5
2F0640
330
18
100
AcDbEntity
  8
0
  6
Continuous
 62
     8
370
    15
100
AcDbLine
 10
10581.04094529338
 20
-9896.686250394203
 30
0.0000000000378232
 11
10583.83628760578
 21
-9898.194401322206
 31
0.0000000000378232
  0
SPLINE
  5
2F0641
330
18
100
AcDbEntity
  8
0
  6
Continuous
 62
     8
370
    15
100
AcDbSpline
210
0.0
220
0.0
230
1.0
 70
     8
 71
     3
 72
    11
 73
     7
 74
     0
 42
0.000000001
 43
0.0000000001
 40
0.0
 40
0.0
 40
0.0
 40
0.0
 40
0.1751777636644876
 40
0.5048953243079743
 40
0.7862599927288024
 40
1.0
 40
1.0
 40
1.0
 40
1.0
 10
10580.28550518075
 20
-9895.178645837837
 30
0.0000000000378232
 10
10580.28918341169
 20
-9895.282091389196
 30
0.0000000000378232
 10
10580.29978476637
 20
-9895.580240960862
 30
0.0000000000378232
 10
10580.41610240916
 20
-9896.00371305097
 30
0.0000000000378232
 10
10580.64131798766
 20
-9896.386568785638
 30
0.0000000000378232
 10
10580.8426117805
 20
-9896.548634354076
 30
0.0000000000378232
 10
10580.92951166017
 20
-9896.618599146328
 30
0.0000000000378232
  0
LINE
  5
2F0642
330
18
100
AcDbEntity
  8
0
  6
Continuous
 62
     8
370
    15
100
AcDbLine
 10
10580.28550518068
 20
-9777.527538731603
 30
0.0000000000378232
 11
10580.28550518068
 21
-9806.028554600904
 31
0.0000000000378232
  0
LINE
  5
2F0643
330
18
100
AcDbEntity
  8
0
  6
Continuous
 62
     8
370
    15
100
AcDbLine
 10
10580.28550518068
 20
-9834.670535879752
 30
0.0000000000378232
 11
10580.28550518068
 21
-9895.178645837907
 31
0.0000000000378232
  0
SPLINE
  5
2F0644
330
18
100
AcDbEntity
  8
0
  6
Continuous
 62
     8
370
    15
100
AcDbSpline
210
0.0
220
0.0
230
1.0
 70
     8
 71
     3
 72
    11
 73
     7
 74
     0
 42
0.000000001
 43
0.0000000001
 40
0.0
 40
0.0
 40
0.0
 40
0.0
 40
0.1015668281784599
 40
0.4191735280456229
 40
0.7342823803669185
 40
1.0
 40
1.0
 40
1.0
 40
1.0
 10
10583.78203670917
 20
-9898.141540970784
 30
0.0000000000378232
 10
10583.81695625224
 20
-9898.169759826385
 30
0.0000000000378232
 10
10583.96107169161
 20
-9898.286221051701
 30
0.0000000000378232
 10
10584.29361308262
 20
-9898.342691770235
 30
0.0000000000378232
 10
10584.70529484612
 20
-9898.314617612134
 30
0.0000000000378232
 10
10584.97351274746
 20
-9898.199034214973
 30
0.0000000000378232
 10
10585.09621759259
 20
-9898.146156898518
 30
0.0000000000378232
  0
SPLINE
  5
2F0645
330
18
100
AcDbEntity
  8
0
  6
Continuous
 62
     8
370
    15
100
AcDbSpline
210
0.0
220
0.0
230
1.0
 70
     8
 71
     3
 72
    22
 73
    18
 74
     0
 42
0.000000001
 43
0.0000000001
 40
0.0
 40
0.0
 40
0.0
 40
0.0
 40
0.0349544089030973
 40
0.1045617188652099
 40
0.1710482546677809
 40
0.241931394433879
 40
0.3119453367998157
 40
0.3819224227200878
 40
0.4521651931278541
 40
0.5226201341338135
 40
0.5930969008692059
 40
0.6633055711253827
 40
0.7330273171349251
 40
0.8021741139897592
 40
0.8710411105178736
 40
0.9403955456738754
 40
1.0
 40
1.0
 40
1.0
 40
1.0
 10
10630.64978006355
 20
-9752.63339689712
 30
0.0000000000378232
 10
10630.69414229384
 20
-9752.665258497647
 30
0.0000000000378232
 10
10630.82684632741
 20
-9752.760568469159
 30
0.0000000000378232
 10
10631.0133134512
 20
-9752.998415865866
 30
0.0000000000378232
 10
10631.18311372584
 20
-9753.40260109332
 30
0.0000000000378232
 10
10631.26908662853
 20
-9753.917231095504
 30
0.0000000000378232
 10
10631.25369685567
 20
-9754.521040528656
 30
0.0000000000378232
 10
10631.13245536142
 20
-9755.16851458294
 30
0.0000000000378232
 10
10630.90889372178
 20
-9755.82823621916
 30
0.0000000000378232
 10
10630.59253771118
 20
-9756.466976714692
 30
0.0000000000378232
 10
10630.19941434148
 20
-9757.051368966706
 30
0.0000000000378232
 10
10629.75133890205
 20
-9757.551106429775
 30
0.0000000000378232
 10
10629.27498988033
 20
-9757.941245857084
 30
0.0000000000378232
 10
10628.79913537693
 20
-9758.206406955745
 30
0.0000000000378232
 10
10628.35591635078
 20
-9758.33704311083
 30
0.0000000000378232
 10
10627.98561274881
 20
-9758.352626664018
 30
0.0000000000378232
 10
10627.79878282329
 20
-9758.280336289175
 30
0.0000000000378232
 10
10627.71243053065
 20
-9758.246923870982
 30
0.0000000000378232
  0
LINE
  5
2F0646
330
18
100
AcDbEntity
  8
0
  6
Continuous
 62
     8
370
    15
100
AcDbLine
 10
10630.58125455623
 20
-9752.613987840956
 30
0.0000000000378232
 11
10630.69757722388
 21
-9752.666493119454
 31
0.0000000000378232
  0
LINE
  5
2F0647
330
18
100
AcDbEntity
  8
0
  6
Continuous
 62
     8
370
    15
100
AcDbLine
 10
10634.85641486663
 20
-9751.559062345103
 30
0.0000000000378232
 11
10631.96239624523
 21
-9750.222509364805
 31
0.0000000000378232
  0
SPLINE
  5
2F0648
330
18
100
AcDbEntity
  8
0
  6
Continuous
 62
     8
370
    15
100
AcDbSpline
210
0.0
220
0.0
230
1.0
 70
     8
 71
     3
 72
    11
 73
     7
 74
     0
 42
0.000000001
 43
0.0000000001
 40
0.0
 40
0.0
 40
0.0
 40
0.0
 40
0.0535600437144247
 40
0.3846141079061404
 40
0.7141796507107715
 40
1.0
 40
1.0
 40
1.0
 40
1.0
 10
10631.96867349146
 20
-9750.232624145894
 30
0.0000000000378232
 10
10631.94826285616
 20
-9750.220873137736
 30
0.0000000000378232
 10
10631.80169429973
 20
-9750.136489272321
 30
0.0000000000378232
 10
10631.47938328518
 20
-9750.089985707069
 30
0.0000000000378232
 10
10631.05439928975
 20
-9750.128492529686
 30
0.0000000000378232
 10
10630.7859632014
 20
-9750.24469907015
 30
0.0000000000378232
 10
10630.66128615319
 20
-9750.298672023404
 30
0.0000000000378232
  0
LINE
  5
2F0649
330
18
100
AcDbEntity
  8
0
  6
Continuous
 62
     8
370
    15
100
AcDbLine
 10
10630.66128615323
 20
-9750.298672023353
 30
0.0000000000378232
 11
10581.97572288068
 21
-9774.641453659555
 31
0.0000000000378232
  0
SPLINE
  5
2F064A
330
18
100
AcDbEntity
  8
0
  6
Continuous
 62
     8
370
    15
100
AcDbSpline
210
0.0
220
0.0
230
1.0
 70
     8
 71
     3
 72
    11
 73
     7
 74
     0
 42
0.000000001
 43
0.0000000001
 40
0.0
 40
0.0
 40
0.0
 40
0.0
 40
0.1576573715705889
 40
0.4572075380812152
 40
0.7561669434448294
 40
1.0
 40
1.0
 40
1.0
 40
1.0
 10
10635.60979241788
 20
-9753.01417654247
 30
0.0000000000378232
 10
10635.6064559719
 20
-9752.916143024235
 30
0.0000000000378232
 10
10635.59678025401
 20
-9752.631845099717
 30
0.0000000000378232
 10
10635.48444545275
 20
-9752.211694793841
 30
0.0000000000378232
 10
10635.25559161482
 20
-9751.815957547864
 30
0.0000000000378232
 10
10635.02265306617
 20
-9751.66878901147
 30
0.0000000000378232
 10
10634.91801248567
 20
-9751.602678008509
 30
0.0000000000378232
  0
SPLINE
  5
2F064B
330
18
100
AcDbEntity
  8
0
  6
Continuous
 62
     8
370
    15
100
AcDbSpline
210
0.0
220
0.0
230
1.0
 70
     8
 71
     3
 72
    15
 73
    11
 74
     0
 42
0.000000001
 43
0.0000000001
 40
0.0
 40
0.0
 40
0.0
 40
0.0
 40
0.0726403573998692
 40
0.2131352379561348
 40
0.3530841311337726
 40
0.4918368176183158
 40
0.6293020801829934
 40
0.7663694824443394
 40
0.905430773645172
 40
1.0
 40
1.0
 40
1.0
 40
1.0
 10
10585.33153925289
 20
-9778.92060435257
 30
0.0000000000378232
 10
10585.27343728585
 20
-9779.027543958484
 30
0.0000000000378232
 10
10585.10295937226
 20
-9779.341317171748
 30
0.0000000000378232
 10
10584.76720970366
 20
-9779.817745140721
 30
0.0000000000378232
 10
10584.32533549302
 20
-9780.295943439556
 30
0.0000000000378232
 10
10583.86404852768
 20
-9780.658315239096
 30
0.0000000000378232
 10
10583.41396797347
 20
-9780.89274784701
 30
0.0000000000378232
 10
10583.0070088569
 20
-9780.99166538829
 30
0.0000000000378232
 10
10582.69840515465
 20
-9780.987841537288
 30
0.0000000000378232
 10
10582.54921749972
 20
-9780.9137047771
 30
0.0000000000378232
 10
10582.48882915124
 20
-9780.883695615074
 30
0.0000000000378232
  0
SPLINE
  5
2F064C
330
18
100
AcDbEntity
  8
0
  6
Continuous
 62
     8
370
    15
100
AcDbSpline
210
0.0
220
0.0
230
1.0
 70
     8
 71
     3
 72
    16
 73
    12
 74
     0
 42
0.000000001
 43
0.0000000001
 40
0.0
 40
0.0
 40
0.0
 40
0.0
 40
0.0732469610666156
 40
0.2038509121684842
 40
0.3272064015554241
 40
0.4588530782774856
 40
0.5884533194578387
 40
0.7179937612891738
 40
0.8481521933305962
 40
0.9722637881171999
 40
1.0
 40
1.0
 40
1.0
 40
1.0
 10
10585.32255275453
 20
-9775.236775121648
 30
0.0000000000378232
 10
10585.3740653245
 20
-9775.260546544967
 30
0.0000000000378232
 10
10585.5174280555
 20
-9775.326703915278
 30
0.0000000000378232
 10
10585.69850509096
 20
-9775.552190155948
 30
0.0000000000378232
 10
10585.87173032455
 20
-9775.92437201654
 30
0.0000000000378232
 10
10585.96401915603
 20
-9776.41581675156
 30
0.0000000000378232
 10
10585.95902211598
 20
-9777.002243267856
 30
0.0000000000378232
 10
10585.85048441252
 20
-9777.639773400544
 30
0.0000000000378232
 10
10585.644081686
 20
-9778.28590769965
 30
0.0000000000378232
 10
10585.42902535756
 20
-9778.751547902895
 30
0.0000000000378232
 10
10585.29431006275
 20
-9778.990200153148
 30
0.0000000000378232
 10
10585.26970324068
 20
-9779.033791888352
 30
0.0000000000378232
  0
SPLINE
  5
2F064D
330
18
100
AcDbEntity
  8
0
  6
Continuous
 62
     8
370
    15
100
AcDbSpline
210
0.0
220
0.0
230
1.0
 70
     8
 71
     3
 72
    11
 73
     7
 74
     0
 42
0.000000001
 43
0.0000000001
 40
0.0
 40
0.0
 40
0.0
 40
0.0
 40
0.1909158564507456
 40
0.5344920810475762
 40
0.8792394280217314
 40
1.0
 40
1.0
 40
1.0
 40
1.0
 10
10581.97572288076
 20
-9774.641453659617
 30
0.0000000000378232
 10
10581.88727137186
 20
-9774.690356473566
 30
0.0000000000378232
 10
10581.63964065147
 20
-9774.827265828713
 30
0.0000000000378232
 10
10581.26072316837
 20
-9775.154774489078
 30
0.0000000000378232
 10
10580.95295393322
 20
-9775.528969945957
 30
0.0000000000378232
 10
10580.80429600436
 20
-9775.768785196586
 30
0.0000000000378232
 10
10580.76573164103
 20
-9775.830997300087
 30
0.0000000000378232
  0
SPLINE
  5
2F064E
330
18
100
AcDbEntity
  8
0
  6
Continuous
 62
     8
370
    15
100
AcDbSpline
210
0.0
220
0.0
230
1.0
 70
     8
 71
     3
 72
    11
 73
     7
 74
     0
 42
0.000000001
 43
0.0000000001
 40
0.0
 40
0.0
 40
0.0
 40
0.0
 40
0.180948213953296
 40
0.5190499942988641
 40
0.8603362718384876
 40
1.0
 40
1.0
 40
1.0
 40
1.0
 10
10580.77911589962
 20
-9775.808268435052
 30
0.0000000000378232
 10
10580.72530920422
 20
-9775.906580408584
 30
0.0000000000378232
 10
10580.57096468583
 20
-9776.188588327786
 30
0.0000000000378232
 10
10580.38785444094
 20
-9776.69251362541
 30
0.0000000000378232
 10
10580.29485712825
 20
-9777.17630892351
 30
0.0000000000378232
 10
10580.28760975527
 20
-9777.448497515223
 30
0.0000000000378232
 10
10580.28550518075
 20
-9777.527538731632
 30
0.0000000000378232
  0
LWPOLYLINE
  5
2F064F
330
18
100
AcDbEntity
  8
0
  6
Continuous
 62
     8
370
    15
100
AcDbPolyline
 90
        9
 70
   128
 43
0.0
 10
10577.71972226438
 20
-9830.973355049755
 10
10577.92113941918
 20
-9831.137285777753
 10
10578.12875479493
 20
-9831.254975787204
 10
10578.33459473468
 20
-9831.321904314053
 10
10578.53074353353
 20
-9831.335497544154
 10
10578.70966744208
 20
-9831.295232542856
 10
10578.86449125593
 20
-9831.202659406852
 10
10578.98926173263
 20
-9831.061334562051
 10
10579.07918466818
 20
-9830.876686044801
  0
LINE
  5
2F0650
330
18
100
AcDbEntity
  8
0
  6
Continuous
 62
     8
370
    15
100
AcDbLine
 10
10576.39079525228
 20
-9829.716494201606
 30
0.0000000000378232
 11
10577.71972226438
 21
-9830.973355049755
 31
0.0000000000378232
  0
ARC
  5
2F0651
330
18
100
AcDbEntity
  8
0
  6
Continuous
 62
     8
370
    15
100
AcDbCircle
 10
10577.78320443173
 20
-9828.178776366505
 30
0.0000000000378232
 40
2.074458836182452
100
AcDbArc
 50
167.6345465017791
 51
227.8390433935731
  0
LINE
  5
2F0652
330
18
100
AcDbEntity
  8
0
  6
Continuous
 62
     8
370
    15
100
AcDbLine
 10
10576.17365468873
 20
-9826.540468021554
 30
0.0000000000378232
 11
10575.75686977223
 21
-9827.734538467703
 31
0.0000000000378232
  0
ARC
  5
2F0653
330
18
100
AcDbEntity
  8
0
  6
Continuous
 62
     8
370
    15
100
AcDbCircle
 10
10568.50604884268
 20
-9824.721583579256
 30
0.0000000000378232
 40
7.880388316811992
100
AcDbArc
 50
346.6551457077014
 51
37.30102635270208
  0
LWPOLYLINE
  5
2F0654
330
18
100
AcDbEntity
  8
0
  6
Continuous
 62
     8
370
    15
100
AcDbPolyline
 90
       41
 70
   128
 43
0.0
 10
10582.65041621724
 20
-9824.822051027902
 10
10583.48260574108
 20
-9824.645556488904
 10
10584.24555852953
 20
-9824.308132361755
 10
10584.92657784443
 20
-9823.815400674353
 10
10585.51432091528
 20
-9823.175564700654
 10
10585.99899913643
 20
-9822.399277176653
 10
10586.37254138648
 20
-9821.499463662356
 10
10586.62873627343
 20
-9820.491110969302
 10
10586.76330589238
 20
-9819.391003145454
 10
10586.77401646028
 20
-9818.217461685206
 10
10586.66068885298
 20
-9816.990026664957
 10
10586.42521441028
 20
-9815.729138296105
 10
10586.07150225263
 20
-9814.455785292204
 10
10585.60545293843
 20
-9813.191176387554
 10
10585.03482148808
 20
-9811.956365359703
 10
10584.36911201588
 20
-9810.771914642904
 10
10583.61940914293
 20
-9809.657546485705
 10
10582.79819623898
 20
-9808.631814947152
 10
10581.91914205373
 20
-9807.711799187306
 10
10580.99688998303
 20
-9806.912819450754
 10
10580.04679465043
 20
-9806.248179535254
 10
10579.08467429513
 20
-9805.728945393053
 10
10578.12654998798
 20
-9805.363762313602
 10
10577.18837694518
 20
-9805.158713321605
 10
10576.28577584243
 20
-9805.117211449553
 10
10575.43377466568
 20
-9805.239947285754
 10
10574.64656109758
 20
-9805.524876471354
 10
10573.93724280803
 20
-9805.967256719305
 10
10573.31763145133
 20
-9806.559720882804
 10
10572.79804246868
 20
-9807.292403497402
 10
10572.38712913493
 20
-9808.153105616155
 10
10572.09173241053
 20
-9809.127494970653
 10
10571.91677030558
 20
-9810.199346757654
 10
10571.86515885548
 20
-9811.350814949754
 10
10571.93775416783
 20
-9812.562724931453
 10
10572.13334978918
 20
-9813.814898430504
 10
10572.44868724133
 20
-9815.086484935255
 10
10572.87851660753
 20
-9816.356311279706
 10
10573.41568346018
 20
-9817.603235024155
 10
10574.05123949648
 20
-9818.806492146952
 10
10574.77460322338
 20
-9819.946047378802
  0
ARC
  5
2F0655
330
18
100
AcDbEntity
  8
0
  6
Continuous
 62
     8
370
    15
100
AcDbCircle
 10
10582.98985054943
 20
-9827.326668053003
 30
0.0000000000378232
 40
2.527513028353458
100
AcDbArc
 50
97.71790021029227
 51
164.4336257939111
  0
LINE
  5
2F0656
330
18
100
AcDbEntity
  8
0
  6
Continuous
 62
     8
370
    15
100
AcDbLine
 10
10579.07918466818
 20
-9830.876686044801
 30
0.0000000000378232
 11
10580.55504613073
 21
-9826.648398525955
 31
0.0000000000378232
  0
LWPOLYLINE
  5
2F0657
330
18
100
AcDbEntity
  8
0
  6
Continuous
 62
     8
370
    15
100
AcDbPolyline
 90
       22
 70
   128
 43
0.0
 10
10577.65987110533
 20
-9826.772432247806
 10
10577.21697094763
 20
-9826.632742042104
 10
10576.81342540988
 20
-9826.668983498752
 10
10576.48509092333
 20
-9826.877935505454
 10
10576.26113837543
 20
-9827.241031115605
 10
10576.16147161538
 20
-9827.726010704606
 10
10576.19494148138
 20
-9828.289777824204
 10
10576.35857925488
 20
-9828.882242245705
 10
10576.63784163908
 20
-9829.450760712352
 10
10577.00791731068
 20
-9829.944816509153
 10
10577.43592119158
 20
-9830.320510555553
 10
10577.88382365323
 20
-9830.544461786456
 10
10578.31182489983
 20
-9830.596770303804
 10
10578.68190057158
 20
-9830.472790178603
 10
10578.96116295563
 20
-9830.183534096002
 10
10579.12480072913
 20
-9829.754707448155
 10
10579.15827059513
 20
-9829.224410194554
 10
10579.05860383508
 20
-9828.639763845506
 10
10578.83465392133
 20
-9828.052717004604
 10
10578.50631680063
 20
-9827.515429194053
 10
10578.10277126288
 20
-9827.075642199656
 10
10577.65987110533
 20
-9826.772432247806
  0
LWPOLYLINE
  5
2F0658
330
18
100
AcDbEntity
  8
0
  6
Continuous
 62
     8
370
    15
100
AcDbPolyline
 90
       24
 70
   128
 43
0.0
 10
10579.32469006073
 20
-9807.164911379456
 10
10578.43653742448
 20
-9806.796899085355
 10
10577.56567026473
 20
-9806.588175946552
 10
10576.72904215088
 20
-9806.542806118552
 10
10575.94293493748
 20
-9806.661671990754
 10
10575.22265056478
 20
-9806.942460426504
 10
10574.58220812818
 20
-9807.379706080403
 10
10574.03406992408
 20
-9807.964896787704
 10
10573.58890964183
 20
-9808.686644792902
 10
10573.25539109273
 20
-9809.530901959854
 10
10573.04000225768
 20
-9810.481233793402
 10
10572.94693674773
 20
-9811.519143987654
 10
10572.97800951188
 20
-9812.624432427805
 10
10573.13261205473
 20
-9813.775584240353
 10
10573.40773614503
 20
-9814.950193894554
 10
10573.79802913313
 20
-9816.125400269157
 10
10574.29588878128
 20
-9817.278325949905
 10
10574.89162921658
 20
-9818.386533537054
 10
10575.57365478758
 20
-9819.428452332206
 10
10576.32869187098
 20
-9820.383803957455
 10
10577.14203911933
 20
-9821.233989202854
 10
10577.99787302528
 20
-9821.962465837401
 10
10578.87952977833
 20
-9822.555051249205
 10
10579.50658005383
 20
-9822.884439592854
  0
LWPOLYLINE
  5
2F0659
330
18
100
AcDbEntity
  8
0
  6
Continuous
 62
     8
370
    15
100
AcDbPolyline
 90
       24
 70
   128
 43
0.0
 10
10579.66846346468
 20
-9822.957208537253
 10
10579.76985034298
 20
-9823.000211531606
 10
10580.65150709618
 20
-9823.289282872855
 10
10581.50733836783
 20
-9823.416638827104
 10
10582.32068825033
 20
-9823.379802147054
 10
10583.07572269973
 20
-9823.179486288354
 10
10583.75774827058
 20
-9822.819593064054
 10
10584.35349134018
 20
-9822.307127229353
 10
10584.85135098819
 20
-9821.652061196753
 10
10585.24164134213
 20
-9820.867146493107
 10
10585.51676543243
 20
-9819.967660929204
 10
10585.67137060958
 20
-9818.971112976655
 10
10585.70243810528
 20
-9817.896894666505
 10
10585.60937786378
 20
-9816.765921596456
 10
10585.39398639443
 20
-9815.600199610555
 10
10585.06046784548
 20
-9814.422423894805
 10
10584.61530756308
 20
-9813.255515607205
 10
10584.06717199313
 20
-9812.122188012803
 10
10583.42672692238
 20
-9811.044498605304
 10
10582.70644254968
 20
-9810.043425796855
 10
10581.92033533643
 20
-9809.138452711402
 10
10581.08370722258
 20
-9808.347194425554
 10
10580.21284269683
 20
-9807.685051721455
 10
10579.32469006073
 20
-9807.164911379456
  0
LINE
  5
2F065A
330
18
100
AcDbEntity
  8
0
  6
Continuous
 62
     8
370
    15
100
AcDbLine
 10
10578.70038723293
 20
-9824.216702738002
 30
0.0000000000378232
 11
10579.12465058093
 21
-9822.956591306753
 31
0.0000000000378232
  0
ARC
  5
2F065B
330
18
100
AcDbEntity
  8
0
  6
Continuous
 62
     8
370
    15
100
AcDbCircle
 10
10579.10552059823
 20
-9824.303093225455
 30
0.0000000000378232
 40
0.4142419100492689
100
AcDbArc
 50
167.9625602390973
 51
240.3228036202468
  0
LINE
  5
2F065C
330
18
100
AcDbEntity
  8
0
  6
Continuous
 62
     8
370
    15
100
AcDbLine
 10
10579.74895340873
 20
-9825.087263124806
 30
0.0000000000378232
 11
10578.90042407858
 21
-9824.662998459804
 31
0.0000000000378232
  0
ARC
  5
2F065D
330
18
100
AcDbEntity
  8
0
  6
Continuous
 62
     8
370
    15
100
AcDbCircle
 10
10577.76253467908
 20
-9828.200054815254
 30
0.0000000000378232
 40
3.457440766198249
100
AcDbArc
 50
167.6346288319415
 51
227.8390144682648
  0
SPLINE
  5
2F065E
330
18
100
AcDbEntity
  8
0
  6
Continuous
 62
     8
370
    15
100
AcDbSpline
210
0.0
220
0.0
230
1.0
 70
     8
 71
     3
 72
    12
 73
     8
 74
     0
 42
0.000000001
 43
0.0000000001
 40
0.0
 40
0.0
 40
0.0
 40
0.0
 40
0.2125864528040889
 40
0.4253801600109617
 40
0.6344275416041603
 40
0.8449804051299068
 40
1.0
 40
1.0
 40
1.0
 40
1.0
 10
10574.32118742705
 20
-9831.323252500322
 30
0.0000000000378232
 10
10574.19346696958
 20
-9831.110725925577
 30
0.0000000000378232
 10
10573.93790153766
 20
-9830.68546558006
 30
0.0000000000378232
 10
10573.61049437897
 20
-9829.896015684768
 30
0.0000000000378232
 10
10573.40806910356
 20
-9829.098152645682
 30
0.0000000000378232
 10
10573.36882451896
 20
-9828.407008936487
 30
0.0000000000378232
 10
10573.46193355035
 20
-9828.052100637397
 30
0.0000000000378232
 10
10573.50141607699
 20
-9827.901603138267
 30
0.0000000000378232
  0
LINE
  5
2F065F
330
18
100
AcDbEntity
  8
0
  6
Continuous
 62
     8
370
    15
100
AcDbLine
 10
10576.77077214068
 20
-9832.019782884654
 30
0.0000000000378232
 11
10575.44184512858
 21
-9830.762923649603
 31
0.0000000000378232
  0
ARC
  5
2F0660
330
18
100
AcDbEntity
  8
0
  6
Continuous
 62
     8
370
    15
100
AcDbCircle
 10
10568.38416472928
 20
-9835.230550495253
 30
0.0000000000378232
 40
7.107405724661044
100
AcDbArc
 50
19.46244218856911
 51
33.34988000027421
  0
LINE
  5
2F0661
330
18
100
AcDbEntity
  8
0
  6
Continuous
 62
     8
370
    15
100
AcDbLine
 10
10573.45226626613
 20
-9805.003709888453
 30
0.0000000000378232
 11
10573.54150168118
 21
-9804.960360521753
 31
0.0000000000378232
  0
LINE
  5
2F0662
330
18
100
AcDbEntity
  8
0
  6
Continuous
 62
     8
370
    15
100
AcDbLine
 10
10574.38530002768
 20
-9827.459661162953
 30
0.0000000000378232
 11
10574.80208494418
 21
-9826.265590716652
 31
0.0000000000378232
  0
ARC
  5
2F0663
330
18
100
AcDbEntity
  8
0
  6
Continuous
 62
     8
370
    15
100
AcDbCircle
 10
10568.41242074453
 20
-9824.749852869652
 30
0.0000000000378232
 40
6.566983310848491
100
AcDbArc
 50
346.6551240369792
 51
37.30105869990739
  0
LINE
  5
2F0664
330
18
100
AcDbEntity
  8
0
  6
Continuous
 62
     8
370
    15
100
AcDbLine
 10
10582.25854469783
 20
-9826.108425601404
 30
0.0000000000378232
 11
10581.90499124933
 21
-9826.285202325653
 31
0.0000000000378232
  0
LWPOLYLINE
  5
2F0665
330
18
100
AcDbEntity
  8
0
  6
Continuous
 62
     8
370
    15
100
AcDbPolyline
 90
        3
 70
   128
 43
0.0
 10
10581.90499124933
 20
-9826.285202325653
 10
10582.79468224538
 20
-9826.098805468257
 10
10583.42934529538
 20
-9825.841753923203
  0
LWPOLYLINE
  5
2F0666
330
18
100
AcDbEntity
  8
0
  6
Continuous
 62
     8
370
    15
100
AcDbPolyline
 90
       16
 70
   128
 43
0.0
 10
10573.09871281763
 20
-9805.180486612702
 10
10572.86704212803
 20
-9805.305252096055
 10
10572.13963493798
 20
-9805.831553555454
 10
10571.50929984248
 20
-9806.511274695054
 10
10570.98602301068
 20
-9807.333638953405
 10
10570.57809946898
 20
-9808.285613745054
 10
10570.29199612463
 20
-9809.352110552605
 10
10570.13224639793
 20
-9810.516225475403
 10
10570.10138436803
 20
-9811.759508655654
 10
10570.19989735808
 20
-9813.062253462806
 10
10570.42622330033
 20
-9814.403811746153
 10
10570.77677707868
 20
-9815.762920703306
 10
10571.24600057738
 20
-9817.118038728506
 10
10571.82645751178
 20
-9818.447687470252
 10
10572.50894669813
 20
-9819.730791363356
 10
10573.28265483548
 20
-9820.947017358052
  0
SPLINE
  5
2F0667
330
18
100
AcDbEntity
  8
0
  6
Continuous
 62
     8
370
    15
100
AcDbSpline
210
0.0
220
0.0
230
1.0
 70
     8
 71
     3
 72
    10
 73
     6
 74
     0
 42
0.000000001
 43
0.0000000001
 40
0.0
 40
0.0
 40
0.0
 40
0.0
 40
0.3125122228839521
 40
0.6553441015298466
 40
1.0
 40
1.0
 40
1.0
 40
1.0
 10
10575.6904562171
 20
-9833.91497614422
 30
0.0000000000378232
 10
10575.63735238853
 20
-9833.91412906994
 30
0.0000000000378232
 10
10575.52599264553
 20
-9833.912352738997
 30
0.0000000000378232
 10
10575.33787430017
 20
-9833.540968498623
 30
0.0000000000378232
 10
10575.16974280156
 20
-9833.08901716633
 30
0.0000000000378232
 10
10575.08545401179
 20
-9832.862441949019
 30
0.0000000000378232
  0
LINE
  5
2F0668
330
18
100
AcDbEntity
  8
0
  6
Continuous
 62
     8
370
    15
100
AcDbLine
 10
10573.91820099353
 20
-9826.707532692057
 30
0.0000000000378232
 11
10573.50141607703
 21
-9827.901603138202
 31
0.0000000000378232
  0
SPLINE
  5
2F0669
330
18
100
AcDbEntity
  8
0
  6
Continuous
 62
     8
370
    15
100
AcDbSpline
210
0.0
220
0.0
230
1.0
 70
     8
 71
     3
 72
    10
 73
     6
 74
     0
 42
0.000000001
 43
0.0000000001
 40
0.0
 40
0.0
 40
0.0
 40
0.0
 40
0.6211671959028621
 40
0.9896854823505572
 40
1.0
 40
1.0
 40
1.0
 40
1.0
 10
10573.9661292043
 20
-9826.55900485217
 30
0.0000000000378232
 10
10574.05083435763
 20
-9826.124486256966
 30
0.0000000000378232
 10
10574.18579232238
 20
-9825.432181917135
 30
0.0000000000378232
 10
10574.07858912207
 20
-9824.61344346436
 30
0.0000000000378232
 10
10574.01215467535
 20
-9824.30539987718
 30
0.0000000000378232
 10
10574.0103458582
 20
-9824.297012744431
 30
0.0000000000378232
  0
SPLINE
  5
2F066A
330
18
100
AcDbEntity
  8
0
  6
Continuous
 62
     8
370
    15
100
AcDbSpline
210
0.0
220
0.0
230
1.0
 70
     8
 71
     3
 72
    12
 73
     8
 74
     0
 42
0.000000001
 43
0.0000000001
 40
0.0
 40
0.0
 40
0.0
 40
0.0
 40
0.3109563011731067
 40
0.56597518049023
 40
0.7775513580368144
 40
0.962939741099245
 40
1.0
 40
1.0
 40
1.0
 40
1.0
 10
10574.24246238238
 20
-9822.812980442337
 30
0.0000000000378232
 10
10574.28828097707
 20
-9822.97451346186
 30
0.0000000000378232
 10
10574.37167593418
 20
-9823.268521589482
 30
0.0000000000378232
 10
10574.34363532082
 20
-9823.69809459455
 30
0.0000000000378232
 10
10574.22822284717
 20
-9824.031008059865
 30
0.0000000000378232
 10
10574.09944533823
 20
-9824.21355064545
 30
0.0000000000378232
 10
10574.02307008379
 20
-9824.285093588725
 30
0.0000000000378232
 10
10574.0103458582
 20
-9824.297012744431
 30
0.0000000000378232
  0
LINE
  5
2F066B
330
18
100
AcDbEntity
  8
0
  6
Continuous
 62
     8
370
    15
100
AcDbLine
 10
10573.91820099353
 20
-9826.707532692057
 30
0.0000000000378232
 11
10573.96612920428
 21
-9826.559004852206
 31
0.0000000000378232
  0
ARC
  5
2F066C
330
18
100
AcDbEntity
  8
0
  6
Continuous
 62
     8
370
    15
100
AcDbCircle
 10
10566.62376734858
 20
-9825.552025311354
 30
0.0000000000378232
 40
8.096102816288537
100
AcDbArc
 50
19.77433705189211
 51
34.66611235739309
  0
LWPOLYLINE
  5
2F066D
330
18
100
AcDbEntity
  8
0
  6
Continuous
 62
     8
370
    15
100
AcDbPolyline
 90
        3
 70
   128
 43
0.0
 10
10575.07053468593
 20
-9807.121338668454
 10
10574.87246557133
 20
-9807.167867656553
 10
10574.84296277738
 20
-9807.175831502605
  0
LINE
  5
2F066E
330
18
100
AcDbEntity
  8
0
  6
Continuous
 62
     8
370
    15
100
AcDbLine
 10
10582.87962131603
 20
-9823.249147131955
 30
0.0000000000378232
 11
10583.05975958078
 21
-9823.099786545205
 31
0.0000000000378232
  0
ARC
  5
2F066F
330
18
100
AcDbEntity
  8
0
  6
Continuous
 62
     8
370
    15
100
AcDbCircle
 10
10579.25045499533
 20
-9824.229401340352
 30
0.0000000000378232
 40
0.2071152872990845
100
AcDbArc
 50
167.9615937537064
 51
240.323487702802
  0
ARC
  5
2F0670
330
18
100
AcDbEntity
  8
0
  6
Continuous
 62
     8
370
    15
100
AcDbCircle
 10
10579.10903387933
 20
-9824.300111898352
 30
0.0000000000378232
 40
0.2071152872992246
100
AcDbArc
 50
167.9615937537064
 51
240.3234877021157
  0
LINE
  5
2F0671
330
18
100
AcDbEntity
  8
0
  6
Continuous
 62
     8
370
    15
100
AcDbLine
 10
10579.67824350923
 20
-9822.966303635152
 30
0.0000000000378232
 11
10579.25397752708
 21
-9824.226413749104
 31
0.0000000000378232
  0
LINE
  5
2F0672
330
18
100
AcDbEntity
  8
0
  6
Continuous
 62
     8
370
    15
100
AcDbLine
 10
10579.04789458433
 20
-9824.186203861704
 30
0.0000000000378232
 11
10579.47215793233
 21
-9822.926092430604
 31
0.0000000000378232
  0
LINE
  5
2F0673
330
18
100
AcDbEntity
  8
0
  6
Continuous
 62
     8
370
    15
100
AcDbLine
 10
10579.99644102023
 20
-9824.833614922554
 30
0.0000000000378232
 11
10579.14791169008
 21
-9824.409350257556
 31
0.0000000000378232
  0
LINE
  5
2F0674
330
18
100
AcDbEntity
  8
0
  6
Continuous
 62
     8
370
    15
100
AcDbLine
 10
10579.25397752708
 20
-9824.226413749104
 30
0.0000000000378232
 11
10580.10250685723
 21
-9824.650678414255
 31
0.0000000000378232
  0
LINE
  5
2F0675
330
18
100
AcDbEntity
  8
0
  6
Continuous
 62
     8
370
    15
100
AcDbLine
 10
10580.10250685723
 20
-9824.650678414255
 30
0.0000000000378232
 11
10579.67824350923
 21
-9822.966303635152
 31
0.0000000000378232
  0
LINE
  5
2F0676
330
18
100
AcDbEntity
  8
0
  6
Continuous
 62
     8
370
    15
100
AcDbLine
 10
10579.00649057408
 20
-9824.480060815556
 30
0.0000000000378232
 11
10579.85501990423
 21
-9824.904325480555
 31
0.0000000000378232
  0
LINE
  5
2F0677
330
18
100
AcDbEntity
  8
0
  6
Continuous
 62
     8
370
    15
100
AcDbLine
 10
10579.33073681633
 20
-9822.996802988604
 30
0.0000000000378232
 11
10578.90647346833
 21
-9824.256914419704
 31
0.0000000000378232
  0
LINE
  5
2F0678
330
18
100
AcDbEntity
  8
0
  6
Continuous
 62
     8
370
    15
100
AcDbLine
 10
10579.47215793233
 20
-9822.926092430604
 30
0.0000000000378232
 11
10579.33073681633
 21
-9822.996802988604
 31
0.0000000000378232
  0
ARC
  5
2F0679
330
18
100
AcDbEntity
  8
0
  6
Continuous
 62
     8
370
    15
100
AcDbCircle
 10
10579.25942960108
 20
-9822.814049569104
 30
0.0000000000378232
 40
0.1961721979926953
100
AcDbArc
 50
226.6033954382558
 51
291.3148670017127
  0
ARC
  5
2F067A
330
18
100
AcDbEntity
  8
0
  6
Continuous
 62
     8
370
    15
100
AcDbCircle
 10
10582.10668629713
 20
-9828.208705804256
 30
0.0000000000378232
 40
1.934049255972837
100
AcDbArc
 50
95.98605497935732
 51
116.4543175787567
  0
LWPOLYLINE
  5
2F067B
330
18
100
AcDbEntity
  8
0
  6
Continuous
 62
     8
370
    15
100
AcDbPolyline
 90
       22
 70
   128
 43
0.0
 10
10577.76905515043
 20
-9814.026557547353
 10
10577.35220701373
 20
-9813.895083597803
 10
10576.97240068838
 20
-9813.929193574702
 10
10576.66337736083
 20
-9814.125853450256
 10
10576.45260097148
 20
-9814.467592031157
 10
10576.35879525758
 20
-9814.924042089955
 10
10576.39029739268
 20
-9815.454647017104
 10
10576.54430987963
 20
-9816.012261145854
 10
10576.80714552953
 20
-9816.547336585856
 10
10577.15544971978
 20
-9817.012329447054
 10
10577.55827612693
 20
-9817.365924031554
 10
10577.97983153993
 20
-9817.576701738053
 10
10578.38265794708
 20
-9817.625933560706
 10
10578.73096477148
 20
-9817.509246206904
 10
10578.99380042138
 20
-9817.237006416653
 10
10579.14781027418
 20
-9816.833403457855
 10
10579.17931240928
 20
-9816.334300665803
 10
10579.08550932953
 20
-9815.784046210254
 10
10578.87473030603
 20
-9815.231529922854
 10
10578.56570961263
 20
-9814.725848036906
 10
10578.18590065313
 20
-9814.311930417505
 10
10577.76905515043
 20
-9814.026557547353
  0
LINE
  5
2F067C
330
18
100
AcDbEntity
  8
0
  6
Continuous
 62
     8
370
    15
100
AcDbLine
 10
10578.17730269603
 20
-9815.096706714656
 30
0.0000000000378232
 11
10577.36080497083
 21
-9814.688457851906
 31
0.0000000000378232
  0
LINE
  5
2F067D
330
18
100
AcDbEntity
  8
0
  6
Continuous
 62
     8
370
    15
100
AcDbLine
 10
10577.36080497083
 20
-9814.688457851906
 30
0.0000000000378232
 11
10576.95255742523
 21
-9815.350359498952
 31
0.0000000000378232
  0
LINE
  5
2F067E
330
18
100
AcDbEntity
  8
0
  6
Continuous
 62
     8
370
    15
100
AcDbLine
 10
10576.95255742523
 20
-9815.350359498952
 30
0.0000000000378232
 11
10577.36080497083
 21
-9816.420508691455
 31
0.0000000000378232
  0
LINE
  5
2F067F
330
18
100
AcDbEntity
  8
0
  6
Continuous
 62
     8
370
    15
100
AcDbLine
 10
10577.36080497083
 20
-9816.420508691455
 30
0.0000000000378232
 11
10578.17730269603
 21
-9816.828757554056
 31
0.0000000000378232
  0
LINE
  5
2F0680
330
18
100
AcDbEntity
  8
0
  6
Continuous
 62
     8
370
    15
100
AcDbLine
 10
10578.17730269603
 20
-9816.828757554056
 30
0.0000000000378232
 11
10578.58555024163
 21
-9816.166855907151
 31
0.0000000000378232
  0
LINE
  5
2F0681
330
18
100
AcDbEntity
  8
0
  6
Continuous
 62
     8
370
    15
100
AcDbLine
 10
10578.58555024163
 20
-9816.166855907151
 30
0.0000000000378232
 11
10578.17730269603
 21
-9815.096706714656
 31
0.0000000000378232
  0
LINE
  5
2F0682
330
18
100
AcDbEntity
  8
0
  6
Continuous
 62
     8
370
    15
100
AcDbLine
 10
10577.78484177938
 20
-9816.632526476453
 30
0.0000000000378232
 11
10577.84308872413
 21
-9816.538086665903
 31
0.0000000000378232
  0
LINE
  5
2F0683
330
18
100
AcDbEntity
  8
0
  6
Continuous
 62
     8
370
    15
100
AcDbLine
 10
10577.43484117853
 20
-9815.467937473404
 30
0.0000000000378232
 11
10577.01080700398
 21
-9815.255920386204
 31
0.0000000000378232
  0
LINE
  5
2F0684
330
18
100
AcDbEntity
  8
0
  6
Continuous
 62
     8
370
    15
100
AcDbLine
 10
10577.84308872413
 20
-9816.538086665903
 30
0.0000000000378232
 11
10577.43484117853
 21
-9815.467937473404
 31
0.0000000000378232
  0
LINE
  5
2F0685
330
18
100
AcDbEntity
  8
0
  6
Continuous
 62
     8
370
    15
100
AcDbLine
 10
10577.84308872413
 20
-9816.538086665903
 30
0.0000000000378232
 11
10578.58555024163
 21
-9816.166855907151
 31
0.0000000000378232
  0
LINE
  5
2F0686
330
18
100
AcDbEntity
  8
0
  6
Continuous
 62
     8
370
    15
100
AcDbLine
 10
10577.43484117853
 20
-9815.467937473404
 30
0.0000000000378232
 11
10578.17730269603
 21
-9815.096706714656
 31
0.0000000000378232
  0
ARC
  5
2F0687
330
18
100
AcDbEntity
  8
0
  6
Continuous
 62
     8
370
    15
100
AcDbCircle
 10
10580.83599130073
 20
-9822.403068882955
 30
0.0000000000378232
 40
4.765337974126307
100
AcDbArc
 50
271.313870806508
 51
324.5458523653192
  0
LWPOLYLINE
  5
2F0688
330
18
100
AcDbEntity
  8
0
  6
Continuous
 62
     8
370
    15
100
AcDbPolyline
 90
       45
 70
   128
 43
0.0
 10
10579.32469006073
 20
-9807.251513772804
 10
10578.42655125563
 20
-9806.881117580157
 10
10577.54669628023
 20
-9806.675607109551
 10
10576.70303491118
 20
-9806.639165705004
 10
10575.91274462303
 20
-9806.772536802055
 10
10575.19190970713
 20
-9807.073003182202
 10
10574.55520780343
 20
-9807.534450024807
 10
10574.01559906778
 20
-9808.147482910255
 10
10573.58406802253
 20
-9808.899622373003
 10
10573.26939701738
 20
-9809.775555394102
 10
10573.07799764153
 20
-9810.757453877304
 10
10573.01376057608
 20
-9811.825326164155
 10
10573.07799764153
 20
-9812.957435466204
 10
10573.26939701738
 20
-9814.130733325102
 10
10573.58406802253
 20
-9815.321337552952
 10
10574.01559906778
 20
-9816.505007859356
 10
10574.55520780343
 20
-9817.657649480454
 10
10575.19190970713
 20
-9818.755798226903
 10
10575.91274462303
 20
-9819.777099522955
 10
10576.70303491118
 20
-9820.700760504653
 10
10577.54669628023
 20
-9821.507980469301
 10
10578.42655125563
 20
-9822.182324973954
 10
10579.32469006073
 20
-9822.710067586551
 10
10580.22282886568
 20
-9823.080463779053
 10
10581.10268384108
 20
-9823.285974249655
 10
10581.94634257614
 20
-9823.322414337053
 10
10582.73663549828
 20
-9823.189044960505
 10
10583.45746778003
 20
-9822.888577263355
 10
10584.09416968373
 20
-9822.427130420601
 10
10584.63377841938
 20
-9821.814097535153
 10
10585.06530946463
 20
-9821.061958274004
 10
10585.37997783563
 20
-9820.186023734303
 10
10585.57138247978
 20
-9819.204127885256
 10
10585.63561954523
 20
-9818.136255648806
 10
10585.57138247978
 20
-9817.004146296353
 10
10585.37997783563
 20
-9815.830845803153
 10
10585.06530946463
 20
-9814.640243094054
 10
10584.63377841938
 20
-9813.456572586056
 10
10584.09416968373
 20
-9812.303930964954
 10
10583.45746778003
 20
-9811.205782218654
 10
10582.73663549828
 20
-9810.184482239605
 10
10581.94634257614
 20
-9809.260819537554
 10
10581.10268384108
 20
-9808.453600889905
 10
10580.22282886568
 20
-9807.779256385256
 10
10579.32469006073
 20
-9807.251513772804
  0
LWPOLYLINE
  5
2F0689
330
18
100
AcDbEntity
  8
0
  6
Continuous
 62
     8
370
    15
100
AcDbPolyline
 90
       39
 70
   128
 43
0.0
 10
10579.32469006073
 20
-9809.416577637054
 10
10578.57691013768
 20
-9809.118576275156
 10
10577.84952665513
 20
-9808.980480324353
 10
10577.16238287638
 20
-9809.006057850806
 10
10576.53422097773
 20
-9809.194610178201
 10
10575.98217628763
 20
-9809.540994847554
 10
10575.52130576753
 20
-9810.035762482854
 10
10575.16418234918
 20
-9810.665418129054
 10
10574.92054722308
 20
-9811.412785868153
 10
10574.79704642018
 20
-9812.257480006254
 10
10574.79704642018
 20
-9813.176458166155
 10
10574.92054722308
 20
-9814.144653056606
 10
10575.16418234918
 20
-9815.135656123704
 10
10575.52130576753
 20
-9816.122434986504
 10
10575.98217628763
 20
-9817.078073141904
 10
10576.53422097773
 20
-9817.976502501355
 10
10577.16238287638
 20
-9818.793216727405
 10
10577.84952665513
 20
-9819.505938032755
 10
10578.57691013768
 20
-9820.095225564353
 10
10579.32469006073
 20
-9820.545004125353
 10
10580.07246998363
 20
-9820.843005487404
 10
10580.79985083203
 20
-9820.981100121055
 10
10581.48699461093
 20
-9820.955522594752
 10
10582.11515650943
 20
-9820.766970267206
 10
10582.66720119953
 20
-9820.420585598004
 10
10583.12807171963
 20
-9819.925817962703
 10
10583.48519513798
 20
-9819.296162518101
 10
10583.72883026423
 20
-9818.548794577255
 10
10583.85233370128
 20
-9817.704101806703
 10
10583.85233370128
 20
-9816.785123646805
 10
10583.72883026423
 20
-9815.816927388802
 10
10583.48519513798
 20
-9814.825924523455
 10
10583.12807171963
 20
-9813.839145458904
 10
10582.66720119953
 20
-9812.883507303504
 10
10582.11515650943
 20
-9811.985077944053
 10
10581.48699461093
 20
-9811.168363718003
 10
10580.79985083203
 20
-9810.455642412802
 10
10580.07246998363
 20
-9809.866356198054
 10
10579.32469006073
 20
-9809.416577637054
  0
LWPOLYLINE
  5
2F068A
330
18
100
AcDbEntity
  8
0
  6
Continuous
 62
     8
370
    15
100
AcDbPolyline
 90
       15
 70
   128
 43
0.0
 10
10577.91047692508
 20
-9810.153917291304
 10
10578.67410142883
 20
-9810.615330687804
 10
10579.41575952218
 20
-9811.222673778804
 10
10580.11411436273
 20
-9811.958473289305
 10
10580.74907244068
 20
-9812.801560960106
 10
10581.30237099953
 20
-9813.727683828802
 10
10581.75808906733
 20
-9814.710197500102
 10
10582.10311897433
 20
-9815.720838057656
 10
10582.32753513758
 20
-9816.730531633253
 10
10582.42488118673
 20
-9817.710230819903
 10
10582.39235435648
 20
-9818.631750279954
 10
10582.23089241398
 20
-9819.468580714853
 10
10581.94513941533
 20
-9820.196647290504
 10
10581.54331662998
 20
-9820.795005600055
 10
10581.37665218588
 20
-9820.971109142003
  0
ARC
  5
2F068B
330
18
100
AcDbEntity
  8
0
  6
Continuous
 62
     8
370
    15
100
AcDbCircle
 10
10576.20337779083
 20
-9813.276540067403
 30
0.0000000000378232
 40
3.558786374025753
100
AcDbArc
 50
61.33511970701679
 51
97.09830047172593
  0
LINE
  5
2F068C
330
18
100
AcDbEntity
  8
0
  6
Continuous
 62
     8
370
    15
100
AcDbLine
 10
10572.24701720543
 20
-9805.005632905104
 30
0.0000000000378232
 11
10572.52380346223
 21
-9804.885869859503
 31
0.0000000000378232
  0
LINE
  5
2F068D
330
18
100
AcDbEntity
  8
0
  6
Continuous
 62
     8
370
    15
100
AcDbLine
 10
10575.74867747858
 20
-9812.306655036205
 30
0.0000000000378232
 11
10575.67877429603
 21
-9812.345984793956
 31
0.0000000000378232
  0
LINE
  5
2F068E
330
18
100
AcDbEntity
  8
0
  6
Continuous
 62
     8
370
    15
100
AcDbLine
 10
10579.50151848068
 20
-9831.821457145255
 30
0.0000000000378232
 11
10579.25438516603
 21
-9831.697890487852
 31
0.0000000000378232
  0
LINE
  5
2F068F
330
18
100
AcDbEntity
  8
0
  6
Continuous
 62
     8
370
    15
100
AcDbLine
 10
10607.71179898628
 20
-9817.014996356003
 30
0.0000000000378232
 11
10607.77782070748
 21
-9817.038956891156
 31
0.0000000000378232
  0
LWPOLYLINE
  5
2F0690
330
18
100
AcDbEntity
  8
0
  6
Continuous
 62
     8
370
    15
100
AcDbPolyline
 90
       11
 70
   128
 43
0.0
 10
10614.50325391043
 20
-9827.797101605302
 10
10614.44026281113
 20
-9826.258218484552
 10
10614.25189669133
 20
-9824.797146499703
 10
10613.93996918258
 20
-9823.427956727453
 10
10613.50748588198
 20
-9822.163834533952
 10
10612.95861010808
 20
-9821.016954820254
 10
10612.29862733888
 20
-9819.998363193656
 10
10611.53389582163
 20
-9819.117867582954
 10
10610.67177808418
 20
-9818.383949483155
 10
10609.72057837238
 20
-9817.803675867955
 10
10608.98952152873
 20
-9817.485632228007
  0
LWPOLYLINE
  5
2F0691
330
18
100
AcDbEntity
  8
0
  6
Continuous
 62
     8
370
    15
100
AcDbPolyline
 90
       25
 70
   128
 43
0.0
 10
10592.48065826033
 20
-9850.503358217004
 10
10593.12297820733
 20
-9850.872003315955
 10
10594.15410019748
 20
-9851.293044131002
 10
10595.25521361518
 20
-9851.550796320804
 10
10596.41571424733
 20
-9851.642780407106
 10
10597.62442626443
 20
-9851.568106102855
 10
10598.86970906888
 20
-9851.327496317153
 10
10600.13956949528
 20
-9850.923266543155
 10
10601.42177828978
 20
-9850.359310171705
 10
10602.70398708443
 20
-9849.641057748653
 10
10603.97384751083
 20
-9848.775427096254
 10
10605.21913031528
 20
-9847.770754077505
 10
10606.42784233238
 20
-9846.636716364654
 10
10607.58834296453
 20
-9845.384231646203
 10
10608.68945638223
 20
-9844.025366038706
 10
10609.72057837238
 20
-9842.573203233354
 10
10610.67177808418
 20
-9841.041729906505
 10
10611.53389582163
 20
-9839.445693262554
 10
10612.29862733888
 20
-9837.800466941157
 10
10612.95861010808
 20
-9836.121892545503
 10
10613.50748588198
 20
-9834.426136654554
 10
10613.93996918258
 20
-9832.729531160454
 10
10614.25189669133
 20
-9831.048413879304
 10
10614.44026281113
 20
-9829.398975875603
 10
10614.50325391043
 20
-9827.797101605302
  0
ELLIPSE
  5
2F0692
330
18
100
AcDbEntity
  8
0
  6
Continuous
 62
     8
370
    15
100
AcDbEllipse
 10
10566.15197078918
 20
-9833.070815790506
 30
0.0000000000378232
 11
-3.546377061920211
 21
12.08089441382358
 31
0.0
210
0.0
220
0.0
230
1.0
 40
0.5903754450000002
 41
4.818273355011793
 42
5.393814107921679
  0
LWPOLYLINE
  5
2F0693
330
18
100
AcDbEntity
  8
0
  6
Continuous
 62
     8
370
    15
100
AcDbPolyline
 90
       37
 70
   128
 43
0.0
 10
10557.93471004568
 20
-9824.792707104803
 10
10556.05474015433
 20
-9823.915484084904
 10
10554.05821183628
 20
-9823.105200138652
 10
10551.95463398048
 20
-9822.365719358153
 10
10549.75403111588
 20
-9821.700565697603
 10
10547.46689484443
 20
-9821.112906591203
 10
10545.10412210198
 20
-9820.605543158003
 10
10542.67697004848
 20
-9820.180895549303
 10
10540.19700865238
 20
-9819.840984508854
 10
10537.67605417763
 20
-9819.587431043754
 10
10535.12612111048
 20
-9819.421444242056
 10
10532.55936091403
 20
-9819.343814356853
 10
10529.98800275978
 20
-9819.354910831855
 10
10527.42430479533
 20
-9819.454681641804
 10
10524.88048170398
 20
-9819.642650000755
 10
10522.36865597333
 20
-9819.917922922254
 10
10519.90079862518
 20
-9820.279185292704
 10
10517.48866863053
 20
-9820.724718311303
 10
10515.14376154208
 20
-9821.252396196054
 10
10512.87725154308
 20
-9821.859705941304
 10
10510.69994106848
 20
-9822.543754067156
 10
10508.62220416988
 20
-9823.301279131705
 10
10506.65394189923
 20
-9824.128671405804
 10
10504.80453781613
 20
-9825.021989850353
 10
10503.08280040613
 20
-9825.976975102254
 10
10501.49693797373
 20
-9826.989077833103
 10
10500.05450620598
 20
-9828.053474431104
 10
10498.76237668538
 20
-9829.165090645853
 10
10497.62671207163
 20
-9830.318632438106
 10
10496.65292099048
 20
-9831.508600632053
 10
10495.84564552253
 20
-9832.729326147353
 10
10495.20873025028
 20
-9833.974988108905
 10
10494.74521369838
 20
-9835.239655006404
 10
10494.45730199078
 20
-9836.517296547805
 10
10494.34636885133
 20
-9837.801825806153
 10
10494.41294243273
 20
-9839.087120293254
 10
10494.42119136128
 20
-9839.153356041355
  0
LWPOLYLINE
  5
2F0694
330
18
100
AcDbEntity
  8
0
  6
Continuous
 62
     8
370
    15
100
AcDbPolyline
 90
       14
 70
   128
 43
0.0
 10
10568.76877214093
 20
-9839.153356041355
 10
10568.81030259173
 20
-9838.766060747756
 10
10568.83249554173
 20
-9837.480381670703
 10
10568.67723577148
 20
-9836.197001572404
 10
10568.34526216778
 20
-9834.922035038904
 10
10567.83815523788
 20
-9833.661557801606
 10
10567.15833315683
 20
-9832.421577103403
 10
10566.30903793928
 20
-9831.208001076655
 10
10565.29431107318
 20
-9830.026614705504
 10
10564.11899286038
 20
-9828.883046569706
 10
10562.78868553898
 20
-9827.782745137552
 10
10561.30972397798
 20
-9826.730956209503
 10
10559.68915608548
 20
-9825.732692050555
 10
10557.93471004568
 20
-9824.792707104803
  0
SPLINE
  5
2F0695
330
18
100
AcDbEntity
  8
0
  6
Continuous
 62
     8
370
    15
100
AcDbSpline
210
0.0
220
0.0
230
1.0
 70
     8
 71
     3
 72
     9
 73
     5
 74
     0
 42
0.000000001
 43
0.0000000001
 40
0.0
 40
0.0
 40
0.0
 40
0.0
 40
0.5253526093948773
 40
1.0
 40
1.0
 40
1.0
 40
1.0
 10
10511.89674989353
 20
-9822.682840478225
 30
0.0000000000378232
 10
10512.71250255844
 20
-9822.767721205637
 30
0.0000000000378232
 10
10514.26527425942
 20
-9822.92929026591
 30
0.0000000000378232
 10
10515.74477478916
 20
-9823.214540792767
 30
0.0000000000378232
 10
10516.447015855
 20
-9823.349934211012
 30
0.0000000000378232
  0
SPLINE
  5
2F0696
330
18
100
AcDbEntity
  8
0
  6
Continuous
 62
     8
370
    15
100
AcDbSpline
210
0.0
220
0.0
230
1.0
 70
     8
 71
     3
 72
    10
 73
     6
 74
     0
 42
0.000000001
 43
0.0000000001
 40
0.0
 40
0.0
 40
0.0
 40
0.0
 40
0.5
 40
0.5
 40
1.0
 40
1.0
 40
1.0
 40
1.0
 10
10511.89675118728
 20
-9822.682841493668
 30
0.0000000000378232
 10
10511.83340073605
 20
-9822.676989932395
 30
0.0000000000378232
 10
10511.76927465054
 20
-9822.67729133489
 30
0.0000000000378232
 10
10511.64330339361
 20
-9822.690100280543
 30
0.0000000000378232
 10
10511.58488803007
 20
-9822.702137270746
 30
0.0000000000378232
 10
10511.53107462296
 20
-9822.719845835778
 30
0.0000000000378232
  0
ARC
  5
2F0697
330
18
100
AcDbEntity
  8
0
  6
Continuous
 62
     8
370
    15
100
AcDbCircle
 10
10521.37560093758
 20
-9855.278474590254
 30
0.0000000000378232
 40
34.01439499562792
100
AcDbArc
 50
106.8233776150012
 51
128.5533061757016
  0
SPLINE
  5
2F0698
330
18
100
AcDbEntity
  8
0
  6
Continuous
 62
     8
370
    15
100
AcDbSpline
210
0.0
220
0.0
230
1.0
 70
     8
 71
     3
 72
    14
 73
    10
 74
     0
 42
0.000000001
 43
0.0000000001
 40
0.0
 40
0.0
 40
0.0
 40
0.0
 40
0.25
 40
0.25
 40
0.5
 40
0.5
 40
0.75
 40
0.75
 40
1.0
 40
1.0
 40
1.0
 40
1.0
 10
10499.84121920239
 20
-9828.967827460256
 30
0.0000000000378232
 10
10499.79199056384
 20
-9829.01127490226
 30
0.0000000000378232
 10
10499.77005391408
 20
-9829.061298900982
 30
0.0000000000378232
 10
10499.78537102731
 20
-9829.159733978751
 30
0.0000000000378232
 10
10499.82351738959
 20
-9829.208125034624
 30
0.0000000000378232
 10
10499.94608370412
 20
-9829.285182548105
 30
0.0000000000378232
 10
10500.03168579996
 20
-9829.314641042729
 30
0.0000000000378232
 10
10500.22021911149
 20
-9829.344304259088
 30
0.0000000000378232
 10
10500.32247207237
 20
-9829.344881496803
 30
0.0000000000378232
 10
10500.41823219556
 20
-9829.330702911746
 30
0.0000000000378232
  0
SPLINE
  5
2F0699
330
18
100
AcDbEntity
  8
0
  6
Continuous
 62
     8
370
    15
100
AcDbSpline
210
0.0
220
0.0
230
1.0
 70
     8
 71
     3
 72
     9
 73
     5
 74
     0
 42
0.000000001
 43
0.0000000001
 40
0.0
 40
0.0
 40
0.0
 40
0.0
 40
0.9992085852826716
 40
1.0
 40
1.0
 40
1.0
 40
1.0
 10
10499.2560842103
 20
-9829.654494911658
 30
0.0000000000378232
 10
10500.04248118723
 20
-9829.513800049015
 30
0.0000000000378232
 10
10500.82950102324
 20
-9829.372993750196
 30
0.0000000000378232
 10
10501.64802871171
 20
-9829.297705032448
 30
0.0000000000378232
 10
10501.64867650657
 20
-9829.297645447852
 30
0.0000000000378232
  0
SPLINE
  5
2F069A
330
18
100
AcDbEntity
  8
0
  6
Continuous
 62
     8
370
    15
100
AcDbSpline
210
0.0
220
0.0
230
1.0
 70
     8
 71
     3
 72
    10
 73
     6
 74
     0
 42
0.000000001
 43
0.0000000001
 40
0.0
 40
0.0
 40
0.0
 40
0.0
 40
0.5
 40
0.5
 40
1.0
 40
1.0
 40
1.0
 40
1.0
 10
10499.25608355855
 20
-9829.654494807015
 30
0.0000000000378232
 10
10499.19551463639
 20
-9829.665238966816
 30
0.0000000000378232
 10
10499.14015286843
 20
-9829.681584540547
 30
0.0000000000378232
 10
10499.04444372386
 20
-9829.723845859102
 30
0.0000000000378232
 10
10499.00522854983
 20
-9829.749240344609
 30
0.0000000000378232
 10
10498.97640270638
 20
-9829.777960648415
 30
0.0000000000378232
  0
SPLINE
  5
2F069B
330
18
100
AcDbEntity
  8
0
  6
Continuous
 62
     8
370
    15
100
AcDbSpline
210
0.0
220
0.0
230
1.0
 70
     8
 71
     3
 72
    14
 73
    10
 74
     0
 42
0.000000001
 43
0.0000000001
 40
0.0
 40
0.0
 40
0.0
 40
0.0
 40
0.25
 40
0.25
 40
0.5
 40
0.5
 40
0.75
 40
0.75
 40
1.0
 40
1.0
 40
1.0
 40
1.0
 10
10563.05121689101
 20
-9828.71016116595
 30
0.0000000000378232
 10
10563.00057803326
 20
-9828.667120819158
 30
0.0000000000378232
 10
10562.92490225076
 20
-9828.63260997181
 30
0.0000000000378232
 10
10562.74674913821
 20
-9828.590024937512
 30
0.0000000000378232
 10
10562.64386018966
 20
-9828.582347268974
 30
0.0000000000378232
 10
10562.44910950394
 20
-9828.596891283247
 30
0.0000000000378232
 10
10562.35528484662
 20
-9828.619228830743
 30
0.0000000000378232
 10
10562.20963999301
 20
-9828.686034541188
 30
0.0000000000378232
 10
10562.15751370752
 20
-9828.730022753196
 30
0.0000000000378232
 10
10562.13419167562
 20
-9828.778577395406
 30
0.0000000000378232
  0
SPLINE
  5
2F069C
330
18
100
AcDbEntity
  8
0
  6
Continuous
 62
     8
370
    15
100
AcDbSpline
210
0.0
220
0.0
230
1.0
 70
     8
 71
     3
 72
    10
 73
     6
 74
     0
 42
0.000000001
 43
0.0000000001
 40
0.0
 40
0.0
 40
0.0
 40
0.0
 40
0.5
 40
0.5
 40
1.0
 40
1.0
 40
1.0
 40
1.0
 10
10562.15444198044
 20
-9828.113456326453
 30
0.0000000000378232
 10
10562.1661409108
 20
-9828.081792447265
 30
0.0000000000378232
 10
10562.16556050305
 20
-9828.049783703056
 30
0.0000000000378232
 10
10562.13993195906
 20
-9827.986730134278
 30
0.0000000000378232
 10
10562.1158377377
 20
-9827.957515108214
 30
0.0000000000378232
 10
10562.08043329622
 20
-9827.93061804429
 30
0.0000000000378232
  0
ARC
  5
2F069D
330
18
100
AcDbEntity
  8
0
  6
Continuous
 62
     8
370
    15
100
AcDbCircle
 10
10539.48906484748
 20
-9860.284808334804
 30
0.0000000000378232
 40
39.51062889111164
100
AcDbArc
 50
57.74358187979811
 51
75.19612770299932
  0
SPLINE
  5
2F069E
330
18
100
AcDbEntity
  8
0
  6
Continuous
 62
     8
370
    15
100
AcDbSpline
210
0.0
220
0.0
230
1.0
 70
     8
 71
     3
 72
    14
 73
    10
 74
     0
 42
0.000000001
 43
0.0000000001
 40
0.0
 40
0.0
 40
0.0
 40
0.0
 40
0.25
 40
0.25
 40
0.5
 40
0.5
 40
0.75
 40
0.75
 40
1.0
 40
1.0
 40
1.0
 40
1.0
 10
10549.58447004727
 20
-9822.085690334006
 30
0.0000000000378232
 10
10549.49757516326
 20
-9822.061076014736
 30
0.0000000000378232
 10
10549.39752716581
 20
-9822.05010768985
 30
0.0000000000378232
 10
10549.20065701028
 20
-9822.057766246468
 30
0.0000000000378232
 10
10549.10387489853
 20
-9822.076839427606
 30
0.0000000000378232
 10
10548.94975987157
 20
-9822.13812258487
 30
0.0000000000378232
 10
10548.89084288232
 20
-9822.18092363279
 30
0.0000000000378232
 10
10548.8315164496
 20
-9822.275190288557
 30
0.0000000000378232
 10
10548.83036197417
 20
-9822.326316768995
 30
0.0000000000378232
 10
10548.85871914429
 20
-9822.374196830595
 30
0.0000000000378232
  0
SPLINE
  5
2F069F
330
18
100
AcDbEntity
  8
0
  6
Continuous
 62
     8
370
    15
100
AcDbSpline
210
0.0
220
0.0
230
1.0
 70
     8
 71
     3
 72
    10
 73
     6
 74
     0
 42
0.000000001
 43
0.0000000001
 40
0.0
 40
0.0
 40
0.0
 40
0.0
 40
0.5
 40
0.5
 40
1.0
 40
1.0
 40
1.0
 40
1.0
 10
10548.21113535375
 20
-9821.793122512085
 30
0.0000000000378232
 10
10548.18960274432
 20
-9821.762775631349
 30
0.0000000000378232
 10
10548.15708836616
 20
-9821.735198658094
 30
0.0000000000378232
 10
10548.07184291821
 20
-9821.687002060124
 30
0.0000000000378232
 10
10548.02176268565
 20
-9821.667724718282
 30
0.0000000000378232
 10
10547.96420367095
 20
-9821.653282086005
 30
0.0000000000378232
  0
ARC
  5
2F06A0
330
18
100
AcDbEntity
  8
0
  6
Continuous
 62
     8
370
    15
100
AcDbCircle
 10
10531.83960756548
 20
-9887.693341994003
 30
0.0000000000378232
 40
67.9800873700083
100
AcDbArc
 50
76.27890126850173
 51
90.4569480200002
  0
SPLINE
  5
2F06A1
330
18
100
AcDbEntity
  8
0
  6
Continuous
 62
     8
370
    15
100
AcDbSpline
210
0.0
220
0.0
230
1.0
 70
     8
 71
     3
 72
    14
 73
    10
 74
     0
 42
0.000000001
 43
0.0000000001
 40
0.0
 40
0.0
 40
0.0
 40
0.0
 40
0.25
 40
0.25
 40
0.5
 40
0.5
 40
0.75
 40
0.75
 40
1.0
 40
1.0
 40
1.0
 40
1.0
 10
10531.29745434232
 20
-9819.715417017851
 30
0.0000000000378232
 10
10531.19758684603
 20
-9819.715824113067
 30
0.0000000000378232
 10
10531.09997441376
 20
-9819.731337264442
 30
0.0000000000378232
 10
10530.93713841444
 20
-9819.787187307913
 30
0.0000000000378232
 10
10530.87239582818
 20
-9819.827900695247
 30
0.0000000000378232
 10
10530.80021145699
 20
-9819.919502223001
 30
0.0000000000378232
 10
10530.7919888955
 20
-9819.971298265122
 30
0.0000000000378232
 10
10530.83487735342
 20
-9820.067767191926
 30
0.0000000000378232
 10
10530.88500402881
 20
-9820.11233264165
 30
0.0000000000378232
 10
10530.9574421201
 20
-9820.146708698798
 30
0.0000000000378232
  0
SPLINE
  5
2F06A2
330
18
100
AcDbEntity
  8
0
  6
Continuous
 62
     8
370
    15
100
AcDbSpline
210
0.0
220
0.0
230
1.0
 70
     8
 71
     3
 72
     8
 73
     4
 74
     0
 42
0.000000001
 43
0.0000000001
 40
0.0
 40
0.0
 40
0.0
 40
0.0
 40
1.0
 40
1.0
 40
1.0
 40
1.0
 10
10533.76108873859
 20
-9821.725485368272
 30
0.0000000000378232
 10
10532.91824783241
 20
-9821.160300223208
 30
0.0000000000378232
 10
10531.98026187212
 20
-9820.632095732333
 30
0.0000000000378232
 10
10530.9574421201
 20
-9820.146708698798
 30
0.0000000000378232
  0
SPLINE
  5
2F06A3
330
18
100
AcDbEntity
  8
0
  6
Continuous
 62
     8
370
    15
100
AcDbSpline
210
0.0
220
0.0
230
1.0
 70
     8
 71
     3
 72
     8
 73
     4
 74
     0
 42
0.000000001
 43
0.0000000001
 40
0.0
 40
0.0
 40
0.0
 40
0.0
 40
1.0
 40
1.0
 40
1.0
 40
1.0
 10
10533.62527158772
 20
-9821.744310887952
 30
0.0000000000378232
 10
10533.67346751935
 20
-9821.745819244981
 30
0.0000000000378232
 10
10533.72250738027
 20
-9821.740129204685
 30
0.0000000000378232
 10
10533.76108873859
 20
-9821.725485368272
 30
0.0000000000378232
  0
ARC
  5
2F06A4
330
18
100
AcDbEntity
  8
0
  6
Continuous
 62
     8
370
    15
100
AcDbCircle
 10
10531.59723450218
 20
-9886.550087902404
 30
0.0000000000378232
 40
64.8375023751138
100
AcDbArc
 50
88.20756729170012
 51
88.35261946729959
  0
SPLINE
  5
2F06A5
330
18
100
AcDbEntity
  8
0
  6
Continuous
 62
     8
370
    15
100
AcDbSpline
210
0.0
220
0.0
230
1.0
 70
     8
 71
     3
 72
    10
 73
     6
 74
     0
 42
0.000000001
 43
0.0000000001
 40
0.0
 40
0.0
 40
0.0
 40
0.0
 40
0.5
 40
0.5
 40
1.0
 40
1.0
 40
1.0
 40
1.0
 10
10529.81554378791
 20
-9819.805379525118
 30
0.0000000000378232
 10
10530.49151153568
 20
-9820.093704487725
 30
0.0000000000378232
 10
10531.13473694472
 20
-9820.399785272133
 30
0.0000000000378232
 10
10532.3530891852
 20
-9821.046140460669
 30
0.0000000000378232
 10
10532.92553150685
 20
-9821.384941769888
 30
0.0000000000378232
 10
10533.4611990047
 20
-9821.739384243021
 30
0.0000000000378232
  0
SPLINE
  5
2F06A6
330
18
100
AcDbEntity
  8
0
  6
Continuous
 62
     8
370
    15
100
AcDbSpline
210
0.0
220
0.0
230
1.0
 70
     8
 71
     3
 72
    10
 73
     6
 74
     0
 42
0.000000001
 43
0.0000000001
 40
0.0
 40
0.0
 40
0.0
 40
0.0
 40
0.5
 40
0.5
 40
1.0
 40
1.0
 40
1.0
 40
1.0
 10
10529.81554378791
 20
-9819.805379525118
 30
0.0000000000378232
 10
10529.76654268308
 20
-9819.784478762082
 30
0.0000000000378232
 10
10529.71076794596
 20
-9819.76871840874
 30
0.0000000000378232
 10
10529.58879244398
 20
-9819.748301255859
 30
0.0000000000378232
 10
10529.52615290089
 20
-9819.744124769812
 30
0.0000000000378232
 10
10529.46185425153
 20
-9819.746007084355
 30
0.0000000000378232
  0
ARC
  5
2F06A7
330
18
100
AcDbEntity
  8
0
  6
Continuous
 62
     8
370
    15
100
AcDbCircle
 10
10531.01704117748
 20
-9885.077298498054
 30
0.0000000000378232
 40
65.34979963321003
100
AcDbArc
 50
91.36364781240032
 51
105.9216082223002
  0
SPLINE
  5
2F06A8
330
18
100
AcDbEntity
  8
0
  6
Continuous
 62
     8
370
    15
100
AcDbSpline
210
0.0
220
0.0
230
1.0
 70
     8
 71
     3
 72
    14
 73
    10
 74
     0
 42
0.000000001
 43
0.0000000001
 40
0.0
 40
0.0
 40
0.0
 40
0.0
 40
0.25
 40
0.25
 40
0.5
 40
0.5
 40
0.75
 40
0.75
 40
1.0
 40
1.0
 40
1.0
 40
1.0
 10
10513.09016086627
 20
-9822.234454038386
 30
0.0000000000378232
 10
10513.00408017269
 20
-9822.259773467256
 30
0.0000000000378232
 10
10512.93505847799
 20
-9822.297611358506
 30
0.0000000000378232
 10
10512.8498884094
 20
-9822.386687914786
 30
0.0000000000378232
 10
10512.83453307232
 20
-9822.438132389056
 30
0.0000000000378232
 10
10512.86362110087
 20
-9822.535507731918
 30
0.0000000000378232
 10
10512.90829619586
 20
-9822.582420060578
 30
0.0000000000378232
 10
10513.04190761675
 20
-9822.655242487388
 30
0.0000000000378232
 10
10513.12988404077
 20
-9822.681305630129
 30
0.0000000000378232
 10
10513.22699332518
 20
-9822.692966646082
 30
0.0000000000378232
  0
LWPOLYLINE
  5
2F06A9
330
18
100
AcDbEntity
  8
0
  6
Continuous
 62
     8
370
    15
100
AcDbPolyline
 90
       11
 70
   128
 43
0.0
 10
10502.67890386418
 20
-9757.865183326103
 10
10501.83151184033
 20
-9758.469038676056
 10
10500.49610968943
 20
-9759.543667574006
 10
10499.31564363413
 20
-9760.662719744007
 10
10498.29599151353
 20
-9761.820619454604
 10
10497.44223136433
 20
-9763.011595550906
 10
10496.75862001823
 20
-9764.229718498253
 10
10496.24856017468
 20
-9765.468916845504
 10
10495.91459513243
 20
-9766.723018054854
 10
10495.75838837513
 20
-9767.985774514706
 10
10495.74764751428
 20
-9768.279617732755
  0
LWPOLYLINE
  5
2F06AA
330
18
100
AcDbEntity
  8
0
  6
Continuous
 62
     8
370
    15
100
AcDbPolyline
 90
       10
 70
   128
 43
0.0
 10
10567.44231598793
 20
-9768.279617732755
 10
10567.33112996738
 20
-9767.038141480105
 10
10567.04148365348
 20
-9765.781288213253
 10
10566.57524336138
 20
-9764.537781667852
 10
10565.93473243628
 20
-9763.313817430706
 10
10565.12314481888
 20
-9762.115491648354
 10
10564.14452199668
 20
-9760.948775014705
 10
10563.00373719938
 20
-9759.819481160455
 10
10561.70647597073
 20
-9758.733234549654
 10
10560.81096409973
 20
-9758.072903081153
  0
ARC
  5
2F06AB
330
18
100
AcDbEntity
  8
0
  6
Continuous
 62
     8
370
    15
100
AcDbCircle
 10
10531.66850652518
 20
-9819.720533203705
 30
0.0000000000378232
 40
0.3710865084029891
100
AcDbArc
 50
179.2099609604164
 51
184.3798200649594
  0
ARC
  5
2F06AC
330
18
100
AcDbEntity
  8
0
  6
Continuous
 62
     8
370
    15
100
AcDbCircle
 10
10547.91320502608
 20
-9821.617652066303
 30
0.0000000000378232
 40
0.0622130265378693
100
AcDbArc
 50
259.2635166068799
 51
325.0615634011106
  0
ARC
  5
2F06AD
330
18
100
AcDbEntity
  8
0
  6
Continuous
 62
     8
370
    15
100
AcDbCircle
 10
10513.14528415838
 20
-9822.185772879206
 30
0.0000000000378232
 40
0.073542276452781
100
AcDbArc
 50
221.4475234774696
 51
283.1265277825327
  0
ARC
  5
2F06AE
330
18
100
AcDbEntity
  8
0
  6
Continuous
 62
     8
370
    15
100
AcDbCircle
 10
10529.52053544713
 20
-9819.750297499402
 30
0.0000000000378232
 40
0.0588387599718719
100
AcDbArc
 50
175.8178980810907
 51
209.5944287188654
  0
ARC
  5
2F06AF
330
18
100
AcDbEntity
  8
0
  6
Continuous
 62
     8
370
    15
100
AcDbCircle
 10
10530.76015348328
 20
-9819.834331203205
 30
0.0000000000378232
 40
0.3694623424754548
100
AcDbArc
 50
302.2753497307979
 51
358.7773750840021
  0
ARC
  5
2F06B0
330
18
100
AcDbEntity
  8
0
  6
Continuous
 62
     8
370
    15
100
AcDbCircle
 10
10529.75381035643
 20
-9819.718955630455
 30
0.0000000000378232
 40
0.1062070168926263
100
AcDbArc
 50
249.2665803830178
 51
305.5384686483171
  0
SPLINE
  5
2F06B1
330
18
100
AcDbEntity
  8
0
  6
Continuous
 62
     8
370
    15
100
AcDbSpline
210
0.0
220
0.0
230
1.0
 70
     8
 71
     3
 72
     8
 73
     4
 74
     0
 42
0.000000001
 43
0.0000000001
 40
0.0
 40
0.0
 40
0.0
 40
0.0
 40
1.0
 40
1.0
 40
1.0
 40
1.0
 10
10533.46119900471
 20
-9821.739384243021
 30
0.0000000000378232
 10
10533.40894974588
 20
-9821.737881633424
 30
0.0000000000378232
 10
10533.35562477052
 20
-9821.731890866857
 30
0.0000000000378232
 10
10533.31366442736
 20
-9821.7177577588
 30
0.0000000000378232
  0
SPLINE
  5
2F06B2
330
18
100
AcDbEntity
  8
0
  6
Continuous
 62
     8
370
    15
100
AcDbSpline
210
0.0
220
0.0
230
1.0
 70
     8
 71
     3
 72
     8
 73
     4
 74
     0
 42
0.000000001
 43
0.0000000001
 40
0.0
 40
0.0
 40
0.0
 40
0.0
 40
1.0
 40
1.0
 40
1.0
 40
1.0
 10
10531.12953206125
 20
-9819.842215719218
 30
0.0000000000378232
 10
10532.13730387204
 20
-9820.320449473831
 30
0.0000000000378232
 10
10533.06358624248
 20
-9820.839847563311
 30
0.0000000000378232
 10
10533.89877399333
 20
-9821.395024033925
 30
0.0000000000378232
  0
SPLINE
  5
2F06B3
330
18
100
AcDbEntity
  8
0
  6
Continuous
 62
     8
370
    15
100
AcDbSpline
210
0.0
220
0.0
230
1.0
 70
     8
 71
     3
 72
    10
 73
     6
 74
     0
 42
0.000000001
 43
0.0000000001
 40
0.0
 40
0.0
 40
0.0
 40
0.0
 40
0.5
 40
0.5
 40
1.0
 40
1.0
 40
1.0
 40
1.0
 10
10533.76108873859
 20
-9821.725485368272
 30
0.0000000000378232
 10
10533.81551192156
 20
-9821.704828651575
 30
0.0000000000378232
 10
10533.86060415996
 20
-9821.654682769687
 30
0.0000000000378232
 10
10533.9093664731
 20
-9821.53203275683
 30
0.0000000000378232
 10
10533.91368598711
 20
-9821.459408596507
 30
0.0000000000378232
 10
10533.89877399333
 20
-9821.395024033925
 30
0.0000000000378232
  0
SPLINE
  5
2F06B4
330
18
100
AcDbEntity
  8
0
  6
Continuous
 62
     8
370
    15
100
AcDbSpline
210
0.0
220
0.0
230
1.0
 70
     8
 71
     3
 72
     8
 73
     4
 74
     0
 42
0.000000001
 43
0.0000000001
 40
0.0
 40
0.0
 40
0.0
 40
0.0
 40
1.0
 40
1.0
 40
1.0
 40
1.0
 10
10513.28536952405
 20
-9822.35759705845
 30
0.0000000000378232
 10
10514.63637131162
 20
-9822.519815072657
 30
0.0000000000378232
 10
10515.95796606826
 20
-9822.738054731697
 30
0.0000000000378232
 10
10517.23644939864
 20
-9823.010052972673
 30
0.0000000000378232
  0
ARC
  5
2F06B5
330
18
100
AcDbEntity
  8
0
  6
Continuous
 62
     8
370
    15
100
AcDbCircle
 10
10549.52995580963
 20
-9822.039706741554
 30
0.0000000000378232
 40
0.0713175689863865
100
AcDbArc
 50
258.90955284354
 51
319.8512959980559
  0
SPLINE
  5
2F06B6
330
18
100
AcDbEntity
  8
0
  6
Continuous
 62
     8
370
    15
100
AcDbSpline
210
0.0
220
0.0
230
1.0
 70
     8
 71
     3
 72
    10
 73
     6
 74
     0
 42
0.000000001
 43
0.0000000001
 40
0.0
 40
0.0
 40
0.0
 40
0.0
 40
0.5
 40
0.5
 40
1.0
 40
1.0
 40
1.0
 40
1.0
 10
10549.16571395594
 20
-9824.100720815728
 30
0.0000000000378232
 10
10549.05508358031
 20
-9823.678315395162
 30
0.0000000000378232
 10
10548.90036418423
 20
-9823.260027805049
 30
0.0000000000378232
 10
10548.50279624576
 20
-9822.431683673283
 30
0.0000000000378232
 10
10548.26041946061
 20
-9822.022906128026
 30
0.0000000000378232
 10
10547.97554642376
 20
-9821.621415999583
 30
0.0000000000378232
  0
LWPOLYLINE
  5
2F06B7
330
18
100
AcDbEntity
  8
0
  6
Continuous
 62
     8
370
    15
100
AcDbPolyline
 90
        4
 70
   128
 43
0.0
 10
10511.87330801393
 20
-9822.715216686054
 10
10511.87951808863
 20
-9822.713293731053
 10
10511.88796721468
 20
-9822.702523875054
 10
10511.89674989348
 20
-9822.682840478155
  0
ARC
  5
2F06B8
330
18
100
AcDbEntity
  8
0
  6
Continuous
 62
     8
370
    15
100
AcDbCircle
 10
10512.35045916083
 20
-9822.367625644703
 30
0.0000000000378232
 40
0.934964646175646
100
AcDbArc
 50
339.636713921834
 51
0.6146180170888422
  0
SPLINE
  5
2F06B9
330
18
100
AcDbEntity
  8
0
  6
Continuous
 62
     8
370
    15
100
AcDbSpline
210
0.0
220
0.0
230
1.0
 70
     8
 71
     3
 72
    11
 73
     7
 74
     0
 42
0.000000001
 43
0.0000000001
 40
0.0
 40
0.0
 40
0.0
 40
0.0
 40
0.1293253101187135
 40
0.5966181895317049
 40
0.9858044779127376
 40
1.0
 40
1.0
 40
1.0
 40
1.0
 10
10517.27275691103
 20
-9823.190702300792
 30
0.0000000000378232
 10
10517.27290752291
 20
-9823.182994405535
 30
0.0000000000378232
 10
10517.27360234275
 20
-9823.14743546885
 30
0.0000000000378232
 10
10517.26110760398
 20
-9823.084399948075
 30
0.0000000000378232
 10
10517.24555340188
 20
-9823.033138127452
 30
0.0000000000378232
 10
10517.23675823143
 20
-9823.01083876759
 30
0.0000000000378232
 10
10517.23644871812
 20
-9823.01005402458
 30
0.0000000000378232
  0
ARC
  5
2F06BA
330
18
100
AcDbEntity
  8
0
  6
Continuous
 62
     8
370
    15
100
AcDbCircle
 10
10548.82497885038
 20
-9822.101881522554
 30
0.0000000000378232
 40
0.2743977573379499
100
AcDbArc
 50
277.0628218996262
 51
355.1940308930911
  0
SPLINE
  5
2F06BB
330
18
100
AcDbEntity
  8
0
  6
Continuous
 62
     8
370
    15
100
AcDbSpline
210
0.0
220
0.0
230
1.0
 70
     8
 71
     3
 72
     9
 73
     5
 74
     0
 42
0.000000001
 43
0.0000000001
 40
0.0
 40
0.0
 40
0.0
 40
0.0
 40
0.9964437515445824
 40
1.0
 40
1.0
 40
1.0
 40
1.0
 10
10549.94379861839
 20
-9824.161950772715
 30
0.0000000000378232
 10
10550.08285347453
 20
-9823.766202826628
 30
0.0000000000378232
 10
10550.22240460917
 20
-9823.36904247967
 30
0.0000000000378232
 10
10550.16632563849
 20
-9822.920613491533
 30
0.0000000000378232
 10
10550.16612620774
 20
-9822.919018766635
 30
0.0000000000378232
  0
SPLINE
  5
2F06BC
330
18
100
AcDbEntity
  8
0
  6
Continuous
 62
     8
370
    15
100
AcDbSpline
210
0.0
220
0.0
230
1.0
 70
     8
 71
     3
 72
     8
 73
     4
 74
     0
 42
0.000000001
 43
0.0000000001
 40
0.0
 40
0.0
 40
0.0
 40
0.0
 40
1.0
 40
1.0
 40
1.0
 40
1.0
 10
10549.09841146696
 20
-9822.124872213535
 30
0.0000000000378232
 10
10549.49292165811
 20
-9822.79097613314
 30
0.0000000000378232
 10
10549.77569502922
 20
-9823.4723569774
 30
0.0000000000378232
 10
10549.94379931718
 20
-9824.161949093796
 30
0.0000000000378232
  0
ARC
  5
2F06BD
330
18
100
AcDbEntity
  8
0
  6
Continuous
 62
     8
370
    15
100
AcDbCircle
 10
10511.58858610808
 20
-9822.661061728104
 30
0.0000000000378232
 40
0.0822382521940727
100
AcDbArc
 50
225.6262640174823
 51
285.8769043287647
  0
SPLINE
  5
2F06BE
330
18
100
AcDbEntity
  8
0
  6
Continuous
 62
     8
370
    15
100
AcDbSpline
210
0.0
220
0.0
230
1.0
 70
     8
 71
     3
 72
     9
 73
     5
 74
     0
 42
0.000000001
 43
0.0000000001
 40
0.0
 40
0.0
 40
0.0
 40
0.0
 40
0.2550768023793581
 40
1.0
 40
1.0
 40
1.0
 40
1.0
 10
10520.89781788816
 20
-9820.555665220141
 30
0.0000000000378232
 10
10520.63123194139
 20
-9820.768433231631
 30
0.0000000000378232
 10
10519.5861116314
 20
-9821.602566361362
 30
0.0000000000378232
 10
10518.3794779104
 20
-9822.489742303453
 30
0.0000000000378232
 10
10517.48062846061
 20
-9823.15062024309
 30
0.0000000000378232
  0
SPLINE
  5
2F06BF
330
18
100
AcDbEntity
  8
0
  6
Continuous
 62
     8
370
    15
100
AcDbSpline
210
0.0
220
0.0
230
1.0
 70
     8
 71
     3
 72
     9
 73
     5
 74
     0
 42
0.000000001
 43
0.0000000001
 40
0.0
 40
0.0
 40
0.0
 40
0.0
 40
0.936883427722668
 40
1.0
 40
1.0
 40
1.0
 40
1.0
 10
10510.73288805024
 20
-9823.259618044885
 30
0.0000000000378232
 10
10509.76643203598
 20
-9824.129229251826
 30
0.0000000000378232
 10
10508.73486718419
 20
-9825.057424992301
 30
0.0000000000378232
 10
10507.66445336873
 20
-9826.052465428733
 30
0.0000000000378232
 10
10507.59689251778
 20
-9826.11526897036
 30
0.0000000000378232
  0
SPLINE
  5
2F06C0
330
18
100
AcDbEntity
  8
0
  6
Continuous
 62
     8
370
    15
100
AcDbSpline
210
0.0
220
0.0
230
1.0
 70
     8
 71
     3
 72
    14
 73
    10
 74
     0
 42
0.000000001
 43
0.0000000001
 40
0.0
 40
0.0
 40
0.0
 40
0.0
 40
0.25
 40
0.25
 40
0.5
 40
0.5
 40
0.75
 40
0.75
 40
1.0
 40
1.0
 40
1.0
 40
1.0
 10
10510.73288820156
 20
-9823.259617610838
 30
0.0000000000378232
 10
10510.75616017436
 20
-9823.248488571775
 30
0.0000000000378232
 10
10510.76995641563
 20
-9823.230778507881
 30
0.0000000000378232
 10
10510.77514457057
 20
-9823.186740337831
 30
0.0000000000378232
 10
10510.76630586762
 20
-9823.16022259117
 30
0.0000000000378232
 10
10510.72954329383
 20
-9823.106812494618
 30
0.0000000000378232
 10
10510.70185728602
 20
-9823.07984288103
 30
0.0000000000378232
 10
10510.63544928059
 20
-9823.031340581794
 30
0.0000000000378232
 10
10510.59659585302
 20
-9823.009749607252
 30
0.0000000000378232
 10
10510.5569933843
 20
-9822.993230987708
 30
0.0000000000378232
  0
ARC
  5
2F06C1
330
18
100
AcDbEntity
  8
0
  6
Continuous
 62
     8
370
    15
100
AcDbCircle
 10
10562.16788568413
 20
-9827.853452043804
 30
0.0000000000378232
 40
0.2603505389054508
100
AcDbArc
 50
185.2454101815285
 51
267.0403958023571
  0
ARC
  5
2F06C2
330
18
100
AcDbEntity
  8
0
  6
Continuous
 62
     8
370
    15
100
AcDbCircle
 10
10501.12527077738
 20
-9829.005910668653
 30
0.0000000000378232
 40
0.7780692772543432
100
AcDbArc
 50
179.345342431254
 51
204.6726767260207
  0
ARC
  5
2F06C3
330
18
100
AcDbEntity
  8
0
  6
Continuous
 62
     8
370
    15
100
AcDbCircle
 10
10499.30219746058
 20
-9829.633553057753
 30
0.0000000000378232
 40
0.0506457608690271
100
AcDbArc
 50
204.4246808812514
 51
267.2558213733671
  0
ARC
  5
2F06C4
330
18
100
AcDbEntity
  8
0
  6
Continuous
 62
     8
370
    15
100
AcDbCircle
 10
10554.38031334343
 20
-9839.396185119804
 30
0.0000000000378232
 40
13.74409943855894
100
AcDbArc
 50
16.51125518279501
 51
52.03308674350848
  0
LINE
  5
2F06C5
330
18
100
AcDbEntity
  8
0
  6
Continuous
 62
     8
370
    15
100
AcDbLine
 10
10562.37726051623
 20
-9828.593929884202
 30
0.0000000000378232
 11
10561.85700640358
 21
-9829.513434839904
 31
0.0000000000378232
  0
LINE
  5
2F06C6
330
18
100
AcDbEntity
  8
0
  6
Continuous
 62
     8
370
    15
100
AcDbLine
 10
10564.35240144878
 20
-9830.007820301005
 30
0.0000000000378232
 11
10564.06066359758
 21
-9831.240863024155
 31
0.0000000000378232
  0
ARC
  5
2F06C7
330
18
100
AcDbEntity
  8
0
  6
Continuous
 62
     8
370
    15
100
AcDbCircle
 10
10499.02990528448
 20
-9829.603523876904
 30
0.0000000000378232
 40
0.1824566275529559
100
AcDbArc
 50
252.9479606969085
 51
313.3977205087193
  0
ARC
  5
2F06C8
330
18
100
AcDbEntity
  8
0
  6
Continuous
 62
     8
370
    15
100
AcDbCircle
 10
10507.96990733213
 20
-9838.971146031807
 30
0.0000000000378232
 40
12.81929874414972
100
AcDbArc
 50
133.1674060710895
 51
164.243459191095
  0
LWPOLYLINE
  5
2F06C9
330
18
100
AcDbEntity
  8
0
  6
Continuous
 62
     8
370
    15
100
AcDbPolyline
 90
       27
 70
   128
 43
0.0
 10
10501.45543188908
 20
-9758.775065521106
 10
10502.03904061748
 20
-9758.325974386706
 10
10503.51237623273
 20
-9757.308266124805
 10
10505.12561748833
 20
-9756.345056783906
 10
10506.87072738383
 20
-9755.441144580804
 10
10508.73901086773
 20
-9754.601032457904
 10
10510.72116529943
 20
-9753.828908120155
 10
10512.80731016513
 20
-9753.128616006205
 10
10514.98705363238
 20
-9752.503645085006
 10
10517.24953663163
 20
-9751.957109448955
 10
10519.58349080783
 20
-9751.491732508854
 10
10521.97728297218
 20
-9751.109831353406
 10
10524.41898951788
 20
-9750.813309834804
 10
10526.89644844493
 20
-9750.603644409952
 10
10529.39731467788
 20
-9750.481880189003
 10
10531.90912987193
 20
-9750.448623691405
 10
10534.41937904708
 20
-9750.504039553256
 10
10536.91555776023
 20
-9750.647853819955
 10
10539.38523005693
 20
-9750.879347361057
 10
10541.81609169173
 20
-9751.197369040707
 10
10544.19603203093
 20
-9751.600333742153
 10
10546.51319332208
 20
-9752.086234880455
 10
10548.75603391433
 20
-9752.652649670305
 10
10550.91337995368
 20
-9753.296757071756
 10
10552.97448037163
 20
-9754.015349478956
 10
10554.92907257543
 20
-9754.804844492151
 10
10556.76741356348
 20
-9755.661311012303
  0
ARC
  5
2F06CA
330
18
100
AcDbEntity
  8
0
  6
Continuous
 62
     8
370
    15
100
AcDbCircle
 10
10576.21343754803
 20
-9831.375420778702
 30
0.0000000000378232
 40
3.146241338976828
100
AcDbArc
 50
68.57285813630024
 51
84.7383361930995
  0
LINE
  5
2F06CB
330
18
100
AcDbEntity
  8
0
  6
Continuous
 62
     8
370
    15
100
AcDbLine
 10
10576.50196151648
 20
-9828.242436820405
 30
0.0000000000378232
 11
10576.50196151648
 21
-9828.588846393504
 31
0.0000000000378232
  0
ARC
  5
2F06CC
330
18
100
AcDbEntity
  8
0
  6
Continuous
 62
     8
370
    15
100
AcDbCircle
 10
10576.21343754803
 20
-9831.721830351653
 30
0.0000000000378232
 40
3.146241338975085
100
AcDbArc
 50
68.57285813631897
 51
84.73833619309646
  0
ARC
  5
2F06CD
330
18
100
AcDbEntity
  8
0
  6
Continuous
 62
     8
370
    15
100
AcDbCircle
 10
10574.49114815783
 20
-9828.537340932657
 30
0.0000000000378232
 40
2.883029582552114
100
AcDbArc
 50
336.5764135878462
 51
354.9115247609606
  0
LINE
  5
2F06CE
330
18
100
AcDbEntity
  8
0
  6
Continuous
 62
     8
370
    15
100
AcDbLine
 10
10577.13659032208
 20
-9829.683419171153
 30
0.0000000000378232
 11
10577.41943255408
 21
-9829.824840287154
 31
0.0000000000378232
  0
ARC
  5
2F06CF
330
18
100
AcDbEntity
  8
0
  6
Continuous
 62
     8
370
    15
100
AcDbCircle
 10
10574.77399038983
 20
-9828.678762048654
 30
0.0000000000378232
 40
2.883029582553675
100
AcDbArc
 50
336.5764135877798
 51
354.9115247608885
  0
ARC
  5
2F06D0
330
18
100
AcDbEntity
  8
0
  6
Continuous
 62
     8
370
    15
100
AcDbCircle
 10
10577.18324970188
 20
-9829.782184677802
 30
0.0000000000378232
 40
0.9656306339130862
100
AcDbArc
 50
25.60349549551744
 51
61.38861094464202
  0
LINE
  5
2F06D1
330
18
100
AcDbEntity
  8
0
  6
Continuous
 62
     8
370
    15
100
AcDbLine
 10
10578.05406135983
 20
-9829.364896315103
 30
0.0000000000378232
 11
10578.05406135983
 21
-9829.018486742007
 31
0.0000000000378232
  0
ARC
  5
2F06D2
330
18
100
AcDbEntity
  8
0
  6
Continuous
 62
     8
370
    15
100
AcDbCircle
 10
10577.18324970188
 20
-9829.435775104706
 30
0.0000000000378232
 40
0.9656306339132801
100
AcDbArc
 50
25.60349549575874
 51
61.38861094469372
  0
ARC
  5
2F06D3
330
18
100
AcDbEntity
  8
0
  6
Continuous
 62
     8
370
    15
100
AcDbCircle
 10
10576.34802876293
 20
-9828.659463690205
 30
0.0000000000378232
 40
1.299592044878331
100
AcDbArc
 50
3.149608210487547
 51
34.47072600261394
  0
LINE
  5
2F06D4
330
18
100
AcDbEntity
  8
0
  6
Continuous
 62
     8
370
    15
100
AcDbLine
 10
10577.41943255408
 20
-9827.923913964354
 30
0.0000000000378232
 11
10577.13659032208
 21
-9827.782492848353
 31
0.0000000000378232
  0
ARC
  5
2F06D5
330
18
100
AcDbEntity
  8
0
  6
Continuous
 62
     8
370
    15
100
AcDbCircle
 10
10576.06518653093
 20
-9828.518042574204
 30
0.0000000000378232
 40
1.299592044876906
100
AcDbArc
 50
3.149608210487547
 51
34.47072600270472
  0
ARC
  5
2F06D6
330
18
100
AcDbEntity
  8
0
  6
Continuous
 62
     8
370
    15
100
AcDbCircle
 10
10576.49842170863
 20
-9828.234836756154
 30
0.0000000000378232
 40
0.7796894697677055
100
AcDbArc
 50
67.88437027071055
 51
113.6651893583508
  0
ARC
  5
2F06D7
330
18
100
AcDbEntity
  8
0
  6
Continuous
 62
     8
370
    15
100
AcDbCircle
 10
10577.23119039773
 20
-9829.740383137705
 30
0.0000000000378232
 40
0.8212295967201657
100
AcDbArc
 50
300.5687305509257
 51
347.630195171273
  0
LINE
  5
2F06D8
330
18
100
AcDbEntity
  8
0
  6
Continuous
 62
     8
370
    15
100
AcDbLine
 10
10577.36281550708
 20
-9828.446638630703
 30
0.0000000000378232
 11
10576.93626108278
 21
-9828.659915842854
 31
0.0000000000378232
  0
LINE
  5
2F06D9
330
18
100
AcDbEntity
  8
0
  6
Continuous
 62
     8
370
    15
100
AcDbLine
 10
10577.64565773908
 20
-9828.934469319804
 30
0.0000000000378232
 11
10577.31977698943
 21
-9829.097409694707
 31
0.0000000000378232
  0
LWPOLYLINE
  5
2F06DA
330
18
100
AcDbEntity
  8
0
  6
Continuous
 62
     8
370
    15
100
AcDbPolyline
 90
        3
 70
   128
 43
0.0
 10
10577.41943255408
 20
-9827.923913964354
 10
10577.31010099494
 20
-9828.021986598505
 10
10577.27944311383
 20
-9828.053470715604
  0
LWPOLYLINE
  5
2F06DB
330
18
100
AcDbEntity
  8
0
  6
Continuous
 62
     8
370
    15
100
AcDbPolyline
 90
        3
 70
   128
 43
0.0
 10
10577.83203373748
 20
-9829.070120912005
 10
10577.90928693518
 20
-9829.055431088906
 10
10578.05406135983
 20
-9829.018486742007
  0
LINE
  5
2F06DC
330
18
100
AcDbEntity
  8
0
  6
Continuous
 62
     8
370
    15
100
AcDbLine
 10
10577.64565773908
 20
-9828.588059746704
 30
0.0000000000378232
 11
10577.29136079383
 21
-9828.765208219404
 31
0.0000000000378232
  0
LINE
  5
2F06DD
330
18
100
AcDbEntity
  8
0
  6
Continuous
 62
     8
370
    15
100
AcDbLine
 10
10576.59921141818
 20
-9827.497617879504
 30
0.0000000000378232
 11
10576.21780351253
 21
-9827.374613230855
 31
0.0000000000378232
  0
LWPOLYLINE
  5
2F06DE
330
18
100
AcDbEntity
  8
0
  6
Continuous
 62
     8
370
    15
100
AcDbPolyline
 90
        3
 70
   128
 43
0.0
 10
10577.78512890488
 20
-9830.509263855805
 10
10577.87695898528
 20
-9830.290411439753
 10
10577.89080685913
 20
-9830.241818995255
  0
LWPOLYLINE
  5
2F06DF
330
18
100
AcDbEntity
  8
0
  6
Continuous
 62
     8
370
    15
100
AcDbPolyline
 90
       47
 70
   128
 43
0.0
 10
10494.34498063943
 20
-9840.344142712853
 10
10494.37966091033
 20
-9839.540653217155
 10
10494.57920253053
 20
-9838.258804234854
 10
10494.95513924828
 20
-9836.986892689252
 10
10495.50568509113
 20
-9835.730979823857
 10
10496.22820983218
 20
-9834.497051149854
 10
10497.11927586923
 20
-9833.290986152453
 10
10498.17463163888
 20
-9832.118532608303
 10
10499.38925112938
 20
-9830.985277608805
 10
10500.75734738093
 20
-9829.896622371503
 10
10502.27239751018
 20
-9828.857753922202
 10
10503.92718205838
 20
-9827.873622786807
 10
10505.71381894733
 20
-9826.948920745253
 10
10507.62378945113
 20
-9826.088052040253
 10
10509.64799491313
 20
-9825.295120824056
 10
10511.77678810883
 20
-9824.573904940255
 10
10514.00002053833
 20
-9823.927840179953
 10
10516.30710412298
 20
-9823.360007873001
 10
10518.68704051088
 20
-9822.873112332501
 10
10521.12849154133
 20
-9822.469474598453
 10
10523.61981546443
 20
-9822.151016962405
 10
10526.14914925943
 20
-9821.919258686456
 10
10528.70443234223
 20
-9821.775302832655
 10
10531.27349085893
 20
-9821.719836262855
 10
10533.84407983328
 20
-9821.753123053553
 10
10536.40395297128
 20
-9821.875003836954
 10
10538.94090876038
 20
-9822.084899093756
 10
10541.44285895768
 20
-9822.381807836457
 10
10543.89787732193
 20
-9822.764314852855
 10
10546.29426810293
 20
-9823.230598608803
 10
10548.62060950463
 20
-9823.778435858156
 10
10550.86581624728
 20
-9824.405215801104
 10
10553.01918731198
 20
-9825.107953419953
 10
10555.07046356303
 20
-9825.883297217304
 10
10557.00986989508
 20
-9826.727552922803
 10
10558.82816133098
 20
-9827.636698640756
 10
10560.51667274213
 20
-9828.606401806854
 10
10562.06736033668
 20
-9829.632039932305
 10
10563.47283557453
 20
-9830.708725464654
 10
10564.72639546028
 20
-9831.831328836055
 10
10565.82206995898
 20
-9832.994499536904
 10
10566.75463747088
 20
-9834.192694927253
 10
10567.51965150368
 20
-9835.420204109454
 10
10568.11346898908
 20
-9836.671179208104
 10
10568.53325950268
 20
-9837.939657102655
 10
10568.77702106948
 20
-9839.219593671653
 10
10568.84498286263
 20
-9840.344142712853
  0
LWPOLYLINE
  5
2F06E0
330
18
100
AcDbEntity
  8
0
  6
Continuous
 62
     8
370
    15
100
AcDbPolyline
 90
       47
 70
   128
 43
0.0
 10
10494.34561152518
 20
-9841.751433746755
 10
10494.37966091033
 20
-9840.839690729154
 10
10494.57920253053
 20
-9839.557841747002
 10
10494.95513924828
 20
-9838.285930201255
 10
10495.50568509113
 20
-9837.030017336005
 10
10496.22820983218
 20
-9835.796088661857
 10
10497.11927586923
 20
-9834.590023664605
 10
10498.17463163888
 20
-9833.417570120302
 10
10499.38925112938
 20
-9832.284315120804
 10
10500.75734738093
 20
-9831.195659883506
 10
10502.27239751018
 20
-9830.156791434205
 10
10503.92718205838
 20
-9829.172660298955
 10
10505.71381894733
 20
-9828.247958257405
 10
10507.62378945113
 20
-9827.387089552401
 10
10509.64799491313
 20
-9826.594158336204
 10
10511.77678810883
 20
-9825.872942452253
 10
10514.00002053833
 20
-9825.226877691955
 10
10516.30710412298
 20
-9824.659045385153
 10
10518.68704051088
 20
-9824.172149844504
 10
10521.12849154133
 20
-9823.768512110604
 10
10523.61981546443
 20
-9823.450054474404
 10
10526.14914925943
 20
-9823.218296198454
 10
10528.70443234223
 20
-9823.074340344654
 10
10531.27349085893
 20
-9823.018873775003
 10
10533.84407983328
 20
-9823.052160565705
 10
10536.40395297128
 20
-9823.174041348953
 10
10538.94090876038
 20
-9823.383936605904
 10
10541.44285895768
 20
-9823.680845348605
 10
10543.89787732193
 20
-9824.063352365003
 10
10546.29426810293
 20
-9824.529636120955
 10
10548.62060950463
 20
-9825.077473370155
 10
10550.86581624728
 20
-9825.704253313103
 10
10553.01918731198
 20
-9826.406990931951
 10
10555.07046356303
 20
-9827.182334729303
 10
10557.00986989508
 20
-9828.026590434954
 10
10558.82816133098
 20
-9828.935736152904
 10
10560.51667274213
 20
-9829.905439318853
 10
10562.06736033668
 20
-9830.931077444453
 10
10563.47283557453
 20
-9832.007762976653
 10
10564.72639546028
 20
-9833.130366348054
 10
10565.82206995898
 20
-9834.293537048907
 10
10566.75463747088
 20
-9835.491732439405
 10
10567.51965150368
 20
-9836.719241621606
 10
10568.11346898908
 20
-9837.970216720252
 10
10568.53325950268
 20
-9839.238694614804
 10
10568.77702106948
 20
-9840.518631183804
 10
10568.84435197703
 20
-9841.751433746755
  0
LINE
  5
2F06E1
330
18
100
AcDbEntity
  8
0
  6
Continuous
 62
     8
370
    15
100
AcDbLine
 10
10553.91329948783
 20
-9843.579033823855
 30
0.0000000000378232
 11
10554.23857458233
 21
-9844.186004521554
 31
0.0000000000378232
  0
LWPOLYLINE
  5
2F06E2
330
18
100
AcDbEntity
  8
0
  6
Continuous
 62
     8
370
    15
100
AcDbPolyline
 90
        9
 70
   128
 43
0.0
 10
10554.23857458233
 20
-9844.186004521554
 10
10554.24703490363
 20
-9844.215676890653
 10
10554.24112693628
 20
-9844.245502618403
 10
10554.22118769023
 20
-9844.273768089504
 10
10554.18836369183
 20
-9844.298848345552
 10
10554.14454430479
 20
-9844.319300186155
 10
10554.09224739218
 20
-9844.333948562005
 10
10554.03447986783
 20
-9844.341951194903
 10
10553.97456145493
 20
-9844.342848749904
  0
LWPOLYLINE
  5
2F06E3
330
18
100
AcDbEntity
  8
0
  6
Continuous
 62
     8
370
    15
100
AcDbPolyline
 90
        8
 70
   128
 43
0.0
 10
10553.97456145493
 20
-9844.342848749904
 10
10553.26181601743
 20
-9844.261831929205
 10
10552.61692982543
 20
-9844.089796447555
 10
10552.08546619463
 20
-9843.838893737306
 10
10551.70496790368
 20
-9843.526850736354
 10
10551.50231540168
 20
-9843.175712211654
 10
10551.49182865658
 20
-9842.810283188905
 10
10551.52443681713
 20
-9842.707220808803
  0
LINE
  5
2F06E4
330
18
100
AcDbEntity
  8
0
  6
Continuous
 62
     8
370
    15
100
AcDbLine
 10
10556.92036003163
 20
-9842.707221714201
 30
0.0000000000378232
 11
10556.96120699558
 21
-9842.849525979655
 31
0.0000000000378232
  0
LWPOLYLINE
  5
2F06E5
330
18
100
AcDbEntity
  8
0
  6
Continuous
 62
     8
370
    15
100
AcDbPolyline
 90
        9
 70
   128
 43
0.0
 10
10556.96120699558
 20
-9842.849525979655
 10
10556.95941451973
 20
-9842.879483868954
 10
10556.94340925393
 20
-9842.908367631055
 10
10556.91411118508
 20
-9842.934516746005
 10
10556.87320618688
 20
-9842.956427097954
 10
10556.82304699193
 20
-9842.972838438654
 10
10556.76651604973
 20
-9842.982808061755
 10
10556.70686459423
 20
-9842.985762045351
 10
10556.64752117303
 20
-9842.981531226204
  0
LINE
  5
2F06E6
330
18
100
AcDbEntity
  8
0
  6
Continuous
 62
     8
370
    15
100
AcDbLine
 10
10556.64752117303
 20
-9842.981531226204
 30
0.0000000000378232
 11
10555.43357977748
 21
-9842.818893678956
 31
0.0000000000378232
  0
ARC
  5
2F06E7
330
18
100
AcDbEntity
  8
0
  6
Continuous
 62
     8
370
    15
100
AcDbCircle
 10
10554.82183634423
 20
-9843.185512317054
 30
0.0000000000378232
 40
0.7131894937469554
100
AcDbArc
 50
30.93431197640581
 51
66.49452761910523
  0
LINE
  5
2F06E8
330
18
100
AcDbEntity
  8
0
  6
Continuous
 62
     8
370
    15
100
AcDbLine
 10
10555.10628245738
 20
-9842.531501871654
 30
0.0000000000378232
 11
10555.55422179743
 21
-9842.307532201554
 31
0.0000000000378232
  0
LWPOLYLINE
  5
2F06E9
330
18
100
AcDbEntity
  8
0
  6
Continuous
 62
     8
370
    15
100
AcDbPolyline
 90
        9
 70
   128
 43
0.0
 10
10555.55422179743
 20
-9842.307532201554
 10
10555.58757475223
 20
-9842.286866571205
 10
10555.61144356583
 20
-9842.263144744105
 10
10555.62475338308
 20
-9842.237436141502
 10
10555.62689953088
 20
-9842.210903029554
 10
10555.61778774443
 20
-9842.184741608002
 10
10555.59782971958
 20
-9842.160132370853
 10
10555.56792530603
 20
-9842.138186421504
 10
10555.52942370728
 20
-9842.119894462852
  0
ARC
  5
2F06EA
330
18
100
AcDbEntity
  8
0
  6
Continuous
 62
     8
370
    15
100
AcDbCircle
 10
10554.21805206398
 20
-9845.843925726054
 30
0.0000000000378232
 40
3.948177356285525
100
AcDbArc
 50
70.60091414731944
 51
99.1071760366044
  0
LWPOLYLINE
  5
2F06EB
330
18
100
AcDbEntity
  8
0
  6
Continuous
 62
     8
370
    15
100
AcDbPolyline
 90
        9
 70
   128
 43
0.0
 10
10553.59312770143
 20
-9841.945519131354
 10
10553.54527423553
 20
-9841.955668125502
 10
10553.50265076548
 20
-9841.970547362303
 10
10553.46710277983
 20
-9841.989512250653
 10
10553.44016715698
 20
-9842.011742819905
 10
10553.42301133178
 20
-9842.036276525152
 10
10553.41637048663
 20
-9842.062055867304
 10
10553.42053800323
 20
-9842.087963131704
 10
10553.43532841888
 20
-9842.112880891855
  0
LINE
  5
2F06EC
330
18
100
AcDbEntity
  8
0
  6
Continuous
 62
     8
370
    15
100
AcDbLine
 10
10553.43532841888
 20
-9842.112880891855
 30
0.0000000000378232
 11
10553.68146782528
 21
-9842.409996005903
 31
0.0000000000378232
  0
ARC
  5
2F06ED
330
18
100
AcDbEntity
  8
0
  6
Continuous
 62
     8
370
    15
100
AcDbCircle
 10
10553.90968194218
 20
-9843.598880490354
 30
0.0000000000378232
 40
1.21058993913804
100
AcDbArc
 50
100.8661221380608
 51
132.2639802160847
  0
LINE
  5
2F06EE
330
18
100
AcDbEntity
  8
0
  6
Continuous
 62
     8
370
    15
100
AcDbLine
 10
10553.09550282458
 20
-9842.702978506251
 30
0.0000000000378232
 11
10552.50127259648
 21
-9842.579908803054
 31
0.0000000000378232
  0
ARC
  5
2F06EF
330
18
100
AcDbEntity
  8
0
  6
Continuous
 62
     8
370
    15
100
AcDbCircle
 10
10552.40270597093
 20
-9842.911214827254
 30
0.0000000000378232
 40
0.345657433436649
100
AcDbArc
 50
73.43176848495938
 51
133.0950594875926
  0
ARC
  5
2F06F0
330
18
100
AcDbEntity
  8
0
  6
Continuous
 62
     8
370
    15
100
AcDbCircle
 10
10552.78715875133
 20
-9842.982137887255
 30
0.0000000000378232
 40
0.6997844654961485
100
AcDbArc
 50
152.4810815406005
 51
247.139447216321
  0
ARC
  5
2F06F1
330
18
100
AcDbEntity
  8
0
  6
Continuous
 62
     8
370
    15
100
AcDbCircle
 10
10552.71548949878
 20
-9843.253248526406
 30
0.0000000000378232
 40
0.4239499382152604
100
AcDbArc
 50
241.8227097860342
 51
294.3927933117936
  0
LINE
  5
2F06F2
330
18
100
AcDbEntity
  8
0
  6
Continuous
 62
     8
370
    15
100
AcDbLine
 10
10552.89057653303
 20
-9843.639354833755
 30
0.0000000000378232
 11
10553.33851587308
 21
-9843.415385163655
 31
0.0000000000378232
  0
ARC
  5
2F06F3
330
18
100
AcDbEntity
  8
0
  6
Continuous
 62
     8
370
    15
100
AcDbCircle
 10
10554.11636444978
 20
-9841.774576907002
 30
0.0000000000378232
 40
1.815846949359686
100
AcDbArc
 50
244.6360412265714
 51
263.579220358169
  0
LINE
  5
2F06F4
330
18
100
AcDbEntity
  8
0
  6
Continuous
 62
     8
370
    15
100
AcDbLine
 10
10553.68146782528
 20
-9842.063586432803
 30
0.0000000000378232
 11
10553.68146782528
 21
-9842.409996005903
 31
0.0000000000378232
  0
LINE
  5
2F06F5
330
18
100
AcDbEntity
  8
0
  6
Continuous
 62
     8
370
    15
100
AcDbLine
 10
10553.58567783444
 20
-9841.947956183452
 30
0.0000000000378232
 11
10553.68146782528
 21
-9842.063586432803
 31
0.0000000000378232
  0
LINE
  5
2F06F6
330
18
100
AcDbEntity
  8
0
  6
Continuous
 62
     8
370
    15
100
AcDbLine
 10
10555.10628245738
 20
-9842.185092298554
 30
0.0000000000378232
 11
10555.10628245738
 21
-9842.531501871654
 31
0.0000000000378232
  0
LINE
  5
2F06F7
330
18
100
AcDbEntity
  8
0
  6
Continuous
 62
     8
370
    15
100
AcDbLine
 10
10555.10628245738
 20
-9842.185092298554
 30
0.0000000000378232
 11
10555.35627648923
 21
-9842.060095282555
 31
0.0000000000378232
  0
LINE
  5
2F06F8
330
18
100
AcDbEntity
  8
0
  6
Continuous
 62
     8
370
    15
100
AcDbLine
 10
10552.51529973848
 20
-9843.280546874154
 30
0.0000000000378232
 11
10552.51529973848
 21
-9843.626956447253
 31
0.0000000000378232
  0
ARC
  5
2F06F9
330
18
100
AcDbEntity
  8
0
  6
Continuous
 62
     8
370
    15
100
AcDbCircle
 10
10552.98613658948
 20
-9842.454638894305
 30
0.0000000000378232
 40
0.9506899239436669
100
AcDbArc
 50
201.3168945482887
 51
240.3132312088607
  0
LINE
  5
2F06FA
330
18
100
AcDbEntity
  8
0
  6
Continuous
 62
     8
370
    15
100
AcDbLine
 10
10553.33851587308
 20
-9843.068975590704
 30
0.0000000000378232
 11
10553.33851587308
 21
-9843.415385163655
 31
0.0000000000378232
  0
LINE
  5
2F06FB
330
18
100
AcDbEntity
  8
0
  6
Continuous
 62
     8
370
    15
100
AcDbLine
 10
10553.91329948783
 20
-9843.232624250755
 30
0.0000000000378232
 11
10553.91329948783
 21
-9843.579033823855
 31
0.0000000000378232
  0
ARC
  5
2F06FC
330
18
100
AcDbEntity
  8
0
  6
Continuous
 62
     8
370
    15
100
AcDbCircle
 10
10554.11636444978
 20
-9841.428167333903
 30
0.0000000000378232
 40
1.815846949358247
100
AcDbArc
 50
244.6360412264949
 51
263.5792203583401
  0
LINE
  5
2F06FD
330
18
100
AcDbEntity
  8
0
  6
Continuous
 62
     8
370
    15
100
AcDbLine
 10
10552.89057653303
 20
-9843.292945260655
 30
0.0000000000378232
 11
10552.89057653303
 21
-9843.639354833755
 31
0.0000000000378232
  0
LINE
  5
2F06FE
330
18
100
AcDbEntity
  8
0
  6
Continuous
 62
     8
370
    15
100
AcDbLine
 10
10552.89057653303
 20
-9843.292945260655
 30
0.0000000000378232
 11
10553.33851587308
 21
-9843.068975590704
 31
0.0000000000378232
  0
ARC
  5
2F06FF
330
18
100
AcDbEntity
  8
0
  6
Continuous
 62
     8
370
    15
100
AcDbCircle
 10
10552.71548949878
 20
-9842.906838953455
 30
0.0000000000378232
 40
0.4239499382149989
100
AcDbArc
 50
241.8227097860342
 51
294.3927933118952
  0
LINE
  5
2F0700
330
18
100
AcDbEntity
  8
0
  6
Continuous
 62
     8
370
    15
100
AcDbLine
 10
10554.23857458233
 20
-9843.839594948455
 30
0.0000000000378232
 11
10554.23857458233
 21
-9844.186004521554
 31
0.0000000000378232
  0
LINE
  5
2F0701
330
18
100
AcDbEntity
  8
0
  6
Continuous
 62
     8
370
    15
100
AcDbLine
 10
10553.91329948783
 20
-9843.232624250755
 30
0.0000000000378232
 11
10554.23857458233
 21
-9843.839594948455
 31
0.0000000000378232
  0
LWPOLYLINE
  5
2F0702
330
18
100
AcDbEntity
  8
0
  6
Continuous
 62
     8
370
    15
100
AcDbPolyline
 90
        3
 70
   128
 43
0.0
 10
10554.23857458233
 20
-9843.839594948455
 10
10554.24703490363
 20
-9843.869267317703
 10
10554.24709269098
 20
-9843.871947511405
  0
LINE
  5
2F0703
330
18
100
AcDbEntity
  8
0
  6
Continuous
 62
     8
370
    15
100
AcDbLine
 10
10511.70637480133
 20
-9865.476942076704
 30
0.0000000000378232
 11
10511.66552783738
 21
-9865.334637811404
 31
0.0000000000378232
  0
LWPOLYLINE
  5
2F0704
330
18
100
AcDbEntity
  8
0
  6
Continuous
 62
     8
370
    15
100
AcDbPolyline
 90
        8
 70
   128
 43
0.0
 10
10506.26960198888
 20
-9865.334638223005
 10
10506.23699514533
 20
-9865.437699944454
 10
10506.24748320743
 20
-9865.803128308853
 10
10506.45013307528
 20
-9866.154268150553
 10
10506.83063136638
 20
-9866.466311151504
 10
10507.36209631418
 20
-9866.717213203105
 10
10508.00698118918
 20
-9866.889249343403
 10
10508.71972926083
 20
-9866.970264846954
  0
LINE
  5
2F0705
330
18
100
AcDbEntity
  8
0
  6
Continuous
 62
     8
370
    15
100
AcDbLine
 10
10510.29938696918
 20
-9864.934949615752
 30
0.0000000000378232
 11
10509.85144762898
 21
-9865.158919285706
 31
0.0000000000378232
  0
LWPOLYLINE
  5
2F0706
330
18
100
AcDbEntity
  8
0
  6
Continuous
 62
     8
370
    15
100
AcDbPolyline
 90
        9
 70
   128
 43
0.0
 10
10510.27459019603
 20
-9864.747311218405
 10
10510.31309179478
 20
-9864.765603177057
 10
10510.34299620833
 20
-9864.787549126555
 10
10510.36295555018
 20
-9864.812157705204
 10
10510.37206601963
 20
-9864.838319785104
 10
10510.36991855483
 20
-9864.864853555555
 10
10510.35661005458
 20
-9864.890561499655
 10
10510.33273992398
 20
-9864.914283985254
 10
10510.29938696918
 20
-9864.934949615752
  0
LWPOLYLINE
  5
2F0707
330
18
100
AcDbEntity
  8
0
  6
Continuous
 62
     8
370
    15
100
AcDbPolyline
 90
        9
 70
   128
 43
0.0
 10
10508.18049490763
 20
-9864.740297647404
 10
10508.16570449198
 20
-9864.715379887253
 10
10508.16153697538
 20
-9864.689472622853
 10
10508.16817650338
 20
-9864.663693939205
 10
10508.18533364573
 20
-9864.639159575454
 10
10508.21226926858
 20
-9864.616929006203
 10
10508.24781593708
 20
-9864.597964776505
 10
10508.29043940728
 20
-9864.583085539554
 10
10508.33829419018
 20
-9864.572935887056
  0
LINE
  5
2F0708
330
18
100
AcDbEntity
  8
0
  6
Continuous
 62
     8
370
    15
100
AcDbLine
 10
10508.42663431403
 20
-9865.037412761456
 30
0.0000000000378232
 11
10508.18049490763
 21
-9864.740297647404
 31
0.0000000000378232
  0
ARC
  5
2F0709
330
18
100
AcDbEntity
  8
0
  6
Continuous
 62
     8
370
    15
100
AcDbCircle
 10
10508.65484810153
 20
-9866.226296587552
 30
0.0000000000378232
 40
1.210589230329927
100
AcDbArc
 50
100.8661127089947
 51
132.2639896451879
  0
LINE
  5
2F070A
330
18
100
AcDbEntity
  8
0
  6
Continuous
 62
     8
370
    15
100
AcDbLine
 10
10507.24643908523
 20
-9865.207325558604
 30
0.0000000000378232
 11
10507.84066931333
 21
-9865.330395261804
 31
0.0000000000378232
  0
ARC
  5
2F070B
330
18
100
AcDbEntity
  8
0
  6
Continuous
 62
     8
370
    15
100
AcDbCircle
 10
10507.14787229843
 20
-9865.538630898955
 30
0.0000000000378232
 40
0.345656823989321
100
AcDbArc
 50
73.43171055534921
 51
133.0951174169886
  0
ARC
  5
2F070C
330
18
100
AcDbEntity
  8
0
  6
Continuous
 62
     8
370
    15
100
AcDbCircle
 10
10507.53232376768
 20
-9865.609555173203
 30
0.0000000000378232
 40
0.6997834047872444
100
AcDbArc
 50
152.4809873289502
 51
247.1395414280952
  0
ARC
  5
2F070D
330
18
100
AcDbEntity
  8
0
  6
Continuous
 62
     8
370
    15
100
AcDbCircle
 10
10507.46065606253
 20
-9865.880664917302
 30
0.0000000000378232
 40
0.4239502952180176
100
AcDbArc
 50
241.8227241167293
 51
294.3925648399549
  0
LINE
  5
2F070E
330
18
100
AcDbEntity
  8
0
  6
Continuous
 62
     8
370
    15
100
AcDbLine
 10
10508.08368104483
 20
-9866.042802577853
 30
0.0000000000378232
 11
10507.63574170463
 21
-9866.266772247956
 31
0.0000000000378232
  0
ARC
  5
2F070F
330
18
100
AcDbEntity
  8
0
  6
Continuous
 62
     8
370
    15
100
AcDbCircle
 10
10508.86154752553
 20
-9864.401931436256
 30
0.0000000000378232
 40
1.815911441952285
100
AcDbArc
 50
244.6363807105693
 51
263.5788808742149
  0
LINE
  5
2F0710
330
18
100
AcDbEntity
  8
0
  6
Continuous
 62
     8
370
    15
100
AcDbLine
 10
10508.98373975408
 20
-9866.813421935756
 30
0.0000000000378232
 11
10508.65846465943
 21
-9866.206451237904
 31
0.0000000000378232
  0
LWPOLYLINE
  5
2F0711
330
18
100
AcDbEntity
  8
0
  6
Continuous
 62
     8
370
    15
100
AcDbPolyline
 90
        9
 70
   128
 43
0.0
 10
10508.71972926083
 20
-9866.970264846954
 10
10508.77964503958
 20
-9866.969368609105
 10
10508.83741256378
 20
-9866.961365976204
 10
10508.88971079353
 20
-9866.946716941704
 10
10508.93353149758
 20
-9866.926264442602
 10
10508.96635417898
 20
-9866.901184845206
 10
10508.98629342503
 20
-9866.872919374106
 10
10508.99220139238
 20
-9866.843093646356
 10
10508.98373975408
 20
-9866.813421935756
  0
LWPOLYLINE
  5
2F0712
330
18
100
AcDbEntity
  8
0
  6
Continuous
 62
     8
370
    15
100
AcDbPolyline
 90
        9
 70
   128
 43
0.0
 10
10511.39268634463
 20
-9865.608948640402
 10
10511.45203108298
 20
-9865.613178801053
 10
10511.51168253848
 20
-9865.610224817305
 10
10511.56821348068
 20
-9865.600255194353
 10
10511.61837399263
 20
-9865.583843195003
 10
10511.65927767383
 20
-9865.561933501554
 10
10511.68857442568
 20
-9865.535785045253
 10
10511.70457969133
 20
-9865.506901283152
 10
10511.70637480133
 20
-9865.476942076704
  0
LINE
  5
2F0713
330
18
100
AcDbEntity
  8
0
  6
Continuous
 62
     8
370
    15
100
AcDbLine
 10
10510.17874494923
 20
-9865.446311093154
 30
0.0000000000378232
 11
10511.39268634463
 21
-9865.608948640402
 31
0.0000000000378232
  0
ARC
  5
2F0714
330
18
100
AcDbEntity
  8
0
  6
Continuous
 62
     8
370
    15
100
AcDbCircle
 10
10509.56701838168
 20
-9865.812910523604
 30
0.0000000000378232
 40
0.7131651532801455
100
AcDbArc
 50
30.93368487663458
 51
66.49515471889929
  0
LINE
  5
2F0715
330
18
100
AcDbEntity
  8
0
  6
Continuous
 62
     8
370
    15
100
AcDbLine
 10
10508.42663431403
 20
-9865.037412761456
 30
0.0000000000378232
 11
10508.42663431403
 21
-9864.691003188505
 31
0.0000000000378232
  0
LINE
  5
2F0716
330
18
100
AcDbEntity
  8
0
  6
Continuous
 62
     8
370
    15
100
AcDbLine
 10
10508.42663431403
 20
-9864.691003188505
 30
0.0000000000378232
 11
10508.33084432318
 21
-9864.575372939154
 31
0.0000000000378232
  0
LINE
  5
2F0717
330
18
100
AcDbEntity
  8
0
  6
Continuous
 62
     8
370
    15
100
AcDbLine
 10
10509.85144762898
 20
-9865.158919285706
 30
0.0000000000378232
 11
10509.85144762898
 21
-9864.812509712756
 31
0.0000000000378232
  0
LINE
  5
2F0718
330
18
100
AcDbEntity
  8
0
  6
Continuous
 62
     8
370
    15
100
AcDbLine
 10
10510.10144166098
 20
-9864.687512696753
 30
0.0000000000378232
 11
10509.85144762898
 21
-9864.812509712756
 31
0.0000000000378232
  0
LINE
  5
2F0719
330
18
100
AcDbEntity
  8
0
  6
Continuous
 62
     8
370
    15
100
AcDbLine
 10
10507.26046622723
 20
-9866.254373202803
 30
0.0000000000378232
 11
10507.26046622723
 21
-9865.907963629707
 31
0.0000000000378232
  0
ARC
  5
2F071A
330
18
100
AcDbEntity
  8
0
  6
Continuous
 62
     8
370
    15
100
AcDbCircle
 10
10507.71107394128
 20
-9865.099523432156
 30
0.0000000000378232
 40
0.925539229365379
100
AcDbArc
 50
200.7647677062737
 51
240.8656157571782
  0
LINE
  5
2F071B
330
18
100
AcDbEntity
  8
0
  6
Continuous
 62
     8
370
    15
100
AcDbLine
 10
10508.65846465943
 20
-9866.206451237904
 30
0.0000000000378232
 11
10508.65846465943
 21
-9865.860041664953
 31
0.0000000000378232
  0
LINE
  5
2F071C
330
18
100
AcDbEntity
  8
0
  6
Continuous
 62
     8
370
    15
100
AcDbLine
 10
10508.08368104483
 20
-9866.042802577853
 30
0.0000000000378232
 11
10508.08368104483
 21
-9865.696393004753
 31
0.0000000000378232
  0
ARC
  5
2F071D
330
18
100
AcDbEntity
  8
0
  6
Continuous
 62
     8
370
    15
100
AcDbCircle
 10
10508.86154752553
 20
-9864.055521863305
 30
0.0000000000378232
 40
1.815911441952285
100
AcDbArc
 50
244.6363807105693
 51
263.5788808742149
  0
LINE
  5
2F071E
330
18
100
AcDbEntity
  8
0
  6
Continuous
 62
     8
370
    15
100
AcDbLine
 10
10507.63574170463
 20
-9866.266772247956
 30
0.0000000000378232
 11
10507.63574170463
 21
-9865.920362674853
 31
0.0000000000378232
  0
LINE
  5
2F071F
330
18
100
AcDbEntity
  8
0
  6
Continuous
 62
     8
370
    15
100
AcDbLine
 10
10508.08368104483
 20
-9865.696393004753
 30
0.0000000000378232
 11
10507.63574170463
 21
-9865.920362674853
 31
0.0000000000378232
  0
ARC
  5
2F0720
330
18
100
AcDbEntity
  8
0
  6
Continuous
 62
     8
370
    15
100
AcDbCircle
 10
10507.46065606253
 20
-9865.534255344202
 30
0.0000000000378232
 40
0.4239502952179929
100
AcDbArc
 50
241.8227241165126
 51
294.3925648399549
  0
LINE
  5
2F0721
330
18
100
AcDbEntity
  8
0
  6
Continuous
 62
     8
370
    15
100
AcDbLine
 10
10508.98373975408
 20
-9866.813421935756
 30
0.0000000000378232
 11
10508.98373975408
 21
-9866.467012362653
 31
0.0000000000378232
  0
LINE
  5
2F0722
330
18
100
AcDbEntity
  8
0
  6
Continuous
 62
     8
370
    15
100
AcDbLine
 10
10508.98373975408
 20
-9866.467012362653
 30
0.0000000000378232
 11
10508.65846465943
 21
-9865.860041664953
 31
0.0000000000378232
  0
LWPOLYLINE
  5
2F0723
330
18
100
AcDbEntity
  8
0
  6
Continuous
 62
     8
370
    15
100
AcDbPolyline
 90
        3
 70
   128
 43
0.0
 10
10508.99225786258
 20
-9866.499364925603
 10
10508.99220139238
 20
-9866.496684073252
 10
10508.98373975408
 20
-9866.467012362653
  0
LWPOLYLINE
  5
2F0724
330
18
100
AcDbEntity
  8
0
  6
Continuous
 62
     8
370
    15
100
AcDbPolyline
 90
       22
 70
   128
 43
0.0
 10
10507.55335004888
 20
-9843.767154009503
 10
10508.03302777688
 20
-9843.944163282355
 10
10508.59574138198
 20
-9844.042614122154
 10
10509.19149375338
 20
-9844.053759946852
 10
10509.76734894353
 20
-9843.976610058355
 10
10510.27213925798
 20
-9843.818019297953
 10
10510.66101355598
 20
-9843.592080013856
 10
10510.89941708108
 20
-9843.318867081354
 10
10510.96616649383
 20
-9843.022656725152
 10
10510.85533147763
 20
-9842.729768725854
 10
10510.57676064758
 20
-9842.466227733654
 10
10510.15520523458
 20
-9842.255450027304
 10
10509.62812325018
 20
-9842.116164612202
 10
10509.04234593473
 20
-9842.060746445455
 10
10508.44992785648
 20
-9842.094122469054
 10
10507.90350067448
 20
-9842.213323572953
 10
10507.45162210628
 20
-9842.407760722104
 10
10507.13443926833
 20
-9842.660155220754
 10
10506.98014080833
 20
-9842.948083474254
 10
10507.00243114043
 20
-9843.245959001455
 10
10507.19933413733
 20
-9843.527316462503
 10
10507.55335004888
 20
-9843.767154009503
  0
ARC
  5
2F0725
330
18
100
AcDbEntity
  8
0
  6
Continuous
 62
     8
370
    15
100
AcDbCircle
 10
10507.31104737083
 20
-9842.620142602256
 30
0.0000000000378232
 40
0.8239178017434432
100
AcDbArc
 50
158.9016623758587
 51
242.1638472453228
  0
ARC
  5
2F0726
330
18
100
AcDbEntity
  8
0
  6
Continuous
 62
     8
370
    15
100
AcDbCircle
 10
10510.64741550743
 20
-9842.628882099503
 30
0.0000000000378232
 40
0.8054645022841667
100
AcDbArc
 50
296.6586378172954
 51
22.2758678309966
  0
LINE
  5
2F0727
330
18
100
AcDbEntity
  8
0
  6
Continuous
 62
     8
370
    15
100
AcDbLine
 10
10508.59399162928
 20
-9843.757144626954
 30
0.0000000000378232
 11
10509.98818517648
 21
-9843.570357943856
 31
0.0000000000378232
  0
LINE
  5
2F0728
330
18
100
AcDbEntity
  8
0
  6
Continuous
 62
     8
370
    15
100
AcDbLine
 10
10509.98818517648
 20
-9843.570357943856
 30
0.0000000000378232
 11
10510.36175854268
 21
-9842.873261170102
 31
0.0000000000378232
  0
LINE
  5
2F0729
330
18
100
AcDbEntity
  8
0
  6
Continuous
 62
     8
370
    15
100
AcDbLine
 10
10510.36175854268
 20
-9842.873261170102
 30
0.0000000000378232
 11
10509.34113836168
 21
-9842.362951079602
 31
0.0000000000378232
  0
LINE
  5
2F072A
330
18
100
AcDbEntity
  8
0
  6
Continuous
 62
     8
370
    15
100
AcDbLine
 10
10509.34113836168
 20
-9842.362951079602
 30
0.0000000000378232
 11
10507.94694349733
 21
-9842.549737104204
 31
0.0000000000378232
  0
LINE
  5
2F072B
330
18
100
AcDbEntity
  8
0
  6
Continuous
 62
     8
370
    15
100
AcDbLine
 10
10507.94694349733
 20
-9842.549737104204
 30
0.0000000000378232
 11
10507.57337144828
 21
-9843.246834536454
 31
0.0000000000378232
  0
LINE
  5
2F072C
330
18
100
AcDbEntity
  8
0
  6
Continuous
 62
     8
370
    15
100
AcDbLine
 10
10507.57337144828
 20
-9843.246834536454
 30
0.0000000000378232
 11
10508.59399162928
 21
-9843.757144626954
 31
0.0000000000378232
  0
LINE
  5
2F072D
330
18
100
AcDbEntity
  8
0
  6
Continuous
 62
     8
370
    15
100
AcDbLine
 10
10509.98818517648
 20
-9842.686470563756
 30
0.0000000000378232
 11
10509.98818517648
 21
-9843.570357943856
 31
0.0000000000378232
  0
LINE
  5
2F072E
330
18
100
AcDbEntity
  8
0
  6
Continuous
 62
     8
370
    15
100
AcDbLine
 10
10508.59399162928
 20
-9842.463046421006
 30
0.0000000000378232
 11
10508.59399162928
 21
-9843.757144626954
 31
0.0000000000378232
  0
LWPOLYLINE
  5
2F072F
330
18
100
AcDbEntity
  8
0
  6
Continuous
 62
     8
370
    15
100
AcDbPolyline
 90
       22
 70
   128
 43
0.0
 10
10561.98697016228
 20
-9849.266725791054
 10
10561.44054351533
 20
-9849.385927286003
 10
10560.98866410338
 20
-9849.580364198304
 10
10560.67148338508
 20
-9849.832759612855
 10
10560.51718377263
 20
-9850.120687125502
 10
10560.53947550423
 20
-9850.418563270105
 10
10560.73637767793
 20
-9850.699919825754
 10
10561.09039474178
 20
-9850.939758772103
 10
10561.57007197598
 20
-9851.116766974705
 10
10562.13278508713
 20
-9851.215218061556
 10
10562.72853737633
 20
-9851.226363927355
 10
10563.30439240178
 20
-9851.149214121204
 10
10563.80918257223
 20
-9850.990623432805
 10
10564.19805573833
 20
-9850.764683397505
 10
10564.43645938688
 20
-9850.491470403354
 10
10564.50321077528
 20
-9850.195260376404
 10
10564.39237510043
 20
-9849.902372706503
 10
10564.11380418818
 20
-9849.638831755405
 10
10563.69224877518
 20
-9849.428054048902
 10
10563.16516621463
 20
-9849.288768263454
 10
10562.57939087468
 20
-9849.233350426104
 10
10561.98697016228
 20
-9849.266725791054
  0
ARC
  5
2F0730
330
18
100
AcDbEntity
  8
0
  6
Continuous
 62
     8
370
    15
100
AcDbCircle
 10
10564.20943842443
 20
-9849.810841958755
 30
0.0000000000378232
 40
0.786104639057313
100
AcDbArc
 50
295.3373959266747
 51
23.59722858028647
  0
ARC
  5
2F0731
330
18
100
AcDbEntity
  8
0
  6
Continuous
 62
     8
370
    15
100
AcDbCircle
 10
10560.84539412593
 20
-9849.793756569205
 30
0.0000000000378232
 40
0.8217676981552194
100
AcDbArc
 50
158.7682921587667
 51
242.2972366237864
  0
LINE
  5
2F0732
330
18
100
AcDbEntity
  8
0
  6
Continuous
 62
     8
370
    15
100
AcDbLine
 10
10561.48398703793
 20
-9849.722341125955
 30
0.0000000000378232
 11
10561.11041515343
 21
-9850.419437817203
 31
0.0000000000378232
  0
LINE
  5
2F0733
330
18
100
AcDbEntity
  8
0
  6
Continuous
 62
     8
370
    15
100
AcDbLine
 10
10561.11041515343
 20
-9850.419437817203
 30
0.0000000000378232
 11
10562.13103599293
 21
-9850.929748236955
 31
0.0000000000378232
  0
LINE
  5
2F0734
330
18
100
AcDbEntity
  8
0
  6
Continuous
 62
     8
370
    15
100
AcDbLine
 10
10562.13103599293
 20
-9850.929748236955
 30
0.0000000000378232
 11
10563.52522871708
 21
-9850.742961965454
 31
0.0000000000378232
  0
LINE
  5
2F0735
330
18
100
AcDbEntity
  8
0
  6
Continuous
 62
     8
370
    15
100
AcDbLine
 10
10563.52522871708
 20
-9850.742961965454
 30
0.0000000000378232
 11
10563.89880257723
 21
-9850.045864944954
 31
0.0000000000378232
  0
LINE
  5
2F0736
330
18
100
AcDbEntity
  8
0
  6
Continuous
 62
     8
370
    15
100
AcDbLine
 10
10563.89880257723
 20
-9850.045864944954
 30
0.0000000000378232
 11
10562.87818173758
 21
-9849.535554525202
 31
0.0000000000378232
  0
LINE
  5
2F0737
330
18
100
AcDbEntity
  8
0
  6
Continuous
 62
     8
370
    15
100
AcDbLine
 10
10562.87818173758
 20
-9849.535554525202
 30
0.0000000000378232
 11
10561.48398703793
 21
-9849.722341125955
 31
0.0000000000378232
  0
LINE
  5
2F0738
330
18
100
AcDbEntity
  8
0
  6
Continuous
 62
     8
370
    15
100
AcDbLine
 10
10563.52522871708
 20
-9849.859074585354
 30
0.0000000000378232
 11
10563.52522871708
 21
-9850.742961965454
 31
0.0000000000378232
  0
LINE
  5
2F0739
330
18
100
AcDbEntity
  8
0
  6
Continuous
 62
     8
370
    15
100
AcDbLine
 10
10562.13103599293
 20
-9849.635650031007
 30
0.0000000000378232
 11
10562.13103599293
 21
-9850.929748236955
 31
0.0000000000378232
  0
LWPOLYLINE
  5
2F073A
330
18
100
AcDbEntity
  8
0
  6
Continuous
 62
     8
370
    15
100
AcDbPolyline
 90
       22
 70
   128
 43
0.0
 10
10525.24462388978
 20
-9870.087388151904
 10
10525.31137396103
 20
-9869.791178783453
 10
10525.20053960318
 20
-9869.498290455052
 10
10524.92196869093
 20
-9869.234749503954
 10
10524.50041327793
 20
-9869.023971797455
 10
10523.97333071738
 20
-9868.884686012152
 10
10523.38755406043
 20
-9868.829268833153
 10
10522.79513466503
 20
-9868.862643539604
 10
10522.24870801808
 20
-9868.981845034556
 10
10521.79682860613
 20
-9869.176281947006
 10
10521.47964788783
 20
-9869.428677361404
 10
10521.32534827553
 20
-9869.716604874204
 10
10521.34764000713
 20
-9870.014481018654
 10
10521.54454086368
 20
-9870.295838232803
 10
10521.89855924468
 20
-9870.535676520652
 10
10522.37823516173
 20
-9870.712685381906
 10
10522.94094959003
 20
-9870.811135810254
 10
10523.53670187908
 20
-9870.822281676054
 10
10524.11255690453
 20
-9870.745131869753
 10
10524.61734707498
 20
-9870.586541181354
 10
10525.00622024108
 20
-9870.360601146203
 10
10525.24462388978
 20
-9870.087388151904
  0
LWPOLYLINE
  5
2F073B
330
18
100
AcDbEntity
  8
0
  6
Continuous
 62
     8
370
    15
100
AcDbPolyline
 90
        3
 70
   128
 43
0.0
 10
10525.72758594383
 20
-9869.719079863105
 10
10525.46346744938
 20
-9870.032836808456
 10
10525.35401471798
 20
-9870.117243775254
  0
ARC
  5
2F073C
330
18
100
AcDbEntity
  8
0
  6
Continuous
 62
     8
370
    15
100
AcDbCircle
 10
10521.62601039278
 20
-9869.399992140505
 30
0.0000000000378232
 40
0.8000658049817087
100
AcDbArc
 50
157.3649635366106
 51
243.7005652460667
  0
LWPOLYLINE
  5
2F073D
330
18
100
AcDbEntity
  8
0
  6
Continuous
 62
     8
370
    15
100
AcDbPolyline
 90
        3
 70
   128
 43
0.0
 10
10525.73797382498
 20
-9869.092078978552
 10
10525.81261062533
 20
-9869.381327531453
 10
10525.72758594383
 20
-9869.719079863105
  0
LINE
  5
2F073E
330
18
100
AcDbEntity
  8
0
  6
Continuous
 62
     8
370
    15
100
AcDbLine
 10
10524.70696576283
 20
-9869.641783352003
 30
0.0000000000378232
 11
10523.68634492333
 21
-9869.131472932255
 31
0.0000000000378232
  0
LINE
  5
2F073F
330
18
100
AcDbEntity
  8
0
  6
Continuous
 62
     8
370
    15
100
AcDbLine
 10
10523.68634492333
 20
-9869.131472932255
 30
0.0000000000378232
 11
10522.29215154068
 21
-9869.318258874504
 31
0.0000000000378232
  0
LINE
  5
2F0740
330
18
100
AcDbEntity
  8
0
  6
Continuous
 62
     8
370
    15
100
AcDbLine
 10
10522.29215154068
 20
-9869.318258874504
 30
0.0000000000378232
 11
10521.91857833918
 21
-9870.015356224405
 31
0.0000000000378232
  0
LINE
  5
2F0741
330
18
100
AcDbEntity
  8
0
  6
Continuous
 62
     8
370
    15
100
AcDbLine
 10
10521.91857833918
 20
-9870.015356224405
 30
0.0000000000378232
 11
10522.93919917868
 21
-9870.525666644156
 31
0.0000000000378232
  0
LINE
  5
2F0742
330
18
100
AcDbEntity
  8
0
  6
Continuous
 62
     8
370
    15
100
AcDbLine
 10
10522.93919917868
 20
-9870.525666644156
 30
0.0000000000378232
 11
10524.33339321983
 21
-9870.338879714152
 31
0.0000000000378232
  0
LINE
  5
2F0743
330
18
100
AcDbEntity
  8
0
  6
Continuous
 62
     8
370
    15
100
AcDbLine
 10
10524.33339321983
 20
-9870.338879714152
 30
0.0000000000378232
 11
10524.70696576283
 21
-9869.641783352003
 31
0.0000000000378232
  0
LINE
  5
2F0744
330
18
100
AcDbEntity
  8
0
  6
Continuous
 62
     8
370
    15
100
AcDbLine
 10
10524.33339321983
 20
-9869.454992334053
 30
0.0000000000378232
 11
10524.33339321983
 21
-9870.338879714152
 31
0.0000000000378232
  0
LINE
  5
2F0745
330
18
100
AcDbEntity
  8
0
  6
Continuous
 62
     8
370
    15
100
AcDbLine
 10
10522.93919917868
 20
-9869.231568438205
 30
0.0000000000378232
 11
10522.93919917868
 21
-9870.525666644156
 31
0.0000000000378232
  0
LWPOLYLINE
  5
2F0746
330
18
100
AcDbEntity
  8
0
  6
Continuous
 62
     8
370
    15
100
AcDbPolyline
 90
        9
 70
   128
 43
0.0
 10
10568.54287030133
 20
-9822.880350599455
 10
10568.67686435228
 20
-9822.708248946503
 10
10569.02870492663
 20
-9822.129883287354
 10
10569.27884383838
 20
-9821.501032028904
 10
10569.40872988868
 20
-9820.868334960054
 10
10569.40872988868
 20
-9820.278715372704
 10
10569.27884383838
 20
-9819.775904354152
 10
10569.02870492663
 20
-9819.397192007455
 10
10568.77546163603
 20
-9819.213108391254
  0
ARC
  5
2F0747
330
18
100
AcDbEntity
  8
0
  6
Continuous
 62
     8
370
    15
100
AcDbCircle
 10
10566.41417799668
 20
-9820.833659138454
 30
0.0000000000378232
 40
3.012222943184913
100
AcDbArc
 50
315.0107722915978
 51
358.3794336725029
  0
LWPOLYLINE
  5
2F0748
330
18
100
AcDbEntity
  8
0
  6
Continuous
 62
     8
370
    15
100
AcDbPolyline
 90
       48
 70
   128
 43
0.0
 10
10494.34687329638
 20
-9842.047383394554
 10
10494.37966091033
 20
-9841.056197518854
 10
10494.57920253053
 20
-9839.774348536703
 10
10494.95513924828
 20
-9838.502436990955
 10
10495.50568509113
 20
-9837.246524125705
 10
10496.22820983218
 20
-9836.012595451553
 10
10497.11927586923
 20
-9834.806530454305
 10
10498.17463163888
 20
-9833.634076910002
 10
10499.38925112938
 20
-9832.500821910504
 10
10500.75734738093
 20
-9831.412166673203
 10
10502.27239751018
 20
-9830.373298223905
 10
10503.92718205838
 20
-9829.389167088655
 10
10505.71381894733
 20
-9828.464465047105
 10
10507.62378945113
 20
-9827.603596342105
 10
10509.64799491313
 20
-9826.810665125904
 10
10511.77678810883
 20
-9826.089449241954
 10
10514.00002053833
 20
-9825.443384481656
 10
10516.30710412298
 20
-9824.875552174854
 10
10518.68704051088
 20
-9824.388656634204
 10
10521.12849154133
 20
-9823.985018900305
 10
10523.61981546443
 20
-9823.666561264105
 10
10526.14914925943
 20
-9823.434802988155
 10
10528.70443234223
 20
-9823.290847134354
 10
10531.27349085893
 20
-9823.235380564704
 10
10533.84407983328
 20
-9823.268667355405
 10
10536.40395297128
 20
-9823.390548138654
 10
10538.94090876038
 20
-9823.600443395604
 10
10541.44285895768
 20
-9823.897352138305
 10
10543.89787732193
 20
-9824.279859154703
 10
10546.29426810293
 20
-9824.746142910655
 10
10548.62060950463
 20
-9825.293980159855
 10
10550.86581624728
 20
-9825.920760102807
 10
10553.01918731198
 20
-9826.623497721805
 10
10555.07046356303
 20
-9827.398841519003
 10
10557.00986989508
 20
-9828.243097224655
 10
10558.82816133098
 20
-9829.152242942604
 10
10560.51667274213
 20
-9830.121946108553
 10
10562.06736033668
 20
-9831.147584234153
 10
10563.47283557453
 20
-9832.224269766502
 10
10564.72639546028
 20
-9833.346873137754
 10
10565.82206995898
 20
-9834.510043838603
 10
10566.75463747088
 20
-9835.708239229105
 10
10567.51965150368
 20
-9836.935748411302
 10
10568.11346898908
 20
-9838.186723509953
 10
10568.53325950268
 20
-9839.455201404504
 10
10568.77702106948
 20
-9840.735137973505
 10
10568.84359465088
 20
-9842.020432460602
 10
10568.84309020568
 20
-9842.047383394554
  0
ARC
  5
2F0749
330
18
100
AcDbEntity
  8
0
  6
Continuous
 62
     8
370
    15
100
AcDbCircle
 10
10504.26719788223
 20
-9854.386654917955
 30
0.0000000000378232
 40
9.661475702306372
100
AcDbArc
 50
157.0535694106051
 51
205.6220223007909
  0
ARC
  5
2F074A
330
18
100
AcDbEntity
  8
0
  6
Continuous
 62
     8
370
    15
100
AcDbCircle
 10
10558.92493550453
 20
-9854.387574216806
 30
0.0000000000378232
 40
9.659631727108053
100
AcDbArc
 50
334.1413909909219
 51
22.77859618301504
  0
LWPOLYLINE
  5
2F074B
330
18
100
AcDbEntity
  8
0
  6
Continuous
 62
     8
370
    15
100
AcDbPolyline
 90
       91
 70
   128
 43
0.0
 10
10505.78721253913
 20
-9867.710647964152
 10
10504.04981819228
 20
-9866.779086131904
 10
10502.44662336233
 20
-9865.789195037156
 10
10500.98543723483
 20
-9864.745798600405
 10
10499.67337686473
 20
-9863.653980538405
 10
10498.51683441428
 20
-9862.519060079903
 10
10497.52144570763
 20
-9861.346565705902
 10
10496.69206092488
 20
-9860.142209960755
 10
10496.03271694373
 20
-9858.911861134704
 10
10495.54663075448
 20
-9857.661512311854
 10
10495.23616784873
 20
-9856.397255029104
 10
10495.10284287893
 20
-9855.125249311553
 10
10495.14730253573
 20
-9853.851692721804
 10
10495.36933213373
 20
-9852.582788090454
 10
10495.76784902558
 20
-9851.324719150402
 10
10496.34091313933
 20
-9850.083613658306
 10
10497.08572961198
 20
-9848.865518369756
 10
10497.99867447323
 20
-9847.676370393052
 10
10499.07529596218
 20
-9846.521959651254
 10
10500.31034877173
 20
-9845.407911760856
 10
10501.69781676848
 20
-9844.339652964052
 10
10503.23094229808
 20
-9843.322390207552
 10
10504.90225516088
 20
-9842.361078215752
 10
10506.70361146628
 20
-9841.460400063053
 10
10508.62623545003
 20
-9840.624743631652
 10
10510.66076096303
 20
-9839.858180866853
 10
10512.79727855663
 20
-9839.164446868403
 10
10515.02537433728
 20
-9838.546920463705
 10
10517.33419582088
 20
-9838.008609719302
 10
10519.71249177443
 20
-9837.552137288603
 10
10522.14868235138
 20
-9837.179729052204
 10
10524.63089333543
 20
-9836.893196995406
 10
10527.14703121568
 20
-9836.693938549404
 10
10529.68484047838
 20
-9836.582923750404
 10
10532.23195365803
 20
-9836.560693922002
 10
10534.77596509298
 20
-9836.627356406905
 10
10537.30447965863
 20
-9836.782587859856
 10
10539.80517730433
 20
-9837.025630954555
 10
10542.26587495643
 20
-9837.355302945052
 10
10544.67458644673
 20
-9837.769995336355
 10
10547.01957519458
 20
-9838.267689689754
 10
10549.28941611173
 20
-9838.845960914903
 10
10551.47305223558
 20
-9839.501991099954
 10
10553.55984510908
 20
-9840.232584163703
 10
10555.53962729873
 20
-9841.034181578754
 10
10557.40275096308
 20
-9841.902878752106
 10
10559.14014530993
 20
-9842.834440584353
 10
10560.74334013973
 20
-9843.824331679105
 10
10562.20452626738
 20
-9844.867728115856
 10
10563.51658663748
 20
-9845.959546177855
 10
10564.67312908778
 20
-9847.094466636354
 10
10565.66851779458
 20
-9848.266961010355
 10
10566.49790257733
 20
-9849.471316755353
 10
10567.15724655833
 20
-9850.701665581553
 10
10567.64333274773
 20
-9851.952014404254
 10
10567.95379565348
 20
-9853.216271687153
 10
10568.08712062328
 20
-9854.488277404704
 10
10568.04266096648
 20
-9855.761833994457
 10
10567.82063136848
 20
-9857.030738625803
 10
10567.42211447663
 20
-9858.288807565856
 10
10566.84905036273
 20
-9859.529913057951
 10
10566.10423389008
 20
-9860.748008346502
 10
10565.19128902883
 20
-9861.937156323205
 10
10564.11466754003
 20
-9863.091567065003
 10
10562.87961473048
 20
-9864.205614955405
 10
10561.49214673373
 20
-9865.273873752205
 10
10559.95902120398
 20
-9866.291136508706
 10
10558.28770834118
 20
-9867.252448500505
 10
10556.48635203593
 20
-9868.153126653204
 10
10554.56372805204
 20
-9868.988783084606
 10
10552.52920253918
 20
-9869.755345849404
 10
10550.39268494558
 20
-9870.449079847855
 10
10548.16458916478
 20
-9871.066606252556
 10
10545.85576768118
 20
-9871.604916996956
 10
10543.47747172778
 20
-9872.061389427654
 10
10541.04128115083
 20
-9872.433797664053
 10
10538.55907016663
 20
-9872.720329720854
 10
10536.04293228653
 20
-9872.919588166853
 10
10533.50512302368
 20
-9873.030602965853
 10
10530.95800984403
 20
-9873.052832794256
 10
10528.41399840908
 20
-9872.986170309356
 10
10525.88548384343
 20
-9872.830938856405
 10
10523.38478619788
 20
-9872.587895761706
 10
10520.92408854563
 20
-9872.258223771201
 10
10518.51537705548
 20
-9871.843531379902
 10
10516.17038830748
 20
-9871.345837026503
 10
10513.90054739048
 20
-9870.767565801354
 10
10511.71691126663
 20
-9870.111535616306
 10
10509.63011839313
 20
-9869.380942552554
 10
10507.65033620348
 20
-9868.579345137507
 10
10505.78721253913
 20
-9867.710647964152
  0
LWPOLYLINE
  5
2F074C
330
18
100
AcDbEntity
  8
0
  6
Continuous
 62
     8
370
    15
100
AcDbPolyline
 90
       73
 70
   128
 43
0.0
 10
10515.29616981458
 20
-9862.956169326353
 10
10513.93765785518
 20
-9862.214890307754
 10
10512.71352750023
 20
-9861.417231482905
 10
10511.63309600213
 20
-9860.569263397254
 10
10510.70458742933
 20
-9859.677438552353
 10
10509.93506697638
 20
-9858.748545389451
 10
10509.33039075068
 20
-9857.789652890155
 10
10508.89516263668
 20
-9856.808058715254
 10
10508.63269379603
 20
-9855.811233393655
 10
10508.54498093588
 20
-9854.806763358054
 10
10508.63269379603
 20
-9853.802293322602
 10
10508.89516263668
 20
-9852.805468001003
 10
10509.33039075068
 20
-9851.823873826106
 10
10509.93506697638
 20
-9850.864981326806
 10
10510.70458742933
 20
-9849.936088163904
 10
10511.63309600213
 20
-9849.044263319003
 10
10512.71352750023
 20
-9848.196295233352
 10
10513.93765785518
 20
-9847.398636408507
 10
10515.29616981458
 20
-9846.657357389904
 10
10516.77872785178
 20
-9845.978101410205
 10
10518.37404550148
 20
-9845.366036232655
 10
10520.06998167278
 20
-9844.825820483602
 10
10521.85363136273
 20
-9844.361566197204
 10
10523.71141768838
 20
-9843.976805970804
 10
10525.62920268713
 20
-9843.674467857956
 10
10527.59239103693
 20
-9843.456853800952
 10
10529.58604168013
 20
-9843.325619380554
 10
10531.59498175103
 20
-9843.281762950555
 10
10533.60392182208
 20
-9843.325619380554
 10
10535.59757246513
 20
-9843.456853800952
 10
10537.56076081508
 20
-9843.674467857956
 10
10539.47854581383
 20
-9843.976805970804
 10
10541.33633213948
 20
-9844.361566197204
 10
10543.11998182943
 20
-9844.825820483602
 10
10544.81591800058
 20
-9845.366036232655
 10
10546.41123565043
 20
-9845.978101410205
 10
10547.89379368748
 20
-9846.657357389904
 10
10549.25230564688
 20
-9847.398636408507
 10
10550.47643600183
 20
-9848.196295233352
 10
10551.55686750008
 20
-9849.044263319003
 10
10552.48537607288
 20
-9849.936088163904
 10
10553.25489652568
 20
-9850.864981326806
 10
10553.85957275153
 20
-9851.823873826106
 10
10554.29480086553
 20
-9852.805468001003
 10
10554.55726970603
 20
-9853.802293322602
 10
10554.64498256618
 20
-9854.806763358054
 10
10554.55726970603
 20
-9855.811233393655
 10
10554.29480086553
 20
-9856.808058715254
 10
10553.85957275153
 20
-9857.789652890155
 10
10553.25489652568
 20
-9858.748545389451
 10
10552.48537607288
 20
-9859.677438552353
 10
10551.55686750008
 20
-9860.569263397254
 10
10550.47643600183
 20
-9861.417231482905
 10
10549.25230564688
 20
-9862.214890307754
 10
10547.89379368748
 20
-9862.956169326353
 10
10546.41123565043
 20
-9863.635425306053
 10
10544.81591800058
 20
-9864.247490483605
 10
10543.11998182943
 20
-9864.787706232655
 10
10541.33633213948
 20
-9865.251960519054
 10
10539.47854581383
 20
-9865.636720745453
 10
10537.56076081508
 20
-9865.939058858305
 10
10535.59757246513
 20
-9866.156672915306
 10
10533.60392182208
 20
-9866.287907335703
 10
10531.59498175103
 20
-9866.331763765702
 10
10529.58604168013
 20
-9866.287907335703
 10
10527.59239103693
 20
-9866.156672915306
 10
10525.62920268713
 20
-9865.939058858305
 10
10523.71141768838
 20
-9865.636720745453
 10
10521.85363136273
 20
-9865.251960519054
 10
10520.06998167278
 20
-9864.787706232655
 10
10518.37404550148
 20
-9864.247490483605
 10
10516.77872785178
 20
-9863.635425306053
 10
10515.29616981458
 20
-9862.956169326353
  0
LWPOLYLINE
  5
2F074D
330
18
100
AcDbEntity
  8
0
  6
Continuous
 62
     8
370
    15
100
AcDbPolyline
 90
       13
 70
   128
 43
0.0
 10
10512.08345722208
 20
-9844.104677163054
 10
10512.07846668938
 20
-9844.110995938856
 10
10511.70959858258
 20
-9844.453051303102
 10
10511.19290611538
 20
-9844.743352750556
 10
10510.55624431073
 20
-9844.966250016801
 10
10509.83393684828
 20
-9845.109727129406
 10
10509.06492372158
 20
-9845.166049354255
 10
10508.29066108973
 20
-9845.132179751603
 10
10507.55288989088
 20
-9845.009943930505
 10
10506.89138538998
 20
-9844.805933015756
 10
10506.34180892453
 20
-9844.531144783105
 10
10505.93378577803
 20
-9844.200391874005
 10
10505.78588606588
 20
-9844.013160344155
  0
LWPOLYLINE
  5
2F074E
330
18
100
AcDbEntity
  8
0
  6
Continuous
 62
     8
370
    15
100
AcDbPolyline
 90
       11
 70
   128
 43
0.0
 10
10505.66763987188
 20
-9843.212161093405
 10
10505.73422069738
 20
-9843.059869053955
 10
10506.02117360528
 20
-9842.698714664151
 10
10506.46697077223
 20
-9842.380385078905
 10
10507.04757366683
 20
-9842.122038845304
 10
10507.73168176133
 20
-9841.937603474755
 10
10508.48241937238
 20
-9841.837024218956
 10
10509.25931074913
 20
-9841.825721702004
 10
10510.02047196728
 20
-9841.904304665604
 10
10510.72487455133
 20
-9842.068539245152
 10
10511.33453612378
 20
-9842.309568099052
  0
LWPOLYLINE
  5
2F074F
330
18
100
AcDbEntity
  8
0
  6
Continuous
 62
     8
370
    15
100
AcDbPolyline
 90
       12
 70
   128
 43
0.0
 10
10511.89728331463
 20
-9866.699101209353
 10
10511.84004986993
 20
-9866.766871695356
 10
10511.44719316808
 20
-9867.091803811854
 10
10510.91022914708
 20
-9867.360285822204
 10
10510.26036623138
 20
-9867.556713514707
 10
10509.53536832633
 20
-9867.669673160155
 10
10508.77737273173
 20
-9867.692598246955
 10
10508.03043047738
 20
-9867.624157033402
 10
10507.33794931868
 20
-9867.468328013005
 10
10506.74017912568
 20
-9867.234164670805
 10
10506.27185244128
 20
-9866.935279574303
 10
10505.96600729078
 20
-9866.598264833156
  0
LWPOLYLINE
  5
2F0750
330
18
100
AcDbEntity
  8
0
  6
Continuous
 62
     8
370
    15
100
AcDbPolyline
 90
       10
 70
   128
 43
0.0
 10
10505.87842490468
 20
-9865.812367736606
 10
10506.09508143803
 20
-9865.474071117955
 10
10506.48793682288
 20
-9865.149139660105
 10
10507.02490084373
 20
-9864.880657649606
 10
10507.67476507658
 20
-9864.684229298757
 10
10508.39976166448
 20
-9864.571270311655
 10
10509.15775725923
 20
-9864.548345224855
 10
10509.90469951358
 20
-9864.616786438553
 10
10510.59717935513
 20
-9864.772616117305
 10
10511.19495086513
 20
-9865.006778801006
  0
LWPOLYLINE
  5
2F0751
330
18
100
AcDbEntity
  8
0
  6
Continuous
 62
     8
370
    15
100
AcDbPolyline
 90
       13
 70
   128
 43
0.0
 10
10526.42866452458
 20
-9870.873199303853
 10
10526.42367407423
 20
-9870.879518038404
 10
10526.05480485608
 20
-9871.221572641254
 10
10525.53811215218
 20
-9871.511874206903
 10
10524.90145239533
 20
-9871.734771766554
 10
10524.17914497398
 20
-9871.878248858455
 10
10523.41012962473
 20
-9871.934570877504
 10
10522.63586831003
 20
-9871.900700616356
 10
10521.89809826348
 20
-9871.778465536103
 10
10521.23659293938
 20
-9871.574455032955
 10
10520.68701515693
 20
-9871.299666141804
 10
10520.27899415078
 20
-9870.968913479755
 10
10520.13109427378
 20
-9870.781682032106
  0
LWPOLYLINE
  5
2F0752
330
18
100
AcDbEntity
  8
0
  6
Continuous
 62
     8
370
    15
100
AcDbPolyline
 90
       11
 70
   128
 43
0.0
 10
10520.01284602193
 20
-9869.980682493206
 10
10520.07942816443
 20
-9869.828390453757
 10
10520.36638234838
 20
-9869.467236743156
 10
10520.81217680904
 20
-9869.148906535404
 10
10521.39277994033
 20
-9868.890560183456
 10
10522.07688914618
 20
-9868.706125574303
 10
10522.82762659253
 20
-9868.605545742354
 10
10523.60451813398
 20
-9868.594243142903
 10
10524.36568099853
 20
-9868.672826600603
 10
10525.07008061918
 20
-9868.837060686204
 10
10525.67974531958
 20
-9869.078090610205
  0
LWPOLYLINE
  5
2F0753
330
18
100
AcDbEntity
  8
0
  6
Continuous
 62
     8
370
    15
100
AcDbPolyline
 90
       12
 70
   128
 43
0.0
 10
10557.15211814288
 20
-9844.071683795155
 10
10557.09488206403
 20
-9844.139455598306
 10
10556.70202667933
 20
-9844.464387056156
 10
10556.16506265833
 20
-9844.732869066655
 10
10555.51519842563
 20
-9844.929297417504
 10
10554.79020183758
 20
-9845.042256404602
 10
10554.03220624298
 20
-9845.065181491402
 10
10553.28526398863
 20
-9844.996740277704
 10
10552.59278414708
 20
-9844.840910598952
 10
10551.99501263693
 20
-9844.606747915102
 10
10551.52668726953
 20
-9844.307862160105
 10
10551.22084080203
 20
-9843.970848077453
  0
LWPOLYLINE
  5
2F0754
330
18
100
AcDbEntity
  8
0
  6
Continuous
 62
     8
370
    15
100
AcDbPolyline
 90
       10
 70
   128
 43
0.0
 10
10551.13325841593
 20
-9843.184950981053
 10
10551.34991363228
 20
-9842.846655020905
 10
10551.74277033413
 20
-9842.521722904403
 10
10552.27973435498
 20
-9842.253240894053
 10
10552.92959727068
 20
-9842.056813201554
 10
10553.65459517573
 20
-9841.943853556106
 10
10554.41259077048
 20
-9841.920928469306
 10
10555.15953302483
 20
-9841.989369682855
 10
10555.85201418338
 20
-9842.145198703252
 10
10556.44978437638
 20
-9842.379362045453
  0
LWPOLYLINE
  5
2F0755
330
18
100
AcDbEntity
  8
0
  6
Continuous
 62
     8
370
    15
100
AcDbPolyline
 90
       13
 70
   128
 43
0.0
 10
10565.62050133883
 20
-9851.277280896655
 10
10565.61551088863
 20
-9851.283599631202
 10
10565.24664035333
 20
-9851.625654892705
 10
10564.72994896658
 20
-9851.915955799854
 10
10564.09328789259
 20
-9852.138854018005
 10
10563.37098047108
 20
-9852.282331109905
 10
10562.60196643898
 20
-9852.338652470455
 10
10561.82770380713
 20
-9852.304782867803
 10
10561.08993376073
 20
-9852.182547787554
 10
10560.42842975363
 20
-9851.978536625906
 10
10559.87885197133
 20
-9851.703747734602
 10
10559.47082964788
 20
-9851.372995731053
 10
10559.32292977103
 20
-9851.185764283553
  0
LWPOLYLINE
  5
2F0756
330
18
100
AcDbEntity
  8
0
  6
Continuous
 62
     8
370
    15
100
AcDbPolyline
 90
       11
 70
   128
 43
0.0
 10
10559.20468283633
 20
-9850.384764086153
 10
10559.27126366168
 20
-9850.232472705204
 10
10559.55821784563
 20
-9849.871318994454
 10
10560.00401362343
 20
-9849.552988128205
 10
10560.58461543758
 20
-9849.294642434754
 10
10561.26872596043
 20
-9849.110207167254
 10
10562.01946208978
 20
-9849.009627993804
 10
10562.79635363123
 20
-9848.998325394354
 10
10563.55751649578
 20
-9849.076908851905
 10
10564.26191743343
 20
-9849.241142279003
 10
10564.87158081683
 20
-9849.482172861655
  0
LWPOLYLINE
  5
2F0757
330
18
100
AcDbEntity
  8
0
  6
Continuous
 62
     8
370
    15
100
AcDbPolyline
 90
       30
 70
   128
 43
0.0
 10
10501.28306148608
 20
-9831.034368833454
 10
10502.46919201193
 20
-9830.233880489752
 10
10504.11287218253
 20
-9829.256355214406
 10
10505.88751837538
 20
-9828.337859255003
 10
10507.78466973413
 20
-9827.482767919853
 10
10509.79529123393
 20
-9826.695158813454
 10
10511.90979500168
 20
-9825.978782737853
 10
10514.11811008103
 20
-9825.337055151653
 10
10516.40970799148
 20
-9824.773032854002
 10
10518.77367204098
 20
-9824.289405669802
 10
10521.19873321568
 20
-9823.888475870903
 10
10523.67334196198
 20
-9823.572156528804
 10
10526.18569716248
 20
-9823.341953076353
 10
10528.72383174623
 20
-9823.198963965951
 10
10531.27564825073
 20
-9823.143869473854
 10
10533.82898599313
 20
-9823.176932359405
 10
10536.37167770483
 20
-9823.297995888952
 10
10538.89160748428
 20
-9823.506482519155
 10
10541.37676611368
 20
-9823.801397847652
 10
10543.81530769448
 20
-9824.181337857503
 10
10546.19561484293
 20
-9824.644492539202
 10
10548.50634215438
 20
-9825.188653134504
 10
10550.73648139868
 20
-9825.811226295202
 10
10552.87540202123
 20
-9826.509246430553
 10
10554.91291074068
 20
-9827.279387067654
 10
10556.83929987038
 20
-9828.117977109054
 10
10558.64538798263
 20
-9829.021021165103
 10
10560.32256806543
 20
-9829.984215729954
 10
10561.86284933978
 20
-9831.002970089754
 10
10561.90690201613
 20
-9831.034368833454
  0
LWPOLYLINE
  5
2F0758
330
18
100
AcDbEntity
  8
0
  6
Continuous
 62
     8
370
    15
100
AcDbPolyline
 90
       14
 70
   128
 43
0.0
 10
10516.56896249288
 20
-9860.198013545756
 10
10515.26482836443
 20
-9859.483691634952
 10
10514.09601130298
 20
-9858.713033546606
 10
10513.07219751038
 20
-9857.892424692502
 10
10512.20186673503
 20
-9857.028666685255
 10
10511.49223563683
 20
-9856.128914775352
 10
10510.94918073773
 20
-9855.200626156406
 10
10510.57720450658
 20
-9854.251491640254
 10
10510.37938761458
 20
-9853.289377541154
 10
10510.35737049593
 20
-9852.322254552506
 10
10510.51133425073
 20
-9851.358138148855
 10
10510.84000327793
 20
-9850.405016145804
 10
10511.34065515463
 20
-9849.470786467555
 10
10511.62862613128
 20
-9849.048139187755
  0
LWPOLYLINE
  5
2F0759
330
18
100
AcDbEntity
  8
0
  6
Continuous
 62
     8
370
    15
100
AcDbPolyline
 90
       31
 70
   128
 43
0.0
 10
10551.56133737093
 20
-9849.048139187755
 10
10551.99039163013
 20
-9849.702145994754
 10
10552.44838167653
 20
-9850.641831714354
 10
10552.73357425388
 20
-9851.598446966753
 10
10552.84360518743
 20
-9852.564066827603
 10
10552.77756371003
 20
-9853.530688334456
 10
10552.53599707208
 20
-9854.490301940154
 10
10552.12090593203
 20
-9855.434956377954
 10
10551.53573052623
 20
-9856.356824187955
 10
10550.78531938868
 20
-9857.248265430804
 10
10549.87589247218
 20
-9858.101894858904
 10
10548.81498270278
 20
-9858.910637481804
 10
10547.61138354308
 20
-9859.667792979355
 10
10546.27506745583
 20
-9860.367087007406
 10
10544.81710749668
 20
-9861.002724888356
 10
10543.24958470568
 20
-9861.569439233754
 10
10541.58548685638
 20
-9862.062533982957
 10
10539.83860568198
 20
-9862.477923937553
 10
10538.02341664928
 20
-9862.812167214805
 10
10536.15495729278
 20
-9863.062493153153
 10
10534.24871328653
 20
-9863.226827666756
 10
10532.32048047923
 20
-9863.303809544155
 10
10530.38623450193
 20
-9863.292800984902
 10
10528.46200630373
 20
-9863.193892538904
 10
10526.56373727143
 20
-9863.007904423255
 10
10524.70716003353
 20
-9862.736376973706
 10
10522.90765621388
 20
-9862.381561424605
 10
10521.18014019923
 20
-9861.946396037005
 10
10519.53892249118
 20
-9861.434489140705
 10
10517.99760631418
 20
-9860.850080609904
 10
10516.56896249288
 20
-9860.198013545756
  0
LWPOLYLINE
  5
2F075A
330
18
100
AcDbEntity
  8
0
  6
Continuous
 62
     8
370
    15
100
AcDbPolyline
 90
       15
 70
   128
 43
0.0
 10
10506.70664110028
 20
-9844.495880843304
 10
10507.31341396718
 20
-9844.733569065655
 10
10508.01632000888
 20
-9844.891745200253
 10
10508.77450888628
 20
-9844.961217036052
 10
10509.54391755128
 20
-9844.937946954204
 10
10510.27982976128
 20
-9844.823286823255
 10
10510.93947910118
 20
-9844.623901381106
 10
10511.48452733213
 20
-9844.351377265702
 10
10511.88329821643
 20
-9844.021552595754
 10
10512.11261847833
 20
-9843.653596490603
 10
10512.15915864188
 20
-9843.268892158256
 10
10512.02021497028
 20
-9842.889797719403
 10
10511.70386270108
 20
-9842.538344698554
 10
10511.22848625638
 20
-9842.234958265253
 10
10511.22202856903
 20
-9842.231738641101
  0
ARC
  5
2F075B
330
18
100
AcDbEntity
  8
0
  6
Continuous
 62
     8
370
    15
100
AcDbCircle
 10
10507.10442338693
 20
-9843.215418918506
 30
0.0000000000378232
 40
1.340825674114107
100
AcDbArc
 50
185.7308827944313
 51
252.7423159205019
  0
LWPOLYLINE
  5
2F075C
330
18
100
AcDbEntity
  8
0
  6
Continuous
 62
     8
370
    15
100
AcDbPolyline
 90
       18
 70
   128
 43
0.0
 10
10551.22239883598
 20
-9843.363155340805
 10
10551.25933355168
 20
-9843.597807055554
 10
10551.46913447198
 20
-9843.958877378154
 10
10551.85193423198
 20
-9844.282515629453
 10
10552.38367809413
 20
-9844.548387560451
 10
10553.03095459688
 20
-9844.739787440452
 10
10553.75309524178
 20
-9844.844687900753
 10
10554.50472378128
 20
-9844.856498279005
 10
10555.23861302498
 20
-9844.774476231352
 10
10555.90864831148
 20
-9844.603776473454
 10
10556.47273135988
 20
-9844.355123320402
 10
10556.89541848148
 20
-9844.044140987753
 10
10557.15014810708
 20
-9843.690370548804
 10
10557.22091925113
 20
-9843.316038703852
 10
10557.10327998833
 20
-9842.944668580705
 10
10556.80462540298
 20
-9842.599592884257
 10
10556.34371919803
 20
-9842.302495077503
 10
10556.34371919803
 20
-9842.302495077503
  0
LWPOLYLINE
  5
2F075D
330
18
100
AcDbEntity
  8
0
  6
Continuous
 62
     8
370
    15
100
AcDbPolyline
 90
        3
 70
   128
 43
0.0
 10
10551.31411334183
 20
-9842.995094881702
 10
10551.46913447198
 20
-9843.222756228806
 10
10551.56063272823
 20
-9843.318952500354
  0
LWPOLYLINE
  5
2F075E
330
18
100
AcDbEntity
  8
0
  6
Continuous
 62
     8
370
    15
100
AcDbPolyline
 90
        7
 70
   128
 43
0.0
 10
10554.24709260863
 20
-9844.126983318954
 10
10554.50472378128
 20
-9844.120377129806
 10
10555.23861302498
 20
-9844.038355082004
 10
10555.90864831148
 20
-9843.867655324106
 10
10556.47273135988
 20
-9843.619002171203
 10
10556.89541848148
 20
-9843.308019838401
 10
10557.13068548258
 20
-9842.995094305403
  0
LWPOLYLINE
  5
2F075F
330
18
100
AcDbEntity
  8
0
  6
Continuous
 62
     8
370
    15
100
AcDbPolyline
 90
        3
 70
   128
 43
0.0
 10
10555.28305951088
 20
-9842.096703771804
 10
10554.85632662093
 20
-9841.947303071905
 10
10554.84256555148
 20
-9841.944136728205
  0
ARC
  5
2F0760
330
18
100
AcDbEntity
  8
0
  6
Continuous
 62
     8
370
    15
100
AcDbCircle
 10
10553.33624612903
 20
-9842.565652377205
 30
0.0000000000378232
 40
0.6169080843437327
100
AcDbArc
 50
185.7103016914472
 51
253.5681858152374
  0
ARC
  5
2F0761
330
18
100
AcDbEntity
  8
0
  6
Continuous
 62
     8
370
    15
100
AcDbCircle
 10
10554.31409408363
 20
-9841.478763203002
 30
0.0000000000378232
 40
1.917213612330397
100
AcDbArc
 50
260.135820707555
 51
314.3975364297398
  0
LWPOLYLINE
  5
2F0762
330
18
100
AcDbEntity
  8
0
  6
Continuous
 62
     8
370
    15
100
AcDbPolyline
 90
       15
 70
   128
 43
0.0
 10
10560.24368562863
 20
-9851.668485688104
 10
10560.85045800158
 20
-9851.906172840354
 10
10561.55336338478
 20
-9852.064349304204
 10
10562.31155226218
 20
-9852.133821140003
 10
10563.08096010398
 20
-9852.110550152753
 10
10563.81687305498
 20
-9851.995890968454
 10
10564.47652128353
 20
-9851.796504764901
 10
10565.02156959683
 20
-9851.523980608254
 10
10565.42034200393
 20
-9851.194156493904
 10
10565.64966037253
 20
-9850.826200018404
 10
10565.69620234718
 20
-9850.441496097505
 10
10565.55725867558
 20
-9850.062401658804
 10
10565.24090574773
 20
-9849.710948967204
 10
10564.76553144338
 20
-9849.407562780805
 10
10564.75907112173
 20
-9849.404341839654
  0
ARC
  5
2F0763
330
18
100
AcDbEntity
  8
0
  6
Continuous
 62
     8
370
    15
100
AcDbCircle
 10
10560.64146827333
 20
-9850.388023021405
 30
0.0000000000378232
 40
1.340826488922917
100
AcDbArc
 50
185.7308652090649
 51
252.7423107213555
  0
LWPOLYLINE
  5
2F0764
330
18
100
AcDbEntity
  8
0
  6
Continuous
 62
     8
370
    15
100
AcDbPolyline
 90
       18
 70
   128
 43
0.0
 10
10505.96756532473
 20
-9865.990572096503
 10
10506.00450004043
 20
-9866.225223811252
 10
10506.21429964358
 20
-9866.586294792203
 10
10506.59709940358
 20
-9866.909933043655
 10
10507.12884326573
 20
-9867.175804974653
 10
10507.77611976848
 20
-9867.367204854654
 10
10508.49826173053
 20
-9867.472104656303
 10
10509.24989027003
 20
-9867.483915034703
 10
10509.98377951373
 20
-9867.401892986905
 10
10510.65381480023
 20
-9867.231193229003
 10
10511.21789784863
 20
-9866.982540076104
 10
10511.64058497023
 20
-9866.671557743306
 10
10511.89531459583
 20
-9866.317787304353
 10
10511.96608442273
 20
-9865.943456118053
 10
10511.84844647708
 20
-9865.572085336255
 10
10511.54979057458
 20
-9865.227010298455
 10
10511.08888568678
 20
-9864.929911833206
 10
10511.08888568678
 20
-9864.929911833206
  0
LWPOLYLINE
  5
2F0765
330
18
100
AcDbEntity
  8
0
  6
Continuous
 62
     8
370
    15
100
AcDbPolyline
 90
        3
 70
   128
 43
0.0
 10
10506.30579789983
 20
-9865.946369914553
 10
10506.08668351388
 20
-9865.672937871954
 10
10506.05927851343
 20
-9865.622512295904
  0
LWPOLYLINE
  5
2F0766
330
18
100
AcDbEntity
  8
0
  6
Continuous
 62
     8
370
    15
100
AcDbPolyline
 90
        7
 70
   128
 43
0.0
 10
10511.87585065433
 20
-9865.622511719605
 10
10511.79020661173
 20
-9865.762558288556
 10
10511.44880709608
 20
-9866.097575931803
 10
10510.95150078998
 20
-9866.379617456005
 10
10510.32953612453
 20
-9866.590961016955
 10
10509.62199524663
 20
-9866.718325829603
 10
10508.99225778038
 20
-9866.754400733153
  0
ARC
  5
2F0767
330
18
100
AcDbEntity
  8
0
  6
Continuous
 62
     8
370
    15
100
AcDbCircle
 10
10508.08140297713
 20
-9865.193078287553
 30
0.0000000000378232
 40
0.6168975806989574
100
AcDbArc
 50
185.7095447381161
 51
253.5687040956613
  0
LWPOLYLINE
  5
2F0768
330
18
100
AcDbEntity
  8
0
  6
Continuous
 62
     8
370
    15
100
AcDbPolyline
 90
        3
 70
   128
 43
0.0
 10
10509.58773072308
 20
-9864.571554142403
 10
10509.60149179268
 20
-9864.574720486104
 10
10510.02822468248
 20
-9864.724121186006
  0
ARC
  5
2F0769
330
18
100
AcDbEntity
  8
0
  6
Continuous
 62
     8
370
    15
100
AcDbCircle
 10
10509.03048149483
 20
-9864.013591327704
 30
0.0000000000378232
 40
2.003990220579349
100
AcDbArc
 50
261.4001094936273
 51
313.1332008666686
  0
LWPOLYLINE
  5
2F076A
330
18
100
AcDbEntity
  8
0
  6
Continuous
 62
     8
370
    15
100
AcDbPolyline
 90
       15
 70
   128
 43
0.0
 10
10521.05185013153
 20
-9871.264403436802
 10
10521.65862250448
 20
-9871.502090588903
 10
10522.36152788753
 20
-9871.660267052903
 10
10523.11971676508
 20
-9871.729738888553
 10
10523.88912460673
 20
-9871.706467901306
 10
10524.62503755773
 20
-9871.591808717003
 10
10525.28468578628
 20
-9871.392422513454
 10
10525.82973409959
 20
-9871.119898356807
 10
10526.22850650683
 20
-9870.790074242454
 10
10526.45782487543
 20
-9870.422117767102
 10
10526.50436684993
 20
-9870.037413846207
 10
10526.36542317833
 20
-9869.658319407503
 10
10526.04907025048
 20
-9869.306866715902
 10
10525.57369594613
 20
-9869.003480529354
 10
10525.56723562448
 20
-9869.000259588203
  0
ARC
  5
2F076B
330
18
100
AcDbEntity
  8
0
  6
Continuous
 62
     8
370
    15
100
AcDbCircle
 10
10521.44964035093
 20
-9869.983932974603
 30
0.0000000000378232
 40
1.340836180598761
100
AcDbArc
 50
185.7311867105283
 51
252.7421004332674
  0
ELLIPSE
  5
2F076C
330
18
100
AcDbEntity
  8
0
  6
Continuous
 62
     8
370
    15
100
AcDbEllipse
 10
10653.91313923028
 20
-9881.731585800655
 30
0.0000000000378232
 11
1.11790387797069
 21
2.236141633958135
 31
0.0
210
0.0
220
0.0
230
1.0
 40
0.6125552123999999
 41
3.826397101336211
 42
5.396888841635906
  0
ELLIPSE
  5
2F076D
330
18
100
AcDbEntity
  8
0
  6
Continuous
 62
     8
370
    15
100
AcDbEllipse
 10
10634.12828139128
 20
-9871.762873672102
 30
0.0000000000378232
 11
1.11862955320153
 21
2.235777041058926
 31
0.0
210
0.0
220
0.0
230
1.0
 40
0.6105775846
 41
3.826601654216177
 42
5.397093394515919
  0
LINE
  5
2F076E
330
18
100
AcDbEntity
  8
0
  6
Continuous
 62
     8
370
    15
100
AcDbLine
 10
10655.68117271573
 20
-9880.848225480204
 30
0.0000000000378232
 11
10655.68117271573
 21
-9762.229143420504
 31
0.0000000000378232
  0
LINE
  5
2F076F
330
18
100
AcDbEntity
  8
0
  6
Continuous
 62
     8
370
    15
100
AcDbLine
 10
10635.89317729058
 20
-9753.090392921156
 30
0.0000000000378232
 11
10635.89317729058
 21
-9870.877932631403
 31
0.0000000000378232
  0
LINE
  5
2F0770
330
18
100
AcDbEntity
  8
0
  6
Continuous
 62
     8
370
    15
100
AcDbLine
 10
10604.43775408568
 20
-9908.634670394156
 30
0.0000000000378232
 11
10653.91367613488
 21
-9883.896709369554
 31
0.0000000000378232
  0
LINE
  5
2F0771
330
18
100
AcDbEntity
  8
0
  6
Continuous
 62
     8
370
    15
100
AcDbLine
 10
10634.12567807543
 20
-9873.926414611706
 30
0.0000000000378232
 11
10585.32871014563
 21
-9898.324898576604
 31
0.0000000000378232
  0
ELLIPSE
  5
2F0772
330
18
100
AcDbEntity
  8
0
  6
Continuous
 62
     8
370
    15
100
AcDbEllipse
 10
10604.43829587938
 20
-9906.469007476255
 30
0.0000000000378232
 11
1.118504553557187
 21
2.236675567702008
 31
0.0
210
0.0
220
0.0
230
1.0
 40
0.6121897086
 41
3.122576313208463
 42
3.826226532948111
  0
ELLIPSE
  5
2F0773
330
18
100
AcDbEntity
  8
0
  6
Continuous
 62
     8
370
    15
100
AcDbEllipse
 10
10634.12828139128
 20
-9753.976520092405
 30
0.0000000000378232
 11
1.111468586821957
 21
2.240020116114863
 31
0.0
210
0.0
220
0.0
230
1.0
 40
0.6120266756000001
 41
6.258795964717143
 42
6.300289207670232
  0
ELLIPSE
  5
2F0774
330
18
100
AcDbEntity
  8
0
  6
Continuous
 62
     8
370
    15
100
AcDbEllipse
 10
10653.91313923028
 20
-9763.113823090105
 30
0.0000000000378232
 11
1.118504553557102
 21
2.236675567702008
 31
0.0
210
0.0
220
0.0
230
1.0
 40
0.6121897085999999
 41
5.397327446238087
 42
6.302201647560977
  0
ELLIPSE
  5
2F0775
330
18
100
AcDbEntity
  8
0
  6
Continuous
 62
     8
370
    15
100
AcDbEllipse
 10
10630.85860088048
 20
-9870.115426718905
 30
0.0000000000378232
 11
1.086987329769457
 21
2.251571579226352
 31
0.0
210
0.0
220
0.0
230
1.0
 40
0.6158368791
 41
3.817875044419211
 42
4.592220345070726
  0
ELLIPSE
  5
2F0776
330
18
100
AcDbEntity
  8
0
  6
Continuous
 62
     8
370
    15
100
AcDbEllipse
 10
10630.85951420528
 20
-9870.115886902851
 30
0.0000000000378232
 11
1.144966791936696
 21
2.222467914479863
 31
0.0
210
0.0
220
0.0
230
1.0
 40
0.6172771451999999
 41
4.608214222831794
 42
5.404360662479989
  0
ELLIPSE
  5
2F0777
330
18
100
AcDbEntity
  8
0
  6
Continuous
 62
     8
370
    15
100
AcDbEllipse
 10
10633.76855670338
 20
-9871.581624360653
 30
0.0000000000378232
 11
1.11862955320153
 21
2.235777041058926
 31
0.0
210
0.0
220
0.0
230
1.0
 40
0.6105775846
 41
3.826601654216135
 42
5.397093394515911
  0
LINE
  5
2F0778
330
18
100
AcDbEntity
  8
0
  6
Continuous
 62
     8
370
    15
100
AcDbLine
 10
10631.51587936118
 20
-9870.693975906655
 30
0.0000000000378232
 11
10631.51604004613
 21
-9870.694085909901
 31
0.0000000000378232
  0
ELLIPSE
  5
2F0779
330
18
100
AcDbEntity
  8
0
  6
Continuous
 62
     8
370
    15
100
AcDbEllipse
 10
10630.51218502013
 20
-9869.936051952802
 30
0.0000000000378232
 11
0.9202276623989434
 21
1.775808976151395
 31
0.0
210
0.0
220
0.0
230
1.0
 40
0.6233918696999999
 41
4.606625306523017
 42
5.405903556858942
  0
ELLIPSE
  5
2F077A
330
18
100
AcDbEntity
  8
0
  6
Continuous
 62
     8
370
    15
100
AcDbEllipse
 10
10630.50510453593
 20
-9869.946456822505
 30
0.0000000000378232
 11
0.8615470597381149
 21
1.805232855275819
 31
0.0
210
0.0
220
0.0
230
1.0
 40
0.6215642903999999
 41
3.814989525582261
 42
4.592466331161598
  0
ELLIPSE
  5
2F077B
330
18
100
AcDbEntity
  8
0
  6
Continuous
 62
     8
370
    15
100
AcDbEllipse
 10
10630.51218502013
 20
-9752.287060132556
 30
0.0000000000378232
 11
0.9211802702268699
 21
1.77666546811696
 31
0.0
210
0.0
220
0.0
230
1.0
 40
0.6226452517000001
 41
5.40676437662367
 42
6.206042626959587
  0
LINE
  5
2F077C
330
18
100
AcDbEntity
  8
0
  6
Continuous
 62
     8
370
    15
100
AcDbLine
 10
10631.95174099508
 20
-9869.242025807453
 30
0.0000000000378232
 11
10631.95174099508
 21
-9751.590918701306
 31
0.0000000000378232
  0
LINE
  5
2F077D
330
18
100
AcDbEntity
  8
0
  6
Continuous
 62
     8
370
    15
100
AcDbLine
 10
10630.60957987253
 20
-9870.071663644107
 30
0.0000000000378232
 11
10630.60975372838
 21
-9870.071783192754
 31
0.0000000000378232
  0
ELLIPSE
  5
2F077E
330
18
100
AcDbEntity
  8
0
  6
Continuous
 62
     8
370
    15
100
AcDbEllipse
 10
10628.76694702538
 20
-9868.678898361053
 30
0.0000000000378232
 11
1.690341573828717
 21
3.263468715244228
 31
0.0
210
0.0
220
0.0
230
1.0
 40
0.6229838848
 41
4.606281054399249
 42
7.805354558191969
  0
LINE
  5
2F077F
330
18
100
AcDbEntity
  8
0
  6
Continuous
 62
     8
370
    15
100
AcDbLine
 10
10626.81825089513
 20
-9867.468336678652
 30
0.0000000000378232
 11
10626.81842343383
 21
-9867.468456885956
 31
0.0000000000378232
  0
LINE
  5
2F0780
330
18
100
AcDbEntity
  8
0
  6
Continuous
 62
     8
370
    15
100
AcDbLine
 10
10605.73909598543
 20
-9852.994282989053
 30
0.0000000000378232
 11
10605.73909598543
 21
-9852.980574882054
 31
0.0000000000378232
  0
ELLIPSE
  5
2F0781
330
18
100
AcDbEntity
  8
0
  6
Continuous
 62
     8
370
    15
100
AcDbEllipse
 10
10605.76000712513
 20
-9836.486399973954
 30
0.0000000000378232
 11
8.754874585307581
 21
16.90260793913303
 31
0.0
210
0.0
220
0.0
230
1.0
 40
0.6229840120999999
 41
3.833672255221888
 42
6.361139420425276
  0
LINE
  5
2F0782
330
18
100
AcDbEntity
  8
0
  6
Continuous
 62
     8
370
    15
100
AcDbLine
 10
10626.81825089513
 20
-9758.321969476103
 30
0.0000000000378232
 11
10626.81842343383
 21
-9758.321676730255
 31
0.0000000000378232
  0
ELLIPSE
  5
2F0783
330
18
100
AcDbEntity
  8
0
  6
Continuous
 62
     8
370
    15
100
AcDbEllipse
 10
10628.76694702538
 20
-9755.229570465202
 30
0.0000000000378232
 11
1.690341573828675
 21
3.26346871524423
 31
0.0
210
0.0
220
0.0
230
1.0
 40
0.6229838848000001
 41
3.006634351401414
 42
6.205707853103339
  0
LINE
  5
2F0784
330
18
100
AcDbEntity
  8
0
  6
Continuous
 62
     8
370
    15
100
AcDbLine
 10
10630.60957987253
 20
-9752.057399781206
 30
0.0000000000378232
 11
10630.60975372838
 21
-9752.057106376855
 31
0.0000000000378232
  0
ELLIPSE
  5
2F0785
330
18
100
AcDbEntity
  8
0
  6
Continuous
 62
     8
370
    15
100
AcDbEllipse
 10
10628.75979732053
 20
-9868.687482300506
 30
0.0000000000378232
 11
1.584542000604331
 21
3.316325180981495
 31
0.0
210
0.0
220
0.0
230
1.0
 40
0.6212329883000002
 41
1.499180131330918
 42
4.589235258109961
  0
LINE
  5
2F0786
330
18
100
AcDbEntity
  8
0
  6
Continuous
 62
     8
370
    15
100
AcDbLine
 10
10581.84583683038
 20
-9896.034370978254
 30
0.0000000000378232
 11
10630.53140010278
 21
-9871.691589342052
 31
0.0000000000378232
  0
ELLIPSE
  5
2F0787
330
18
100
AcDbEntity
  8
0
  6
Continuous
 62
     8
370
    15
100
AcDbEllipse
 10
10581.82129064183
 20
-9894.288363769552
 30
0.0000000000378232
 11
0.862569072746652
 21
1.806081453286666
 31
0.0
210
0.0
220
0.0
230
1.0
 40
0.6208153912
 41
3.037204790132112
 42
3.814681596679337
  0
LINE
  5
2F0788
330
18
100
AcDbEntity
  8
0
  6
Continuous
 62
     8
370
    15
100
AcDbLine
 10
10580.84658246743
 20
-9896.028814699253
 30
0.0000000000378232
 11
10580.84674315223
 21
-9896.028544011206
 31
0.0000000000378232
  0
ELLIPSE
  5
2F0789
330
18
100
AcDbEntity
  8
0
  6
Continuous
 62
     8
370
    15
100
AcDbEllipse
 10
10583.50496332448
 20
-9891.314899298453
 30
0.0000000000378232
 11
1.584542000604288
 21
3.316325180981495
 31
0.0
210
0.0
220
0.0
230
1.0
 40
0.6212329883000007
 41
3.041125985335634
 42
6.131181112114693
  0
LINE
  5
2F078A
330
18
100
AcDbEntity
  8
0
  6
Continuous
 62
     8
370
    15
100
AcDbLine
 10
10632.64640271803
 20
-9751.590920018305
 30
0.0000000000378232
 11
10632.64640271803
 21
-9869.242027124605
 31
0.0000000000378232
  0
LINE
  5
2F078B
330
18
100
AcDbEntity
  8
0
  6
Continuous
 62
     8
370
    15
100
AcDbLine
 10
10635.53345130428
 20
-9870.696682540103
 30
0.0000000000378232
 11
10635.53345130428
 21
-9752.924257558254
 31
0.0000000000378232
  0
LINE
  5
2F078C
330
18
100
AcDbEntity
  8
0
  6
Continuous
 62
     8
370
    15
100
AcDbLine
 10
10630.87872701303
 20
-9872.290420267855
 30
0.0000000000378232
 11
10582.19316374063
 21
-9896.633201904053
 31
0.0000000000378232
  0
LINE
  5
2F078D
330
18
100
AcDbEntity
  8
0
  6
Continuous
 62
     8
370
    15
100
AcDbLine
 10
10584.98132528348
 20
-9898.137481149504
 30
0.0000000000378232
 11
10633.76595472343
 21
-9873.745166429453
 31
0.0000000000378232
  0
SPLINE
  5
2F078E
330
18
100
AcDbEntity
  8
0
  6
Continuous
 62
     8
370
    15
100
AcDbSpline
210
0.0
220
0.0
230
1.0
 70
     8
 71
     3
 72
     9
 73
     5
 74
     0
 42
0.000000001
 43
0.0000000001
 40
0.0
 40
0.0
 40
0.0
 40
0.0
 40
0.5000123010344715
 40
1.0
 40
1.0
 40
1.0
 40
1.0
 10
10630.60958250678
 20
-9870.071659100828
 30
0.0000000000378232
 10
10630.58458171536
 20
-9870.05196855545
 30
0.0000000000378232
 10
10630.53458136264
 20
-9870.012588433528
 30
0.0000000000378232
 10
10630.53123296832
 20
-9869.998815279669
 30
0.0000000000378232
 10
10630.52955881235
 20
-9869.991928872161
 30
0.0000000000378232
  0
ARC
  5
2F078F
330
18
100
AcDbEntity
  8
0
  6
Continuous
 62
     8
370
    15
100
AcDbCircle
 10
10633.78181218898
 20
-9871.191797300755
 30
0.0000000000378232
 40
4.506302192990817
100
AcDbArc
 50
124.3104169493149
 51
182.531018616769
  0
ARC
  5
2F0790
330
18
100
AcDbEntity
  8
0
  6
Continuous
 62
     8
370
    15
100
AcDbCircle
 10
10632.86424282308
 20
-9870.733060859155
 30
0.0000000000378232
 40
2.53479108722062
100
AcDbArc
 50
138.9242755476695
 51
167.688601213025
  0
ELLIPSE
  5
2F0791
330
18
100
AcDbEntity
  8
0
  6
Continuous
 62
     8
370
    15
100
AcDbEllipse
 10
10605.71889941903
 20
-9836.506953827004
 30
0.0000000000378232
 11
8.279209797915302
 21
17.14056021623532
 31
0.0
210
0.0
220
0.0
230
1.0
 40
0.6016117635000005
 41
3.066659464597481
 42
3.819610882774573
  0
LINE
  5
2F0792
330
18
100
AcDbEntity
  8
0
  6
Continuous
 62
     8
370
    15
100
AcDbLine
 10
10585.38301899413
 20
-9888.186159105651
 30
0.0000000000378232
 11
10585.38319153283
 21
-9888.185866359803
 31
0.0000000000378232
  0
ELLIPSE
  5
2F0793
330
18
100
AcDbEntity
  8
0
  6
Continuous
 62
     8
370
    15
100
AcDbEllipse
 10
10583.50135581473
 20
-9891.311693966301
 30
0.0000000000378232
 11
1.598502989930253
 21
3.309411107187593
 31
0.0
210
0.0
220
0.0
230
1.0
 40
0.6016116179000004
 41
6.131111471659915
 42
9.330184975452603
  0
LINE
  5
2F0794
330
18
100
AcDbEntity
  8
0
  6
Continuous
 62
     8
370
    15
100
AcDbLine
 10
10581.72177494753
 20
-9894.515772583105
 30
0.0000000000378232
 11
10581.72194880338
 21
-9894.515479178754
 31
0.0000000000378232
  0
ELLIPSE
  5
2F0795
330
18
100
AcDbEntity
  8
0
  6
Continuous
 62
     8
370
    15
100
AcDbEllipse
 10
10581.81599907383
 20
-9894.284144925954
 30
0.0000000000378232
 11
0.8711513996469193
 21
1.801702114371202
 31
0.0
210
0.0
220
0.0
230
1.0
 40
0.6012932414000004
 41
2.248048315470807
 42
3.047326565806698
  0
ELLIPSE
  5
2F0796
330
18
100
AcDbEntity
  8
0
  6
Continuous
 62
     8
370
    15
100
AcDbEllipse
 10
10581.81599907383
 20
-9776.635153105704
 30
0.0000000000378232
 11
0.8701872459497082
 21
1.800845889641409
 31
0.0
210
0.0
220
0.0
230
1.0
 40
0.6020092591999999
 41
1.447880409980262
 42
2.247158660316178
  0
LINE
  5
2F0797
330
18
100
AcDbEntity
  8
0
  6
Continuous
 62
     8
370
    15
100
AcDbLine
 10
10581.72177494753
 20
-9776.501095767202
 30
0.0000000000378232
 11
10581.72194880338
 21
-9776.501215315853
 31
0.0000000000378232
  0
ELLIPSE
  5
2F0798
330
18
100
AcDbEntity
  8
0
  6
Continuous
 62
     8
370
    15
100
AcDbEllipse
 10
10583.50135581473
 20
-9777.862366070603
 30
0.0000000000378232
 11
1.598502989930253
 21
3.309411107187614
 31
0.0
210
0.0
220
0.0
230
1.0
 40
0.6016116178999998
 41
1.447572869568949
 42
4.646646371270867
  0
LINE
  5
2F0799
330
18
100
AcDbEntity
  8
0
  6
Continuous
 62
     8
370
    15
100
AcDbLine
 10
10585.38301899413
 20
-9779.039378950103
 30
0.0000000000378232
 11
10585.38319153283
 21
-9779.039499157407
 31
0.0000000000378232
  0
LWPOLYLINE
  5
2F079A
330
18
100
AcDbEntity
  8
0
  6
Continuous
 62
     8
370
    15
100
AcDbPolyline
 90
       27
 70
   128
 43
0.0
 10
10601.42177828978
 20
-9850.359310171705
 10
10602.70398708443
 20
-9849.641057748653
 10
10603.97384751083
 20
-9848.775427096254
 10
10605.21913031528
 20
-9847.770754077505
 10
10606.42784233238
 20
-9846.636716364654
 10
10607.58834296453
 20
-9845.384231646203
 10
10608.68945638223
 20
-9844.025366038706
 10
10609.72057837238
 20
-9842.573203233354
 10
10610.67177808418
 20
-9841.041729906505
 10
10611.53389582163
 20
-9839.445693262554
 10
10612.29862733888
 20
-9837.800466941157
 10
10612.95861010808
 20
-9836.121892545503
 10
10613.50748588198
 20
-9834.426136654554
 10
10613.93996918258
 20
-9832.729531160454
 10
10614.25189669133
 20
-9831.048413879304
 10
10614.44026281113
 20
-9829.398975875603
 10
10614.50325391043
 20
-9827.797101605302
 10
10614.44026281113
 20
-9826.258218484552
 10
10614.25189669133
 20
-9824.797146499703
 10
10613.93996918258
 20
-9823.427956727453
 10
10613.50748588198
 20
-9822.163834533952
 10
10612.95861010808
 20
-9821.016954820254
 10
10612.29862733888
 20
-9819.998363193656
 10
10611.53389582163
 20
-9819.117867582954
 10
10610.67177808418
 20
-9818.383949483155
 10
10609.72057837238
 20
-9817.803675867955
 10
10608.98952152873
 20
-9817.485632228007
  0
LWPOLYLINE
  5
2F079B
330
18
100
AcDbEntity
  8
0
  6
Continuous
 62
     8
370
    15
100
AcDbPolyline
 90
        9
 70
   128
 43
0.0
 10
10592.48065826033
 20
-9850.503358217004
 10
10593.12297820733
 20
-9850.872003315955
 10
10594.15410019748
 20
-9851.293044131002
 10
10595.25521361518
 20
-9851.550796320804
 10
10596.41571424733
 20
-9851.642780407106
 10
10597.62442626443
 20
-9851.568106102855
 10
10598.86970906888
 20
-9851.327496317153
 10
10600.13956949528
 20
-9850.923266543155
 10
10601.42177828978
 20
-9850.359310171705
  0
ARC
  5
2F079C
330
18
100
AcDbEntity
  8
0
  6
Continuous
 62
     8
370
    15
100
AcDbCircle
 10
10588.54699287143
 20
-9893.827082447904
 30
0.0000000000378232
 40
4.525741521130333
100
AcDbArc
 50
125.0273527888037
 51
182.4914921239782
  0
ELLIPSE
  5
2F079D
330
18
100
AcDbEntity
  8
0
  6
Continuous
 62
     8
370
    15
100
AcDbEllipse
 10
10582.17478698638
 20
-9894.457333665956
 30
0.0000000000378232
 11
1.100294001007371
 21
2.24617285961628
 31
0.0
210
0.0
220
0.0
230
1.0
 40
0.6196323046999999
 41
3.046558819604066
 42
3.11725390051597
  0
ELLIPSE
  5
2F079E
330
18
100
AcDbEntity
  8
0
  6
Continuous
 62
     8
370
    15
100
AcDbEllipse
 10
10584.98489865983
 20
-9895.973453382503
 30
0.0000000000378232
 11
1.125353632362902
 21
2.23307726864472
 31
0.0
210
0.0
220
0.0
230
1.0
 40
0.6124184285999998
 41
3.083346306069176
 42
3.828114878734892
  0
LINE
  5
2F079F
330
18
100
AcDbEntity
  8
0
  6
Continuous
 62
     8
370
    15
100
AcDbLine
 10
10580.84658246743
 20
-9775.894336742756
 30
0.0000000000378232
 11
10580.84674315223
 21
-9775.894449972053
 31
0.0000000000378232
  0
ELLIPSE
  5
2F07A0
330
18
100
AcDbEntity
  8
0
  6
Continuous
 62
     8
370
    15
100
AcDbEllipse
 10
10581.82129064183
 20
-9776.623853777754
 30
0.0000000000378232
 11
0.9246464057108884
 21
1.773712548261741
 31
0.0
210
0.0
220
0.0
230
1.0
 40
0.6036075549999995
 41
0.6950137430540093
 42
1.472490548633438
  0
LINE
  5
2F07A1
330
18
100
AcDbEntity
  8
0
  6
Continuous
 62
     8
370
    15
100
AcDbLine
 10
10630.53140010278
 20
-9750.561362110402
 30
0.0000000000378232
 11
10581.84583683038
 21
-9774.904143746604
 31
0.0000000000378232
  0
ELLIPSE
  5
2F07A2
330
18
100
AcDbEntity
  8
0
  6
Continuous
 62
     8
370
    15
100
AcDbEllipse
 10
10630.50510453593
 20
-9752.281946830855
 30
0.0000000000378232
 11
0.9255838564194792
 21
1.774596080680083
 31
0.0
210
0.0
220
0.0
230
1.0
 40
0.6028738131000004
 41
6.200342796499633
 42
6.977819603046861
  0
LINE
  5
2F07A3
330
18
100
AcDbEntity
  8
0
  6
Continuous
 62
     8
370
    15
100
AcDbLine
 10
10631.51587936118
 20
-9750.559881867503
 30
0.0000000000378232
 11
10631.51604004613
 21
-9750.559607953404
 31
0.0000000000378232
  0
ELLIPSE
  5
2F07A4
330
18
100
AcDbEntity
  8
0
  6
Continuous
 62
     8
370
    15
100
AcDbEllipse
 10
10628.75979732053
 20
-9755.224594035502
 30
0.0000000000378232
 11
1.700310341163104
 21
3.258471832378177
 31
0.0
210
0.0
220
0.0
230
1.0
 40
0.6032745859000003
 41
6.204285413164526
 42
9.294340539943569
  0
ELLIPSE
  5
2F07A5
330
18
100
AcDbEntity
  8
0
  6
Continuous
 62
     8
370
    15
100
AcDbEllipse
 10
10583.50496332448
 20
-9777.852011033454
 30
0.0000000000378232
 11
1.700310341163104
 21
3.258471832378177
 31
0.0
210
0.0
220
0.0
230
1.0
 40
0.6032745859000003
 41
4.662339559159808
 42
7.752394685938859
  0
ARC
  5
2F07A6
330
18
100
AcDbEntity
  8
0
  6
Continuous
 62
     8
370
    15
100
AcDbCircle
 10
10633.79932928543
 20
-9757.752408438504
 30
0.0000000000378232
 40
4.524335452329272
100
AcDbArc
 50
124.4035621521053
 51
182.0713934695156
  0
ELLIPSE
  5
2F07A7
330
18
100
AcDbEntity
  8
0
  6
Continuous
 62
     8
370
    15
100
AcDbEllipse
 10
10630.85951420528
 20
-9752.466895082754
 30
0.0000000000378232
 11
1.130485566243507
 21
2.230939226598721
 31
0.0
210
0.0
220
0.0
230
1.0
 40
0.6202930539
 41
5.400875449756557
 42
6.197021889404793
  0
ELLIPSE
  5
2F07A8
330
18
100
AcDbEntity
  8
0
  6
Continuous
 62
     8
370
    15
100
AcDbEllipse
 10
10633.76855670338
 20
-9753.810387310554
 30
0.0000000000378232
 11
1.111468586821914
 21
2.24002011611482
 31
0.0
210
0.0
220
0.0
230
1.0
 40
0.6120266756
 41
6.258690936395547
 42
6.300289207670207
  0
ARC
  5
2F07A9
330
18
100
AcDbEntity
  8
0
  6
Continuous
 62
     8
370
    15
100
AcDbCircle
 10
10588.54832546228
 20
-9780.380892358255
 30
0.0000000000378232
 40
4.529362247739595
100
AcDbArc
 50
125.1251930135791
 51
181.5980526348997
  0
SPLINE
  5
2F07AA
330
18
100
AcDbEntity
  8
0
  6
Continuous
 62
     8
370
    15
100
AcDbSpline
210
0.0
220
0.0
230
1.0
 70
     8
 71
     3
 72
     9
 73
     5
 74
     0
 42
0.000000001
 43
0.0000000001
 40
0.0
 40
0.0
 40
0.0
 40
0.0
 40
0.5171562662418221
 40
1.0
 40
1.0
 40
1.0
 40
1.0
 10
10585.38301635999
 20
-9779.039380267215
 30
0.0000000000378232
 10
10585.35742206321
 20
-9779.02284840502
 30
0.0000000000378232
 10
10585.30793161234
 20
-9778.990881544563
 30
0.0000000000378232
 10
10585.30435040836
 20
-9778.983146039034
 30
0.0000000000378232
 10
10585.30262124646
 20
-9778.979410998665
 30
0.0000000000378232
  0
ARC
  5
2F07AB
330
18
100
AcDbEntity
  8
0
  6
Continuous
 62
     8
370
    15
100
AcDbCircle
 10
10587.64425321128
 20
-9779.928469062954
 30
0.0000000000378232
 40
2.57346949321848
100
AcDbArc
 50
144.1767995489247
 51
162.4295456671883
  0
LWPOLYLINE
  5
2F07AC
330
18
100
AcDbEntity
  8
0
  6
Continuous
 62
     8
370
    15
100
AcDbPolyline
 90
        7
 70
   128
 43
0.0
 10
10579.12465058093
 20
-9822.956591306753
 10
10579.15545202463
 20
-9822.901815812456
 10
10579.20216653783
 20
-9822.869727664103
 10
10579.26040557998
 20
-9822.863346930502
 10
10579.32469006073
 20
-9822.883272372954
 10
10579.38897190718
 20
-9822.927630094106
 10
10579.39990901438
 20
-9822.937764533755
  0
LWPOLYLINE
  5
2F07AD
330
18
100
AcDbEntity
  8
0
  6
Continuous
 62
     8
370
    15
100
AcDbPolyline
 90
        9
 70
   128
 43
0.0
 10
10579.95833895203
 20
-9824.890468683654
 10
10579.96001428928
 20
-9824.906910655856
 10
10579.95906071693
 20
-9824.968307470404
 10
10579.94618748878
 20
-9825.021713566555
 10
10579.92212427248
 20
-9825.064098206905
 10
10579.88823557213
 20
-9825.093056173853
 10
10579.84644433763
 20
-9825.106945402404
 10
10579.79912132933
 20
-9825.104976840354
 10
10579.74895340873
 20
-9825.087263124806
  0
LWPOLYLINE
  5
2F07AE
330
18
100
AcDbEntity
  8
0
  6
Continuous
 62
     8
370
    15
100
AcDbPolyline
 90
       16
 70
   128
 43
0.0
 10
10573.63620828398
 20
-9820.770240633803
 10
10572.86250014663
 20
-9819.554014639103
 10
10572.18001096028
 20
-9818.270910746003
 10
10571.59955402588
 20
-9816.941262004253
 10
10571.13033052733
 20
-9815.586143979053
 10
10570.77977674898
 20
-9814.227035021904
 10
10570.55345080658
 20
-9812.885476738553
 10
10570.45493781653
 20
-9811.582731931405
 10
10570.48579984643
 20
-9810.339448751154
 10
10570.64554957313
 20
-9809.175333828356
 10
10570.93165291763
 20
-9808.108837020656
 10
10571.33957645918
 20
-9807.156862229156
 10
10571.86285329113
 20
-9806.334497970805
 10
10572.49318838648
 20
-9805.654776831052
 10
10573.22059557668
 20
-9805.128475371803
 10
10573.45226626613
 20
-9805.003709888453
  0
LWPOLYLINE
  5
2F07AF
330
18
100
AcDbEntity
  8
0
  6
Continuous
 62
     8
370
    15
100
AcDbPolyline
 90
        3
 70
   128
 43
0.0
 10
10583.78408412398
 20
-9825.664384261854
 10
10583.14823569403
 20
-9825.922028743855
 10
10582.25854469783
 20
-9826.108425601404
  0
ARC
  5
2F07B0
330
18
100
AcDbEntity
  8
0
  6
Continuous
 62
     8
370
    15
100
AcDbCircle
 10
10578.68520580283
 20
-9831.396047553804
 30
0.0000000000378232
 40
0.6518862809659909
100
AcDbArc
 50
345.4298527154079
 51
52.81666045039416
  0
ARC
  5
2F07B1
330
18
100
AcDbEntity
  8
0
  6
Continuous
 62
     8
370
    15
100
AcDbCircle
 10
10577.99041046423
 20
-9831.050318779704
 30
0.0000000000378232
 40
1.558004586314341
100
AcDbArc
 50
218.4804285967118
 51
288.5295730393537
  0
LWPOLYLINE
  5
2F07B2
330
18
100
AcDbEntity
  8
0
  6
Continuous
 62
     8
370
    15
100
AcDbPolyline
 90
        5
 70
   128
 43
0.0
 10
10579.67824350923
 20
-9822.966303635152
 10
10579.69571732918
 20
-9822.968643192205
 10
10579.70844436043
 20
-9822.972932270004
 10
10579.71593662118
 20
-9822.979005228652
 10
10579.71763369043
 20
-9822.982698210504
  0
ARC
  5
2F07B3
330
18
100
AcDbEntity
  8
0
  6
Continuous
 62
     8
370
    15
100
AcDbCircle
 10
10580.03417089403
 20
-9824.769796216555
 30
0.0000000000378232
 40
0.0741375116329065
100
AcDbArc
 50
239.4082510551126
 51
293.3230112391609
  0
ARC
  5
2F07B4
330
18
100
AcDbEntity
  8
0
  6
Continuous
 62
     8
370
    15
100
AcDbCircle
 10
10582.45978991498
 20
-9828.029851630403
 30
0.0000000000378232
 40
1.931936236608994
100
AcDbArc
 50
95.97921223230773
 51
117.3064979073802
  0
ARC
  5
2F07B5
330
18
100
AcDbEntity
  8
0
  6
Continuous
 62
     8
370
    15
100
AcDbCircle
 10
10579.89274977804
 20
-9824.840506774555
 30
0.0000000000378232
 40
0.0741375116326716
100
AcDbArc
 50
239.4082510551126
 51
293.3230112378699
  0
LWPOLYLINE
  5
2F07B6
330
18
100
AcDbEntity
  8
0
  6
Continuous
 62
     8
370
    15
100
AcDbPolyline
 90
        3
 70
   128
 43
0.0
 10
10579.47215793233
 20
-9822.926092430604
 10
10579.48755733718
 20
-9822.898703218405
 10
10579.50509569448
 20
-9822.885172123402
  0
LWPOLYLINE
  5
2F07B7
330
18
100
AcDbEntity
  8
0
  6
Continuous
 62
     8
370
    15
100
AcDbPolyline
 90
        3
 70
   128
 43
0.0
 10
10579.36367457848
 20
-9822.955882681403
 10
10579.34613622118
 20
-9822.969413776405
 10
10579.33073681633
 20
-9822.996802988604
  0
ARC
  5
2F07B8
330
18
100
AcDbEntity
  8
0
  6
Continuous
 62
     8
370
    15
100
AcDbCircle
 10
10587.32481581258
 20
-9811.025700518603
 30
0.0000000000378232
 40
18.31812608631962
100
AcDbArc
 50
181.7581030550035
 51
224.5239103496038
  0
ARC
  5
2F07B9
330
18
100
AcDbEntity
  8
0
  6
Continuous
 62
     8
370
    15
100
AcDbCircle
 10
10587.32763437918
 20
-9811.027558676004
 30
0.0000000000378232
 40
17.62044290514464
100
AcDbArc
 50
181.8316418100957
 51
222.2374221401081
  0
ARC
  5
2F07BA
330
18
100
AcDbEntity
  8
0
  6
Continuous
 62
     8
370
    15
100
AcDbCircle
 10
10581.07938748313
 20
-9822.011681176704
 30
0.0000000000378232
 40
4.512980743317155
100
AcDbArc
 50
273.6860507853095
 51
303.8394048169809
  0
LWPOLYLINE
  5
2F07BB
330
18
100
AcDbEntity
  8
0
  6
Continuous
 62
     8
370
    15
100
AcDbPolyline
 90
        9
 70
   128
 43
0.0
 10
10573.26188236598
 20
-9805.098901953956
 10
10572.68724433088
 20
-9805.343483457054
 10
10571.93710155023
 20
-9805.831160200556
 10
10571.28116224433
 20
-9806.474283216354
 10
10570.72977346448
 20
-9807.262711680803
 10
10570.29162536408
 20
-9808.184008805303
 10
10569.97363266038
 20
-9809.223647316954
 10
10569.78080819423
 20
-9810.365230749056
 10
10569.71619444128
 20
-9811.590756232403
  0
LWPOLYLINE
  5
2F07BC
330
18
100
AcDbEntity
  8
0
  6
Continuous
 62
     8
370
    15
100
AcDbPolyline
 90
        9
 70
   128
 43
0.0
 10
10569.01531276553
 20
-9811.587698280953
 10
10569.08251591538
 20
-9810.311120247505
 10
10569.28307169413
 20
-9809.121820234705
 10
10569.61382699033
 20
-9808.038499715756
 10
10570.06957930253
 20
-9807.078192471956
 10
10570.64316366638
 20
-9806.255999124052
 10
10571.32555802228
 20
-9805.584847441554
 10
10572.10603599713
 20
-9805.075292289352
 10
10572.24701720543
 20
-9805.005632905104
  0
LWPOLYLINE
  5
2F07BD
330
18
100
AcDbEntity
  8
0
  6
Continuous
 62
     8
370
    15
100
AcDbPolyline
 90
       17
 70
   128
 43
0.0
 10
10577.91047692508
 20
-9811.798275535253
 10
10578.54977349413
 20
-9812.197544724804
 10
10579.16289687038
 20
-9812.739709056954
 10
10579.72474597118
 20
-9813.402572470703
 10
10580.21231915393
 20
-9814.158997781004
 10
10580.60565461768
 20
-9814.978016270452
 10
10580.88864963203
 20
-9815.826097690704
 10
10581.04971644768
 20
-9816.668520430103
 10
10581.08226171728
 20
-9817.470795993802
 10
10580.98495518083
 20
-9818.200080214705
 10
10580.76177971543
 20
-9818.826515574801
 10
10580.42187065063
 20
-9819.324455202805
 10
10579.97914698293
 20
-9819.673514871803
 10
10579.45172922323
 20
-9819.859401412552
 10
10578.86121236288
 20
-9819.874506267053
 10
10578.23177288798
 20
-9819.718210902352
 10
10577.95038735638
 20
-9819.597167686705
  0
ARC
  5
2F07BE
330
18
100
AcDbEntity
  8
0
  6
Continuous
 62
     8
370
    15
100
AcDbCircle
 10
10576.83219426399
 20
-9813.526046261304
 30
0.0000000000378232
 40
2.036635750296543
100
AcDbArc
 50
58.03216773170663
 51
173.9220538644654
  0
ARC
  5
2F07BF
330
18
100
AcDbEntity
  8
0
  6
Continuous
 62
     8
370
    15
100
AcDbCircle
 10
10576.56444182933
 20
-9814.044363405803
 30
0.0000000000378232
 40
1.919661911360201
100
AcDbArc
 50
58.65279133503728
 51
115.1476312148717
  0
LWPOLYLINE
  5
2F07C0
330
18
100
AcDbEntity
  8
0
  6
Continuous
 62
     8
370
    15
100
AcDbPolyline
 90
       13
 70
   128
 43
0.0
 10
10579.30104567863
 20
-9819.454144408104
 10
10579.50403016948
 20
-9819.341587620202
 10
10579.89913316663
 20
-9818.969449962504
 10
10580.18500206923
 20
-9818.451990352554
 10
10580.34827632613
 20
-9817.813407899004
 10
10580.38131682118
 20
-9817.083559678704
 10
10580.28258256028
 20
-9816.296574607855
 10
10580.05668598898
 20
-9815.489249024155
 10
10579.71419279543
 20
-9814.699334171004
 10
10579.27111351373
 20
-9813.963763506054
 10
10578.74817385658
 20
-9813.316935247854
 10
10578.16981899623
 20
-9812.789091295705
 10
10577.56309403858
 20
-9812.404913614253
  0
LINE
  5
2F07C1
330
18
100
AcDbEntity
  8
0
  6
Continuous
 62
     8
370
    15
100
AcDbLine
 10
10579.50151849253
 20
-9831.821457139256
 30
0.0000000000378232
 11
10579.07639182208
 21
-9831.997167820406
 31
0.0000000000378232
  0
LWPOLYLINE
  5
2F07C2
330
18
100
AcDbEntity
  8
0
  6
Continuous
 62
     8
370
    15
100
AcDbPolyline
 90
        8
 70
   128
 43
0.0
 10
10598.77492920308
 20
-9826.120123613306
 10
10598.71071518663
 20
-9825.002473812507
 10
10598.51927037128
 20
-9823.969857143606
 10
10598.20415945828
 20
-9823.041510099505
 10
10597.77125403083
 20
-9822.234725541352
 10
10597.22861730743
 20
-9821.564532225653
 10
10596.58635794663
 20
-9821.043414635005
 10
10596.24097044998
 20
-9820.846604085953
  0
LWPOLYLINE
  5
2F07C3
330
18
100
AcDbEntity
  8
0
  6
Continuous
 62
     8
370
    15
100
AcDbPolyline
 90
       18
 70
   128
 43
0.0
 10
10587.52030543853
 20
-9838.287934349006
 10
10587.90483583283
 20
-9838.453457921605
 10
10588.70881561493
 20
-9838.650258886704
 10
10589.57188033943
 20
-9838.677861806606
 10
10590.47795295953
 20
-9838.535750946052
 10
10591.41015489683
 20
-9838.226573765456
 10
10592.35112099153
 20
-9837.756090718256
 10
10593.28332292898
 20
-9837.133065961254
 10
10594.18939554893
 20
-9836.369104201854
 10
10595.05246027358
 20
-9835.478436557303
 10
10595.85644005553
 20
-9834.477655810253
 10
10596.58635794663
 20
-9833.385403797656
 10
10597.22861730743
 20
-9832.222026846055
 10
10597.77125403083
 20
-9831.009196807103
 10
10598.20415945828
 20
-9829.769506821354
 10
10598.51927037128
 20
-9828.526048864405
 10
10598.71071518663
 20
-9827.301987480954
 10
10598.77492920308
 20
-9826.120123613306
  0
LWPOLYLINE
  5
2F07C4
330
18
100
AcDbEntity
  8
0
  6
Continuous
 62
     8
370
    15
100
AcDbPolyline
 90
       23
 70
   128
 43
0.0
 10
10602.17683381253
 20
-9826.851465936055
 10
10602.11482460318
 20
-9828.089589065003
 10
10601.92977491348
 20
-9829.370195482854
 10
10601.62460275433
 20
-9830.673089219305
 10
10601.20412142743
 20
-9831.977722924705
 10
10600.67496247598
 20
-9833.263521686753
 10
10600.04546965898
 20
-9834.510207648804
 10
10599.32557185188
 20
-9835.698120243804
 10
10598.52662170358
 20
-9836.808524715656
 10
10597.66121881673
 20
-9837.823909424904
 10
10596.74301169103
 20
-9838.728261915654
 10
10595.78648073218
 20
-9839.507318556203
 10
10594.80671101373
 20
-9840.148795108104
 10
10593.81915412988
 20
-9840.642573550103
 10
10592.83938441128
 20
-9840.980866716654
 10
10591.88285345258
 20
-9841.158341034807
 10
10590.96464632688
 20
-9841.172195669904
 10
10590.09924344003
 20
-9841.022213847355
 10
10589.30029329158
 20
-9840.710759523954
 10
10588.58039548463
 20
-9840.242744736053
 10
10587.95090266763
 20
-9839.625551591002
 10
10587.42174371618
 20
-9838.868911780253
 10
10587.02244381488
 20
-9838.039003534406
  0
LWPOLYLINE
  5
2F07C5
330
18
100
AcDbEntity
  8
0
  6
Continuous
 62
     8
370
    15
100
AcDbPolyline
 90
       13
 70
   128
 43
0.0
 10
10595.74310899088
 20
-9820.597673189004
 10
10595.78648073218
 20
-9820.585965942653
 10
10596.74301169103
 20
-9820.408492430903
 10
10597.66121881673
 20
-9820.394636989404
 10
10598.52662170358
 20
-9820.544619618355
 10
10599.32557185188
 20
-9820.856073941752
 10
10600.04546965898
 20
-9821.324088326455
 10
10600.67496247598
 20
-9821.941281471652
 10
10601.20412142743
 20
-9822.697921282252
 10
10601.62460275433
 20
-9823.582073660753
 10
10601.92977491348
 20
-9824.579795237903
 10
10602.11482460318
 20
-9825.675351966205
 10
10602.17683381253
 20
-9826.851465936055
  0
LWPOLYLINE
  5
2F07C6
330
18
100
AcDbEntity
  8
0
  6
Continuous
 62
     8
370
    15
100
AcDbPolyline
 90
       19
 70
   128
 43
0.0
 10
10611.70887043898
 20
-9826.978891664152
 10
10611.64674335003
 20
-9825.485335894704
 10
10611.46097716388
 20
-9824.068752133553
 10
10611.15341975663
 20
-9822.743218128355
 10
10610.72712809153
 20
-9821.521907273604
 10
10610.18633660993
 20
-9820.416958707203
 10
10609.53642232763
 20
-9819.439352910504
 10
10608.78384293228
 20
-9818.598806151502
 10
10607.93607817238
 20
-9817.903672758206
 10
10607.00155412468
 20
-9817.360860389905
 10
10605.98955824258
 20
-9816.975763628903
 10
10604.91014781758
 20
-9816.752210544055
 10
10603.77405054008
 20
-9816.692422883905
 10
10602.59255814323
 20
-9816.796992631553
 10
10601.37741198173
 20
-9817.064884371055
 10
10600.14068918558
 20
-9817.493432525302
 10
10598.89468078853
 20
-9818.078380515504
 10
10597.65177018473
 20
-9818.813912496054
 10
10597.46359421978
 20
-9818.938660632652
  0
LWPOLYLINE
  5
2F07C7
330
18
100
AcDbEntity
  8
0
  6
Continuous
 62
     8
370
    15
100
AcDbPolyline
 90
       32
 70
   128
 43
0.0
 10
10586.72752453508
 20
-9840.410799521003
 10
10586.84352451598
 20
-9841.693754301956
 10
10587.09049319453
 20
-9843.066519797605
 10
10587.45787541918
 20
-9844.341526606255
 10
10587.94201890218
 20
-9845.506104161905
 10
10588.53811231733
 20
-9846.548677407052
 10
10589.24023205693
 20
-9847.458885165805
 10
10590.04139952458
 20
-9848.227680545006
 10
10590.93365357588
 20
-9848.847424165404
 10
10591.90812493343
 20
-9849.311955837802
 10
10592.95512970013
 20
-9849.616659917152
 10
10594.06426188503
 20
-9849.758506146802
 10
10595.22449909933
 20
-9849.736087143356
 10
10596.42430989953
 20
-9849.549625217456
 10
10597.65177018473
 20
-9849.200970632755
 10
10598.89468078853
 20
-9848.693592009655
 10
10600.14068918558
 20
-9848.032531602654
 10
10601.37741198173
 20
-9847.224356960905
 10
10602.59255814323
 20
-9846.277102538905
 10
10603.77405054008
 20
-9845.200181502802
 10
10604.91014781758
 20
-9844.004295758452
 10
10605.98955824258
 20
-9842.701332248755
 10
10607.00155412468
 20
-9841.304239605655
 10
10607.93607817238
 20
-9839.826902383105
 10
10608.78384293228
 20
-9838.284004229903
 10
10609.53642232763
 20
-9836.690878075406
 10
10610.18633660993
 20
-9835.063357996554
 10
10610.72712809153
 20
-9833.417618351756
 10
10611.15341975663
 20
-9831.770015831902
 10
10611.46097716388
 20
-9830.136924419454
 10
10611.64674335003
 20
-9828.534574472156
 10
10611.70887043898
 20
-9826.978891664152
  0
LWPOLYLINE
  5
2F07C8
330
18
100
AcDbEntity
  8
0
  6
Continuous
 62
     8
370
    15
100
AcDbPolyline
 90
       25
 70
   128
 43
0.0
 10
10613.24902296773
 20
-9827.270889640553
 10
10613.18651787428
 20
-9828.860407852553
 10
10612.99960582073
 20
-9830.497122515604
 10
10612.69008463358
 20
-9832.165272311904
 10
10612.26093620243
 20
-9833.848792057102
 10
10611.71629355258
 20
-9835.531467158755
 10
10611.06140264963
 20
-9837.197093558905
 10
10610.30256905693
 20
-9838.829631032153
 10
10609.44710130188
 20
-9840.413356115754
 10
10608.50323909313
 20
-9841.933016159306
 10
10607.48007034478
 20
-9843.373978084106
 10
10606.38745017563
 20
-9844.722363250105
 10
10605.23590080983
 20
-9845.965184612152
 10
10604.03651213663
 20
-9847.090476288806
 10
10602.80083486223
 20
-9848.087399412503
 10
10601.54076946223
 20
-9848.946353304655
 10
10600.26845085383
 20
-9849.659065401505
 10
10598.99613224528
 20
-9850.218671913055
 10
10597.73606684528
 20
-9850.619783421054
 10
10596.50038957088
 20
-9850.858537571752
 10
10595.30100089783
 20
-9850.932634568155
 10
10594.14945153188
 20
-9850.841362572053
 10
10593.05683136273
 20
-9850.585597575206
 10
10592.03366261453
 20
-9850.167804398607
 10
10591.37687839598
 20
-9849.789396641303
  0
LWPOLYLINE
  5
2F07C9
330
18
100
AcDbEntity
  8
0
  6
Continuous
 62
     8
370
    15
100
AcDbPolyline
 90
       11
 70
   128
 43
0.0
 10
10607.77782070748
 20
-9817.038956891156
 10
10608.50323909313
 20
-9817.354546542654
 10
10609.44710130188
 20
-9817.930345184006
 10
10610.30256905693
 20
-9818.658602512402
 10
10611.06140264963
 20
-9819.532305586552
 10
10611.71629355258
 20
-9820.543041083602
 10
10612.26093620243
 20
-9821.681073938755
 10
10612.69008463358
 20
-9822.935445252653
 10
10612.99960582073
 20
-9824.294073861955
 10
10613.18651787428
 20
-9825.743876471453
 10
10613.24902296773
 20
-9827.270889640553
  0
ELLIPSE
  5
2F07CA
330
18
100
AcDbEntity
  8
0
  6
Continuous
 62
     8
370
    15
100
AcDbEllipse
 10
10566.15197078918
 20
-9833.070815790506
 30
0.0000000000378232
 11
-6.088091160703114
 21
11.12121095216921
 31
0.0
210
0.0
220
0.0
230
1.0
 40
0.592103886
 41
4.690343793594369
 42
5.264091633064023
  0
ELLIPSE
  5
2F07CB
330
18
100
AcDbEntity
  8
0
  6
Continuous
 62
     8
370
    15
100
AcDbEllipse
 10
10566.15197078918
 20
-9833.070815790506
 30
0.0000000000378232
 11
3.582729773276441
 21
8.816521742713148
 31
0.0
210
0.0
220
0.0
230
1.0
 40
0.6469530047
 41
4.112469926607032
 42
5.346803230574718
  0
ELLIPSE
  5
2F07CC
330
18
100
AcDbEntity
  8
0
  6
Continuous
 62
     8
370
    15
100
AcDbEllipse
 10
10566.15197078918
 20
-9833.070815790506
 30
0.0000000000378232
 11
-3.546377061920211
 21
12.08089441382358
 31
0.0
210
0.0
220
0.0
230
1.0
 40
0.5903754450000002
 41
5.393814107921679
 42
5.513452200417367
  0
ELLIPSE
  5
2F07CD
330
18
100
AcDbEntity
  8
0
  6
Continuous
 62
     8
370
    15
100
AcDbEllipse
 10
10566.15197078918
 20
-9833.070815790506
 30
0.0000000000378232
 11
8.66861709413018
 21
-3.933620297988822
 31
0.0
210
0.0
220
0.0
230
1.0
 40
0.7062171694000003
 41
0.0610708931268313
 42
1.050884626722158
  0
ELLIPSE
  5
2F07CE
330
18
100
AcDbEntity
  8
0
  6
Continuous
 62
     8
370
    15
100
AcDbEllipse
 10
10567.29166125428
 20
-9829.805649473303
 30
0.0000000000378232
 11
8.929032050807992
 21
-3.245076198662522
 31
0.0
210
0.0
220
0.0
230
1.0
 40
0.6685407723
 41
0.9918859420699008
 42
1.571195506012668
  0
SPLINE
  5
2F07CF
330
18
100
AcDbEntity
  8
0
  6
Continuous
 62
     8
370
    15
100
AcDbSpline
210
0.0
220
0.0
230
1.0
 70
     8
 71
     3
 72
    13
 73
     9
 74
     0
 42
0.000000001
 43
0.0000000001
 40
0.0
 40
0.0
 40
0.0
 40
0.0
 40
0.0428514687365213
 40
0.2168043494465919
 40
0.3858254911738278
 40
0.5624979603009297
 40
0.7849486092263253
 40
1.0
 40
1.0
 40
1.0
 40
1.0
 10
10574.07389540322
 20
-9824.272544979125
 30
0.0000000000378232
 10
10574.01580912945
 20
-9824.219088913334
 30
0.0000000000378232
 10
10573.72192522846
 20
-9823.948631262516
 30
0.0000000000378232
 10
10573.14913170158
 20
-9823.463921863975
 30
0.0000000000378232
 10
10572.3586541632
 20
-9822.822357630175
 30
0.0000000000378232
 10
10571.46350427599
 20
-9822.145195303481
 30
0.0000000000378232
 10
10570.47825287218
 20
-9821.447985590636
 30
0.0000000000378232
 10
10569.77223310259
 20
-9821.013606254564
 30
0.0000000000378232
 10
10569.42519350142
 20
-9820.800089809225
 30
0.0000000000378232
  0
LINE
  5
2F07D0
330
18
100
AcDbEntity
  8
0
  6
Continuous
 62
     8
370
    15
100
AcDbLine
 10
10499.84122010348
 20
-9828.967827589706
 30
0.0000000000378232
 11
10500.17638501373
 21
-9828.678243179002
 31
0.0000000000378232
  0
LINE
  5
2F07D1
330
18
100
AcDbEntity
  8
0
  6
Continuous
 62
     8
370
    15
100
AcDbLine
 10
10501.95257174798
 20
-9829.136520350905
 30
0.0000000000378232
 11
10500.41823350858
 21
-9829.330703065105
 31
0.0000000000378232
  0
ARC
  5
2F07D2
330
18
100
AcDbEntity
  8
0
  6
Continuous
 62
     8
370
    15
100
AcDbCircle
 10
10507.62870891443
 20
-9839.049551354303
 30
0.0000000000378232
 40
12.68167324061001
100
AcDbArc
 50
133.0211735263873
 51
167.1680323399048
  0
LWPOLYLINE
  5
2F07D3
330
18
100
AcDbEntity
  8
0
  6
Continuous
 62
     8
370
    15
100
AcDbPolyline
 90
        8
 70
   128
 43
0.0
 10
10563.05121825833
 20
-9828.710160197152
 10
10564.27634350943
 20
-9829.840812958104
 10
10565.33917046648
 20
-9831.011799594355
 10
10566.23442155393
 20
-9832.217304499554
 10
10566.95764962053
 20
-9833.451339857904
 10
10567.50526494038
 20
-9834.707778900352
 10
10567.87454640728
 20
-9835.980381259105
 10
10567.92621054113
 20
-9836.233046347556
  0
LINE
  5
2F07D4
330
18
100
AcDbEntity
  8
0
  6
Continuous
 62
     8
370
    15
100
AcDbLine
 10
10561.76099719973
 20
-9829.438175553205
 30
0.0000000000378232
 11
10562.13419107973
 21
-9828.778577044704
 31
0.0000000000378232
  0
LINE
  5
2F07D5
330
18
100
AcDbEntity
  8
0
  6
Continuous
 62
     8
370
    15
100
AcDbLine
 10
10562.15444329898
 20
-9828.113455323353
 30
0.0000000000378232
 11
10561.58836831808
 21
-9829.302852230005
 31
0.0000000000378232
  0
LWPOLYLINE
  5
2F07D6
330
18
100
AcDbEntity
  8
0
  6
Continuous
 62
     8
370
    15
100
AcDbPolyline
 90
        3
 70
   128
 43
0.0
 10
10560.57625291013
 20
-9826.871932149505
 10
10560.84084358103
 20
-9827.046953852605
 10
10562.08043409158
 20
-9827.930617355454
  0
SPLINE
  5
2F07D7
330
18
100
AcDbEntity
  8
0
  6
Continuous
 62
     8
370
    15
100
AcDbSpline
210
0.0
220
0.0
230
1.0
 70
     8
 71
     3
 72
     9
 73
     5
 74
     0
 42
0.000000001
 43
0.0000000001
 40
0.0
 40
0.0
 40
0.0
 40
0.0
 40
0.4258072127891076
 40
1.0
 40
1.0
 40
1.0
 40
1.0
 10
10549.58187605697
 20
-9824.057822635794
 30
0.0000000000378232
 10
10549.51142165429
 20
-9823.81550626815
 30
0.0000000000378232
 10
10549.34596085286
 20
-9823.24643096749
 30
0.0000000000378232
 10
10549.03644175742
 20
-9822.692347729637
 30
0.0000000000378232
 10
10548.85871812531
 20
-9822.374197130946
 30
0.0000000000378232
  0
SPLINE
  5
2F07D8
330
18
100
AcDbEntity
  8
0
  6
Continuous
 62
     8
370
    15
100
AcDbSpline
210
0.0
220
0.0
230
1.0
 70
     8
 71
     3
 72
     9
 73
     5
 74
     0
 42
0.000000001
 43
0.0000000001
 40
0.0
 40
0.0
 40
0.0
 40
0.0
 40
0.5514181862132227
 40
1.0
 40
1.0
 40
1.0
 40
1.0
 10
10548.21113443212
 20
-9821.793122481795
 30
0.0000000000378232
 10
10548.47313875515
 20
-9822.188656097966
 30
0.0000000000378232
 10
10548.94828507708
 20
-9822.905958548377
 30
0.0000000000378232
 10
10549.18442873742
 20
-9823.651951255157
 30
0.0000000000378232
 10
10549.29035848889
 20
-9823.986590016637
 30
0.0000000000378232
  0
SPLINE
  5
2F07D9
330
18
100
AcDbEntity
  8
0
  6
Continuous
 62
     8
370
    15
100
AcDbSpline
210
0.0
220
0.0
230
1.0
 70
     8
 71
     3
 72
     9
 73
     5
 74
     0
 42
0.000000001
 43
0.0000000001
 40
0.0
 40
0.0
 40
0.0
 40
0.0
 40
0.4757179129655229
 40
1.0
 40
1.0
 40
1.0
 40
1.0
 10
10516.81169475447
 20
-9823.279611864997
 30
0.0000000000378232
 10
10516.25545272985
 20
-9823.168088712304
 30
0.0000000000378232
 10
10515.08618411614
 20
-9822.933657446094
 30
0.0000000000378232
 10
10513.86646842446
 20
-9822.775753039627
 30
0.0000000000378232
 10
10513.22699333605
 20
-9822.692966587852
 30
0.0000000000378232
  0
LWPOLYLINE
  5
2F07DA
330
18
100
AcDbEntity
  8
0
  6
Continuous
 62
     8
370
    15
100
AcDbPolyline
 90
       26
 70
   128
 43
0.0
 10
10556.94416164103
 20
-9755.785665887754
 10
10555.09291301603
 20
-9754.923185456755
 10
10553.12459822648
 20
-9754.128146239556
 10
10551.04902431723
 20
-9753.404508722902
 10
10548.87653109563
 20
-9752.755878108655
 10
10546.61794338713
 20
-9752.185485709851
 10
10544.28451011968
 20
-9751.696174298904
 10
10541.88785855513
 20
-9751.290380490205
 10
10539.43993008098
 20
-9750.970125027503
 10
10536.95291699018
 20
-9750.737004881605
 10
10534.43921045633
 20
-9750.592181724653
 10
10531.91133599603
 20
-9750.536376004406
 10
10529.38188366293
 20
-9750.569866285405
 10
10526.86345668218
 20
-9750.692485955755
 10
10524.36860427758
 20
-9750.903623886054
 10
10521.90975186713
 20
-9751.202227722355
 10
10519.49915167133
 20
-9751.586810141755
 10
10517.14881027353
 20
-9752.055454779653
 10
10514.87043988808
 20
-9752.605827425305
 10
10512.67539184628
 20
-9753.235186887054
 10
10510.57459798733
 20
-9753.940395858954
 10
10508.57852768708
 20
-9754.717942405256
 10
10506.69712500863
 20
-9755.563952946803
 10
10504.93976017613
 20
-9756.474211255107
 10
10503.31519022633
 20
-9757.444183395353
 10
10502.67890386418
 20
-9757.865183326103
  0
ARC
  5
2F07DB
330
18
100
AcDbEntity
  8
0
  6
Continuous
 62
     8
370
    15
100
AcDbCircle
 10
10543.75878471638
 20
-9782.489085936057
 30
0.0000000000378232
 40
29.78131640684657
100
AcDbArc
 50
55.06968220679936
 51
63.72117162009298
  0
SPLINE
  5
2F07DC
330
18
100
AcDbEntity
  8
0
  6
Continuous
 62
     8
370
    15
100
AcDbSpline
210
0.0
220
0.0
230
1.0
 70
     8
 71
     3
 72
    10
 73
     6
 74
     0
 42
0.000000001
 43
0.0000000001
 40
0.0
 40
0.0
 40
0.0
 40
0.0
 40
0.4002822983751443
 40
0.8002663801070307
 40
1.0
 40
1.0
 40
1.0
 40
1.0
 10
10531.12953171246
 20
-9819.842214499193
 30
0.0000000000378232
 10
10531.11127378963
 20
-9819.832412843509
 30
0.0000000000378232
 10
10531.07477154641
 20
-9819.812816834528
 30
0.0000000000378232
 10
10531.05063717871
 20
-9819.779965728987
 30
0.0000000000378232
 10
10531.05393787411
 20
-9819.759451443831
 30
0.0000000000378232
 10
10531.05503715771
 20
-9819.75261924191
 30
0.0000000000378232
  0
LINE
  5
2F07DD
330
18
100
AcDbEntity
  8
0
  6
Continuous
 62
     8
370
    15
100
AcDbLine
 10
10531.13253072413
 20
-9819.770632467957
 30
0.0000000000378232
 11
10531.12953171248
 21
-9819.842214499255
 31
0.0000000000378232
  0
SPLINE
  5
2F07DE
330
18
100
AcDbEntity
  8
0
  6
Continuous
 62
     8
370
    15
100
AcDbSpline
210
0.0
220
0.0
230
1.0
 70
     8
 71
     3
 72
     9
 73
     5
 74
     0
 42
0.000000001
 43
0.0000000001
 40
0.0
 40
0.0
 40
0.0
 40
0.0
 40
0.9778303496706509
 40
1.0
 40
1.0
 40
1.0
 40
1.0
 10
10533.8987745888
 20
-9821.395025643771
 30
0.0000000000378232
 10
10534.56109257836
 20
-9820.891694105816
 30
0.0000000000378232
 10
10535.23842683148
 20
-9820.376950890775
 30
0.0000000000378232
 10
10535.72398976965
 20
-9819.862567749653
 30
0.0000000000378232
 10
10535.7347545302
 20
-9819.851164055279
 30
0.0000000000378232
  0
LINE
  5
2F07DF
330
18
100
AcDbEntity
  8
0
  6
Continuous
 62
     8
370
    15
100
AcDbLine
 10
10513.29330547523
 20
-9822.183814685905
 30
0.0000000000378232
 11
10513.28537001398
 21
-9822.357596370202
 31
0.0000000000378232
  0
SPLINE
  5
2F07E0
330
18
100
AcDbEntity
  8
0
  6
Continuous
 62
     8
370
    15
100
AcDbSpline
210
0.0
220
0.0
230
1.0
 70
     8
 71
     3
 72
     9
 73
     5
 74
     0
 42
0.000000001
 43
0.0000000001
 40
0.0
 40
0.0
 40
0.0
 40
0.0
 40
0.8960920595105976
 40
1.0
 40
1.0
 40
1.0
 40
1.0
 10
10517.23644871812
 20
-9823.01005402458
 30
0.0000000000378232
 10
10518.24220809438
 20
-9822.283939239449
 30
0.0000000000378232
 10
10519.36459207891
 20
-9821.473626529474
 30
0.0000000000378232
 10
10520.34215632333
 20
-9820.711136557686
 30
0.0000000000378232
 10
10520.44373301066
 20
-9820.631907795072
 30
0.0000000000378232
  0
ARC
  5
2F07E1
330
18
100
AcDbEntity
  8
0
  6
Continuous
 62
     8
370
    15
100
AcDbCircle
 10
10562.02111546703
 20
-9827.780610297355
 30
0.0000000000378232
 40
0.1613096919464055
100
AcDbArc
 50
235.2014111742982
 51
291.5757692398873
  0
ARC
  5
2F07E2
330
18
100
AcDbEntity
  8
0
  6
Continuous
 62
     8
370
    15
100
AcDbCircle
 10
10548.16500657248
 20
-9821.599389323605
 30
0.0000000000378232
 40
0.1991489794187883
100
AcDbArc
 50
216.24688696509
 51
283.3927544474539
  0
SPLINE
  5
2F07E3
330
18
100
AcDbEntity
  8
0
  6
Continuous
 62
     8
370
    15
100
AcDbSpline
210
0.0
220
0.0
230
1.0
 70
     8
 71
     3
 72
     8
 73
     4
 74
     0
 42
0.000000001
 43
0.0000000001
 40
0.0
 40
0.0
 40
0.0
 40
0.0
 40
1.0
 40
1.0
 40
1.0
 40
1.0
 10
10513.28536952405
 20
-9822.35759705845
 30
0.0000000000378232
 10
10513.20247409276
 20
-9822.350455037998
 30
0.0000000000378232
 10
10513.13337313521
 20
-9822.321124667775
 30
0.0000000000378232
 10
10513.10629691259
 20
-9822.281386942846
 30
0.0000000000378232
  0
ARC
  5
2F07E4
330
18
100
AcDbEntity
  8
0
  6
Continuous
 62
     8
370
    15
100
AcDbCircle
 10
10499.89803197813
 20
-9828.805891215805
 30
0.0000000000378232
 40
0.1716128734268661
100
AcDbArc
 50
250.6676820446476
 51
309.2763586705894
  0
SPLINE
  5
2F07E5
330
18
100
AcDbEntity
  8
0
  6
Continuous
 62
     8
370
    15
100
AcDbSpline
210
0.0
220
0.0
230
1.0
 70
     8
 71
     3
 72
     9
 73
     5
 74
     0
 42
0.000000001
 43
0.0000000001
 40
0.0
 40
0.0
 40
0.0
 40
0.0
 40
0.8698911266728977
 40
1.0
 40
1.0
 40
1.0
 40
1.0
 10
10500.34725228882
 20
-9828.997020697025
 30
0.0000000000378232
 10
10500.98836520353
 20
-9828.903439365095
 30
0.0000000000378232
 10
10501.72536882968
 20
-9828.795861153227
 30
0.0000000000378232
 10
10502.48197154938
 20
-9828.73511564781
 30
0.0000000000378232
 10
10502.58041227679
 20
-9828.727212118538
 30
0.0000000000378232
  0
LINE
  5
2F07E6
330
18
100
AcDbEntity
  8
0
  6
Continuous
 62
     8
370
    15
100
AcDbLine
 10
10500.35943667928
 20
-9828.670150395053
 30
0.0000000000378232
 11
10500.34725228878
 21
-9828.997020696956
 31
0.0000000000378232
  0
SPLINE
  5
2F07E7
330
18
100
AcDbEntity
  8
0
  6
Continuous
 62
     8
370
    15
100
AcDbSpline
210
0.0
220
0.0
230
1.0
 70
     8
 71
     3
 72
     9
 73
     5
 74
     0
 42
0.000000001
 43
0.0000000001
 40
0.0
 40
0.0
 40
0.0
 40
0.0
 40
0.258385828238789
 40
1.0
 40
1.0
 40
1.0
 40
1.0
 10
10506.60309254968
 20
-9826.569401749097
 30
0.0000000000378232
 10
10506.95061394425
 20
-9826.249170599443
 30
0.0000000000378232
 10
10508.29558474601
 20
-9825.009817993174
 30
0.0000000000378232
 10
10509.59404021912
 20
-9823.851934193412
 30
0.0000000000378232
 10
10510.55699319938
 20
-9822.993231158256
 30
0.0000000000378232
  0
SPLINE
  5
2F07E8
330
18
100
AcDbEntity
  8
0
  6
Continuous
 62
     8
370
    15
100
AcDbSpline
210
0.0
220
0.0
230
1.0
 70
     8
 71
     3
 72
    10
 73
     6
 74
     0
 42
0.000000001
 43
0.0000000001
 40
0.0
 40
0.0
 40
0.0
 40
0.0
 40
0.040758864486229
 40
0.6328541696467846
 40
1.0
 40
1.0
 40
1.0
 40
1.0
 10
10561.30206609325
 20
-9829.127897716455
 30
0.0000000000378232
 10
10561.31378765877
 20
-9829.111414570827
 30
0.0000000000378232
 10
10561.49578589915
 20
-9828.855484294752
 30
0.0000000000378232
 10
10561.68287141425
 20
-9828.434892486948
 30
0.0000000000378232
 10
10561.84613638982
 20
-9828.031608973997
 30
0.0000000000378232
 10
10561.90862542704
 20
-9827.877253770963
 30
0.0000000000378232
  0
LINE
  5
2F07E9
330
18
100
AcDbEntity
  8
0
  6
Continuous
 62
     8
370
    15
100
AcDbLine
 10
10557.44379804218
 20
-9825.089587552702
 30
0.0000000000378232
 11
10557.48379013303
 21
-9826.991659978255
 31
0.0000000000378232
  0
SPLINE
  5
2F07EA
330
18
100
AcDbEntity
  8
0
  6
Continuous
 62
     8
370
    15
100
AcDbSpline
210
0.0
220
0.0
230
1.0
 70
     8
 71
     3
 72
    10
 73
     6
 74
     0
 42
0.000000001
 43
0.0000000001
 40
0.0
 40
0.0
 40
0.0
 40
0.0
 40
0.5
 40
0.5
 40
1.0
 40
1.0
 40
1.0
 40
1.0
 10
10500.34725279681
 20
-9828.997021832733
 30
0.0000000000378232
 10
10500.27921226942
 20
-9829.009437735149
 30
0.0000000000378232
 10
10500.20380235341
 20
-9829.006174768681
 30
0.0000000000378232
 10
10500.08474883097
 20
-9828.971274442454
 30
0.0000000000378232
 10
10500.04177592651
 20
-9828.93980038312
 30
0.0000000000378232
 10
10500.02970569489
 20
-9828.903785712126
 30
0.0000000000378232
  0
ARC
  5
2F07EB
330
18
100
AcDbEntity
  8
0
  6
Continuous
 62
     8
370
    15
100
AcDbCircle
 10
10562.99364784133
 20
-9828.552125404101
 30
0.0000000000378232
 40
0.1681943778037689
100
AcDbArc
 50
230.9760764022211
 51
290.0161514893545
  0
ARC
  5
2F07EC
330
18
100
AcDbEntity
  8
0
  6
Continuous
 62
     8
370
    15
100
AcDbCircle
 10
10562.17398991238
 20
-9828.572785776352
 30
0.0000000000378232
 40
0.2096043729870646
100
AcDbArc
 50
259.0544542202528
 51
332.4174056163765
  0
LINE
  5
2F07ED
330
18
100
AcDbEntity
  8
0
  6
Continuous
 62
     8
370
    15
100
AcDbLine
 10
10495.83971862188
 20
-9834.981013471104
 30
0.0000000000378232
 11
10495.83459382853
 21
-9835.247165169803
 31
0.0000000000378232
  0
LINE
  5
2F07EE
330
18
100
AcDbEntity
  8
0
  6
Continuous
 62
     8
370
    15
100
AcDbLine
 10
10556.96120699558
 20
-9842.751004405105
 30
0.0000000000378232
 11
10556.96120699558
 21
-9842.849525979655
 31
0.0000000000378232
  0
LINE
  5
2F07EF
330
18
100
AcDbEntity
  8
0
  6
Continuous
 62
     8
370
    15
100
AcDbLine
 10
10553.43532841888
 20
-9842.017211274506
 30
0.0000000000378232
 11
10553.43532841888
 21
-9842.112880891855
 31
0.0000000000378232
  0
LINE
  5
2F07F0
330
18
100
AcDbEntity
  8
0
  6
Continuous
 62
     8
370
    15
100
AcDbLine
 10
10555.55422179743
 20
-9842.130756015955
 30
0.0000000000378232
 11
10555.55422179743
 21
-9842.307532201554
 31
0.0000000000378232
  0
LINE
  5
2F07F1
330
18
100
AcDbEntity
  8
0
  6
Continuous
 62
     8
370
    15
100
AcDbLine
 10
10511.70637480133
 20
-9865.476942076704
 30
0.0000000000378232
 11
10511.70637480133
 21
-9865.378420502155
 31
0.0000000000378232
  0
LINE
  5
2F07F2
330
18
100
AcDbEntity
  8
0
  6
Continuous
 62
     8
370
    15
100
AcDbLine
 10
10508.18049490763
 20
-9864.740297647404
 30
0.0000000000378232
 11
10508.18049490763
 21
-9864.644628030204
 31
0.0000000000378232
  0
LINE
  5
2F07F3
330
18
100
AcDbEntity
  8
0
  6
Continuous
 62
     8
370
    15
100
AcDbLine
 10
10510.29938696918
 20
-9864.934949615752
 30
0.0000000000378232
 11
10510.29938696918
 21
-9864.758173430157
 31
0.0000000000378232
  0
LWPOLYLINE
  5
2F07F4
330
18
100
AcDbEntity
  8
0
  6
Continuous
 62
     8
370
    15
100
AcDbPolyline
 90
       41
 70
   128
 43
0.0
 10
10495.37023697378
 20
-9850.619932291855
 10
10495.75019871563
 20
-9849.799404274254
 10
10496.46782783693
 20
-9848.573834505652
 10
10497.35285502083
 20
-9847.375941387054
 10
10498.40106228983
 20
-9846.211432194505
 10
10499.60745326678
 20
-9845.085855494755
 10
10500.96627852863
 20
-9844.004575297404
 10
10502.47106458328
 20
-9842.972746030253
 10
10504.11463988063
 20
-9841.995283728204
 10
10505.88916996388
 20
-9841.076845823754
 10
10507.78620019163
 20
-9840.221809785806
 10
10509.79669031168
 20
-9839.434250564154
 10
10511.91105940718
 20
-9838.717920751104
 10
10514.11923289943
 20
-9838.076234982655
 10
10516.41068395448
 20
-9837.512249234154
 10
10518.77449653863
 20
-9837.028653001555
 10
10521.19940493098
 20
-9836.627749544456
 10
10523.67385035833
 20
-9836.311449958703
 10
10526.18604487403
 20
-9836.081260994302
 10
10528.72401613883
 20
-9835.938281103354
 10
10531.27566800708
 20
-9835.883189904056
 10
10533.82884243038
 20
-9835.916251472601
 10
10536.37137214028
 20
-9836.037306441052
 10
10538.89113860063
 20
-9836.245779900353
 10
10541.37613654523
 20
-9836.540676789504
 10
10543.81452007523
 20
-9836.920593091854
 10
10546.19467575848
 20
-9837.383716821954
 10
10548.50525489738
 20
-9837.927842843754
 10
10550.73525057893
 20
-9838.550375833103
 10
10552.87403389493
 20
-9839.248351022754
 10
10554.91141172873
 20
-9840.018442022156
 10
10556.83767729908
 20
-9840.856978186253
 10
10558.64364934283
 20
-9841.759964208202
 10
10560.32072167133
 20
-9842.723096993304
 10
10561.86090366998
 20
-9843.741785910202
 10
10563.25685404928
 20
-9844.811177568205
 10
10564.50192002813
 20
-9845.926175409055
 10
10565.59017207158
 20
-9847.081464978506
 10
10566.51641953178
 20
-9848.271542820054
 10
10567.27625213633
 20
-9849.490734585204
 10
10567.83119178818
 20
-9850.647643186254
  0
LWPOLYLINE
  5
2F07F5
330
18
100
AcDbEntity
  8
0
  6
Continuous
 62
     8
370
    15
100
AcDbPolyline
 90
        6
 70
   128
 43
0.0
 10
10511.33453612378
 20
-9842.309568099052
 10
10511.81659646588
 20
-9842.614400202354
 10
10512.14506430768
 20
-9842.966600835804
 10
10512.30223155218
 20
-9843.347182103455
 10
10512.27962651798
 20
-9843.735627791906
 10
10512.08345722208
 20
-9844.104677163054
  0
ARC
  5
2F07F6
330
18
100
AcDbEntity
  8
0
  6
Continuous
 62
     8
370
    15
100
AcDbCircle
 10
10506.52491440948
 20
-9843.494834928206
 30
0.0000000000378232
 40
0.9026760933580201
100
AcDbArc
 50
161.7507784040371
 51
215.0443094331737
  0
LWPOLYLINE
  5
2F07F7
330
18
100
AcDbEntity
  8
0
  6
Continuous
 62
     8
370
    15
100
AcDbPolyline
 90
        6
 70
   128
 43
0.0
 10
10511.19495086513
 20
-9865.006778801006
 10
10511.66327623253
 20
-9865.305664556152
 10
10511.97493559018
 20
-9865.651904476854
 10
10512.11181801743
 20
-9866.025375604102
 10
10512.06596784398
 20
-9866.404373401405
 10
10511.89728331463
 20
-9866.699101209353
  0
ARC
  5
2F07F8
330
18
100
AcDbEntity
  8
0
  6
Continuous
 62
     8
370
    15
100
AcDbCircle
 10
10506.67671381563
 20
-9866.121233126152
 30
0.0000000000378232
 40
0.8559573669174171
100
AcDbArc
 50
158.8480833452838
 51
213.8698170766658
  0
LWPOLYLINE
  5
2F07F9
330
18
100
AcDbEntity
  8
0
  6
Continuous
 62
     8
370
    15
100
AcDbPolyline
 90
        6
 70
   128
 43
0.0
 10
10525.67974531958
 20
-9869.078090610205
 10
10526.16180385073
 20
-9869.382922301902
 10
10526.49027136328
 20
-9869.735121782905
 10
10526.64743959553
 20
-9870.115703873755
 10
10526.62483439678
 20
-9870.504149644556
 10
10526.42866452458
 20
-9870.873199303853
  0
ARC
  5
2F07FA
330
18
100
AcDbEntity
  8
0
  6
Continuous
 62
     8
370
    15
100
AcDbCircle
 10
10520.87013407858
 20
-9870.263352620004
 30
0.0000000000378232
 40
0.9026877713655631
100
AcDbArc
 50
161.7512706384665
 51
215.0440993768004
  0
LWPOLYLINE
  5
2F07FB
330
18
100
AcDbEntity
  8
0
  6
Continuous
 62
     8
370
    15
100
AcDbPolyline
 90
        6
 70
   128
 43
0.0
 10
10556.44978437638
 20
-9842.379362045453
 10
10556.91811106093
 20
-9842.678247141954
 10
10557.22976910143
 20
-9843.024487721304
 10
10557.36665152868
 20
-9843.397958848404
 10
10557.32080135523
 20
-9843.776956645856
 10
10557.15211814288
 20
-9844.071683795155
  0
ARC
  5
2F07FC
330
18
100
AcDbEntity
  8
0
  6
Continuous
 62
     8
370
    15
100
AcDbCircle
 10
10551.93154732688
 20
-9843.493816370454
 30
0.0000000000378232
 40
0.8559573669159177
100
AcDbArc
 50
158.8480833452398
 51
213.8698170766326
  0
LWPOLYLINE
  5
2F07FD
330
18
100
AcDbEntity
  8
0
  6
Continuous
 62
     8
370
    15
100
AcDbPolyline
 90
        6
 70
   128
 43
0.0
 10
10564.87158081683
 20
-9849.482172861655
 10
10565.35364066498
 20
-9849.787003894704
 10
10565.68210686053
 20
-9850.139204034353
 10
10565.83927509278
 20
-9850.519786125053
 10
10565.81666989403
 20
-9850.908231895854
 10
10565.62050133883
 20
-9851.277280896655
  0
ARC
  5
2F07FE
330
18
100
AcDbEntity
  8
0
  6
Continuous
 62
     8
370
    15
100
AcDbCircle
 10
10560.06197096048
 20
-9850.667435844203
 30
0.0000000000378232
 40
0.9026883464063242
100
AcDbArc
 50
161.7511736423369
 51
215.0439983571053
  0
ELLIPSE
  5
2F07FF
330
18
100
AcDbEntity
  8
0
  6
Continuous
 62
     8
370
    15
100
AcDbEllipse
 10
10585.33228075298
 20
-9896.160873991252
 30
0.0000000000378232
 11
1.125353632362903
 21
2.233077268644698
 31
0.0
210
0.0
220
0.0
230
1.0
 40
0.6124184286
 41
3.124464658995207
 42
3.828114878734869
  0
ELLIPSE
  5
2F0800
330
18
100
AcDbEntity
  8
0
  6
Continuous
 62
     8
370
    15
100
AcDbEllipse
 10
10634.12828139128
 20
-9753.976520092405
 30
0.0000000000378232
 11
1.111468586821957
 21
2.240020116114863
 31
0.0
210
0.0
220
0.0
230
1.0
 40
0.6120266756000001
 41
5.395415006347369
 42
6.258795964717143
  0
SPLINE
  5
2F0801
330
18
100
AcDbEntity
  8
0
  6
Continuous
 62
     8
370
    15
100
AcDbSpline
210
0.0
220
0.0
230
1.0
 70
     8
 71
     3
 72
    12
 73
     8
 74
     0
 42
0.000000001
 43
0.0000000001
 40
0.0
 40
0.0
 40
0.0
 40
0.0
 40
0.2077051052739753
 40
0.4293217281312779
 40
0.6509693481769946
 40
0.8726213700944414
 40
1.0
 40
1.0
 40
1.0
 40
1.0
 10
10630.57056506177
 20
-9866.04896339422
 30
0.0000000000378232
 10
10630.37267458016
 20
-9865.975830865998
 30
0.0000000000378232
 10
10629.96363945589
 20
-9865.824667593639
 30
0.0000000000378232
 10
10629.20182121331
 20
-9866.013625273044
 30
0.0000000000378232
 10
10628.42950941935
 20
-9866.501773875825
 30
0.0000000000378232
 10
10627.81982921085
 20
-9867.150872132712
 30
0.0000000000378232
 10
10627.52894882677
 20
-9867.628479850599
 30
0.0000000000378232
 10
10627.42279211933
 20
-9867.802782641542
 30
0.0000000000378232
  0
SPLINE
  5
2F0802
330
18
100
AcDbEntity
  8
0
  6
Continuous
 62
     8
370
    15
100
AcDbSpline
210
0.0
220
0.0
230
1.0
 70
     8
 71
     3
 72
    12
 73
     8
 74
     0
 42
0.000000001
 43
0.0000000001
 40
0.0
 40
0.0
 40
0.0
 40
0.0
 40
0.1949856517111286
 40
0.3899708026637841
 40
0.5952671342642085
 40
0.8005718261853338
 40
1.0
 40
1.0
 40
1.0
 40
1.0
 10
10627.42279211933
 20
-9867.802782641542
 30
0.0000000000378232
 10
10627.28102401835
 20
-9868.112274960862
 30
0.0000000000378232
 10
10626.99748818046
 20
-9868.73125880467
 30
0.0000000000378232
 10
10626.82899257028
 20
-9869.71917151527
 30
0.0000000000378232
 10
10626.89412194298
 20
-9870.618640523317
 30
0.0000000000378232
 10
10627.19871527356
 20
-9871.354120375356
 30
0.0000000000378232
 10
10627.56825115138
 20
-9871.59854992554
 30
0.0000000000378232
 10
10627.75033635253
 20
-9871.718990203426
 30
0.0000000000378232
  0
ARC
  5
2F0803
330
18
100
AcDbEntity
  8
0
  6
Continuous
 62
     8
370
    15
100
AcDbCircle
 10
10635.50456637533
 20
-9753.026147080105
 30
0.0000000000378232
 40
0.1059047392265005
100
AcDbArc
 50
6.490079537592586
 51
74.17235741089638
  0
ARC
  5
2F0804
330
18
100
AcDbEntity
  8
0
  6
Continuous
 62
     8
370
    15
100
AcDbCircle
 10
10585.04703643643
 20
-9898.032366255804
 30
0.0000000000378232
 40
0.1239640935230608
100
AcDbArc
 50
237.9889946224258
 51
293.3743572418198
  0
LINE
  5
2F0805
330
18
100
AcDbEntity
  8
0
  6
Continuous
 62
     8
370
    15
100
AcDbLine
 10
10580.42583311288
 20
-9777.353872642401
 30
0.0000000000378232
 11
10580.42583311288
 21
-9806.133918980457
 31
0.0000000000378232
  0
LINE
  5
2F0806
330
18
100
AcDbEntity
  8
0
  6
Continuous
 62
     8
370
    15
100
AcDbLine
 10
10580.42583311288
 20
-9834.740699234306
 30
0.0000000000378232
 11
10580.42583311288
 21
-9895.004979748555
 31
0.0000000000378232
  0
LINE
  5
2F0807
330
18
100
AcDbEntity
  8
0
  6
Continuous
 62
     8
370
    15
100
AcDbLine
 10
10582.31906427968
 20
-9894.250481309602
 30
0.0000000000378232
 11
10582.49619431303
 21
-9894.314581078852
 31
0.0000000000378232
  0
LWPOLYLINE
  5
2F0808
330
18
100
AcDbEntity
  8
0
  6
Continuous
 62
     8
370
    15
100
AcDbPolyline
 90
       12
 70
   128
 43
0.0
 10
10585.25181717188
 20
-9888.674892106854
 10
10584.92193905693
 20
-9888.522193433902
 10
10584.26191545788
 20
-9888.568116158003
 10
10583.52331301123
 20
-9888.936568837704
 10
10582.82203686728
 20
-9889.592177821403
 10
10582.23725461253
 20
-9890.460970557353
 10
10581.83495504093
 20
-9891.444863135905
 10
10581.66044601458
 20
-9892.432827493853
 10
10581.73329947648
 20
-9893.313519888055
 10
10582.04523357068
 20
-9893.987785726855
 10
10582.31906427968
 20
-9894.250481309602
 10
10582.31906427968
 20
-9894.250481309602
  0
ELLIPSE
  5
2F0809
330
18
100
AcDbEntity
  8
0
  6
Continuous
 62
     8
370
    15
100
AcDbEllipse
 10
10582.17478698638
 20
-9894.457333665956
 30
0.0000000000378232
 11
1.100294001007371
 21
2.24617285961628
 31
0.0
210
0.0
220
0.0
230
1.0
 40
0.6196323046999999
 41
3.11725390051597
 42
3.820904120255598
  0
LINE
  5
2F080A
330
18
100
AcDbEntity
  8
0
  6
Continuous
 62
     8
370
    15
100
AcDbLine
 10
10627.42279211933
 20
-9758.077752013403
 30
0.0000000000378232
 11
10627.73352107708
 21
-9758.222040932455
 31
0.0000000000378232
  0
SPLINE
  5
2F080B
330
18
100
AcDbEntity
  8
0
  6
Continuous
 62
     8
370
    15
100
AcDbSpline
210
0.0
220
0.0
230
1.0
 70
     8
 71
     3
 72
    17
 73
    13
 74
     0
 42
0.000000001
 43
0.0000000001
 40
0.0
 40
0.0
 40
0.0
 40
0.0
 40
0.0817861041471603
 40
0.1881573181396444
 40
0.3000923796169084
 40
0.4120216737628988
 40
0.5239598577083773
 40
0.6359183038510523
 40
0.7479006120189716
 40
0.8598982158352245
 40
0.9718974356059747
 40
1.0
 40
1.0
 40
1.0
 40
1.0
 10
10630.57372607541
 20
-9752.622014229775
 30
0.0000000000378232
 10
10630.431311481
 20
-9752.554789969836
 30
0.0000000000378232
 10
10630.10367210477
 20
-9752.400133667321
 30
0.0000000000378232
 10
10629.43868392904
 20
-9752.514441206291
 30
0.0000000000378232
 10
10628.68701112357
 20
-9752.918123812815
 30
0.0000000000378232
 10
10627.9652011357
 20
-9753.618869686743
 30
0.0000000000378232
 10
10627.37336044824
 20
-9754.518424087808
 30
0.0000000000378232
 10
10626.97660200918
 20
-9755.518612358435
 30
0.0000000000378232
 10
10626.81980044244
 20
-9756.506785206751
 30
0.0000000000378232
 10
10626.92197326959
 20
-9757.368288708596
 30
0.0000000000378232
 10
10627.18055297764
 20
-9757.85626092332
 30
0.0000000000378232
 10
10627.38232026984
 20
-9758.040746622806
 30
0.0000000000378232
 10
10627.42279211933
 20
-9758.077752013425
 30
0.0000000000378232
  0
ELLIPSE
  5
2F080C
330
18
100
AcDbEntity
  8
0
  6
Continuous
 62
     8
370
    15
100
AcDbEllipse
 10
10630.85860088048
 20
-9752.466473279004
 30
0.0000000000378232
 11
1.135545188017858
 21
2.228553375687838
 31
0.0
210
0.0
220
0.0
230
1.0
 40
0.6044831696000005
 41
6.197799560029549
 42
6.30652732170415
  0
ELLIPSE
  5
2F080D
330
18
100
AcDbEntity
  8
0
  6
Continuous
 62
     8
370
    15
100
AcDbEllipse
 10
10633.76855670338
 20
-9753.810387310554
 30
0.0000000000378232
 11
1.111468586821914
 21
2.24002011611482
 31
0.0
210
0.0
220
0.0
230
1.0
 40
0.6120266756
 41
5.395415006347414
 42
6.258690936395547
  0
SPLINE
  5
2F080E
330
18
100
AcDbEntity
  8
0
  6
Continuous
 62
     8
370
    15
100
AcDbSpline
210
0.0
220
0.0
230
1.0
 70
     8
 71
     3
 72
    13
 73
     9
 74
     0
 42
0.000000001
 43
0.0000000001
 40
0.0
 40
0.0
 40
0.0
 40
0.0
 40
0.1888494749141379
 40
0.3777009400654848
 40
0.5764310645576932
 40
0.7751477715299009
 40
0.9738772156825632
 40
1.0
 40
1.0
 40
1.0
 40
1.0
 10
10582.31906427962
 20
-9776.86386743297
 30
0.0000000000378232
 10
10582.16614079086
 20
-9777.16819313135
 30
0.0000000000378232
 10
10581.86029220173
 20
-9777.776847735327
 30
0.0000000000378232
 10
10581.64339571206
 20
-9778.762558146362
 30
0.0000000000378232
 10
10581.64637174126
 20
-9779.688335367206
 30
0.0000000000378232
 10
10581.91515943314
 20
-9780.413334610708
 30
0.0000000000378232
 10
10582.22500245662
 20
-9780.822189589751
 30
0.0000000000378232
 10
10582.46575829535
 20
-9780.873146193044
 30
0.0000000000378232
 10
10582.49372872238
 20
-9780.879066207119
 30
0.0000000000378232
  0
SPLINE
  5
2F080F
330
18
100
AcDbEntity
  8
0
  6
Continuous
 62
     8
370
    15
100
AcDbSpline
210
0.0
220
0.0
230
1.0
 70
     8
 71
     3
 72
    13
 73
     9
 74
     0
 42
0.000000001
 43
0.0000000001
 40
0.0
 40
0.0
 40
0.0
 40
0.0
 40
0.0248269139722677
 40
0.2542834283005441
 40
0.4836926103772786
 40
0.7130713485005358
 40
0.9424514670622621
 40
1.0
 40
1.0
 40
1.0
 40
1.0
 10
10585.32171113465
 20
-9775.237891085766
 30
0.0000000000378232
 10
10585.30405498906
 20
-9775.222202700203
 30
0.0000000000378232
 10
10585.1232163541
 20
-9775.061518352963
 30
0.0000000000378232
 10
10584.61399239755
 20
-9775.054926153483
 30
0.0000000000378232
 10
10583.87186802692
 20
-9775.265170503477
 30
0.0000000000378232
 10
10583.11094569377
 20
-9775.818858433431
 30
0.0000000000378232
 10
10582.60154460946
 20
-9776.414241922288
 30
0.0000000000378232
 10
10582.36625558662
 20
-9776.788752767385
 30
0.0000000000378232
 10
10582.31906427962
 20
-9776.86386743297
 30
0.0000000000378232
  0
LINE
  5
2F2080
330
18
100
AcDbEntity
  8
寸法線
 62
     8
100
AcDbLine
 10
10635.37422359847
 20
-9872.666844332218
 30
0.0000000000378232
 11
10655.16352002148
 21
-9882.637792866339
 31
0.0000000000378232
  0
HATCH
  5
2FBD6A
330
18
100
AcDbEntity
  8
ﾊｯﾁﾝｸﾞ
100
AcDbHatch
 10
0.0
 20
0.0
 30
0.0
210
0.0
220
0.0
230
1.0
  2
SOLID
 70
     1
 71
     0
 91
        0
 75
     0
 76
     1
 98
        1
 10
11017.3116708961
 20
-11962.09419490385
1001
ACAD
1010
0.0
1020
0.0
1030
0.0
  0
HATCH
  5
2FC8C8
330
18
100
AcDbEntity
  8
ﾊｯﾁﾝｸﾞ
100
AcDbHatch
 10
0.0
 20
0.0
 30
0.0
210
0.0
220
0.0
230
1.0
  2
SOLID
 70
     1
 71
     0
 91
        0
 75
     0
 76
     1
 98
        1
 10
11589.0262209314
 20
-11962.09419490385
1001
ACAD
1010
0.0
1020
0.0
1030
0.0
  0
VIEWPORT
  5
1B39D6
102
{ACAD_XDICTIONARY
360
1B39D7
102
}
330
15
100
AcDbEntity
 67
     1
  8
0
100
AcDbViewport
 10
9.443112410971278
 20
5.64570822246414
 30
0.0
 40
25.68200028106094
 41
14.3866760833721
 68
     1
 69
     1
 12
9.443112410971278
 22
5.64570822246414
 13
0.0
 23
0.0
 14
10.0
 24
10.0
 15
10.0
 25
10.0
 16
0.0
 26
0.0
 36
1.0
 17
0.0
 27
0.0
 37
0.0
 42
50.0
 43
0.0
 44
0.0
 45
14.3866760833721
 50
0.0
 51
0.0
 72
   100
 90
    32800
  1

281
     0
 71
     1
 74
     0
110
0.0
120
0.0
130
0.0
111
1.0
121
0.0
131
0.0
112
0.0
122
1.0
132
0.0
 79
     0
146
0.0
  0
VIEWPORT
  5
1B39DA
102
{ACAD_XDICTIONARY
360
1B39DB
102
}
330
15
100
AcDbEntity
 67
     1
  8
実線
100
AcDbViewport
 10
5.249999761581422
 20
3.999999761581421
 30
0.0
 40
8.399999618530275
 41
6.399999618530274
 68
     2
 69
     2
 12
973.7752257531101
 22
148.6828135753913
 13
0.0
 23
0.0
 14
1.0
 24
1.0
 15
20.0
 25
20.0
 16
0.0
 26
0.0
 36
1.0
 17
0.0
 27
0.0
 37
0.0
 42
50.0
 43
0.0
 44
0.0
 45
19878.02383915038
 50
0.0
 51
0.0
 72
   100
 90
    32768
  1

281
     0
 71
     1
 74
     0
110
0.0
120
0.0
130
0.0
111
1.0
121
0.0
131
0.0
112
0.0
122
1.0
132
0.0
 79
     0
146
0.0
  0
ENDSEC
  0
SECTION
  2
OBJECTS
  0
DICTIONARY
  5
C
330
0
100
AcDbDictionary
281
     1
  3
ACAD_DETAILVIEWSTYLE
350
2EC93E
  3
ACAD_GROUP
350
D
  3
ACAD_IMAGE_VARS
350
2E14C8
  3
ACAD_LAYOUT
350
617
  3
ACAD_MLINESTYLE
350
E
  3
ACAD_PLOTSETTINGS
350
618
  3
ACAD_PLOTSTYLENAME
350
615
  3
ACAD_SCALELIST
350
66C31
  3
ACAD_SECTIONVIEWSTYLE
350
2EC93F
  3
AcadDim
350
12B3C
  3
AcDbVariableDictionary
350
6DE
  3
APPDATA
350
2E14C6
  3
DWGPROPS
350
2FCFB9
  0
DICTIONARY
  5
67DE7
330
2
100
AcDbDictionary
280
     1
281
     1
  3
ACAD_LAYERFILTERS
360
2FCF3D
  3
ACAD_LAYERSTATES
360
67DE8
  0
DICTIONARY
  5
66C5B
330
F
100
AcDbDictionary
280
     1
281
     1
  3
ADSK_XREC_LAYER_RECONCILED
360
66C5C
  0
DICTIONARY
  5
66C61
330
280
100
AcDbDictionary
280
     1
281
     1
  3
ADSK_XREC_LAYER_RECONCILED
360
66C62
  0
DICTIONARY
  5
66C67
330
2F4
100
AcDbDictionary
280
     1
281
     1
  3
ADSK_XREC_LAYER_RECONCILED
360
66C68
  0
DICTIONARY
  5
845D5
330
18
100
AcDbDictionary
280
     1
281
     1
  3
ACAD_SORTENTS
360
845D6
  0
DICTIONARY
  5
1B39D7
330
1B39D6
100
AcDbDictionary
280
     1
281
     1
  3
ACAD_XREC_ROUNDTRIP
360
2E14A2
  3
ASDK_XREC_ANNOTATION_SCALE_INFO
360
1B39D8
  0
DICTIONARY
  5
1B39DB
330
1B39DA
100
AcDbDictionary
280
     1
281
     1
  3
ACAD_XREC_ROUNDTRIP
360
2E14A3
  3
ASDK_XREC_ANNOTATION_SCALE_INFO
360
1B39DC
  0
DICTIONARY
  5
2EC93E
102
{ACAD_REACTORS
330
C
102
}
330
C
100
AcDbDictionary
281
     1
  0
DICTIONARY
  5
D
102
{ACAD_REACTORS
330
C
102
}
330
C
100
AcDbDictionary
281
     1
  3
*A1
350
11444
  3
*A10
350
EE85E
  3
*A11
350
3AC40
  3
*A12
350
10FF7C
  3
*A13
350
EE28F
  3
*A14
350
1ADE11
  3
*A15
350
1ADE12
  3
*A16
350
CF3F2
  3
*A17
350
19F05D
  3
*A18
350
1ACF6
  3
*A19
350
1ACF7
  3
*A2
350
CC1E6
  3
*A20
350
3BCF2
  3
*A21
350
31E65
  3
*A22
350
18CA7
  3
*A23
350
31E63
  3
*A24
350
1C673
  3
*A25
350
33994
  3
*A26
350
100CC9
  3
*A27
350
3AC3D
  3
*A28
350
1AE43B
  3
*A29
350
1AE43C
  3
*A3
350
31E64
  3
*A30
350
1A00C4
  3
*A31
350
DCD6E
  3
*A32
350
F7F9E
  3
*A33
350
120900
  3
*A34
350
D1362
  3
*A35
350
31E62
  3
*A36
350
3610C
  3
*A37
350
16CDD
  3
*A38
350
3543B
  3
*A39
350
3AC3F
  3
*A4
350
1B2345
  3
*A40
350
1B2346
  3
*A41
350
E60AA
  3
*A42
350
3616A
  3
*A43
350
336CA
  3
*A44
350
19EFE3
  3
*A45
350
26F39
  3
*A46
350
EB499
  3
*A47
350
1928F
  3
*A48
350
1ACB62
  3
*A49
350
3FCA9
  3
*A5
350
169CA2
  3
*A50
350
DFCC4
  3
*A51
350
E83F5
  3
*A52
350
1ACBDB
  3
*A53
350
1ACB61
  3
*A54
350
26F38
  3
*A55
350
19F4B9
  3
*A56
350
1AD6BA
  3
*A57
350
1ACB9F
  3
*A58
350
EBAAA
  3
*A59
350
1C672
  3
*A6
350
1ADD31
  3
*A60
350
19FF1A
  3
*A61
350
1ACB9E
  3
*A62
350
352E7
  3
*A63
350
E3E76
  3
*A64
350
1ACBDC
  3
*A65
350
1A02C3
  3
*A66
350
1A04C0
  3
*A67
350
1AD6BB
  3
*A68
350
18076
  3
*A69
350
3AC3E
  3
*A7
350
1ADD32
  3
*A70
350
26F37
  3
*A71
350
33672
  3
*A72
350
26F3A
  3
*A73
350
3FCA8
  3
*A74
350
3393C
  3
*A75
350
33CE0
  3
*A76
350
DCD6D
  3
*A77
350
16971E
  3
*A78
350
16CAD
  3
*A79
350
10639A
  3
*A8
350
CCD2F
  3
*A9
350
D1E17
  0
RASTERVARIABLES
  5
2E14C8
102
{ACAD_REACTORS
330
C
102
}
330
C
100
AcDbRasterVariables
 90
        0
 70
     1
 71
     1
 72
     0
  0
DICTIONARY
  5
617
102
{ACAD_REACTORS
330
C
102
}
330
C
100
AcDbDictionary
281
     1
  3
Model
350
619
  3
ﾚｲｱｳﾄ1
350
61A
  0
DICTIONARY
  5
E
102
{ACAD_REACTORS
330
C
102
}
330
C
100
AcDbDictionary
281
     1
  3
STANDARD
350
1B
  0
DICTIONARY
  5
618
102
{ACAD_REACTORS
330
C
102
}
330
C
100
AcDbDictionary
281
     1
  0
ACDBDICTIONARYWDFLT
  5
615
102
{ACAD_REACTORS
330
C
102
}
330
C
100
AcDbDictionary
281
     1
  3
Normal
350
616
100
AcDbDictionaryWithDefault
340
616
  0
DICTIONARY
  5
66C31
102
{ACAD_REACTORS
330
C
102
}
330
C
100
AcDbDictionary
281
     1
  3
A0
350
66C32
  3
A1
350
66C33
  3
A2
350
66C34
  3
A3
350
66C35
  3
A4
350
66C36
  3
A5
350
66C37
  3
A6
350
66C38
  3
A7
350
66C39
  3
A8
350
66C3A
  3
A9
350
66C3B
  3
B0
350
66C3C
  3
B1
350
66C3D
  3
B2
350
66C3E
  3
B3
350
66C3F
  3
B4
350
66C40
  3
B5
350
66C41
  3
B6
350
66C42
  3
B7
350
66C43
  3
B8
350
66C44
  3
B9
350
66C45
  3
C0
350
66C46
  3
C1
350
66C47
  3
C2
350
66C48
  3
C3
350
66C49
  3
C4
350
66C4A
  3
C5
350
66C4B
  3
C6
350
66C4C
  3
C7
350
66C4D
  3
C8
350
66C4E
  3
C9
350
66C4F
  3
D0
350
66C50
  3
D1
350
66C51
  3
D2
350
66C52
  0
DICTIONARY
  5
2EC93F
102
{ACAD_REACTORS
330
C
102
}
330
C
100
AcDbDictionary
281
     1
  0
XRECORD
  5
12B3C
102
{ACAD_REACTORS
330
C
102
}
330
C
100
AcDbXrecord
280
     1
 90
   990106
  3
OPEN
 60
     0
 61
     0
 62
     1
 63
     3
 64
     1
 65
     0
 66
     0
 67
     3
 68
     1
 69
     0
 70
     0
 71
     0
 72
     0
 40
0.0
170
     2
340
0
  0
DICTIONARY
  5
6DE
102
{ACAD_REACTORS
330
C
102
}
330
C
100
AcDbDictionary
281
     1
  3
DIMASSOC
350
6DF
  3
INDEXCTL
350
66CB9
  3
PROJECTNAME
350
6E0
  3
SORTENTS
350
66CB8
  0
DICTIONARY
  5
2E14C6
102
{ACAD_REACTORS
330
C
102
}
330
C
100
AcDbDictionary
281
     1
  0
XRECORD
  5
2FCFB9
102
{ACAD_REACTORS
330
C
102
}
330
C
100
AcDbXrecord
280
     1
  1
DWGPROPS COOKIE
  2

  3

  4

  6

  7

  8
SPAX
  9

300
=
301
=
302
=
303
=
304
=
305
=
306
=
307
=
308
=
309
=
 40
0.0
 41
2448636.244629629
 42
2456822.467748148
  1

 90
        0
  0
DICTIONARY
  5
2FCF3D
102
{ACAD_REACTORS
330
67DE7
102
}
330
67DE7
100
AcDbDictionary
281
     1
  0
DICTIONARY
  5
67DE8
102
{ACAD_REACTORS
330
67DE7
102
}
330
67DE7
100
AcDbDictionary
281
     1
  0
XRECORD
  5
66C5C
102
{ACAD_REACTORS
330
66C5B
102
}
330
66C5B
100
AcDbXrecord
280
     1
290
     1
  0
XRECORD
  5
66C62
102
{ACAD_REACTORS
330
66C61
102
}
330
66C61
100
AcDbXrecord
280
     1
290
     1
  0
XRECORD
  5
66C68
102
{ACAD_REACTORS
330
66C67
102
}
330
66C67
100
AcDbXrecord
280
     1
290
     1
  0
SORTENTSTABLE
  5
845D6
102
{ACAD_REACTORS
330
845D5
102
}
330
845D5
100
AcDbSortentsTable
330
18
331
11B04
  5
11B04
331
12B3E
  5
12B3E
  0
XRECORD
  5
2E14A2
102
{ACAD_REACTORS
330
1B39D7
102
}
330
1B39D7
100
AcDbXrecord
280
     1
102
VISUALSTYLE
340
0
102
GRIDDISPLAY
 70
     2
102
GRIDMAJOR
 70
     5
102
DEFAULTLIGHTING
280
     1
102
DEFAULTLIGHTINGTYPE
 70
     1
102
BRIGHTNESS
141
0.0
102
CONTRAST
142
0.0
  0
XRECORD
  5
1B39D8
102
{ACAD_REACTORS
330
1B39D7
102
}
330
1B39D7
100
AcDbXrecord
280
     1
 90
        1
340
66C32
  0
XRECORD
  5
2E14A3
102
{ACAD_REACTORS
330
1B39DB
102
}
330
1B39DB
100
AcDbXrecord
280
     1
102
VISUALSTYLE
340
0
102
GRIDDISPLAY
 70
     3
102
GRIDMAJOR
 70
     5
102
DEFAULTLIGHTING
280
     1
102
DEFAULTLIGHTINGTYPE
 70
     1
102
BRIGHTNESS
141
0.0
102
CONTRAST
142
0.0
  0
XRECORD
  5
1B39DC
102
{ACAD_REACTORS
330
1B39DB
102
}
330
1B39DB
100
AcDbXrecord
280
     1
 90
        1
340
66C32
  0
GROUP
  5
11444
102
{ACAD_REACTORS
330
D
102
}
330
D
100
AcDbGroup
300

 70
     1
 71
     1
  0
GROUP
  5
EE85E
102
{ACAD_REACTORS
330
D
102
}
330
D
100
AcDbGroup
300

 70
     1
 71
     1
  0
GROUP
  5
3AC40
102
{ACAD_REACTORS
330
D
102
}
330
D
100
AcDbGroup
300

 70
     1
 71
     1
  0
GROUP
  5
10FF7C
102
{ACAD_REACTORS
330
D
102
}
330
D
100
AcDbGroup
300

 70
     1
 71
     1
  0
GROUP
  5
EE28F
102
{ACAD_REACTORS
330
D
102
}
330
D
100
AcDbGroup
300

 70
     1
 71
     1
  0
GROUP
  5
1ADE11
102
{ACAD_REACTORS
330
D
102
}
330
D
100
AcDbGroup
300

 70
     1
 71
     1
  0
GROUP
  5
1ADE12
102
{ACAD_REACTORS
330
D
102
}
330
D
100
AcDbGroup
300

 70
     1
 71
     1
  0
GROUP
  5
CF3F2
102
{ACAD_REACTORS
330
D
102
}
330
D
100
AcDbGroup
300

 70
     1
 71
     1
  0
GROUP
  5
19F05D
102
{ACAD_REACTORS
330
D
102
}
330
D
100
AcDbGroup
300

 70
     1
 71
     1
  0
GROUP
  5
1ACF6
102
{ACAD_REACTORS
330
D
102
}
330
D
100
AcDbGroup
300

 70
     1
 71
     1
  0
GROUP
  5
1ACF7
102
{ACAD_REACTORS
330
D
102
}
330
D
100
AcDbGroup
300

 70
     1
 71
     1
  0
GROUP
  5
CC1E6
102
{ACAD_REACTORS
330
D
102
}
330
D
100
AcDbGroup
300

 70
     1
 71
     1
  0
GROUP
  5
3BCF2
102
{ACAD_REACTORS
330
D
102
}
330
D
100
AcDbGroup
300

 70
     1
 71
     1
  0
GROUP
  5
31E65
102
{ACAD_REACTORS
330
D
102
}
330
D
100
AcDbGroup
300

 70
     1
 71
     1
  0
GROUP
  5
18CA7
102
{ACAD_REACTORS
330
D
102
}
330
D
100
AcDbGroup
300

 70
     1
 71
     1
  0
GROUP
  5
31E63
102
{ACAD_REACTORS
330
D
102
}
330
D
100
AcDbGroup
300

 70
     1
 71
     1
  0
GROUP
  5
1C673
102
{ACAD_REACTORS
330
D
102
}
330
D
100
AcDbGroup
300

 70
     1
 71
     1
  0
GROUP
  5
33994
102
{ACAD_REACTORS
330
D
102
}
330
D
100
AcDbGroup
300

 70
     1
 71
     1
  0
GROUP
  5
100CC9
102
{ACAD_REACTORS
330
D
102
}
330
D
100
AcDbGroup
300

 70
     1
 71
     1
  0
GROUP
  5
3AC3D
102
{ACAD_REACTORS
330
D
102
}
330
D
100
AcDbGroup
300

 70
     1
 71
     1
  0
GROUP
  5
1AE43B
102
{ACAD_REACTORS
330
D
102
}
330
D
100
AcDbGroup
300

 70
     1
 71
     1
  0
GROUP
  5
1AE43C
102
{ACAD_REACTORS
330
D
102
}
330
D
100
AcDbGroup
300

 70
     1
 71
     1
  0
GROUP
  5
31E64
102
{ACAD_REACTORS
330
D
102
}
330
D
100
AcDbGroup
300

 70
     1
 71
     1
  0
GROUP
  5
1A00C4
102
{ACAD_REACTORS
330
D
102
}
330
D
100
AcDbGroup
300

 70
     1
 71
     1
  0
GROUP
  5
DCD6E
102
{ACAD_REACTORS
330
D
102
}
330
D
100
AcDbGroup
300

 70
     1
 71
     1
  0
GROUP
  5
F7F9E
102
{ACAD_REACTORS
330
D
102
}
330
D
100
AcDbGroup
300

 70
     1
 71
     1
  0
GROUP
  5
120900
102
{ACAD_REACTORS
330
D
102
}
330
D
100
AcDbGroup
300

 70
     1
 71
     1
  0
GROUP
  5
D1362
102
{ACAD_REACTORS
330
D
102
}
330
D
100
AcDbGroup
300

 70
     1
 71
     1
  0
GROUP
  5
31E62
102
{ACAD_REACTORS
330
D
102
}
330
D
100
AcDbGroup
300

 70
     1
 71
     1
  0
GROUP
  5
3610C
102
{ACAD_REACTORS
330
D
102
}
330
D
100
AcDbGroup
300

 70
     1
 71
     1
  0
GROUP
  5
16CDD
102
{ACAD_REACTORS
330
D
102
}
330
D
100
AcDbGroup
300

 70
     1
 71
     1
  0
GROUP
  5
3543B
102
{ACAD_REACTORS
330
D
102
}
330
D
100
AcDbGroup
300

 70
     1
 71
     1
  0
GROUP
  5
3AC3F
102
{ACAD_REACTORS
330
D
102
}
330
D
100
AcDbGroup
300

 70
     1
 71
     1
  0
GROUP
  5
1B2345
102
{ACAD_REACTORS
330
D
102
}
330
D
100
AcDbGroup
300

 70
     1
 71
     1
  0
GROUP
  5
1B2346
102
{ACAD_REACTORS
330
D
102
}
330
D
100
AcDbGroup
300

 70
     1
 71
     1
  0
GROUP
  5
E60AA
102
{ACAD_REACTORS
330
D
102
}
330
D
100
AcDbGroup
300

 70
     1
 71
     1
  0
GROUP
  5
3616A
102
{ACAD_REACTORS
330
D
102
}
330
D
100
AcDbGroup
300

 70
     1
 71
     1
  0
GROUP
  5
336CA
102
{ACAD_REACTORS
330
D
102
}
330
D
100
AcDbGroup
300

 70
     1
 71
     1
  0
GROUP
  5
19EFE3
102
{ACAD_REACTORS
330
D
102
}
330
D
100
AcDbGroup
300

 70
     1
 71
     1
  0
GROUP
  5
26F39
102
{ACAD_REACTORS
330
D
102
}
330
D
100
AcDbGroup
300

 70
     1
 71
     1
  0
GROUP
  5
EB499
102
{ACAD_REACTORS
330
D
102
}
330
D
100
AcDbGroup
300

 70
     1
 71
     1
  0
GROUP
  5
1928F
102
{ACAD_REACTORS
330
D
102
}
330
D
100
AcDbGroup
300

 70
     1
 71
     1
  0
GROUP
  5
1ACB62
102
{ACAD_REACTORS
330
D
102
}
330
D
100
AcDbGroup
300

 70
     1
 71
     1
  0
GROUP
  5
3FCA9
102
{ACAD_REACTORS
330
D
102
}
330
D
100
AcDbGroup
300

 70
     1
 71
     1
  0
GROUP
  5
169CA2
102
{ACAD_REACTORS
330
D
102
}
330
D
100
AcDbGroup
300

 70
     1
 71
     1
  0
GROUP
  5
DFCC4
102
{ACAD_REACTORS
330
D
102
}
330
D
100
AcDbGroup
300

 70
     1
 71
     1
  0
GROUP
  5
E83F5
102
{ACAD_REACTORS
330
D
102
}
330
D
100
AcDbGroup
300

 70
     1
 71
     1
  0
GROUP
  5
1ACBDB
102
{ACAD_REACTORS
330
D
102
}
330
D
100
AcDbGroup
300

 70
     1
 71
     1
  0
GROUP
  5
1ACB61
102
{ACAD_REACTORS
330
D
102
}
330
D
100
AcDbGroup
300

 70
     1
 71
     1
  0
GROUP
  5
26F38
102
{ACAD_REACTORS
330
D
102
}
330
D
100
AcDbGroup
300

 70
     1
 71
     1
  0
GROUP
  5
19F4B9
102
{ACAD_REACTORS
330
D
102
}
330
D
100
AcDbGroup
300

 70
     1
 71
     1
  0
GROUP
  5
1AD6BA
102
{ACAD_REACTORS
330
D
102
}
330
D
100
AcDbGroup
300

 70
     1
 71
     1
  0
GROUP
  5
1ACB9F
102
{ACAD_REACTORS
330
D
102
}
330
D
100
AcDbGroup
300

 70
     1
 71
     1
  0
GROUP
  5
EBAAA
102
{ACAD_REACTORS
330
D
102
}
330
D
100
AcDbGroup
300

 70
     1
 71
     1
  0
GROUP
  5
1C672
102
{ACAD_REACTORS
330
D
102
}
330
D
100
AcDbGroup
300

 70
     1
 71
     1
  0
GROUP
  5
1ADD31
102
{ACAD_REACTORS
330
D
102
}
330
D
100
AcDbGroup
300

 70
     1
 71
     1
  0
GROUP
  5
19FF1A
102
{ACAD_REACTORS
330
D
102
}
330
D
100
AcDbGroup
300

 70
     1
 71
     1
  0
GROUP
  5
1ACB9E
102
{ACAD_REACTORS
330
D
102
}
330
D
100
AcDbGroup
300

 70
     1
 71
     1
  0
GROUP
  5
352E7
102
{ACAD_REACTORS
330
D
102
}
330
D
100
AcDbGroup
300

 70
     1
 71
     1
  0
GROUP
  5
E3E76
102
{ACAD_REACTORS
330
D
102
}
330
D
100
AcDbGroup
300

 70
     1
 71
     1
  0
GROUP
  5
1ACBDC
102
{ACAD_REACTORS
330
D
102
}
330
D
100
AcDbGroup
300

 70
     1
 71
     1
  0
GROUP
  5
1A02C3
102
{ACAD_REACTORS
330
D
102
}
330
D
100
AcDbGroup
300

 70
     1
 71
     1
  0
GROUP
  5
1A04C0
102
{ACAD_REACTORS
330
D
102
}
330
D
100
AcDbGroup
300

 70
     1
 71
     1
  0
GROUP
  5
1AD6BB
102
{ACAD_REACTORS
330
D
102
}
330
D
100
AcDbGroup
300

 70
     1
 71
     1
  0
GROUP
  5
18076
102
{ACAD_REACTORS
330
D
102
}
330
D
100
AcDbGroup
300

 70
     1
 71
     1
  0
GROUP
  5
3AC3E
102
{ACAD_REACTORS
330
D
102
}
330
D
100
AcDbGroup
300

 70
     1
 71
     1
  0
GROUP
  5
1ADD32
102
{ACAD_REACTORS
330
D
102
}
330
D
100
AcDbGroup
300

 70
     1
 71
     1
  0
GROUP
  5
26F37
102
{ACAD_REACTORS
330
D
102
}
330
D
100
AcDbGroup
300

 70
     1
 71
     1
  0
GROUP
  5
33672
102
{ACAD_REACTORS
330
D
102
}
330
D
100
AcDbGroup
300

 70
     1
 71
     1
  0
GROUP
  5
26F3A
102
{ACAD_REACTORS
330
D
102
}
330
D
100
AcDbGroup
300

 70
     1
 71
     1
  0
GROUP
  5
3FCA8
102
{ACAD_REACTORS
330
D
102
}
330
D
100
AcDbGroup
300

 70
     1
 71
     1
  0
GROUP
  5
3393C
102
{ACAD_REACTORS
330
D
102
}
330
D
100
AcDbGroup
300

 70
     1
 71
     1
  0
GROUP
  5
33CE0
102
{ACAD_REACTORS
330
D
102
}
330
D
100
AcDbGroup
300

 70
     1
 71
     1
  0
GROUP
  5
DCD6D
102
{ACAD_REACTORS
330
D
102
}
330
D
100
AcDbGroup
300

 70
     1
 71
     1
  0
GROUP
  5
16971E
102
{ACAD_REACTORS
330
D
102
}
330
D
100
AcDbGroup
300

 70
     1
 71
     1
  0
GROUP
  5
16CAD
102
{ACAD_REACTORS
330
D
102
}
330
D
100
AcDbGroup
300

 70
     1
 71
     1
  0
GROUP
  5
10639A
102
{ACAD_REACTORS
330
D
102
}
330
D
100
AcDbGroup
300

 70
     1
 71
     1
  0
GROUP
  5
CCD2F
102
{ACAD_REACTORS
330
D
102
}
330
D
100
AcDbGroup
300

 70
     1
 71
     1
  0
GROUP
  5
D1E17
102
{ACAD_REACTORS
330
D
102
}
330
D
100
AcDbGroup
300

 70
     1
 71
     1
  0
LAYOUT
  5
619
102
{ACAD_REACTORS
330
617
102
}
330
617
100
AcDbPlotSettings
  1

  2
FX ApeosPort-IV C3370
  4
A3
  6

 40
4.900083065032959
 41
4.857729434967041
 42
4.900054931640625
 43
4.90008544921875
 44
297.0106506347656
 45
419.9889831542969
 46
-88.40106376049496
 47
59.44429177742131
 48
6163.24875707645
 49
-660.4458838148748
140
6583.24875707645
141
-363.4458838148748
142
1.0
143
1.0
 70
 11940
 72
     1
 73
     0
 74
     0
  7
spax form.ctb
 75
     0
147
0.6970816258083734
148
-60.86507950735557
149
5901.193907824338
100
AcDbLayout
  1
Model
 70
     1
 71
     0
 10
0.0
 20
0.0
 11
12.0
 21
9.0
 12
0.0
 22
0.0
 32
0.0
 14
10485.96016687845
 24
-10001.38930693694
 34
0.0
 15
10673.16016687845
 25
-9750.222506066068
 35
0.0000000000378232
146
0.0
 13
0.0
 23
0.0
 33
0.0
 16
1.0
 26
0.0
 36
0.0
 17
0.0
 27
1.0
 37
0.0
 76
     0
330
18
331
2FCF3E
1001
ACAD_PSEXT
1000
FX ApeosPort-IV C3370
1000
FX ApeosPort-IV C3370
1000
IP_192.168.6.107
1000

1070
     0
  0
LAYOUT
  5
61A
102
{ACAD_REACTORS
330
617
102
}
102
{ACAD_XDICTIONARY
360
1B39E4
102
}
330
617
100
AcDbPlotSettings
  1

  2
none_device
  4
Letter_(8.50_x_11.00_Inches)
  6

 40
6.349999904632568
 41
6.349999904632568
 42
6.350006103515625
 43
6.350006103515625
 44
215.8999938964844
 45
279.3999938964844
 46
0.0
 47
0.0
 48
0.0
 49
0.0
140
0.0
141
0.0
142
1.0
143
1.0
 70
   688
 72
     0
 73
     1
 74
     5
  7
spax form.ctb
 75
    16
147
1.0
148
0.0
149
0.0
100
AcDbLayout
  1
ﾚｲｱｳﾄ1
 70
     0
 71
     1
 10
-0.2500002402958907
 20
-0.2499999962453767
 11
10.74999951940822
 21
8.249999763458733
 12
0.0
 22
0.0
 32
0.0
 14
1.049999952316284
 24
0.7999999523162842
 34
0.0
 15
9.44999957084656
 25
7.199999570846559
 35
0.0
146
0.0
 13
0.0
 23
0.0
 33
0.0
 16
1.0
 26
0.0
 36
0.0
 17
0.0
 27
1.0
 37
0.0
 76
     0
330
15
331
1B39D6
1001
ACAD_PSEXT
1000
なし
1000
なし
1000
適切ではありません
1000
新しいプロッタ環境設定名を選択しない限り、レイアウトは印刷されません。
1070
     0
  0
MLINESTYLE
  5
1B
102
{ACAD_REACTORS
330
E
102
}
330
E
100
AcDbMlineStyle
  2
STANDARD
 70
     0
  3

 62
     0
 51
90.0
 52
90.0
 71
     2
 49
0.5
 62
   256
  6
BYLAYER
 49
-0.5
 62
   256
  6
BYLAYER
  0
ACDBPLACEHOLDER
  5
616
102
{ACAD_REACTORS
330
615
102
}
330
615
  0
SCALE
  5
66C32
102
{ACAD_REACTORS
330
66C31
102
}
330
66C31
100
AcDbScale
 70
     0
300
1:1
140
1.0
141
1.0
290
     1
1001
ACAD
1000
AcRTDxfName
1000
SCALE
  0
SCALE
  5
66C33
102
{ACAD_REACTORS
330
66C31
102
}
330
66C31
100
AcDbScale
 70
     0
300
1:2
140
1.0
141
2.0
290
     0
1001
ACAD
1000
AcRTDxfName
1000
SCALE
  0
SCALE
  5
66C34
102
{ACAD_REACTORS
330
66C31
102
}
330
66C31
100
AcDbScale
 70
     0
300
1:4
140
1.0
141
4.0
290
     0
1001
ACAD
1000
AcRTDxfName
1000
SCALE
  0
SCALE
  5
66C35
102
{ACAD_REACTORS
330
66C31
102
}
330
66C31
100
AcDbScale
 70
     0
300
1:5
140
1.0
141
5.0
290
     0
1001
ACAD
1000
AcRTDxfName
1000
SCALE
  0
SCALE
  5
66C36
102
{ACAD_REACTORS
330
66C31
102
}
330
66C31
100
AcDbScale
 70
     0
300
1:8
140
1.0
141
8.0
290
     0
1001
ACAD
1000
AcRTDxfName
1000
SCALE
  0
SCALE
  5
66C37
102
{ACAD_REACTORS
330
66C31
102
}
330
66C31
100
AcDbScale
 70
     0
300
1:10
140
1.0
141
10.0
290
     0
1001
ACAD
1000
AcRTDxfName
1000
SCALE
  0
SCALE
  5
66C38
102
{ACAD_REACTORS
330
66C31
102
}
330
66C31
100
AcDbScale
 70
     0
300
1:16
140
1.0
141
16.0
290
     0
1001
ACAD
1000
AcRTDxfName
1000
SCALE
  0
SCALE
  5
66C39
102
{ACAD_REACTORS
330
66C31
102
}
330
66C31
100
AcDbScale
 70
     0
300
1:20
140
1.0
141
20.0
290
     0
1001
ACAD
1000
AcRTDxfName
1000
SCALE
  0
SCALE
  5
66C3A
102
{ACAD_REACTORS
330
66C31
102
}
330
66C31
100
AcDbScale
 70
     0
300
1:30
140
1.0
141
30.0
290
     0
1001
ACAD
1000
AcRTDxfName
1000
SCALE
  0
SCALE
  5
66C3B
102
{ACAD_REACTORS
330
66C31
102
}
330
66C31
100
AcDbScale
 70
     0
300
1:40
140
1.0
141
40.0
290
     0
1001
ACAD
1000
AcRTDxfName
1000
SCALE
  0
SCALE
  5
66C3C
102
{ACAD_REACTORS
330
66C31
102
}
330
66C31
100
AcDbScale
 70
     0
300
1:50
140
1.0
141
50.0
290
     0
1001
ACAD
1000
AcRTDxfName
1000
SCALE
  0
SCALE
  5
66C3D
102
{ACAD_REACTORS
330
66C31
102
}
330
66C31
100
AcDbScale
 70
     0
300
1:100
140
1.0
141
100.0
290
     0
1001
ACAD
1000
AcRTDxfName
1000
SCALE
  0
SCALE
  5
66C3E
102
{ACAD_REACTORS
330
66C31
102
}
330
66C31
100
AcDbScale
 70
     0
300
2:1
140
2.0
141
1.0
290
     0
1001
ACAD
1000
AcRTDxfName
1000
SCALE
  0
SCALE
  5
66C3F
102
{ACAD_REACTORS
330
66C31
102
}
330
66C31
100
AcDbScale
 70
     0
300
4:1
140
4.0
141
1.0
290
     0
1001
ACAD
1000
AcRTDxfName
1000
SCALE
  0
SCALE
  5
66C40
102
{ACAD_REACTORS
330
66C31
102
}
330
66C31
100
AcDbScale
 70
     0
300
8:1
140
8.0
141
1.0
290
     0
1001
ACAD
1000
AcRTDxfName
1000
SCALE
  0
SCALE
  5
66C41
102
{ACAD_REACTORS
330
66C31
102
}
330
66C31
100
AcDbScale
 70
     0
300
10:1
140
10.0
141
1.0
290
     0
1001
ACAD
1000
AcRTDxfName
1000
SCALE
  0
SCALE
  5
66C42
102
{ACAD_REACTORS
330
66C31
102
}
330
66C31
100
AcDbScale
 70
     0
300
100:1
140
100.0
141
1.0
290
     0
1001
ACAD
1000
AcRTDxfName
1000
SCALE
  0
SCALE
  5
66C43
102
{ACAD_REACTORS
330
66C31
102
}
330
66C31
100
AcDbScale
 70
     0
300
1/128" = 1'-0"
140
0.0078125
141
12.0
290
     0
1001
ACAD
1000
AcRTDxfName
1000
SCALE
  0
SCALE
  5
66C44
102
{ACAD_REACTORS
330
66C31
102
}
330
66C31
100
AcDbScale
 70
     0
300
1/64" = 1'-0"
140
0.015625
141
12.0
290
     0
1001
ACAD
1000
AcRTDxfName
1000
SCALE
  0
SCALE
  5
66C45
102
{ACAD_REACTORS
330
66C31
102
}
330
66C31
100
AcDbScale
 70
     0
300
1/32" = 1'-0"
140
0.03125
141
12.0
290
     0
1001
ACAD
1000
AcRTDxfName
1000
SCALE
  0
SCALE
  5
66C46
102
{ACAD_REACTORS
330
66C31
102
}
330
66C31
100
AcDbScale
 70
     0
300
1/16" = 1'-0"
140
0.0625
141
12.0
290
     0
1001
ACAD
1000
AcRTDxfName
1000
SCALE
  0
SCALE
  5
66C47
102
{ACAD_REACTORS
330
66C31
102
}
330
66C31
100
AcDbScale
 70
     0
300
3/32" = 1'-0"
140
0.09375
141
12.0
290
     0
1001
ACAD
1000
AcRTDxfName
1000
SCALE
  0
SCALE
  5
66C48
102
{ACAD_REACTORS
330
66C31
102
}
330
66C31
100
AcDbScale
 70
     0
300
1/8" = 1'-0"
140
0.125
141
12.0
290
     0
1001
ACAD
1000
AcRTDxfName
1000
SCALE
  0
SCALE
  5
66C49
102
{ACAD_REACTORS
330
66C31
102
}
330
66C31
100
AcDbScale
 70
     0
300
3/16" = 1'-0"
140
0.1875
141
12.0
290
     0
1001
ACAD
1000
AcRTDxfName
1000
SCALE
  0
SCALE
  5
66C4A
102
{ACAD_REACTORS
330
66C31
102
}
330
66C31
100
AcDbScale
 70
     0
300
1/4" = 1'-0"
140
0.25
141
12.0
290
     0
1001
ACAD
1000
AcRTDxfName
1000
SCALE
  0
SCALE
  5
66C4B
102
{ACAD_REACTORS
330
66C31
102
}
330
66C31
100
AcDbScale
 70
     0
300
3/8" = 1'-0"
140
0.375
141
12.0
290
     0
1001
ACAD
1000
AcRTDxfName
1000
SCALE
  0
SCALE
  5
66C4C
102
{ACAD_REACTORS
330
66C31
102
}
330
66C31
100
AcDbScale
 70
     0
300
1/2" = 1'-0"
140
0.5
141
12.0
290
     0
1001
ACAD
1000
AcRTDxfName
1000
SCALE
  0
SCALE
  5
66C4D
102
{ACAD_REACTORS
330
66C31
102
}
330
66C31
100
AcDbScale
 70
     0
300
3/4" = 1'-0"
140
0.75
141
12.0
290
     0
1001
ACAD
1000
AcRTDxfName
1000
SCALE
  0
SCALE
  5
66C4E
102
{ACAD_REACTORS
330
66C31
102
}
330
66C31
100
AcDbScale
 70
     0
300
1" = 1'-0"
140
1.0
141
12.0
290
     0
1001
ACAD
1000
AcRTDxfName
1000
SCALE
  0
SCALE
  5
66C4F
102
{ACAD_REACTORS
330
66C31
102
}
330
66C31
100
AcDbScale
 70
     0
300
1-1/2" = 1'-0"
140
1.5
141
12.0
290
     0
1001
ACAD
1000
AcRTDxfName
1000
SCALE
  0
SCALE
  5
66C50
102
{ACAD_REACTORS
330
66C31
102
}
330
66C31
100
AcDbScale
 70
     0
300
3" = 1'-0"
140
3.0
141
12.0
290
     0
1001
ACAD
1000
AcRTDxfName
1000
SCALE
  0
SCALE
  5
66C51
102
{ACAD_REACTORS
330
66C31
102
}
330
66C31
100
AcDbScale
 70
     0
300
6" = 1'-0"
140
6.0
141
12.0
290
     0
1001
ACAD
1000
AcRTDxfName
1000
SCALE
  0
SCALE
  5
66C52
102
{ACAD_REACTORS
330
66C31
102
}
330
66C31
100
AcDbScale
 70
     0
300
1'-0" = 1'-0"
140
12.0
141
12.0
290
     0
1001
ACAD
1000
AcRTDxfName
1000
SCALE
  0
DICTIONARYVAR
  5
6DF
102
{ACAD_REACTORS
330
6DE
102
}
330
6DE
100
DictionaryVariables
280
     0
  1
1
  0
DICTIONARYVAR
  5
66CB9
102
{ACAD_REACTORS
330
6DE
102
}
330
6DE
100
DictionaryVariables
280
     0
  1
0
  0
DICTIONARYVAR
  5
6E0
102
{ACAD_REACTORS
330
6DE
102
}
330
6DE
100
DictionaryVariables
280
     0
  1

  0
DICTIONARYVAR
  5
66CB8
102
{ACAD_REACTORS
330
6DE
102
}
330
6DE
100
DictionaryVariables
280
     0
  1
127
  0
DICTIONARY
  5
1B39E4
330
61A
100
AcDbDictionary
280
     1
281
     1
  3
ADSK_XREC_LAYOUTTHUMBNAIL
360
1B39E5
  0
XRECORD
  5
1B39E5
102
{ACAD_REACTORS
330
1B39E4
102
}
330
1B39E4
100
AcDbXrecord
280
     1
310
28000000B40000008B0000000100080000000000BC61000000000000000000000001000000000000FFFFFF0000000000FFFFFF000000000000000000000000000000000000000000000000000000000000000000330000006600000099000000CC000000FF00000000330000333300006633000099330000CC330000FF3300
310
0000660000336600006666000099660000CC660000FF66000000990000339900006699000099990000CC990000FF99000000CC000033CC000066CC000099CC0000CCCC0000FFCC000000FF000033FF000066FF000099FF0000CCFF0000FFFF000000003300330033006600330099003300CC003300FF003300003333003333
310
33006633330099333300CC333300FF33330000663300336633006666330099663300CC663300FF66330000993300339933006699330099993300CC993300FF99330000CC330033CC330066CC330099CC3300CCCC3300FFCC330000FF330033FF330066FF330099FF3300CCFF3300FFFF330000006600330066006600660099
310
006600CC006600FF00660000336600333366006633660099336600CC336600FF33660000666600336666006666660099666600CC666600FF66660000996600339966006699660099996600CC996600FF99660000CC660033CC660066CC660099CC6600CCCC6600FFCC660000FF660033FF660066FF660099FF6600CCFF6600
310
FFFF660000009900330099006600990099009900CC009900FF00990000339900333399006633990099339900CC339900FF33990000669900336699006666990099669900CC669900FF66990000999900339999006699990099999900CC999900FF99990000CC990033CC990066CC990099CC9900CCCC9900FFCC990000FF99
310
0033FF990066FF990099FF9900CCFF9900FFFF99000000CC003300CC006600CC009900CC00CC00CC00FF00CC000033CC003333CC006633CC009933CC00CC33CC00FF33CC000066CC003366CC006666CC009966CC00CC66CC00FF66CC000099CC003399CC006699CC009999CC00CC99CC00FF99CC0000CCCC0033CCCC0066CC
310
CC0099CCCC00CCCCCC00FFCCCC0000FFCC0033FFCC0066FFCC0099FFCC00CCFFCC00FFFFCC000000FF003300FF006600FF009900FF00CC00FF00FF00FF000033FF003333FF006633FF009933FF00CC33FF00FF33FF000066FF003366FF006666FF009966FF00CC66FF00FF66FF000099FF003399FF006699FF009999FF00CC
310
99FF00FF99FF0000CCFF0033CCFF0066CCFF0099CCFF00CCCCFF00FFCCFF0000FFFF0033FFFF0066FFFF0099FFFF00CCFFFF00FFFFFF00000000000D0D0D001A1A1A00282828003535350043434300505050005D5D5D006B6B6B00787878008686860093939300A1A1A100AEAEAE00BBBBBB00C9C9C900D6D6D600E4E4E400
310
F1F1F100FFFFFF0000000000000000000000000000000000000000000000000000000000000000000000000000000000E2E2E2E2E2E2E2E2E2E2E2E2E2E2E2E2E2E2E2E2E2E2E2E2E2E2E2E2E2E2E2E2E2E2E2E2E2E2E2E2E2E2E2E2E2E2E2E2E2E2E2E2E2E2E2E2E2E2E2E2E2E2E2E2E2E2E2E2E2E2E2E2E2E2E2E2E2E2E2
310
E2E2E2E2E2E2E2E2E2E2E2E2E2E2E2E2E2E2E2E2E2E2E2E2E2E2E2E2E2E2E2E2E2E2E2E2E2E2E2E2E2E2E2E2E2E2E2E2E2E2E2E2E2E2E2E2E2E2E2E2E2E2E2E2E2E2E2E2E2E2E2E2E2E2E2E2E2E2E2E2E2E2E2E2E2E2E2E2E2E2E2E2E2E2E2E2E2E2E2E2EFE2F5F5F5F5F5F5F5F5F5F5F5F5F5F5F5F5F5F5F5F5F5F5F5F5F5
310
F5F5F5F5F5F5F5F5F5F5F5F5F5F5F5F5F5F5F5F5F5F5F5F5F5F5F5F5F5F5F5F5F5F5F5F5F5F5F5F5F5F5F5F5F5F5F5F5F5F5F5F5F5F5F5F5F5F5F5F5F5F5F5F5F5F5F5F5F5F5F5F5F5F5F5F5F5F5F5F5F5F5F5F5F5F5F5F5F5F5F5F5F5F5F5F5F5F5F5F5F5F5F5F5F5F5F5F5F5F5F5F5F5F5F5F5F5F5F5F5F5F5F5F5F5F5F5
310
F5F5F5F5F5F5F5F5F5F5F5F5F5F5F5F5F5F5F5F5F5F5F5F5E2E2EFE2F5F5F5F5F5F5F5F5F5F5F5F5F5F5F5F5F5F5F5F5F5F5F5F5F5F5F5F5F5F5F5F5F5F5F5F5F5F5F5F5F5F5F5F5F5F5F5F5F5F5F5F5F5F5F5F5F5F5F5F5F5F5F5F5F5F5F5F5F5F5F5F5F5F5F5F5F5F5F5F5F5F5F5F5F5F5F5F5F5F5F5F5F5F5F5F5F5F5F5
310
F5F5F5F5F5F5F5F5F5F5F5F5F5F5F5F5F5F5F5F5F5F5F5F5F5F5F5F5F5F5F5F5F5F5F5F5F5F5F5F5F5F5F5F5F5F5F5F5F5F5F5F5F5F5F5F5F5F5F5F5F5F5F5F5F5F5F5F5F5F5F5F5F5F5F5F5F5E2E2EFE2F5F5F5F5F5F5F5F5F5F5F5F5F5F5F5F5F5F5F5F5F5F5F5F5F5F5F5F5F5F5F5F5F5F5F5F5F5F5F5F5F5F5F5F5F5F5
310
F5F5F5F5F5F5F5F5F5F5F5F5F5F5F5F5F5F5F5F5F5F5F5F5F5F5F5F5F5F5F5F5F5F5F5F5F5F5F5F5F5F5F5F5F5F5F5F5F5F5F5F5F5F5F5F5F5F5F5F5F5F5F5F5F5F5F5F5F5F5F5F5F5F5F5F5F5F5F5F5F5F5F5F5F5F5F5F5F5F5F5F5F5F5F5F5F5F5F5F5F5F5F5F5F5F5F5F5F5F5F5F5F5F5F5F5F5F5F5F5F5F5F5F5F5F5F5
310
F5F5F5E2E2EFE2F5F5F5E2E2E2E2E2E2E2E2F5F5F5F5F5F5F5F5F5E2E2E2E2E2E2E2E2E2E2E2E2E2E2E2F5F5F5F5F5F5F5F5F5E2E2E2E2E2E2E2E2E2E2E2E2E2E2E2E2F5F5F5F5F5F5F5F5E2E2E2E2E2E2E2E2E2E2E2E2E2E2E2E2F5F5F5F5F5F5F5F5E2E2E2E2E2E2E2E2E2E2E2E2E2E2E2E2F5F5F5F5F5F5F5F5E2E2E2E2
310
E2E2E2E2E2E2E2E2E2E2E2E2F5F5F5F5F5F5F5F5F5E2E2E2E2E2E2E2E2E2E2E2E2E2E2E2F5F5F5F5F5F5F5F5F5E2E2E2E2E2E2E2E2F5F5F5E2E2EFE2F5F5F5E2F5F5F5F5F5F5F5F5F5F5F5F5F5F5F5F5F5F5F5F5F5F5F5F5F5F5F5F5F5F5F5F5F5F5F5F5F5F5F5F5F5F5F5F5F5F5F5F5F5F5F5F5F5F5F5F5F5F5F5F5F5F5F5
310
F5F5F5F5F5F5F5F5F5F5F5F5F5F5F5F5F5F5F5F5F5F5F5F5F5F5F5F5F5F5F5F5F5F5F5F5F5F5F5F5F5F5F5F5F5F5F5F5F5F5F5F5F5F5F5F5F5F5F5F5F5F5F5F5F5F5F5F5F5F5F5F5F5F5F5F5F5F5F5F5F5F5F5F5F5F5F5F5F5F5F5F5F5F5F5F5F5F5F5F5F5F5F5F5F5E2F5F5F5E2E2EFE2F5F5F5E2F5F5F5F5F5F5F5F5F5F5
310
F5F5F5F5F5F5F5F5F5F5F5F5F5F5F5F5F5F5F5F5F5F5F5F5F5F5F5F5F5F5F5F5F5F5F5F5F5F5F5F5F5F5F5F5F5F5F5F5F5F5F5F5F5F5F5F5F5F5F5F5F5F5F5F5F5F5F5F5F5F5F5F5F5F5F5F5F5F5F5F5F5F5F5F5F5F5F5F5F5F5F5F5F5F5F5F5F5F5F5F5F5F5F5F5F5F5F5F5F5F5F5F5F5F5F5F5F5F5F5F5F5F5F5F5F5F5F5
310
F5F5F5F5F5F5F5F5F5F5F5F5F5F5F5F5F5F5F5F5F5F5F5F5F5F5F5F5F5F5F5E2F5F5F5E2E2EFE2F5F5F5E2F5F5F5F5F5F5F5F5F5F5F5F5F5F5F5F5F5F5F5F5F5F5F5F5F5F5F5F5F5F5F5F5F5F5F5F5F5F5F5F5F5F5F5F5F5F5F5F5F5F5F5F5F5F5F5F5F5F5F5F5F5F5F5F5F5F5F5F5F5F5F5F5F5F5F5F5F5F5F5F5F5F5F5F5
310
F5F5F5F5F5F5F5F5F5F5F5F5F5F5F5F5F5F5F5F5F5F5F5F5F5F5F5F5F5F5F5F5F5F5F5F5F5F5F5F5F5F5F5F5F5F5F5F5F5F5F5F5F5F5F5F5F5F5F5F5F5F5F5F5F5F5F5F5F5F5F5F5F5F5F5F5F5F5F5F5F5F5F5F5E2F5F5F5E2E2EFE2F5F5F5E2F5F5F5F5F5F5F5F5F5F5F5F5F5F5F5F5F5F5F5F5F5F5F5F5F5F5F5F5F5F5F5
310
F5F5F5F5F5F5F5F5F5F5F5F5F5F5F5F5F5F5F5F5F5F5F5F5F5F5F5F5F5F5F5F5F5F5F5F5F5F5F5F5F5F5F5F5F5F5F5F5F5F5F5F5F5F5F5F5F5F5F5F5F5F5F5F5F5F5F5F5F5F5F5F5F5F5F5F5F5F5F5F5F5F5F5F5F5F5F5F5F5F5F5F5F5F5F5F5F5F5F5F5F5F5F5F5F5F5F5F5F5F5F5F5F5F5F5F5F5F5F5F5F5F5F5F5F5F5F5
310
F5F5F5F5F5F5F5F5F5F5E2F5F5F5E2E2EFE2F5F5F5E2F5F5F5F5F5F5F5F5F5F5F5F5F5F5F5F5F5F5F5F5F5F5F5F5F5F5F5F5F5F5F5F5F5F5F5F5F5F5F5F5F5F5F5F5F5F5F5F5F5F5F5F5F5F5F5F5F5F5F5F5F5F5F5F5F5F5F5F5F5F5F5F5F5F5F5F5F5F5F5F5F5F5F5F5F5F5F5F5F5F5F5F5F5F5F5F5F5F5F5F5F5F5F5F5F5
310
F5F5F5F5F5F5F5F5F5F5F5F5F5F5F5F5F5F5F5F5F5F5F5F5F5F5F5F5F5F5F5F5F5F5F5F5F5F5F5F5F5F5F5F5F5F5F5F5F5F5F5F5F5F5F5F5F5F5F5F5F5F5F5E2F5F5F5E2E2EFE2F5F5F5E2F5F5F5F5F5F5F5F5F5F5F5F5F5F5F5F5F5F5F5F5F5F5F5F5F5F5F5F5F5F5F5F5F5F5F5F5F5F5F5F5F5F5F5F5F5F5F5F5F5F5F5F5
310
F5F5F5F5F5F5F5F5F5F5F5F5F5F5F5F5F5F5F5F5F5F5F5F5F5F5F5F5F5F5F5F5F5F5F5F5F5F5F5F5F5F5F5F5F5F5F5F5F5F5F5F5F5F5F5F5F5F5F5F5F5F5F5F5F5F5F5F5F5F5F5F5F5F5F5F5F5F5F5F5F5F5F5F5F5F5F5F5F5F5F5F5F5F5F5F5F5F5F5F5F5F5F5F5F5F5F5F5F5F5F5F5F5F5F5F5E2F5F5F5E2E2EFE2F5F5F5
310
E2F5F5F5F5F5F5F5F5F5F5F5F5F5F5F5F5F5F5F5F5F5F5F5F5F5F5F5F5F5F5F5F5F5F5F5F5F5F5F5F5F5F5F5F5F5F5F5F5F5F5F5F5F5F5F5F5F5F5F5F5F5F5F5F5F5F5F5F5F5F5F5F5F5F5F5F5F5F5F5F5F5F5F5F5F5F5F5F5F5F5F5F5F5F5F5F5F5F5F5F5F5F5F5F5F5F5F5F5F5F5F5F5F5F5F5F5F5F5F5F5F5F5F5F5F5F5
310
F5F5F5F5F5F5F5F5F5F5F5F5F5F5F5F5F5F5F5F5F5F5F5F5F5F5F5F5F5F5F5F5F5F5F5F5F5F5F5F5F5F5E2F5F5F5E2E2EFE2F5F5F5E2F5F5F5F5F5F5F5F5F5F5F5F5F5F5F5F5F5F5F5F5F5F5F5F5F5F5F5F5F5F5F5F5F5F5F5F5F5F5F5F5F5F5F5F5F5F5F5F5F5F5F5F5F5F5F5F5F5F5F5F5F5F5F5F5F5F5F5F5F5F5F5F5F5
310
F5F5F5F5F5F5F5F5F5F5F5F5F5F5F5F5F5F5F5F5F5F5F5F5F5F5F5F5F5F5F5F5F5F5F5F5F5F5F5F5F5F5F5F5F5F5F5F5F5F5F5F5F5F5F5F5F5F5F5F5F5F5F5F5F5F5F5F5F5F5F5F5F5F5F5F5F5F5F5F5F5F5F5F5F5F5F5F5F5F5F5F5F5F5F5E2F5F5F5E2E2EFE2F5F5F5F5F5F5F5F5F5F5F5F5F5F5F5F5F5F5F5F5F5F5F5F5
310
F5F5F5F5F5F5F5F5F5F5F5F5F5F5F5F5F5F5F5F5F5F5F5F5F5F5F5F5F5F5F5F5F5F5F5F5F5F5F5F5F5F5F5F5F5F5F5F5F5F5F5F5F5F5F5F5F5F5F5F5F5F5F5F5F5F5F5F5F5F5F5F5F5F5F5F5F5F5F5F5F5F5F5F5F5F5F5F5F5F5F5F5F5F5F5F5F5F5F5F5F5F5F5F5F5F5F5F5F5F5F5F5F5F5F5F5F5F5F5F5F5F5F5F5F5F5F5
310
F5F5F5F5F5F5F5F5F5F5F5F5F5F5F5F5F5F5F5F5F5F5F5F5F5E2E2EFE2F5F5F5F5F5F5F5F5F5F5F5F5F5F5F5F5F5F5F5F5F5F5F5F5F5F5F5F5F5F5F5F5F5F5F5F5F5F5F5F5F5F5F5F5F5F5F5F5F5F5F5F5F5F5F5F5F5F5F5F5F5F5F5F5F5F5F5F5F5F5F5F5F5F5F5F5F5F5F5F5F5F5F5F5F5F5F5F5F5F5F5F5F5F5F5F5F5F5
310
F5F5F5F5F5F5F5F5F5F5F5F5F5F5F5F5F5F5F5F5F5F5F5F5F5F5F5F5F5F5F5F5F5F5F5F5F5F5F5F5F5F5F5F5F5F5F5F5F5F5F5F5F5F5F5F5F5F5F5F5F5F5F5F5F5F5F5F5F5F5F5F5F5F5F5F5F5F5E2E2EFE2F5F5F5F5F5F5F5F5F5F5F5F5F5F5F5F5F5F5F5F5F5F5F5F5F5F5F5F5F5F5F5F5F5F5F5F5F5F5F5F5F5F5F5F5F5
310
F5F5F5F5F5F5F5F5F5F5F5F5F5F5F5F5F5F5F5F5F5F5F5F5F5F5F5F5F5F5F5F5F5F5F5F5F5F5F5F5F5F5F5F5F5F5F5F5F5F5F5F5F5F5F5F5F5F5F5F5F5F5F5F5F5F5F5F5F5F5F5F5F5F5F5F5F5F5F5F5F5F5F5F5F5F5F5F5F5F5F5F5F5F5F5F5F5F5F5F5F5F5F5F5F5F5F5F5F5F5F5F5F5F5F5F5F5F5F5F5F5F5F5F5F5F5F5
310
F5F5F5F5E2E2EFE2F5F5F5F5F5F5F5F5F5F5F5F5F5F5F5F5F5F5F5F5F5F5F5F5F5F5F5F5F5F5F5F5F5F5F5F5F5F5F5F5F5F5F5F5F5F5F5F5F5F5F5F5F5F5F5F5F5F5F5F5F5F5F5F5F5F5F5F5F5F5F5F5F5F5F5F5F5F5F5F5F5F5F5F5F5F5F5F5F5F5F5F5F5F5F5F5F5F5F5F5F5F5F5F5F5F5F5F5F5F5F5F5F5F5F5F5F5F5F5
310
F5F5F5F5F5F5F5F5F5F5F5F5F5F5F5F5F5F5F5F5F5F5F5F5F5F5F5F5F5F5F5F5F5F5F5F5F5F5F5F5F5F5F5F5F5F5F5F5F5F5F5F5F5F5F5F5F5E2E2EFE2F5F5F5F5F5F5F5F5F5F5F5F5F5F5F5F5F5F5F5F52D2D2D2D2D2D2D2D2D2D2D2D2D2D2D2D2D2D2D2D2D2D2D2D2D2D2D2D2D2D2D2D2D2D2D2D2D2D2D2D2D2D2D2D2D2D
310
2D2D2D2D2D2D2D2D2D2D2D2D2D2D2D2D2D2D2D2D2D2D2D2D2D2D2D2D2D2D2D2D2D2D2D2D2D2D2D2D2D2D2D2D2D2D2D2D2D2D2D2D2D2D2D2D2D2D2D2D2D2D2D2D2D2D2D2D2D2D2D2D2D2D2D2D2D2D2D2D2D2D2D2D2D2D2D2D2D2DF5F5F5F5F5F5F5F5F5F5F5F5F5F5F5F5F5F5F5F5E2E2EFE2F5F5F5F5F5F5F5F5F5F5F5F5F5
310
F5F5F5F5F5F5F52DF5F5F5F5F5F5F5F5F5F5F5F5F5F5F5F5F5F5F5F5F5F5F5F5F5F5F5F5F5F5F5F5F5F5F5F5F5F5F5F5F5F5F5F5F5F5F5F5F5F5F5F5F5F5F5F5F5F5F5F5F5F5F5F5F5F5F5F5F5F5F5F5F5F5F5F5F5F5F5F5F5F5F5F5F5F5F5F5F5F5F5F5F5F5F5F5F5F5F5F5F5F5F5F5F5F5F5F5F5F5F5F5F5F5F5F5F5F5F5
310
F5F5F5F5F5F5F5F5F5F5F5F5F5F5F52DF5F5F5F5F5F5F5F5F5F5F5F5F5F5F5F5F5F5F5F5E2E2EFE2F5F5F5F5F5F5F5F5F5F5F5F5F5F5F5F5F5F5F5F52DF5F5F5F5F5F5F5F5F5F5F5F5F5F5F5F5F5F5F5F5F5F5F5F5F5F5F5F5F5F5F5F5F5F5F5F5F5F5F5F5F5F5F5F5F5F5F5F5F5F5F5F5F5F5F5F5F5F5F5F5F5F5F5F5F5F5
310
F5F5F5F5F5F5F5F5F5F5F5F5F5F5F5F5F5F5F5F5F5F5F5F5F5F5F5F5F5F5F5F5F5F5F5F5F5F5F5F5F5F5F5F5F5F5F5F5F5F5F5F5F5F5F5F5F5F5F5F5F5F5F5F5F5F5F5F52DF5F5F5F5F5F5F5F5F5F5F5F5F5F5F5F5F5F5F5F5E2E2EFE2F5F5F5F5F5F5F5F5F5F5F5F5F5F5F5F5F5F5F5F52DF5F5F5F5F5F5F5F5F5F5F5F5F5
310
F5F5F5F5F5F5F5F5F5F5F5F5F5F5F5F5F5F5F5F5F5F5F5F5F5F5F5F5F5F5F5F5F5F5F5F5F5F5F5F5F5F5F5F5F5F5F5F5F5F5F5F5F5F5F5F5F5F5F5F5F5F5F5F5F5F5F5F5F5F5F5F5F5F5F5F5F5F5F5F5F5F5F5F5F5F5F5F5F5F5F5F5F5F5F5F5F5F5F5F5F5F5F5F5F5F5F5F5F5F5F5F5F5F5F5F5F5F5F5F5F52DF5F5F5F5F5
310
F5F5F5F5F5F5F5F5F5F5F5F5F5F5F5E2E2EFE2F5F5F5F5F5F5F5F5F5F5F5F5F5F5F5F5F5F5F5F52DF5F5F5F5F5F5F5F5F5F5F5F5F5F5F5F5F5F5F5F5F5F5F5F5F5F5F5F5F5F5F5F5F5F5F5F5F5F5F5F5F5F5F5F5F5F5F5F5F5F5F5F5F5F5F5F5F5F5F5F5F5F5F5F5F5F5F5F5F5F5F5F5F5F5F5F5F5F5F5F5F5F5F5F5F5F5F5
310
F5F5F5F5F5F5F5F5F5F5F5F5F5F5F5F5F5F5F5F5F5F5F5F5F5F5F5F5F5F5F5F5F5F5F5F5F5F5F5F5F5F5F5F5F5F5F52DF5F5F5F5F5F5F5F5F5F5F5F5F5F5F5F5F5F5F5F5E2E2EFE2F5F5F5E2F5F5F5F5F5F5F5F5F5F5F5F5F5F5F5F52DF5F5F5F5F5F5F5F5F5F5F5F5F5F5F5F5F5F5F5F5F5F5F5F5F5F5F5F5F5F5F5F5F5F5
310
F5F5F5F5F5F5F5F5F5F5F5F5F5F5F5F5F5F5F5F5F5F5F5F5F5F5F5F5F5F5F5F5F5F5F5F5F5F5F5F5F5F5F5F5F5F5F5F5F5F5F5F5F5F5F5F5F5F5F5F5F5F5F5F5F5F5F5F5F5F5F5F5F5F5F5F5F5F5F5F5F5F5F5F5F5F5F5F5F5F5F5F5F5F5F5F5F5F5F5F52DF5F5F5F5F5F5F5F5F5F5F5F5F5F5F5F5E2F5F5F5E2E2EFE2F5F5
310
F5E2F5F5F5F5F5F5F5F5F5F5F5F5F5F5F5F52DF5F5F5F5F5F5F5F5F5F5F5F5F5F5F5F5F5F5F5F5F5F5F5F5F5F5F5F5F5F5F5F5F5F5F5F5F5F5F5F5F5F5F5F5F5F5F5F5F5F5F5F5F5F5F5F5F5F5F5F5F5F5F5F5F5F5F5F5F5F5F5F5F5F5F5F5F5F5F5F5F5F5F5F5F5F5F5F5F5F5F5F5F5F5F5F5F5F5F5F5F5F5F5F5F5F5F5F5
310
F5F5F5F5F5F5F5F5F5F5F5F5F5F5F5F5F5F5F5F5F5F5F5F5F5F52DF5F5F5F5F5F5F5F5F5F5F5F5F5F5F5F5E2F5F5F5E2E2EFE2F5F5F5E2F5F5F5F5F5F5F5F5F5F5F5F5F5F5F5F52DF5F5F5F5F5F5F5F5F5F5F5F5F5F5F5F5F5F5F5F5F5F5F5F5F5F5F5F5F5F5F5F5F5F5F5F5F5F5F5F5F5F5F5F5F5F5F5F5F5F5F5F5F5F5F5
310
F5F5F5F5F5F5F5F5F5F5F5F5F5F5F5F5F5F5F5F5F5F5F5F5F5F5F5F5F5F5F5F5F5F5F5F5F5F5F5F5F5F5F5F5F5F5F5F5F5F5F5F5F5F5F5F5F5F5F5F5F5F5F5F5F5F5F5F5F5F5F5F5F5F5F5F5F5F5F52DF5F5F5F5F5F5F5F5F5F5F5F5F5F5F5F5E2F5F5F5E2E2EFE2F5F5F5E2F5F5F5F5F5F5F5F5F5F5F5F5F5F5F5F52DF5F5
310
F5F5F5F5F5F5F5F5F5F5F5F5F5F5F5F5F5F5F5F5F5F5F5F5F5F5F5F5F5F5F5F5F5F5F5F5F5F5F5F5F5F5F5F5F5F5F5F5F5F5F5F5F5F5F5F5F5F5F5F5F5F5F5F5F5F5F5F5F5F5F5F5F5F5F5F5F5F5F5F5F5F5F5F5F5F5F5F5F5F5F5F5F5F5F5F5F5F5F5F5F5F5F5F5F5F5F5F5F5F5F5F5F5F5F5F5F5F5F5F5F5F5F5F5F5F5F5
310
F5F5F5F5F52DF5F5F5F5F5F5F5F5F5F5F5F5F5F5F5F5E2F5F5F5E2E2EFE2F5F5F5E2F5F5F5F5F5F5F5F5F5F5F5F5F5F5F5F52DF5F5F5F5F5F5F5F5F5F5F5F5F5F5F5F5F5F5F5F5F5F5F5F5F5F5F5F5F5F5F5F5F5F5F5F5F5F5F5F5F5F5F5F5F5F5F5F5F5F5F5F5F5F5F5F5F5F5F5F5F5F5F5F5F5F5F5F5F5F5F5F5F5F5F5F5
310
F5F5F5F5F5F5F5F5F5F5F5F5F5F5F5F5F5F5F5F5F5F5F5F5F5F5F5F5F5F5F5F5F5F5F5F5F5F5F5F5F5F5F5F5F5F5F5F5F5F5F5F5F5F5F5F5F5F52DF5F5F5F5F5F5F5F5F5F5F5F5F5F5F5F5E2F5F5F5E2E2EFE2F5F5F5E2F5F5F5F5F5F5F5F5F5F5F5F5F5F5F5F52DF5F5F5F5F5F5F5F5F5F5F5F5F5F5F5F5F5F5F5F5F5F5F5
310
F5F5F5F5F5F5F5F5F5F5F5F5F5F5F5F5F5F5F5F5F5F5F5F5F5F5F5F5F5F5F5F5F5F5F5F5F5F5F5F5F5F5F5F5F5F5F5F5F5F5F5F5F5F5F5F5F5F5F5F5F5F5F5F5F5F5F5F5F5F5F5F5F5F5F5F5F5F5F5F5F5F5F5F5F5F5F5F5F5F5F5F5F5F5F5F5F5F5F5F5F5F5F5F5F5F5F5F5F5F5F52DF5F5F5F5F5F5F5F5F5F5F5F5F5F5F5
310
F5E2F5F5F5E2E2EFE2F5F5F5E2F5F5F5F5F5F5F5F5F5F5F5F5F5F5F5F52DF5F5F5F5F5F5F5F5F5F5F5F5F5F5F5F5F5F5F5F5F5F5F5F5F5F5F5F5F5F5F5F5F5F5F5F5F5F5F5F5F5F5F5F5F5F5F5F5F5F5F5F5F5F5F5F5F5F5F5F5F5F5F5F5F5F5F5F5F5F5F5F5F5F5F5F5F5F5F5F5F5F5F5F5F5F5F5F5F5F5F5F5F5F5F5F5F5
310
F5F5F5F5F5F5F5F5F5F5F5F5F5F5F5F5F5F5F5F5F5F5F5F5F5F5F5F5F5F5F5F5F5F5F5F5F52DF5F5F5F5F5F5F5F5F5F5F5F5F5F5F5F5E2F5F5F5E2E2EFE2F5F5F5E2F5F5F5F5F5F5F5F5F5F5F5F5F5F5F5F52DF5F5F5F5F5F5F5F5F5F5F5F5F5F5F5F5F5F5F5F5F5F5F5F5F5F5F5F5F5F5F5F5F5F5F5F5F5F5F5F5F5F5F5F5
310
F5F5F5F5F5F5F5F5F5F5F5F5F5F5F5F5F5F5F5F5F5F5F5F5F5F5F5F5F5F5F5F5F5F5F5F5F5F5F5F5F5F5F5F5F5F5F5F5F5F5F5F5F5F5F5F5F5F5F5F5F5F5F5F5F5F5F5F5F5F5F5F5F5F5F5F5F5F5F5F5F5F5F5F5F5F5F5F5F5F52DF5F5F5F5F5F5F5F5F5F5F5F5F5F5F5F5E2F5F5F5E2E2EFE2F5F5F5E2F5F5F5F5F5F5F5F5
310
F5F5F5F5F5F5F5F52DF5F5F5F5F5F5F5F5F5F5F5F5F5F5F5F5F5F5F5F5F5F5F5F5F5F5F5F5F5F5F5F5F5F5F5F5F5F5F5F5F5F5F5F5F5F5F5F5F5F5F5F5F5F5F5F5F5F5F5F5F5F5F5F5F5F5F5F5F5F5F5F5F5F5F5F5F5F5F5F5F5F5F5F5F5F5F5F5F5F5F5F5F5F5F5F5F5F5F5F5F5F5F5F5F5F5F5F5F5F5F5F5F5F5F5F5F5F5
310
F5F5F5F5F5F5F5F5F5F5F5F5F5F5F5F52DF5F5F5F5F5F5F5F5F5F5F5F5F5F5F5F5E2F5F5F5E2E2EFE2F5F5F5E2F5F5F5F5F5F5F5F5F5F5F5F5F5F5F5F52DF5F5F5F5F5F5F5F5F5F5F5F5F5F5F5F5F5F5F5F5F5F5F5F5F5F5F5F5F5F5F5F5F5F5F5F5F5F5F5F5F5F5F5F5F5F5F5F5F5F5F5F5F5F5F5F5F5F5F5F5F5F5F5F5F5
310
F5F5F5F5F5F5F5F5F5F5E2E2E2C3E2ECE2F5F5F5C3C3E2E2E2F5F5F5F5F5F5F5F5F5F5F5F5F5F5F5F5F5F5F5F5F5F5F5F5F5F5F5F5F5F5F5F5F5F5F5F5F5F5F5F5F5F5F5F52DF5F5F5F5F5F5F5F5F5F5F5F5F5F5F5F5E2F5F5F5E2E2EFE2F5F5F5E2F5F5F5F5F5F5F5F5F5F5F5F5F5F5F5F52DF5F5F5F5F5F5F5F5F5F5F5F5
310
F5F5F5F5F5F5F5F5F5F5F5F5F5F5F5F5F5F5F5F5F5F5F5F5F5F5F5F5F5F5F5F5F5F5F5F5F5F5F5F5F5F5F5F5F5F5F5F5F5F5F5F5F5F5F5F5F5F5F5F5F5F5F5C3E2ECC3E2ECE2F5F5F5C3C3E2E2E2F5F5F5F5F5F5F5F5F5F5F5F5F5F5F5F5F5F5F5F5F5F5F5F5F5F5F5F5F5F5F5F5F5F5F5F5F5F5F5F5F5F5F5F52DF5F5F5F5
310
F5F5F5F5F5F5F5F5F5F5F5F5E2F5F5F5E2E2EFE2F5F5F5E2F5F5F5F5F5F5F5F5F5F5F5F5F5F5F5F52DF5F5F5F5F5F5F5F5F5F5F5F5F5F5F5F5F5F5F5F5F5F5F5F5F5F5F5F5F5F5F5F5F5F5F5F5F5F5F5F5F5F5F5F5F5F5F5F5F5F5F5F5F5F5F5F5F5F5F5F5F5F5F5F5F5F5F5F5F5F5F5F5F5F5F5C3C3C3C3E2E2C3F5F5F5C3
310
E2E22DC3F5F5F5F5F5F5F5F5F5F5F5F5F5F5F5F5F5F5F5F5F5F5F5F5F5F5F5F5F5F5F5F5F5F5F5F5F5F5F5F5F5F5F5F52DF5F5F5F5F5F5F5F5F5F5F5F5F5F5F5F5E2F5F5F5E2E2EFE2F5F5F5E2F5F5F5F5F5F5F5F5F5F5F5F5F5F5F5F52DF5F5F5F5F5F5F5F5F5F5F5F5F5F5F5F5F5F5F5F5F5F5F5F5F5F5F5F5F5F5F5F5F5
310
F5F5F5F5F5F5F5F5F5F5F5F5F5F5F5F5F5F5F5F5F5F5F5F5F5F5F5F5F5F5F5F5F5F5F5F5F5F5F5F5F5F5C3E2E2C30F0FC3F5F5F5C3C3E2C3C3F5F5F5F5F5F5C3E2E2F5F5F5F5F5F5F5F5F5F5F5F5F5F5F5F5F5F5F5F5F5F5F5F5F5F5F5F5F5F5F5F5F5F5F52DF5F5F5F5F5F5F5F5F5F5F5F5F5F5F5F5E2F5F5F5E2E2EFE2F5
310
F5F5E2F5F5F5F5F5F5F5F5F5F5F5F5F5F5F5F52DF5F5F5F5F5F5F5F5F5F5F5F5F5F5F5F5F5F5F5F5F5F5F5F5F5F5F5F5F5F5F5F5F5F5F5F5F5F5F5F5F5F5F5F5F5F5F5F5F5F5F5F5F5F5F5F5F5F5F5F5F5F5F5F5F5F5F5F5F5F5F5F5F5F5F5C3E2E2C3ECE2ECF5F5F5F5F5F5F5F5F5F5F5F5F5C3C3E2E2F5F5F5F5F5F5F5F5
310
F5F5F5F5F5F5F5F5F5F5F5F5F5F5F5F5F5F5F5F5F5F5F5F5F5F5F52DF5F5F5F5F5F5F5F5F5F5F5F5F5F5F5F5E2F5F5F5E2E2EFE2F5F5F5E2F5F5F5F5F5F5F5F5F5F5F5F5F5F5F5F52DF5F5F5F5F5F5F5F5F5F5F5F5F5F5F5F5F5F5F5F5F5F5F5F5F5F5F5F5F5F5F5F5F5F5F5F5F5F5F5F5F5F5F5F5F5F5F5F5F5F5F5F5F5F5
310
F5F5F5F5F5F5F5F5F5F5F5F5F5F5F5F5F5F5F5F5F5E2ECECC3E2ECE2F5F5F5F5BE2DECF52D2DF5E2F5F5C3C3C3F5F5F5F5F5F5F5F5F5F5F5F5F5F5F5F5F5F5F5F5F5F5F5F5F5F5F5F5F5F5F5F5F5F5F52DF5F5F5F5F5F5F5F5F5F5F5F5F5F5F5F5E2F5F5F5E2E2EFE2F5F5F5E2F5F5F5F5F5F5F5F5F5F5F5F5F5F5F5F52DF5
310
F5F5F5F5F5F5F5F5F5F5F5F5F5F5F5F5F5F5F5F5F5F5F5F5F5F5F5F5F5F5F5F5F5F5F5F5F5F5F5F5F5F5F5F5F5F5F5F5F5F5F5F5F5F5F5F5F5F5F5F5F5F5F5F5F5F5F5F5F5F5F5F5F5F5E2E2E2E2E2E2C3F5F5F5C32DE22D2D2DEC2DE2F5F5ECDCF5F5F5F5F5F5F5F5F5F5F5F5F5F5F5F5F5F5F5F5F5F5F5F5F5F5F5F5F5F5
310
F5F5F5F5F5F52DF5F5F5F5F5F5F5F5F5F5F5F5F5F5F5F5E2F5F5F5E2E2EFE2F5F5F5E2F5F5F5F5F5F5F5F5F5F5F5F5F5F5F5F52DF5F5F5F5F5F5F5F5F5F5F5F5F5F5F5F5F5F5F5F5F5F5F5F5F5F5F5F5F5F5F5F5F5F5F5F5F5F5F5F5F5F5F5F5F5F5F5F5F5F5F5F5F5F5F5F5F5F5F5F5F5F5F5F5F5F5F5F5F5F5F5F5F5F5F5
310
E2E2E2E2E2E2C3F5F5F5E2BE2DF5F5F5F5F5E2F5F5C3E2E2F5F5F5F5F5F5F5F5F5F5F5F5F5F5F5F5F5F5F5F5F5F5F5F5F5F5F5F5F5F5F5F5F5F5F52DF5F5F5F5F5F5F5F5F5F5F5F5F5F5F5F5E2F5F5F5E2E2EFE2F5F5F5F5F5F5F5F5F5F5F5F5F5F5F5F5F5F5F5F52DF5F5F5F5F5F5F5F5F5F5F5F5F5F5F5F5F5F5F5F5F5F5
310
F5F5F5F5F5F5F5F5F5F5F5F5F5F5F5F5F5F5F5F5F5F5F5F5F5F5F5F5F5F5F5F5F5F5F5F5F5F5F5F5F5F5F5F5E22DE2E2ECE2E2F5F5E22D2DC32D2DC3F5F5F5F5F52DF5F5F5F52D2D2D2DC3E2E2F5F5F5F5F5F5F5F5F5F5F5F5F5F5F5F5F5F5F5F5F5F5F5F5F5F5F5F5F5F5F5F5F5F5F52DF5F5F5F5F5F5F5F5F5F5F5F5F5F5
310
F5F5F5F5F5F5E2E2EFE2F5F5F5F5F5F5F5F5F5F5F5F5F5F5F5F5F5F5F5F52DF5F5F5F5F5F5F5F5F5F5F5F5F5F5F5F5F5F5F5F5F5F5F5F5F5F5F5F5F5F5F5F5F5F5F5F5F5F5F5F5F5F5F5F5F5F5F5F5F5F5F5F5F5F5F5F5F5F5F5F5F5F5F5F5F5F52DBEC3C3E22DE2F5F5E2E2E2E2F5F5E2F5F5F5F5F5F5F5E2E2E2BE2DE2BE
310
C3E2E2F5F5F5F5F5F5F5F5F5F5F5F5F5F5F5F5F5F5F5F5F5F5F5F5F5F5F5F5F5F5F5F5F5F5F52DF5F5F5F5F5F5F5F5F5F5F5F5F5F5F5F5F5F5F5F5E2E2EFE2F5F5F5F5F5F5F5F5F5F5F5F5F5F5F5F5F5F5F5F52DF5F5F5F5F5F5F5F5F5F5F5F5F5F5F5F5F5F5F5F5F5F5F5F5F5F5F5F5F5F5F5F5F5F5F5F5F5F5F5F5F5F5F5
310
F5F5F5F5F5F5F5F5F5F5F5F5F5F5F5F5F5F5F5F5F5F5F5F5F5F5F5F5F5F5F5F5F5F5F5F5F5F5F5F5F5F5F5F5F5F52DE2E2F5F5F5F5C3E22DF5F5F5F5F5F5F5F5F5F5F5F5F5F5F5F5F5F5F5F5F5F5F5F5F5F5F5F5F5F5F5F5F5F5F52DF5F5F5F5F5F5F5F5F5F5F5F5F5F5F5F5F5F5F5F5E2E2EFE2F5F5F5F5F5F5F5F5F5F5F5
310
F5F5F5F5F5F5F5F5F52DF5F5F5F5F5F5F5F5F5F5F5F5F5F5F5F5F5F5F5F5F5F5F5F5F5F5F5F5F5F5F5F5F5F5F5F5F5F5F5F5F5F5F5F5F5F5F5F5F5F5F5F5F5F5F5F5F5F5F5F5F5F5F5F5F5F5F5F5F5F5F5F5F5F5F5F5F5F5F5F5F5F5F5F5F5F5F5F5F5F5F5BE28F5F5F5F5F5F5F5F5F5F5F5F5F5F5F5F5F5F5F5F5F5F5F5F5
310
F5F5F5F5F5F5F5F5F5F5F5F5F5F5F5F5F52DF5F5F5F5F5F5F5F5F5F5F5F5F5F5F5F5F5F5F5F5E2E2EFE2F5F5F5F5F5F5F5F5F5F5F5F5F5F5F5F5F5F5F5F52DF5F5F5F5F5F5F5F5F5F5F5F5F5F5F5F5F5F5F5F5F5F5F5F5F5F5F5F5F5F5F5F5F5F5F5F5F5F5F5F5F5F5F5F5F5F5F5F5F5F5F5F5F5F5F5F5F5F5F5F5F5F5F5F5
310
F5F5F5BEE2E2E2F5F5F5ECC3C3C3C3C3C3F5F5F5F5F5F5F5F5F5F52D2DF5F5F5F5F5F5F5F5F5F5F5F5F5F5F5F5F5F5F5F5F5F5F5F5F5F5F5F5F5F5F5F5F5F5F5F5F5F5F5F5F52DF5F5F5F5F5F5F5F5F5F5F5F5F5F5F5F5F5F5F5F5E2E2EFE2F5F5F5F5F5F5F5F5F5F5F5F5F5F5F5F5F5F5F5F52DF5F5F5F5F5F5F5F5F5F5F5
310
F5F5F5F5F5F5F5F5F5F5F5F5F5F5F5F5F5F5F5F5F5F5F5F5F5F5F5F5F5F5F5F5F5F5F5F5F5F5F5F5F5F5F5F5F5F5F5F5F5F5F5F5F5F5F5E2ECE2E2E22D2D2DECE2E2E2E2E2C3F5F5F5F5F5F5F5F5F5F5E2E2F5F5F5F5F5F5F5F5F5F5F5F5F5F5F5F5F5F5F5F5F5F5F5F5F5F5F5F5F5F5F5F5F5F5F5F5F5F5F5F5F52DF5F5F5
310
F5F5F5F5F5F5F5F5F5F5F5F5F5F5F5F5F5E2E2EFE2F5F5F5F5F5F5F5F5F5F5F5F5F5F5F5F5F5F5F5F52DF5F5F5F5F5F5F5F5F5F5F5F5F5F5F5F5F5F5F5F5F5F5F5F5F5F5F5F5F5F5F5F5F5F5F5F5F5F5F5F5F5F5F5F5F5F5F5F5F5F5F5F5F5F5F5F5F5F5F5F5F5F5F5F5F5F5E2ECE2E2ECE22D2DECE2E2ECE2E2C3F5F5F5F5
310
F5F5F5F5F5F5E2E2F5F5F5F5F5F5F5F5F5F5F5F5F5F5F5F5F5F5F5F5F5F5F5F5F5F5F5F5F5F5F5F5F5F5F5F5F5F5F5F5F52DF5F5F5F5F5F5F5F5F5F5F5F5F5F5F5F5F5F5F5F5E2E2EFE2F5F5F5F5F5F5F5F5F5F5F5F5F5F5F5F5F5F5F5F52DF5F5F5F5F5F5F5F5F5F5F5F5F5F5F5F5F5F5F5F5F5F5F5F5F5F5F5F5F5F5F5F5
310
F5F5F5F5F5F5F5F5F5F5F5F5F5F5F5F5F5F5F5F5F5F5F5F5F5F5F5F5F5F5F5F5F5F52D2DE2ECECF5C3ECECE2E2E2E2E2C3F5F5F5F5F5F5F5F5F5F5BE28F5F5F5F5F5F5F5F5F5F5F5F5F5F5F5F5F5F5F5F5F5F5F5F5F5F5F5F5F5F5F5F5F5F5F5F5F5F5F5F5F52DF5F5F5F5F5F5F5F5F5F5F5F5F5F5F5F5F5F5F5F5E2E2EFE2
310
F5F5F5F5F5F5F5F5F5F5F5F5F5F5F5F5F5F5F5F52DF5F5F5F5F5F5F5F5F5F5F5F5F5F5F5F5F5F5F5F5F5F5F5F5F5F5F5F5F5F5F5F5F5F5F5F5F5F5F5F5F5F5F5F5F5F5F5F5F5F5F5F5F5F5F5F5F5F5F5F5F5F5F5F5F5F52D2DE22D2DF5F5F5ECE2E2E2C3E2E2F5F5F5F5F5F5F5F5F5F5F5F5F5F5F5F5F5F5F5F5F5F5F5F5F5
310
F5F5F5F5F5F5F5F5F5F5F5F5F5F5F5F5F5F5F5F5F5F5F5F5F5F5F5F52DF5F5F5F5F5F5F5F5F5F5F5F5F5F5F5F5F5F5F5F5E2E2EFE2F5F5F5E2F5F5F5F5F5F5F5F5F5F5F5F5F5F5F5F52DF5F5F5F5F5F5F5F5F5F5F5F5F5F5F5F5F5F5F5F5F5F5F5F5F5F5F5F5F5F5F5F5F5F5F5F5F5F5F5F5F5F5F5F5F5F5F5F5F5F5F5F5F5
310
F5F5F5F5F5F5F5F5F5F5F5F5E22DE2E2E2F5BE362DECECECECECECECE2E2ECF5F5F5F5F5F5F5F5F5F5F5F5F5F5F5F5F5F5F5F5F5F5F5F5F5F5F5F5F5F5F5F5F5F5F5F5F5F5F5F5F5F5F5F5F5F5F5F5F5F52DF5F5F5F5F5F5F5F5F5F5F5F5F5F5F5F5E2F5F5F5E2E2EFE2F5F5F5E2F5F5F5F5F5F5F5F5F5F5F5F5F5F5F5F52D
310
F5F5F5F5F5F5F5F5F5F5F5F5F5F5F5F5F5F5F5F5F5F5F5F5F5F5F5F5F5F5F5F5F5F5F5F5F5F5F5F5F5F5F5F5F5F5F5F5F5F5F5F5F5F5F5F5F5F5F5F5F5F5F5F5F5E22DE2E2ECE2BE2DE22DE2C3ECEC28ECECECECF5F5F5F5F5F5F5F5F5F5F5F5F5F5F5F5F5F5F5F5F5F5F5F5F5F5F5F5F5F5F5F5F5F5F5F5F5F5F5F5F5F5F5
310
F5F5F5F5F5F5F52DF5F5F5F5F5F5F5F5F5F5F5F5F5F5F5F5E2F5F5F5E2E2EFE2F5F5F5E2F5F5F5F5F5F5F5F5F5F5F5F5F5F5F5F52DF5F5F5F5F5F5F5F5F5F5F5F5F5F5F5F5F5F5F5F5F5F5F5F5F5F5F5F5F5F5F5F5F5F5F5F5F5F5F5F5F5F5F5F5F5F5F5F5F5F5F5F5F5F5F5F5F5F5F5F5F5F5F5F5F5E2E2E22DE2E22D2DE2
310
E2E2C3ECECEC2DE2E2C3F5F5F5F5F5F5F5F5F5F5F5F5F5F5F5F5F5F5F5F5F5F5F5F5F5F5F5F5F5F5F5F5F5F5F5F5F5F5F5F5F5F5F5F5F5F5F5F5F5F52DF5F5F5F5F5F5F5F5F5F5F5F5F5F5F5F5E2F5F5F5E2E2EFE2F5F5F5E2F5F5F5F5F5F5F5F5F5F5F5F5F5F5F5F52DF5F5F5F5F5F5F5F5F5F5F5F5F5F5F5F5F5F5F5F5F5
310
F5F5F5F5F5F5F5F5F5F5F5F5F5F5F5F5F5F5F5F5F5F5F5F5F5F5F5F5F5F5F5F5F5F5F5F5F5F5F5F5F5F5F5F5E2E22DECE2F5F5F5ECE22DC3E2ECE2E2282DE2F5F5F5F5F5F5F5F5F5F5F5F5F5F5F5F5F5F5F5F5F5F5F5F5F5F5F5F5F5F5F5F5F5F5F5F5F5F5F5F5F5F5F5F5F5F5F5F5F5F52DF5F5F5F5F5F5F5F5F5F5F5F5F5
310
F5F5F5E2F5F5F5E2E2EFE2F5F5F5E2F5F5F5F5F5F5F5F5F5F5F5F5F5F5F5F52DF5F5F5F5F5F5F5F5F5F5F5F5F5F5F5F5F5F5F5F5F5F5F5F5F5F5F5F5F5F5F5F5F5F5F5F5F5F5F5F5F5F5F5F5F5F5F5F5F5F5F5F5F5F5F5F5F5F5F5F5F5F5F5F5F5E2E2E2F5F5F5F5F5F5F5F5F5F5ECECECE22DE2F5F5F5F5F5F5F5F5F5F5F5
310
F5F5F5F5F5F5F5F5F5F5F5F5F5F5F5F5F5F5F5F5F5F5F5F5F5F5F5F5F5F5F5F5F5F5F5F5F5F5F52DF5F5F5F5F5F5F5F5F5F5F5F5F5F5F5F5E2F5F5F5E2E2EFE2F5F5F5E2F5F5F5F5F5F5F5F5F5F5F5F5F5F5F5F52DF5F5F5F5F5F5F5F5F5F5F5F5F5F5F5F5F5F5F5F5F5F5F5F5F5F5F5F5F5F5F5F5F5F5F5F5F5F5F5F5F5F5
310
F5F5F5F5F5F5F5F5F5F5F5F5F5F5F5F5F5F5F5F5F5F5F5F5F5F5F5F5F5F5F5F5F5F5F5F5F5F5F5F5F5F5F5F5F5F5F5F5F5F5F5F5F5F5F5F5F5F5F5F5F5F5F5F5F5F5F5F5F5F5F5F5F5F5F5F5F5F5F5F5F5F5F5F5F5F5F5F5F5F5F5F52DF5F5F5F5F5F5F5F5F5F5F5F5F5F5F5F5E2F5F5F5E2E2EFE2F5F5F5E2F5F5F5F5F5F5
310
F5F5F5F5F5F5F5F5F5F52DF5F5F5F5F5F5F5F5F5F5F5F5F5F5F5F5F5F5F5F5F5F5F5F5F5F5F5F5F5F5F5F5F5F5F5F5F5F5F5F5F5F5F5F5F5F5F5F5F5F5F5F5F5F5F5F5F5F5F5F5F5F5F5F5F5F5F5F5F5F5F5F5F5F5F5F5F5F5F5F5F5F5F5F5F5F5F5F5F5F5F5F5F5F5F5F5F5F5F5F5F5F5F5F5F5F5F5F5F5F5F5F5F5F5F5F5
310
F5F5F5F5F5F5F5F5F5F5F5F5F5F5F5F5F5F52DF5F5F5F5F5F5F5F5F5F5F5F5F5F5F5F5E2F5F5F5E2E2EFE2F5F5F5E2F5F5F5F5F5F5F5F5F5F5F5F5F5F5F5F52DF5F5F5F5F5F5F5F5F5F5F5F5F5F5F5F5F5F5F5F5F5F5F5F5F5F5F5F5F5F5F5F5F5F5F5F5F5F5F5F5F5F5F5F5F5F5F5F5F5F5F5F5F5F5F5F5F5F5F5F5F5F5F5
310
F5F5F5F5F5F5F5F5F5F5F5F5F5F5F5F5F5F5F5F5F5F5F5F5F5F5F5F5F5F5F5F5F5F5F5F5F5F5F5F5F5F5F5F5F5F5F5F5F5F5F5F5F5F5F5F5F5F5F5F5F5F5F5F5F5F5F5F5F5F5F52DF5F5F5F5F5F5F5F5F5F5F5F5F5F5F5F5E2F5F5F5E2E2EFE2F5F5F5E2F5F5F5F5F5F5F5F5F5F5F5F5F5F5F5F52DF5F5F5F5F5F5F5F5F5F5
310
F5F5F5F5F5F5F5F5F5F5F5F5F5F5F5F5F5F5F5F5F5F5F5F5F5F5F5F5F5F5F5F5F5F5F5F5F5F5F5F5F5F5F5F5F5F5F5F5F5F5F5F5F5F5F5F5F5F5F5F5F5F5F5F5F5F5F5F5F5F5F5F5F5F5F5F5F5F5F5F5F5F5F5F5F5F5F5F5F5F5F5F5F5F5F5F5F5F5F5F5F5F5F5F5F5F5F5F5F5F5F5F5F5F5F5F5F5F5F5F5F5F5F5F52DF5F5
310
F5F5F5F5F5F5F5F5F5F5F5F5F5F5E2F5F5F5E2E2EFE2F5F5F5E2F5F5F5F5F5F5F5F5F5F5F5F5F5F5F5F52DF5F5F5F5F5F5F5F5F5F5F5F5F5F5F5F5F5F5F5F5F5F5F5F5F5F5F5F5F5F5F5F5F5F5F5F5F5F5F5F5F5F5F5F5F5F5F5F5F5F5F5F5F5F5F5F5F5F5F5F5F5F5F5F5F5F5F5F5F5F5F5F5F5F5F5F5F5F5F5F5F5F5F5F5
310
F5F5F5F5F5F5F5F5F5F5F5F5F5F5F5F5F5F5F5F5F5F5F5F5F5F5F5F5F5F5F5F5F5F5F5F5F5F5F5F5F5F5F5F5F5F5F5F5F5F52DF5F5F5F5F5F5F5F5F5F5F5F5F5F5F5F5E2F5F5F5E2E2EFE2F5F5F5E2F5F5F5F5F5F5F5F5F5F5F5F5F5F5F5F52DF5F5F5F5F5F5F5F5F5F5F5F5F5F5F5F5F5F5F5F5F5F5F5F5F5F5F5F5F5F5F5
310
F5F5F5F5F5F5F5F5F5F5F5F5F5F5F5F5F5F5F5F5F5F5F5F5F5F5F5F5F5F5F5F5F5F5F5F5F5F5F5F5F5F5F5F5F5F5F5F5F5F5F5F5F5F5F5F5F5F5F5F5F5F5F5F5F5F5F5F5F5F5F5F5F5F5F5F5F5F5F5F5F5F5F5F5F5F5F5F5F5F5F5F5F5F5F5F5F5F5F5F5F5F5F52DF5F5F5F5F5F5F5F5F5F5F5F5F5F5F5F5E2F5F5F5E2E2EF
310
E2F5F5F5E2F5F5F5F5F5F5F5F5F5F5F5F5F5F5F5F52DF5F5F5F5F5F5F5F5F5F5F5F5F5F5F5F5F5F5F5F5F5F5F5F5F5F5F5F5F5F5F5F5F5F5F5F5F5F5F5F5F5F5F5F5F5F5F5F5F5F5F5F5F5F5F5F5F5F5F5F5F5F5F5F5F5F5F5F5F5F5F5F5F5F5F5F5F5F5F5F5F5F5F5F5F5F5F5F5F5F5F5F5F5F5F5F5F5F5F5F5F5F5F5F5F5
310
F5F5F5F5F5F5F5F5F5F5F5F5F5F5F5F5F5F5F5F5F5F5F5F5F5F5F5F5F52DF5F5F5F5F5F5F5F5F5F5F5F5F5F5F5F5E2F5F5F5E2E2EFE2F5F5F5E2F5F5F5F5F5F5F5F5F5F5F5F5F5F5F5F52DF5F5F5F5F5F5F5F5F5F5F5F5F5F5F5F5F5F5F5F5F5F5F5F5F5F5F5F5F5F5F5F5F5F5F5F5F5F5F5F5F5F5F5F5F5F5F5F5F5F5F5F5
310
F5F5F5F5F5F5F5F5F5F5F5F5F5F5F5F5F5F5F5F5F5F5F5F5F5F5F5F5F5F5F5F5F5F5F5F5F5F5F5F5F5F5F5F5F5F5F5F5F5F5F5F5F5F5F5F5F5F5F5F5F5F5F5F5F5F5F5F5F5F5F5F5F5F5F5F5F5F5F5F5F5F52DF5F5F5F5F5F5F5F5F5F5F5F5F5F5F5F5E2F5F5F5E2E2EFE2F5F5F5E2F5F5F5F5F5F5F5F5F5F5F5F5F5F5F5F5
310
2DF5F5F5F5F5F5F5F5F5F5F5F5F5F5F5F5F5F5F5F5F5F5F5F5F5F5F5F5F5F5F5F5F5F5F5F5F5F5F5F5F5F5F5F5F5F5F5F5F5F5F5F5F5F5F5F5F5F5F5F5F5F5F5F5F5F5F5F5F5F5F5F5F5F5F5F5F5F5F5F5F5F5F5F5F5F5F5F5F5F5F5F5F5F5F5F5F5F5F5F5F5F5F5F5F5F5F5F5F5F5F5F5F5F5F5F5F5F5F5F5F5F5F5F5F5F5
310
F5F5F5F5F5F5F5F52DF5F5F5F5F5F5F5F5F5F5F5F5F5F5F5F5E2F5F5F5E2E2EFE2F5F5F5E2F5F5F5F5F5F5F5F5F5F5F5F5F5F5F5F52DF5F5F5F5F5F5F5F5F5F5F5F5F5F5F5F5F5F5F5F5F5F5F5F5F5F5F5F5F5F5F5F5F5F5F5F5F5F5F5F5F5F5F5F5F5F5F5F5F5F5F5F5F5F5F5F5F5F5F5F5F5F5F5F5F5F5F5F5F5F5F5F5F5
310
F5F5F5F5F5F5F5F5F5F5F5F5F5F5F5F5F5F5F5F5F5F5F5F5F5F5F5F5F5F5F5F5F5F5F5F5F5F5F5F5F5F5F5F5F5F5F5F5F5F5F5F5F5F5F5F5F5F5F5F5F52DF5F5F5F5F5F5F5F5F5F5F5F5F5F5F5F5E2F5F5F5E2E2EFE2F5F5F5E2F5F5F5F5F5F5F5F5F5F5F5F5F5F5F5F52DF5F5F5F5F5F5F5F5F5F5F5F5F5F5F5F5F5F5F5F5
310
F5F5F5F5F5F5F5F5F5F5F5F5F5F5F5F5F5F5F5F5F5F5F5F5F5F5F5F5F5F5F5F5F5F5F5F5F5F5F5F5F5F5F5F5F5F5F5F5F5F5F5F5F5F5F5F5F5F5F5F5F5F5F5F5F5F5F5F5F5F5F5F5F5F5F5F5F5F5F5F5F5F5F5F5F5F5F5F5F5F5F5F5F5F5F5F5F5F5F5F5F5F5F5F5F5F5F5F5F5F5F5F5F5F52DF5F5F5F5F5F5F5F5F5F5F5F5
310
F5F5F5F5E2F5F5F5E2E2EFE2F5F5F5E2F5F5F5F5F5F5F5F5F5F5F5F5F5F5F5F52DF5F5F5F5F5F5F5F5F5F5F5F5F5F5F5F5F5F5F5F5F5F5F5F5F5F5F5F5F5F5F5F5F5F5F5F5F5F5F5F5F5F5F5F5F5F5F5F5F5F5F5F5F5F5F5F5F5F5F5F5F5F5F5F5F5F5F5F5F5F5F5F5F5F5F5F5F5F5F5F5F5F5F5F5F5F5F5F5F5F5F5F5F5F5
310
F5F5F5F5F5F5F5F5F5F5F5F5F5F5F5F5F5F5F5F5F5F5F5F5F5F5F5F5F5F5F5F5F5F5F5F5F5F5F5F52DF5F5F5F5F5F5F5F5F5F5F5F5F5F5F5F5E2F5F5F5E2E2EFE2F5F5F5F5F5F5F5F5F5F5F5F5F5F5F5F5F5F5F5F52DF5F5F5F5F5F5F5F5F5F5F5F5F5F5F5F5F5F5F5F5F5F5F5F5F5F5F5F5F5F5F5F5F5F5F5F5F5F5F5F5F5
310
F5F5F5F5F5F5F5F5F5F5F5F5F5F5F5F5F5F5F5F5F5F5F5F5F5F5F5F5F5F5F5F5F5F5F5F5F5F5F5F5F5F5F5F5F5F5F5F5F5F5F5F5F5F5F5F5F5F5F5F5F5F5F5F5F5F5F5F5F5F5F5F5F5F5F5F5F5F5F5F5F5F5F5F5F5F5F5F5F5F5F5F5F52DF5F5F5F5F5F5F5F5F5F5F5F5F5F5F5F5F5F5F5F5E2E2EFE2F5F5F5F5F5F5F5F5F5
310
F5F5F5F5F5F5F5F5F5F5F52DF5F5F5F5F5F5F5F5F5F5F5F5F5F5F5F5F5F5F5F5F5F5F5F5F5F5F5F5F5F5F5F5F5F5F5F5F5F5F5F5F5F5F5F5F5F5F5F5F5F5F5F5F5F5F5F5F5F5F5F5F5F5F5F5F5F5F5F5F5F5F5F5F5F5F5F5F5F5F5F5F5F5F5F5F5F5F5F5F5F5F5F5F5F5F5F5F5F5F5F5F5F5F5F5F5F5F5F5F5F5F5F5F5F5F5
310
F5F5F5F5F5F5F5F5F5F5F5F5F5F5F5F5F5F5F52DF5F5F5F5F5F5F5F5F5F5F5F5F5F5F5F5F5F5F5F5E2E2EFE2F5F5F5F5F5F5F5F5F5F5F5F5F5F5F5F5F5F5F5F52DF5F5F5F5F5F5F5F5F5F5F5F5F5F5F5F5F5F5F5F5F5F5F5F5F5F5F5F5F5F5F5F5F5F5F5F5F5F5F5F5F5F5F5F5F5F5F5F5F5F5F5F5F5F5F5F5F5F5F5F5F5F5
310
F5F5F5F5F5F5F5F5F5F5F5F5F5F5F5F5F5F5F5F5F5F5F5F5F5F5F5F5F5F5F5F5F5F5F5F5F5F5F5F5F5F5F5F5F5F5F5F5F5F5F5F5F5F5F5F5F5F5F5F5F5F5F5F5F5F5F5F5F5F5F5F52DF5F5F5F5F5F5F5F5F5F5F5F5F5F5F5F5F5F5F5F5E2E2EFE2F5F5F5F5F5F5F5F5F5F5F5F5F5F5F5F5F5F5F5F52DF5F5F5F5F5F5F5F5F5
310
F5F5F5F5F5F5F5F5F5F5F5F5F5F5F5F5F5F5F5F5F5F5F5F5F5F5F5F5F5F5F5F5F5F5F5F5F5F5F5F5F5F5F5F5F5F5F5F5F5F5F5F5E2BEBEBEF5F5F5F5F5F5F5F5F5F5F5F5F5F5F5F5F5F5F5F5F5F5F5F5F5F5F5F5F5F5F5F5F5F5F5F5F5F5F5F5F5F5F5F5F5F5F5F5F5F5F5F5F5F5F5F5F5F5F5F5F5F5F5F5F5F5F5F5F52DF5
310
F5F5F5F5F5F5F5F5F5F5F5F5F5F5F5F5F5F5F5E2E2EFE2F5F5F5F5F5F5F5F5F5F5F5F5F5F5F5F5F5F5F5F52DF5F5F5F5F5F5F5F5F5F5F5F5F5F5F5F5F5F5F5F5F5F5F5F5F5F5F5F5F5F5F5F5F5F5F5F5F5F5F5F5F5F5F5F5F5F5F5F5F5F5F5F5F5F5F5F5F5F5F5F5F5F5E2E2E2F5F5F5F5F5F5F5F5F5F5F5F5F5F5F5F5F5F5
310
F5F5F5F5F5F5F5F5F5F5F5F5F5F5F5F5F5F5F5F5F5F5F5F5F5F5F5F5F5F5F5F5F5F5F5F5F5F5F5F5F5F5F5F5F5F5F5F5F5F5F52DF5F5F5F5F5F5F5F5F5F5F5F5F5F5F5F5F5F5F5F5E2E2EFE2F5F5F5F5F5F5F5F5F5F5F5F5F5F5F5F5F5F5F5F52DF5F5F5F5F5F5F5F5F5F5F5F5F5F5F5F5F5F5F5F5F5F5F5F5F5F5F5F5F5F5
310
F5F5F5F5F5F5F5F5F5F5F5F5F5F5F5F5F5F5F5F5F5F5F5F5F5F5F5F5F5F5F5F5F5F5F5F5F5F5F5F5F5F5F5F5F5F5F5F5F5F5F5F5F5F5F5F5F5F5F5F5F5F5F5F5F5F5F5F5F5F5F5F5F5F5F5F5F5F5F5F5F5F5F5F5F5F5F5F5F5F5F5F5F5F5F5F5F5F5F5F5F5F5F5F52DF5F5F5F5F5F5F5F5F5F5F5F5F5F5F5F5F5F5F5F5E2E2
310
EFE2F5F5F5F5F5F5F5F5F5F5F5F5F5F5F5F5F5F5F5F52DF5F5F5F5F5F5F5F5F5F5F5F5F5F5F5F5F5F5F5F5F5F5F5F5F5F5F5F5F5F5F5F5F5F5F5F5F5F5F5F5F5F5F5F5F5F5F5F5F5F5F5F5F5F5F5F5F5F5F5F5F5F5F5F5F5F5F5F5F5F5F5F5F5F5F5F5F5F5F5F5F5F5F5F5F5F5F5F5F5F5F5F5F5F5F5F5F5F5F5F5F5F5F5F5
310
F5F5F5F5F5F5F5F5F5F5F5F5F5F5F5F5F5F5F5F5F5F5F5F5F5F5F5F5F5F52DF5F5F5F5F5F5F5F5F5F5F5F5F5F5F5F5F5F5F5F5E2E2EFE2F5F5F5F5F5F5F5F5F5F5F5F5F5F5F5F5F5F5F5F52DF5F5F5F5F5F5F5F5F5F5F5F5F5F5F5F5F5F5F5F5F5F5F5F5F5F5F5F5F5F5F5F5F5F5F5F5F5F5F5F5F5F5F5F5F5F5F5F5F5F5F5
310
F5F5F5F5F5F5F5F5F5F5F5F5F5F5F5F5F5F5F5F5F5F5F5F5F5F5F5F5F5F5F5F5F5F5F5F5F5F5F5F5F5F5F5F5F5F5F5F5F5F5F5F5F5F5F5F5F5F5F5F5F5F5F5F5F5F5F5F5F5F5F5F5F5F5F5F5F5F5F5F5F5F5F52DF5F5F5F5F5F5F5F5F5F5F5F5F5F5F5F5F5F5F5F5E2E2EFE2F5F5F5F5F5F5F5F5F5F5F5F5F5F5F5F5F5F5F5
310
F52DF5F5F5F5F5F5F5F5F5F5F5F5F5F5F5F5F5F5F5F5F5F5F5F5F5F5F5F5F5F5F5F5F5F5F5F5F5F5F5F5F5F5F5F5F5F5F5F5F5F5F5F5F5F5F5F5F5F5F5F5F5F5F5F5F5F5F5F5F5F5F5F5F5F5F5F5F5F5F5F5F5F5F5F5F5F5F5F5F5F5F5F5F5F5F5F5F5F5F5F5F5F5F5F5F5F5F5F5F5F5F5F5F5F5F5F5F5F5F5F5F5F5F5F5F5
310
F5F5F5F5F5F5F5F5F52DF5F5F5F5F5F5F5F5F5F5F5F5F5F5F5F5F5F5F5F5E2E2EFE2F5F5F5E2F5F5F5F5F5F5F5F5F5F5F5F5F5F5F5F52DF5F5F5F5F5F5F5F5F5F5F5F5F5F5F5F5F5F5F5F5F5F5F5F5F5F5F5F5F5F5F5F5F5F5F5F5F5F5F5F5F5F5F5F5F5F5F5F5F5F5F5F5F5F5F5F5F5F5F5F5F5F5F5F5F5F5F5F5F5F5F5F5
310
F5F5F5F5F5F5F5F5F5F5F5F5F5F5F5F5F5F5F5F5F5F5F5F5F5F5F5F5F5F5F5F5F5F5F5F5F5F5F5F5F5F5F5F5F5F5F5F5F5F5F5F5F5F5F5F5F5F5F5F5F5F52DF5F5F5F5F5F5F5F5F5F5F5F5F5F5F5F5E2F5F5F5E2E2EFE2F5F5F5E2F5F5F5F5F5F5F5F5F5F5F5F5F5F5F5F52DF5F5F5F5F5F5F5F5F5F5F5F5F5F5F5F5F5F5F5
310
F5F5F5F5F5F5F5F5F5F5F5F5F5F5F5F5F5F5F5F5F5F5F5F5F5F5F5F5F5F5F5F5F5F5F5F5F5F5F5F5F5F5F5F5F5F5F5F5F5F5F5F5F5F5F5F5F5F5F5F5F5F5F5F5F5F5F5F5F5F5F5F5F5F5F5F5F5F5F5F5F5F5F5F5F5F5F5F5F5F5F5F5F5F5F5F5F5F5F5F5F5F5F5F5F5F5F5F5F5F5F5F5F5F5F52DF5F5F5F5F5F5F5F5F5F5F5
310
F5F5F5F5F5E2F5F5F5E2E2EFE2F5F5F5E2F5F5F5F5F5F5F5F5F5F5F5F5F5F5F5F52DF5F5F5F5F5F5F5F5F5F5F5F5F5F5F5F5F5F5F5F5F5F5F5F5F5F5F5F5F5F5F5F5F5F5F5F5F5F5F5F5F5F5F5F5F5F5F5F5F5F5F5F5F5F5F5F5F5F5F5F5F5F5F5F5F5F5F5F5F5F5F5F5F5F5F5F5F5F5F5F5F5F5F5F5F5F5F5F5F5F5F5F5F5
310
F5F5F5F5F5F5F5F5F5F5F5F5F5F5F5F5F5F5F5F5F5F5F5F5F5F5F5F5F5F5F5F5F5F5F5F5F5F5F5F5F52DF5F5F5F5F5F5F5F5F5F5F5F5F5F5F5F5E2F5F5F5E2E2EFE2F5F5F5E2F5F5F5F5F5F5F5F5F5F5F5F5F5F5F5F52DF5F5F5F5F5F5F5F5F5F5F5F5F5F5F5F5F5F5F5F5F5F5F5F5F5F5F5F5F5F5F5F5F5F5F5F5F5F5F5F5
310
F5F5F5F5F5F5F5F5F5F5F5F5F5F5F5F5F5F5F5F5F5F5F5F5F5F5F5F5F5F5F5F5F5F5F5F5F5F5F5F5F5F5F5F5F5F5F5F5F5F5F5F5F5F5F5F5F5F5F5F5F5F5F5F5F5F5F5F5F5F5F5F5F5F5F5F5F5F5F5F5F5F5F5F5F5F5F5F5F5F5F5F5F5F52DF5F5F5F5F5F5F5F5F5F5F5F5F5F5F5F5E2F5F5F5E2E2EFE2F5F5F5E2F5F5F5F5
310
F5F5F5F5F5F5F5F5F5F5F5F52DF5F5F5F5F5F5F5F5F5F5F5F5F5F5F5F5F5F5F5F5F5F5F5F5F5F5F5F5F5F5F5F5F5F5F5F5F5F5F5F5F5F5F5F5F5F5F5F5F5F5F5F5F5F5F5F5F5F5F5F5F5F5F5F5F5F5F5F5F5F5F5F5F5F5F5F5F5F5F5F5F5F5F5F5F5F5F5F5F5F5F5F5F5F5F5F5F5F5F5F5F5F5F5F5F5F5F5F5F5F5F5F5F5F5
310
F5F5F5F5F5F5F5F5F5F5F5F5F5F5F5F5F5F5F5F52DF5F5F5F5F5F5F5F5F5F5F5F5F5F5F5F5E2F5F5F5E2E2EFE2F5F5F5E2F5F5F5F5F5F5F5F5F5F5F5F5F5F5F5F52DF5F5F5F5F5F5F5F5F5F5F5F5F5F5F5F5F5F5F5F5F5F5F5F5F5F5F5F5F5F5F5F5F5F5F5F5F5F5F5F5F5F5F5F5F5F5F5F5F5F5F5F5F5F5F5F5F5F5F5F5F5
310
F5F5F5F5F5F5F5F5F5F5F5F5F5F5F5F5F5F5F5F5F5F5F5F5F5F5F5F5F5F5F5F5F5F5F5F5F5F5F5F5F5F5F5F5F5F5F5F5F5F5F5F5F5F5F5F5F5F5F5F5F5F5F5F5F5F5F5F5F5F5F5F5F52DF5F5F5F5F5F5F5F5F5F5F5F5F5F5F5F5E2F5F5F5E2E2EFE2F5F5F5E2F5F5F5F5F5F5F5F5F5F5F5F5F5F5F5F52DF5F5F5F5F5F5F5F5
310
F5F5F5F5F5F5F5F5F5F5F5F5F5F5F5F5F5F5F5F5F5F5F5F5F5F5F5F5F5F5F5F5F5F5F5F5F5F5F5F5F5F5F5F5F5F5F5F5F5F5F5F5F5F5F5F5F5F5F5F5F5F5F5F5F5F5F5F5F5F5F5F5F5F5F5F5F5F5F5F5F5F5F5F5F5F5F5F5F5F5F5F5F5F5F5F5F5F5F5F5F5F5F5F5F5F5F5F5F5F5F5F5F5F5F5F5F5F5F5F5F5F5F5F5F5F52D
310
F5F5F5F5F5F5F5F5F5F5F5F5F5F5F5F5E2F5F5F5E2E2EFE2F5F5F5E2F5F5F5F5F5F5F5F5F5F5F5F5F5F5F5F52DF5F5F5F5F5F5F5F5F5F5F5F5F5F5F5F5F5F5F5F5F5F5F5F5F5F5F5F5F5F5F5F5F5F5F5F5F5F5F5F5F5F5F5F5F5F5F5F5F5F5F5F5F5F5F5F5F5F5F5F5F5F5F5F5F5F5F5F5F5F5F5F5F5F5F5F5F5F5F5F5F5F5
310
F5F5F5F5F5F5F5F5F5F5F5F5F5F5F5F5F5F5F5F5F5F5F5F5F5F5F5F5F5F5F5F5F5F5F5F5F5F5F5F5F5F5F5F5F5F5F5F5F5F5F5F52DF5F5F5F5F5F5F5F5F5F5F5F5F5F5F5F5E2F5F5F5E2E2EFE2F5F5F5E2F5F5F5F5F5F5F5F5F5F5F5F5F5F5F5F52DF5F5F5F5F5F5F5F5F5F5F5F5F5F5F5F5F5F5F5F5F5F5F5F5F5F5F5F5F5
310
F5F5F5F5F5F5F5F5F5F5F5F5F5F5F5F5F5F5F5F5F5F5F5F5F5F5F5F5F5F5F5F5F5F5F5F5F5F5F5F5F5F5F5F5F5F5F5F5F5F5F5F5F5F5F5F5F5F5F5F5F5F5F5F5F5F5F5F5F5F5F5F5F5F5F5F5F5F5F5F5F5F5F5F5F5F5F5F5F5F5F5F5F5F5F5F5F5F5F5F5F5F5F5F5F52DF5F5F5F5F5F5F5F5F5F5F5F5F5F5F5F5E2F5F5F5E2
310
E2EFE2F5F5F5E2F5F5F5F5F5F5F5F5F5F5F5F5F5F5F5F52DF5F5F5F5F5F5F5F5F5F5F5F5F5F5F5F5F5F5F5F5F5F5F5F5F5F5F5F5F5F5F5F5F5F5F5F5F5F5F5F5F5F5F5F5F5F5F5F5F5F5F5F5F5F5F5F5F5F5F5F5F5F5F5F5F5F5F5F5F5F5F5F5F5F5F5F5F5F5F5F5F5F5F5F5F5F5F5F5F5F5F5F5F5F5F5F5F5F5F5F5F5F5F5
310
F5F5F5F5F5F5F5F5F5F5F5F5F5F5F5F5F5F5F5F5F5F5F5F5F5F5F5F5F5F5F52DF5F5F5F5F5F5F5F5F5F5F5F5F5F5F5F5E2F5F5F5E2E2EFE2F5F5F5E2F5F5F5F5F5F5F5F5F5F5F5F5F5F5F5F52DF5F5F5F5F5F5F5F5F5F5F5F5F5F5F5F5F5F5F5F5F5F5F5F5F5F5F5F5F5F5F5F5F5F5F5F5F5F5F5F5F5F5F5F5F5F5F5F5F5F5
310
F5F5F5F5F5F5F5F5F5F5F5F5F5F5F5F5F5F5F5F5F5F5F5F5F5F5F5F5F5F5F5F5F5F5F5F5F5F5F5F5F5F5F5F5F5F5F5F5F5F5F5F5F5F5F5F5F5F5F5F5F5F5F5F5F5F5F5F5F5F5F5F5F5F5F5F5F5F5F5F5F5F5F5F52DF5F5F5F5F5F5F5F5F5F5F5F5F5F5F5F5E2F5F5F5E2E2EFE2F5F5F5E2F5F5F5F5F5F5F5F5F5F5F5F5F5F5
310
F5F52DF5F5F5F5F5F5F5F5F5F5F5F5F5F5F5F5F5F5F5F5F5F5F5F5F5F5F5F5F5F5F5F5F5F5F5F5F5F5F5F5F5F5F5F5F5F5F5F5F5F5F5F5F5F5F5F5F5F5F5F5F5F5F5F5F5F5F5F5F5F5F5F5F5F5F5F5F5F5F5F5F5F5F5F5F5F5F5F5F5F5F5F5F5F5F5F5F5F5F5F5F5F5F5F5F5F5F5F5F5F5F5F5F5F5F5F5F5F5F5F5F5F5F5F5
310
F5F5F5F5F5F5F5F5F5F52DF5F5F5F5F5F5F5F5F5F5F5F5F5F5F5F5E2F5F5F5E2E2EFE2F5F5F5E2F5F5F5F5F5F5F5F5F5F5F5F5F5F5F5F52DF5F5F5F5F5F5F5F5F5F5F5F5F5F5F5F5F5F5F5F5F5F5F5F5F5F5F5F5F5F5F5F5F5F5F5F5F5F5F5F5F5F5F5F5F5F5F5F5F5F5F5F5F5F5F5F5F5F5F5F5F5F5F5F5F5F5F5F5F5F5F5
310
F5F5F5F5F5F5F5F5F5F5F5F5F5F5F5F5F5F5F5F5F5F5F5F5F5F5F5F5F5F5F5F5F5F5F5F5F5F5F5F5F5F5F5F5F5F5F5F5F5F5F5F5F5F5F5F5F5F5F5F5F5F5F52DF5F5F5F5F5F5F5F5F5F5F5F5F5F5F5F5E2F5F5F5E2E2EFE2F5F5F5E2F5F5F5F5F5F5F5F5F5F5F5F5F5F5F5F52DF5F5F5F5F5F5F5F5F5F5F5F5F5F5F5F5F5F5
310
F5F5F5F5F5F5F5F5F5F5F5F5F5F5F5F5F5F5F5F5F5F5F5F5F5F5F5F5F5F5F5F5F5F5F5F5F5F5F5F5F5F5F5F5F5F5F5F5F5F5F5F5F5F5F5F5F5F5F5F5F5F5F5F5F5F5F5F5F5F5F5F5F5F5F5F5F5F5F5F5F5F5F5F5F5F5F5F5F5F5F5F5F5F5F5F5F5F5F5F5F5F5F5F5F5F5F5F5F5F5F5F5F5F5F5F52DF5F5F5F5F5F5F5F5F5F5
310
F5F5F5F5F5F5E2F5F5F5E2E2EFE2F5F5F5E2F5F5F5F5F5F5F5F5F5F5F5F5F5F5F5F52DF5F5F5F5F5F5F5F5F5F5F5F5F5F5F5F5F5F5F5F5F5F5F5F5F5F5F5F5F5F5F5F5F5F5F5F5F5F5F5F5F5F5F5F5F5F5F5F5F5F5F5F5F5F5F5F5F5F5F5F5F5F5F5F5F5F5F5F5F5F5F5F5F5F5F5F5F5F5F5F5F5F5F5F5F5F5F5F5F5F5F5F5
310
F5F5F5F5F5F5F5F5F5F5F5F5F5F5F5F5F5F5F5F5F5F5F5F5F5F5F5F5F5F5F5F5F5F5F5F5F5F5F5F5F5F52DF5F5F5F5F5F5F5F5F5F5F5F5F5F5F5F5E2F5F5F5E2E2EFE2F5F5F5E2F5F5F5F5F5F5F5F5F5F5F5F5F5F5F5F52DF5F5F5F5F5F5F5F5F5F5F5F5F5F5F5F5F5F5F5F5F5F5F5F5F5F5F5F5F5F5F5F5F5F5F5F5F5F5F5
310
F5F5F5F5F5F5F5F5F5F5F5F5F5F5F5F5F5F5F5F5F5F5F5F5F5F5F5F5F5F5F5F5F5F5F5F5F5F5F5F5F5F5F5F5F5F5F5F5F5F5F5F5F5F5F5F5F5F5F5F5F5F5F5F5F5F5F5F5F5F5F5F5F5F5F5F5F5F5F5F5F5F5F5F5F5F5F5F5F5F5F5F5F5F5F52DF5F5F5F5F5F5F5F5F5F5F5F5F5F5F5F5E2F5F5F5E2E2EFE2F5F5F5E2F5F5F5
310
F5F5F5F5F5F5F5F5F5F5F5F5F52DF5F5F5F5F5F5F5F5F5F5F5F5F5F5F5F5F5F5F5F5F5F5F5F5F5F5F5F5F5F5F5F5F5F5F5F5F5F5F5F5F5F5F5F5F5F5F5F5F5F5F5F5F5F5F5F5F5F5F5F5F5F5F5F5F5F5F5F5F5F5F5F5F5F5F5F5F5F5F5F5F5F5F5F5F5F5F5F5F5F5F5F5F5F5F5F5F5F5F5F5F5F5F5F5F5F5F5F5F5F5F5F5F5
310
F5F5F5F5F5F5F5F5F5F5F5F5F5F5F5F5F5F5F5F5F52DF5F5F5F5F5F5F5F5F5F5F5F5F5F5F5F5E2F5F5F5E2E2EFE2F5F5F5F5F5F5F5F5F5F5F5F5F5F5F5F5F5F5F5F52DF5F5F5F5F5F5F5F5F5F5F5F5F5F5F5F5F5F5F5F5F5F5F5F5F5F5F5F5F5F5F5F5F5F5F5F5F5F5F5F5F5F5F5F5F5F5F5F5F5F5F5F5F5F5F5F5F5F5F5F5
310
F5F5F5F5F5F5F5F5F5F5F5F5F5F5F5F5F5F5F5F5F5F5F5F5F5F5F5F5F5F5F5F5F5F5F5F5F5F5F5F5F5F5F5F5F5F5F5F5F5F5F5F5F5F5F5F5F5F5F5F5F5F5F5F5F5F5F5F5F5F5F5F5F5F52DF5F5F5F5F5F5F5F5F5F5F5F5F5F5F5F5F5F5F5F5E2E2EFE2F5F5F5F5F5F5F5F5F5F5F5F5F5F5F5F5F5F5F5F52DF5F5F5F5F5F5F5
310
F5F5F5F5F5F5F5F5F5F5F5F5F5F5F5F5F5F5F5F5F5F5F5F5F5F5F5F5F5F5F5F5F5F5F5F5F5F5F5F5F5F5F5F5F5F5F5F5F5F5F5F5F5F5F5F5F5F5F5F5F5F5F5F5F5F5F5F5F5F5F5F5F5F5F5F5F5F5F5F5F5F5F5F5F5F5F5F5F5F5F5F5F5F5F5F5F5F5F5F5F5F5F5F5F5F5F5F5F5F5F5F5F5F5F5F5F5F5F5F5F5F5F5F5F5F5F5
310
2DF5F5F5F5F5F5F5F5F5F5F5F5F5F5F5F5F5F5F5F5E2E2EFE2F5F5F5F5F5F5F5F5F5F5F5F5F5F5F5F5F5F5F5F52DF5F5F5F5F5F5F5F5F5F5F5F5F5F5F5F5F5F5F5F5F5F5F5F5F5F5F5F5F5F5F5F5F5F5F5F5F5F5F5F5F5F5F5F5F5F5F5F5F5F5F5F5F5F5F5F5F5F5F5F5F5F5F5F5F5F5F5F5F5F5F5F5F5F5F5F5F5F5F5F5F5
310
F5F5F5F5F5F5F5F5F5F5F5F5F5F5F5F5F5F5F5F5F5F5F5F5F5F5F5F5F5F5F5F5F5F5F5F5F5F5F5F5F5F5F5F5F5F5F5F5F5F5F5F5F52DF5F5F5F5F5F5F5F5F5F5F5F5F5F5F5F5F5F5F5F5E2E2EFE2F5F5F5F5F5F5F5F5F5F5F5F5F5F5F5F5F5F5F5F52DF5F5F5F5F5F5F5F5F5F5F5F5F5F5F5F5F5F5F5F5F5F5F5F5F5F5F5F5
310
F5F5F5F5F5F5F5F5F5F5F5F5F5F5F5F5F5F5F5F5F5F5F5F5F5F5F5F5F5F5F5F5F5F5F5F5F5F5F5F5F5F5F5F5F5F5F5F5F5F5F5F5F5F5F5F5F5F5F5F5F5F5F5F5F5F5F5F5F5F5F5F5F5F5F5F5F5F5F5F5F5F5F5F5F5F5F5F5F5F5F5F5F5F5F5F5F5F5F5F5F5F5F5F5F5F52DF5F5F5F5F5F5F5F5F5F5F5F5F5F5F5F5F5F5F5F5
310
E2E2EFE2F5F5F5F5F5F5F5F5F5F5F5F5F5F5F5F5F5F5F5F52DF5F5F5F5F5F5F5F5F5F5F5F5F5F5F5F5F5F5F5F5F5F5F5F5F5F5F5F5F5F5F5F5F5F5F5F5F5F5F5F5F5F5F5F5F5F5F5F5F5F5F5F5F5F5F5F5F5F5F5F5F5F5F5F5F5F5F5F5F5F5F5F5F5F5F5F5F5F5F5F5F5F5F5F5F5F5F5F5F5F5F5F5F5F5F5F5F5F5F5F5F5F5
310
F5F5F5F5F5F5F5F5F5F5F5F5F5F5F5F5F5F5F5F5F5F5F5F5F5F5F5F5F5F5F5F52DF5F5F5F5F5F5F5F5F5F5F5F5F5F5F5F5F5F5F5F5E2E2EFE2F5F5F5F5F5F5F5F5F5F5F5F5F5F5F5F5F5F5F5F52DF5F5F5F5F5F5F5F5F5F5F5F5F5F5F5F5F5F5F5F5F5F5F5F5F5F5F5F5F5F5F5F5F5F5F5F5F5F5F5F5F5F5F5F5F5F5F5F5F5
310
F5F5F5F5F5F5F5F5F5F5F5F5F5F5F5F5F5F5F5F5F5F5F5F5F5F5F5F5F5F5F5F5F5F5F5F5F5F5F5F5F5F5F5F5F5F5F5F5F5F5F5F5F5F5F5F5F5F5F5F5F5F5F5F5F5F5F5F5F5F5F5F5F5F5F5F5F5F5F5F5F5F5F5F5F52DF5F5F5F5F5F5F5F5F5F5F5F5F5F5F5F5F5F5F5F5E2E2EFE2F5F5F5F5F5F5F5F5F5F5F5F5F5F5F5F5F5
310
F5F5F52DF5F5F5F5F5F5F5F5F5F5F5F5F5F5F5F5F5F5F5F5F5F5F5F5F5F5F5F5F5F5F5F5F5F5F5F5F5F5F5F5F5F5F5F5F5F5F5F5F5F5F5F5F5F5F5F5F5F5F5F5F5F5F5F5F5F5F5F5F5F5F5F5F5F5F5F5F5F5F5F5F5F5F5F5F5F5F5F5F5F5F5F5F5F5F5F5F5F5F5F5F5F5F5F5F5F5F5F5F5F5F5F5F5F5F5F5F5F5F5F5F5F5F5
310
F5F5F5F5F5F5F5F5F5F5F52DF5F5F5F5F5F5F5F5F5F5F5F5F5F5F5F5F5F5F5F5E2E2EFE2F5F5F5F5F5F5F5F5F5F5F5F5F5F5F5F5F5F5F5F52DF5F5F5F5F5F5F5F5F5F5F5F5F5F5F5F5F5F5F5F5F5F5F5F5F5F5F5F5F5F5F5F5F5F5F5F5F5F5F5F5F5F5F5F5F5F5F5F5F5F5F5F5F5F5F5F5F5F5F5F5F5F5F5F5F5F5F5F5F5F5
310
F5F5F5F5F5F5F5F5F5F5F5F5F5F5F5F5F5F5F5F5F5F5F5F5F5F5F5F5F5F5F5F5F5F5F5F5F5F5F5F5F5F5F5F5F5F5F5F5F5F5F5F5F5F5F5F5F5F5F5F5F5F5F5F52DF5F5F5F5F5F5F5F5F5F5F5F5F5F5F5F5F5F5F5F5E2E2EFE2F5F5F5F5F5F5F5F5F5F5F5F5F5F5F5F5F5F5F5F52DF5F5F5F5F5F5F5F5F5F5F5F5F5F5F5F5F5
310
F5F5F5F5F5F5F5F5F5F5F5F5F5F5F5F5F5F5F5F5F5F5F5F5F5F5F5F5F5F5F5F5F5F5F5F5F5F5F5F5F5F5F5F5F5F5F5F5F5F5F5F5F5F5F5F5F5F5F5F5F5F5F5F5F5F5F5F5F5F5F5F5F5F5F5F5F5F5F5F5F5F5F5F5F5F5F5F5F5F5F5F5F5F5F5F5F5F5F5F5F5F5F5F5F5F5F5F5F5F5F5F5F5F5F5F5F52DF5F5F5F5F5F5F5F5F5
310
F5F5F5F5F5F5F5F5F5F5F5E2E2EFE2F5F5F5E2F5F5F5F5F5F5F5F5F5F5F5F5F5F5F5F52DF5F5F5F5F5F5F5F5F5F5F5F5F5F5F5F5F5F5F5F5F5F5F5F5F5F5F5F5F5F5F5F5F5F5F5F5F5F5F5F5F5F5F5F5F5F5F5F5F5F5F5F5F5F5F5F5F5F5F5F5F5F5F5F5F5F5F5F5F5F5F5F5F5F5F5F5F5F5F5F5F5F5F5F5F5F5F5F5F5F5F5
310
F5F5F5F5F5F5F5F5F5F5F5F5F5F5F5F5F5F5F5F5F5F5F5F5F5F5F5F5F5F5F5F5F5F5F5F5F5F5F5F5F5F5F52DF5F5F5F5F5F5F5F5F5F5F5F5F5F5F5F5E2F5F5F5E2E2EFE2F5F5F5E2F5F5F5F5F5F5F5F5F5F5F5F5F5F5F5F52DF5F5F5F5F5F5F5F5F5F5F5F5F5F5F5F5F5F5F5F5F5F5F5F5F5F5F5F5F5F5F5F5F5F5F5F5F5F5
310
F5F5F5F5F5F5F5F5F5F5F5F5F5F5F5F5F5F5F5F5F5F5F5F5F5F5F5F5F5F5F5F5F5F5F5F5F5F5F5F5F5F5F5F5F5F5F5F5F5F5F5F5F5F5F5F5F5F5F5F5F5F5F5F5F5F5F5F5F5F5F5F5F5F5F5F5F5F5F5F5F5F5F5F5F5F5F5F5F5F5F5F5F5F5F5F52DF5F5F5F5F5F5F5F5F5F5F5F5F5F5F5F5E2F5F5F5E2E2EFE2F5F5F5E2F5F5
310
F5F5F5F5F5F5F5F5F5F5F5F5F5F52DF5F5F5F5F5F5F5F5F5F5F5F5F5F5F5F5F5F5F5F5F5F5F5F5F5F5F5F5F5F5F5F5F5F5F5F5F5F5F5F5F5F5F5F5F5F5F5F5F5F5F5F5F5F5F5F5F5F5F5F5F5F5F5F5F5F5F5F5F5F5F5F5F5F5F5F5F5F5F5F5F5F5F5F5F5F5F5F5F5F5F5F5F5F5F5F5F5F5F5F5F5F5F5F5F5F5F5F5F5F5F5F5
310
F5F5F5F5F5F5F5F5F5F5F5F5F5F5F5F5F5F5F5F5F5F52DF5F5F5F5F5F5F5F5F5F5F5F5F5F5F5F5E2F5F5F5E2E2EFE2F5F5F5E2F5F5F5F5F5F5F5F5F5F5F5F5F5F5F5F52DF5F5F5F5F5F5F5F5F5F5F5F5F5F5F5F5F5F5F5F5F5F5F5F5F5F5F5F5F5F5F5F5F5F5F5F5F5F5F5F5F5F5F5F5F5F5F5F5F5F5F5F5F5F5F5F5F5F5F5
310
F5F5F5F5F5F5F5F5F5F5F5F5F5F5F5F5F5F5F5F5F5F5F5F5F5F5F5F5F5F5F5F5F5F5F5F5F5F5F5F5F5F5F5F5F5F5F5F5F5F5F5F5F5F5F5F5F5F5F5F5F5F5F5F5F5F5F5F5F5F5F5F5F5F5F52DF5F5F5F5F5F5F5F5F5F5F5F5F5F5F5F5E2F5F5F5E2E2EFE2F5F5F5E2F5F5F5F5F5F5F5F5F5F5F5F5F5F5F5F52DF5F5F5F5F5F5
310
F5F5F5F5F5F5F5F5F5F5F5F5F5F5F5F5F5F5F5F5F5F5F5F5F5F5F5F5F5F5F5F5F5F5F5F5F5F5F5F5F5F5F5F5F5F5F5F5F5F5F5F5F5F5F5F5F5F5F5F5F5F5F5F5F5F5F5F5F5F5F5F5F5F5F5F5F5F5F5F5F5F5F5F5F5F5F5F5F5F5F5F5F5F5F5F5F5F5F5F5F5F5F5F5F5F5F5F5F5F5F5F5F5F5F5F5F5F5F5F5F5F5F5F5F5F5F5
310
F52DF5F5F5F5F5F5F5F5F5F5F5F5F5F5F5F5E2F5F5F5E2E2EFE2F5F5F5E2F5F5F5F5F5F5F5F5F5F5F5F5F5F5F5F52DF5F5F5F5F5F5F5F5F5F5F5F5F5F5F5F5F5F5F5F5F5F5F5F5F5F5F5F5F5F5F5F5F5F5F5F5F5F5F5F5F5F5F5F5F5F5F5F5F5F5F5F5F5F5F5F5F5F5F5F5F5F5F5F5F5F5F5F5F5F5F5F5F5F5F5F5F5F5F5F5
310
F5F5F5F5F5F5F5F5F5F5F5F5F5F5F5F5F5F5F5F5F5F5F5F5F5F5F5F5F5F5F5F5F5F5F5F5F5F5F5F5F5F5F5F5F5F5F5F5F5F5F5F5F5F52DF5F5F5F5F5F5F5F5F5F5F5F5F5F5F5F5E2F5F5F5E2E2EFE2F5F5F5E2F5F5F5F5F5F5F5F5F5F5F5F5F5F5F5F52DF5F5F5F5F5F5F5F5F5F5F5F5F5F5F5F5F5F5F5F5F5F5F5F5F5F5F5
310
F5F5F5F5F5F5F5F5F5F5F5F5F5F5F5F5F5F5F5F5F5F5F5F5F5F5F5F5F5F5F5F5F5F5F5F5F5F5F5F5F5F5F5F5F5F5F5F5F5F5F5F5F5F5F5F5F5F5F5F5F5F5F5F5F5F5F5F5F5F5F5F5F5F5F5F5F5F5F5F5F5F5F5F5F5F5F5F5F5F5F5F5F5F5F5F5F5F5F5F5F5F5F5F5F5F5F52DF5F5F5F5F5F5F5F5F5F5F5F5F5F5F5F5E2F5F5
310
F5E2E2EFE2F5F5F5E2F5F5F5F5F5F5F5F5F5F5F5F5F5F5F5F52DF5F5F5F5F5F5F5F5F5F5F5F5F5F5F5F5F5F5F5F5F5F5F5F5F5F5F5F5F5F5F5F5F5F5F5F5F5F5F5F5F5F5F5F5F5F5F5F5F5F5F5F5F5F5F5F5F5F5F5F5F5F5F5F5F5F5F5F5F5F5F5F5F5F5F5F5F5F5F5F5F5F5F5F5F5F5F5F5F5F5F5F5F5F5F5F5F5F5F5F5F5
310
F5F5F5F5F5F5F5F5F5F5F5F5F5F5F5F5F5F5F5F5F5F5F5F5F5F5F5F5F5F5F5F5F52DF5F5F5F5F5F5F5F5F5F5F5F5F5F5F5F5E2F5F5F5E2E2EFE2F5F5F5E2F5F5F5F5F5F5F5F5F5F5F5F5F5F5F5F52DF5F5F5F5F5F5F5F5F5F5F5F5F5F5F5F5F5F5F5F5F5F5F5F5F5F5F5F5F5F5F5F5F5F5F5F5F5F5F5F5F5F5F5F5F5F5F5F5
310
F5F5F5F5F5F5F5F5F5F5F5F5F5F5F5F5F5F5F5F5F5F5F5F5F5F5F5F5F5F5F5F5F5F5F5F5F5F5F5F5F5F5F5F5F5F5F5F5F5F5F5F5F5F5F5F5F5F5F5F5F5F5F5F5F5F5F5F5F5F5F5F5F5F5F5F5F5F5F5F5F5F5F5F5F5F52DF5F5F5F5F5F5F5F5F5F5F5F5F5F5F5F5E2F5F5F5E2E2EFE2F5F5F5E2F5F5F5F5F5F5F5F5F5F5F5F5
310
F5F5F5F52DF5F5F5F5F5F5F5F5F5F5F5F5F5F5F5F5F5F5F5F5F5F5F5F5F5F5F5F5F5F5F5F5F5F5F5F5F5F5F5F5F5F5F5F5F5F5F5F5F5F5F5F5F5F5F5F5F5F5F5F5F5F5F5F5F5F5F5F5F5F5F5F5F5F5F5F5F5F5F5F5F5F5F5F5F5F5F5F5F5F5F5F5F5F5F5F5F5F5F5F5F5F5F5F5F5F5F5F5F5F5F5F5F5F5F5F5F5F5F5F5F5F5
310
F5F5F5F5F5F5F5F5F5F5F5F52DF5F5F5F5F5F5F5F5F5F5F5F5F5F5F5F5E2F5F5F5E2E2EFE2F5F5F5E2F5F5F5F5F5F5F5F5F5F5F5F5F5F5F5F52DF5F5F5F5F5F5F5F5F5F5F5F5F5F5F5F5F5F5F5F5F5F5F5F5F5F5F5F5F5F5F5F5F5F5F5F5F5F5F5F5F5F5F5F5F5F5F5F5F5F5F5F5F5F5F5F5F5F5F5F5F5F5F5F5F5F5F5F5F5
310
F5F5F5F5F5F5F5F5F5F5F5F5F5F5F5F5F5F5F5F5F5F5F5F5F5F5F5F5F5F5F5F5F5F5F5F5F5F5F5F5F5F5F5F5F5F5F5F5F5F5F5F5F5F5F5F5F5F5F5F5F5F5F5F5F52DF5F5F5F5F5F5F5F5F5F5F5F5F5F5F5F5E2F5F5F5E2E2EFE2F5F5F5E2F5F5F5F5F5F5F5F5F5F5F5F5F5F5F5F52DF5F5F5F5F5F5F5F5F5F5F5F5F5F5F5F5
310
F5F5F5F5F5F5F5F5F5F5F5F5F5F5F5F5F5F5F5F5F5F5F5F5F5F5F5F5F5F5F5F5F5F5F5F5F5F5F5F5F5F5F5F5F5F5F5F5F5F5F5F5F5F5F5F5F5F5F5F5F5F5F5F5F5F5F5F5F5F5F5F5F5F5F5F5F5F5F5F5F5F5F5F5F5F5F5F5F5F5F5F5F5F5F5F5F5F5F5F5F5F5F5F5F5F5F5F5F5F5F5F5F5F5F5F5F5F52DF5F5F5F5F5F5F5F5
310
F5F5F5F5F5F5F5F5E2F5F5F5E2E2EFE2F5F5F5E2F5F5F5F5F5F5F5F5F5F5F5F5F5F5F5F52DF5F5F5F5F5F5F5F5F5F5F5F5F5F5F5F5F5F5F5F5F5F5F5F5F5F5F5F5F5F5F5F5F5F5F5F5F5F5F5F5F5F5F5F5F5F5F5F5F5F5F5F5F5F5F5F5F5F5F5F5F5F5F5F5F5F5F5F5F5F5F5F5F5F5F5F5F5F5F5F5F5F5F5F5F5F5F5F5F5F5
310
F5F5F5F5F5F5F5F5F5F5F5F5F5F5F5F5F5F5F5F5F5F5F5F5F5F5F5F5F5F5F5F5F5F5F5F5F5F5F5F5F5F5F5F52DF5F5F5F5F5F5F5F5F5F5F5F5F5F5F5F5E2F5F5F5E2E2EFE2F5F5F5E2F5F5F5F5F5F5F5F5F5F5F5F5F5F5F5F52DF5F5F5F5F5F5F5F5F5F5F5F5F5F5F5F5F5F5F5F5F5F5F5F5F5F5F5F5F5F5F5F5F5F5F5F5F5
310
F5F5F5F5F5F5F5F5F5F5F5F5F5F5F5F5F5F5F5F5F5F5F5F5F5F5F5F5F5F5F5F5F5F5F5F5F5F5F5F5F5F5F5F5F5F5F5F5F5F5F5F5F5F5F5F5F5F5F5F5F5F5F5F5F5F5F5F5F5F5F5F5F5F5F5F5F5F5F5F5F5F5F5F5F5F5F5F5F5F5F5F5F5F5F5F5F52DF5F5F5F5F5F5F5F5F5F5F5F5F5F5F5F5E2F5F5F5E2E2EFE2F5F5F5E2F5
310
F5F5F5F5F5F5F5F5F5F5F5F5F5F5F52DF5F5F5F5F5F5F5F5F5F5F5F5F5F5F5F5F5F5F5F5F5F5F5F5F5F5F5F5F5F5F5F5F5F5F5F5F5F5F5F5F5F5F5F5F5F5F5F5F5F5F5F5F5F5F5F5F5F5F5F5F5F5F5F5F5F5F5F5F5F5F5F5F5F5F5F5F5F5F5F5F5F5F5F5F5F5F5F5F5F5F5F5F5F5F5F5F5F5F5F5F5F5F5F5F5F5F5F5F5F5F5
310
F5F5F5F5F5F5F5F5F5F5F5F5F5F5F5F5F5F5F5F5F5F5F52DF5F5F5F5F5F5F5F5F5F5F5F5F5F5F5F5E2F5F5F5E2E2EFE2F5F5F5E2F5F5F5F5F5F5F5F5F5F5F5F5F5F5F5F52DF5F5F5F5F5F5F5F5F5F5F5F5F5F5F5F5F5F5F5F5F5F5F5F5F5F5F5F5F5F5F5F5F5F5F5F5F5F5F5F5F5F5F5F5F5F5F5F5F5F5F5F5F5F5F5F5F5F5
310
F5F5F5F5F5F5F5F5F5F5F5F5F5F5F5F5F5F5F5F5F5F5F5F5F5F5F5F5F5F5F5F5F5F5F5F5F5F5F5F5F5F5F5F5F5F5F5F5F5F5F5F5F5F5F5F5F5F5F5F5F5F5F5F5F5F5F5F5F5F5F5F5F5F5F5F52DF5F5F5F5F5F5F5F5F5F5F5F5F5F5F5F5E2F5F5F5E2E2EFE2F5F5F5E2F5F5F5F5F5F5F5F5F5F5F5F5F5F5F5F52DF5F5F5F5F5
310
F5F5F5F5F5F5F5F5F5F5F5F5F5F5F5F5F5F5F5F5F5F5F5F5F5F5F5F5F5F5F5F5F5F5F5F5F5F5F5F5F5F5F5F5F5F5F5F5F5F5F5F5F5F5F5F5F5F5F5F5F5F5F5F5F5F5F5F5F5F5F5F5F5F5F5F5F5F5F5F5F5F5F5F5F5F5F5F5F5F5F5F5F5F5F5F5F5F5F5F5F5F5F5F5F5F5F5F5F5F5F5F5F5F5F5F5F5F5F5F5F5F5F5F5F5F5F5
310
F5F52DF5F5F5F5F5F5F5F5F5F5F5F5F5F5F5F5E2F5F5F5E2E2EFE2F5F5F5F5F5F5F5F5F5F5F5F5F5F5F5F5F5F5F5F52DF5F5F5F5F5F5F5F5F5F5F5F5F5F5F5F5F5F5F5F5F5F5F5F5F5F5F5F5F5F5F5F5F5F5F5F5F5F5F5F5F5F5F5F5F5F5F5F5F5F5F5F5F5F5F5F5F5F5F5F5F5F5F5F5F5F5F5F5F5F5F5F5F5F5F5F5F5F5F5
310
F5F5F5F5F5F5F5F5F5F5F5F5F5F5F5F5F5F5F5F5F5F5F5F5F5F5F5F5F5F5F5F5F5F5F5F5F5F5F5F5F5F5F5F5F5F5F5F5F5F5F5F5F5F5F52DF5F5F5F5F5F5F5F5F5F5F5F5F5F5F5F5F5F5F5F5E2E2EFE2F5F5F5F5F5F5F5F5F5F5F5F5F5F5F5F5F5F5F5F52DF5F5F5F5F5F5F5F5F5F5F5F5F5F5F5F5F5F5F5F5F5F5F5F5F5F5
310
F5F5F5F5F5F5F5F5F5F5F5F5F5F5F5F5F5F5F5F5F5F5F5F5F5F5F5F5F5F5F5F5F5F5F5F5F5F5F5F5F5F5F5F5F5F5F5F5F5F5F5F5F5F5F5F5F5F5F5F5F5F5F5F5F5F5F5F5F5F5F5F5F5F5F5F5F5F5F5F5F5F5F5F5F5F5F5F5F5F5F5F5F5F5F5F5F5F5F5F5F5F5F5F5F5F5F5F52DF5F5F5F5F5F5F5F5F5F5F5F5F5F5F5F5F5F5
310
F5F5E2E2EFE2F5F5F5F5F5F5F5F5F5F5F5F5F5F5F5F5F5F5F5F52DF5F5F5F5F5F5F5F5F5F5F5F5F5F5F5F5F5F5F5F5F5F5F5F5F5F5F5F5F5F5F5F5F5F5F5F5F5F5F5F5F5F5F5F5F5F5F5F5F5F5F5F5F5F5F5F5F5F5F5F5F5F5F5F5F5F5F5F5F5F5F5F5F5F5F5F5F5F5F5F5F5F5F5F5F5F5F5F5F5F5F5F5F5F5F5F5F5F5F5F5
310
F5F5F5F5F5F5F5F5F5F5F5F5F5F5F5F5F5F5F5F5F5F5F5F5F5F5F5F5F5F5F5F5F5F52DF5F5F5F5F5F5F5F5F5F5F5F5F5F5F5F5F5F5F5F5E2E2EFE2F5F5F5F5F5F5F5F5F5F5F5F5F5F5F5F5F5F5F5F52DF5F5F5F5F5F5F5F5F5F5F5F5F5F5F5F5F5F5F5F5F5F5F5F5F5F5F5F5F5F5F5F5F5F5F5F5F5F5F5F5F5F5F5F5F5F5F5
310
F5F5F5F5F5F5F5F5F5F5F5F5F5F5F5F5F5F5F5F5F5F5F5F5F5F5F5F5F5F5F5F5F5F5F5F5F5F5F5F5F5F5F5F5F5F5F5F5F5F5F5F5F5F5F5F5F5F5F5F5F5F5F5F5F5F5F5F5F5F5F5F5F5F5F5F5F5F5F5F5F5F5F5F5F5F5F52DF5F5F5F5F5F5F5F5F5F5F5F5F5F5F5F5F5F5F5F5E2E2EFE2F5F5F5F5F5F5F5F5F5F5F5F5F5F5F5
310
F5F5F5F5F52D2D2D2D2D2D2D2D2D2D2D2D2D2D2D2D2D2D2D2D2D2D2D2D2D2D2D2D2D2D2D2D2D2D2D2D2D2D2D2D2D2D2D2D2D2D2D2D2D2D2D2D2D2D2D2D2D2D2D2D2D2D2D2D2D2D2D2D2D2D2D2D2D2D2D2D2D2D2D2D2D2D2D2D2D2D2D2D2D2D2D2D2D2D2D2D2D2D2D2D2D2D2D2D2D2D2D2D2D2D2D2D2D2D2D2D2D2D2D2D2D2D
310
2D2D2D2D2D2D2D2D2D2D2D2D2D2DF5F5F5F5F5F5F5F5F5F5F5F5F5F5F5F5F5F5F5F5E2E2EFE2F5F5F5F5F5F5F5F5F5F5F5F5F5F5F5F5F5F5F5F5F5F5F5F5F5F5F5F5F5F5F5F5F5F5F5F5F5F5F5F5F5F5F5F5F5F5F5F5F5F5F5F5F5F5F5F5F5F5F5F5F5F5F5F5F5F5F5F5F5F5F5F5F5F5F5F5F5F5F5F5F5F5F5F5F5F5F5F5F5
310
F5F5F5F5F5F5F5F5F5F5F5F5F5F5F5F5F5F5F5F5F5F5F5F5F5F5F5F5F5F5F5F5F5F5F5F5F5F5F5F5F5F5F5F5F5F5F5F5F5F5F5F5F5F5F5F5F5F5F5F5F5F5F5F5F5F5F5F5F5F5F5F5F5F5F5F5F5F5F5F5F5F5F5F5F5F5F5E2E2EFE2F5F5F5F5F5F5F5F5F5F5F5F5F5F5F5F5F5F5F5F5F5F5F5F5F5F5F5F5F5F5F5F5F5F5F5F5
310
F5F5F5F5F5F5F5F5F5F5F5F5F5F5F5F5F5F5F5F5F5F5F5F5F5F5F5F5F5F5F5F5F5F5F5F5F5F5F5F5F5F5F5F5F5F5F5F5F5F5F5F5F5F5F5F5F5F5F5F5F5F5F5F5F5F5F5F5F5F5F5F5F5F5F5F5F5F5F5F5F5F5F5F5F5F5F5F5F5F5F5F5F5F5F5F5F5F5F5F5F5F5F5F5F5F5F5F5F5F5F5F5F5F5F5F5F5F5F5F5F5F5F5F5F5F5F5
310
F5F5F5F5F5F5F5F5F5F5F5F5F5E2E2EFE2F5F5F5F5F5F5F5F5F5F5F5F5F5F5F5F5F5F5F5F5F5F5F5F5F5F5F5F5F5F5F5F5F5F5F5F5F5F5F5F5F5F5F5F5F5F5F5F5F5F5F5F5F5F5F5F5F5F5F5F5F5F5F5F5F5F5F5F5F5F5F5F5F5F5F5F5F5F5F5F5F5F5F5F5F5F5F5F5F5F5F5F5F5F5F5F5F5F5F5F5F5F5F5F5F5F5F5F5F5F5
310
F5F5F5F5F5F5F5F5F5F5F5F5F5F5F5F5F5F5F5F5F5F5F5F5F5F5F5F5F5F5F5F5F5F5F5F5F5F5F5F5F5F5F5F5F5F5F5F5F5F5F5F5F5F5F5F5F5F5F5F5F5F5F5F5F5F5E2E2EFE2F5F5F5F5F5F5F5F5F5F5F5F5F5F5F5F5F5F5F5F5F5F5F5F5F5F5F5F5F5F5F5F5F5F5F5F5F5F5F5F5F5F5F5F5F5F5F5F5F5F5F5F5F5F5F5F5F5
310
F5F5F5F5F5F5F5F5F5F5F5F5F5F5F5F5F5F5F5F5F5F5F5F5F5F5F5F5F5F5F5F5F5F5F5F5F5F5F5F5F5F5F5F5F5F5F5F5F5F5F5F5F5F5F5F5F5F5F5F5F5F5F5F5F5F5F5F5F5F5F5F5F5F5F5F5F5F5F5F5F5F5F5F5F5F5F5F5F5F5F5F5F5F5F5F5F5F5F5F5F5F5F5F5F5F5F5F5F5F5F5F5F5F5F5F5F5F5F5E2E2EFE2F5F5F5E2
310
F5F5F5F5F5F5F5F5F5F5F5F5F5F5F5F5F5F5F5F5F5F5F5F5F5F5F5F5F5F5F5F5F5F5F5F5F5F5F5F5F5F5F5F5F5F5F5F5F5F5F5F5F5F5F5F5F5F5F5F5F5F5F5F5F5F5F5F5F5F5F5F5F5F5F5F5F5F5F5F5F5F5F5F5F5F5F5F5F5F5F5F5F5F5F5F5F5F5F5F5F5F5F5F5F5F5F5F5F5F5F5F5F5F5F5F5F5F5F5F5F5F5F5F5F5F5F5
310
F5F5F5F5F5F5F5F5F5F5F5F5F5F5F5F5F5F5F5F5F5F5F5F5F5F5F5F5F5F5F5F5F5F5F5F5F5F5F5F5F5E2F5F5F5E2E2EFE2F5F5F5E2F5F5F5F5F5F5F5F5F5F5F5F5F5F5F5F5F5F5F5F5F5F5F5F5F5F5F5F5F5F5F5F5F5F5F5F5F5F5F5F5F5F5F5F5F5F5F5F5F5F5F5F5F5F5F5F5F5F5F5F5F5F5F5F5F5F5F5F5F5F5F5F5F5F5
310
F5F5F5F5F5F5F5F5F5F5F5F5F5F5F5F5F5F5F5F5F5F5F5F5F5F5F5F5F5F5F5F5F5F5F5F5F5F5F5F5F5F5F5F5F5F5F5F5F5F5F5F5F5F5F5F5F5F5F5F5F5F5F5F5F5F5F5F5F5F5F5F5F5F5F5F5F5F5F5F5F5F5F5F5F5F5F5F5F5F5F5F5F5F5E2F5F5F5E2E2EFE2F5F5F5E2F5F5F5F5F5F5F5F5F5F5F5F5F5F5F5F5F5F5F5F5F5
310
F5F5F5F5F5F5F5F5F5F5F5F5F5F5F5F5F5F5F5F5F5F5F5F5F5F5F5F5F5F5F5F5F5F5F5F5F5F5F5F5F5F5F5F5F5F5F5F5F5F5F5F5F5F5F5F5F5F5F5F5F5F5F5F5F5F5F5F5F5F5F5F5F5F5F5F5F5F5F5F5F5F5F5F5F5F5F5F5F5F5F5F5F5F5F5F5F5F5F5F5F5F5F5F5F5F5F5F5F5F5F5F5F5F5F5F5F5F5F5F5F5F5F5F5F5F5F5
310
F5F5F5F5F5F5F5F5F5F5F5F5F5F5F5F5F5F5F5F5E2F5F5F5E2E2EFE2F5F5F5E2F5F5F5F5F5F5F5F5F5F5F5F5F5F5F5F5F5F5F5F5F5F5F5F5F5F5F5F5F5F5F5F5F5F5F5F5F5F5F5F5F5F5F5F5F5F5F5F5F5F5F5F5F5F5F5F5F5F5F5F5F5F5F5F5F5F5F5F5F5F5F5F5F5F5F5F5F5F5F5F5F5F5F5F5F5F5F5F5F5F5F5F5F5F5F5
310
F5F5F5F5F5F5F5F5F5F5F5F5F5F5F5F5F5F5F5F5F5F5F5F5F5F5F5F5F5F5F5F5F5F5F5F5F5F5F5F5F5F5F5F5F5F5F5F5F5F5F5F5F5F5F5F5F5F5F5F5F5F5F5F5F5F5F5F5F5F5F5F5F5E2F5F5F5E2E2EFE2F5F5F5E2F5F5F5F5F5F5F5F5F5F5F5F5F5F5F5F5F5F5F5F5F5F5F5F5F5F5F5F5F5F5F5F5F5F5F5F5F5F5F5F5F5F5
310
F5F5F5F5F5F5F5F5F5F5F5F5F5F5F5F5F5F5F5F5F5F5F5F5F5F5F5F5F5F5F5F5F5F5F5F5F5F5F5F5F5F5F5F5F5F5F5F5F5F5F5F5F5F5F5F5F5F5F5F5F5F5F5F5F5F5F5F5F5F5F5F5F5F5F5F5F5F5F5F5F5F5F5F5F5F5F5F5F5F5F5F5F5F5F5F5F5F5F5F5F5F5F5F5F5F5F5F5F5F5F5F5F5F5F5F5F5F5F5F5F5F5F5F5F5F5E2
310
F5F5F5E2E2EFE2F5F5F5E2F5F5F5F5F5F5F5F5F5F5F5F5F5F5F5F5F5F5F5F5F5F5F5F5F5F5F5F5F5F5F5F5F5F5F5F5F5F5F5F5F5F5F5F5F5F5F5F5F5F5F5F5F5F5F5F5F5F5F5F5F5F5F5F5F5F5F5F5F5F5F5F5F5F5F5F5F5F5F5F5F5F5F5F5F5F5F5F5F5F5F5F5F5F5F5F5F5F5F5F5F5F5F5F5F5F5F5F5F5F5F5F5F5F5F5F5
310
F5F5F5F5F5F5F5F5F5F5F5F5F5F5F5F5F5F5F5F5F5F5F5F5F5F5F5F5F5F5F5F5F5F5F5F5F5F5F5F5F5F5F5F5F5F5F5F5F5F5F5F5E2F5F5F5E2E2EFE2F5F5F5E2F5F5F5F5F5F5F5F5F5F5F5F5F5F5F5F5F5F5F5F5F5F5F5F5F5F5F5F5F5F5F5F5F5F5F5F5F5F5F5F5F5F5F5F5F5F5F5F5F5F5F5F5F5F5F5F5F5F5F5F5F5F5F5
310
F5F5F5F5F5F5F5F5F5F5F5F5F5F5F5F5F5F5F5F5F5F5F5F5F5F5F5F5F5F5F5F5F5F5F5F5F5F5F5F5F5F5F5F5F5F5F5F5F5F5F5F5F5F5F5F5F5F5F5F5F5F5F5F5F5F5F5F5F5F5F5F5F5F5F5F5F5F5F5F5F5F5F5F5F5F5F5F5F5F5F5F5F5F5F5F5F5F5F5F5F5F5F5F5F5E2F5F5F5E2E2EFE2F5F5F5E2F5F5F5F5F5F5F5F5F5F5
310
F5F5F5F5F5F5F5F5F5F5F5F5F5F5F5F5F5F5F5F5F5F5F5F5F5F5F5F5F5F5F5F5F5F5F5F5F5F5F5F5F5F5F5F5F5F5F5F5F5F5F5F5F5F5F5F5F5F5F5F5F5F5F5F5F5F5F5F5F5F5F5F5F5F5F5F5F5F5F5F5F5F5F5F5F5F5F5F5F5F5F5F5F5F5F5F5F5F5F5F5F5F5F5F5F5F5F5F5F5F5F5F5F5F5F5F5F5F5F5F5F5F5F5F5F5F5F5
310
F5F5F5F5F5F5F5F5F5F5F5F5F5F5F5F5F5F5F5F5F5F5F5F5F5F5F5F5F5F5F5E2F5F5F5E2E2EFE2F5F5F5E2E2E2E2E2E2E2E2F5F5F5F5F5F5F5F5F5E2E2E2E2E2E2E2E2E2E2E2E2E2E2E2F5F5F5F5F5F5F5F5F5E2E2E2E2E2E2E2E2E2E2E2E2E2E2E2E2F5F5F5F5F5F5F5F5E2E2E2E2E2E2E2E2E2E2E2E2E2E2E2E2F5F5F5F5
310
F5F5F5F5E2E2E2E2E2E2E2E2E2E2E2E2E2E2E2E2F5F5F5F5F5F5F5F5E2E2E2E2E2E2E2E2E2E2E2E2E2E2E2E2F5F5F5F5F5F5F5F5F5E2E2E2E2E2E2E2E2E2E2E2E2E2E2E2F5F5F5F5F5F5F5F5F5E2E2E2E2E2E2E2E2F5F5F5E2E2EFE2F5F5F5F5F5F5F5F5F5F5F5F5F5F5F5F5F5F5F5F5F5F5F5F5F5F5F5F5F5F5F5F5F5F5F5
310
F5F5F5F5F5F5F5F5F5F5F5F5F5F5F5F5F5F5F5F5F5F5F5F5F5F5F5F5F5F5F5F5F5F5F5F5F5F5F5F5F5F5F5F5F5F5F5F5F5F5F5F5F5F5F5F5F5F5F5F5F5F5F5F5F5F5F5F5F5F5F5F5F5F5F5F5F5F5F5F5F5F5F5F5F5F5F5F5F5F5F5F5F5F5F5F5F5F5F5F5F5F5F5F5F5F5F5F5F5F5F5F5F5F5F5F5F5F5F5F5F5F5F5F5F5F5F5
310
F5F5F5F5F5F5F5F5F5F5F5F5F5F5E2E2EFE2F5F5F5F5F5F5F5F5F5F5F5F5F5F5F5F5F5F5F5F5F5F5F5F5F5F5F5F5F5F5F5F5F5F5F5F5F5F5F5F5F5F5F5F5F5F5F5F5F5F5F5F5F5F5F5F5F5F5F5F5F5F5F5F5F5F5F5F5F5F5F5F5F5F5F5F5F5F5F5F5F5F5F5F5F5F5F5F5F5F5F5F5F5F5F5F5F5F5F5F5F5F5F5F5F5F5F5F5F5
310
F5F5F5F5F5F5F5F5F5F5F5F5F5F5F5F5F5F5F5F5F5F5F5F5F5F5F5F5F5F5F5F5F5F5F5F5F5F5F5F5F5F5F5F5F5F5F5F5F5F5F5F5F5F5F5F5F5F5F5F5F5F5F5F5F5F5F5E2EFEFE2F5F5F5F5F5F5F5F5F5F5F5F5F5F5F5F5F5F5F5F5F5F5F5F5F5F5F5F5F5F5F5F5F5F5F5F5F5F5F5F5F5F5F5F5F5F5F5F5F5F5F5F5F5F5F5F5
310
F5F5F5F5F5F5F5F5F5F5F5F5F5F5F5F5F5F5F5F5F5F5F5F5F5F5F5F5F5F5F5F5F5F5F5F5F5F5F5F5F5F5F5F5F5F5F5F5F5F5F5F5F5F5F5F5F5F5F5F5F5F5F5F5F5F5F5F5F5F5F5F5F5F5F5F5F5F5F5F5F5F5F5F5F5F5F5F5F5F5F5F5F5F5F5F5F5F5F5F5F5F5F5F5F5F5F5F5F5F5F5F5F5F5F5F5F5F5F5F5E2EFEFE2E2E2E2
310
E2E2E2E2E2E2E2E2E2E2E2E2E2E2E2E2E2E2E2E2E2E2E2E2E2E2E2E2E2E2E2E2E2E2E2E2E2E2E2E2E2E2E2E2E2E2E2E2E2E2E2E2E2E2E2E2E2E2E2E2E2E2E2E2E2E2E2E2E2E2E2E2E2E2E2E2E2E2E2E2E2E2E2E2E2E2E2E2E2E2E2E2E2E2E2E2E2E2E2E2E2E2E2E2E2E2E2E2E2E2E2E2E2E2E2E2E2E2E2E2E2E2E2E2E2E2E2
310
E2E2E2E2E2E2E2E2E2E2E2E2E2E2E2E2E2E2E2E2E2E2E2E2E2E2E2E2E2E2E2E2E2E2E2E2E2E2E2E2E2E2E2E2E2E2E2EFEF
  0
ENDSEC
  0
EOF
