  0
SECTION
  2
HEADER
  9
$ACADVER
  1
AC1015
  9
$ACADMAINTVER
 70
     6
  9
$DWGCODEPAGE
  3
ANSI_932
  9
$INSBASE
 10
0.0
 20
0.0
 30
0.0
  9
$EXTMIN
 10
338.8336853698144
 20
181.6529500771607
 30
0.0
  9
$EXTMAX
 10
569.5910716820981
 20
374.4057843122482
 30
0.0
  9
$LIMMIN
 10
0.0
 20
0.0
  9
$LIMMAX
 10
1189.0
 20
841.0
  9
$ORTHOMODE
 70
     0
  9
$REGENMODE
 70
     1
  9
$FILLMODE
 70
     1
  9
$QTEXTMODE
 70
     0
  9
$MIRRTEXT
 70
     1
  9
$LTSCALE
 40
1.0
  9
$ATTMODE
 70
     1
  9
$TEXTSIZE
 40
3.5
  9
$TRACEWID
 40
1.0
  9
$TEXTSTYLE
  7
Standard
  9
$CLAYER
  8
0
  9
$CELTYPE
  6
ByLayer
  9
$CECOLOR
 62
   256
  9
$CELTSCALE
 40
1.0
  9
$DISPSILH
 70
     0
  9
$DIMSCALE
 40
1.0
  9
$DIMASZ
 40
3.302
  9
$DIMEXO
 40
1.0
  9
$DIMDLI
 40
3.75
  9
$DIMRND
 40
0.0
  9
$DIMDLE
 40
0.0
  9
$DIMEXE
 40
1.0
  9
$DIMTP
 40
0.0
  9
$DIMTM
 40
0.0
  9
$DIMTXT
 40
3.5
  9
$DIMCEN
 40
2.5
  9
$DIMTSZ
 40
0.0
  9
$DIMTOL
 70
     0
  9
$DIMLIM
 70
     0
  9
$DIMTIH
 70
     1
  9
$DIMTOH
 70
     1
  9
$DIMSE1
 70
     0
  9
$DIMSE2
 70
     0
  9
$DIMTAD
 70
     1
  9
$DIMZIN
 70
     0
  9
$DIMBLK
  1

  9
$DIMASO
 70
     1
  9
$DIMSHO
 70
     1
  9
$DIMPOST
  1

  9
$DIMAPOST
  1

  9
$DIMALT
 70
     0
  9
$DIMALTD
 70
     3
  9
$DIMALTF
 40
0.0393700787401575
  9
$DIMLFAC
 40
1.0
  9
$DIMTOFL
 70
     1
  9
$DIMTVP
 40
0.0
  9
$DIMTIX
 70
     0
  9
$DIMSOXD
 70
     0
  9
$DIMSAH
 70
     0
  9
$DIMBLK1
  1

  9
$DIMBLK2
  1

  9
$DIMSTYLE
  2
ISO-25
  9
$DIMCLRD
 70
     0
  9
$DIMCLRE
 70
     0
  9
$DIMCLRT
 70
     0
  9
$DIMTFAC
 40
1.0
  9
$DIMGAP
 40
1.524
  9
$DIMJUST
 70
     0
  9
$DIMSD1
 70
     0
  9
$DIMSD2
 70
     0
  9
$DIMTOLJ
 70
     0
  9
$DIMTZIN
 70
     0
  9
$DIMALTZ
 70
     0
  9
$DIMALTTZ
 70
     0
  9
$DIMUPT
 70
     0
  9
$DIMDEC
 70
     2
  9
$DIMTDEC
 70
     2
  9
$DIMALTU
 70
     2
  9
$DIMALTTD
 70
     3
  9
$DIMTXSTY
  7
Standard
  9
$DIMAUNIT
 70
     0
  9
$DIMADEC
 70
     2
  9
$DIMALTRND
 40
0.0
  9
$DIMAZIN
 70
     0
  9
$DIMDSEP
 70
    44
  9
$DIMATFIT
 70
     3
  9
$DIMFRAC
 70
     0
  9
$DIMLDRBLK
  1

  9
$DIMLUNIT
 70
     2
  9
$DIMLWD
 70
    -2
  9
$DIMLWE
 70
    -2
  9
$DIMTMOVE
 70
     0
  9
$LUNITS
 70
     2
  9
$LUPREC
 70
     2
  9
$SKETCHINC
 40
1.0
  9
$FILLETRAD
 40
10.0
  9
$AUNITS
 70
     0
  9
$AUPREC
 70
     2
  9
$MENU
  1
.
  9
$ELEVATION
 40
0.0
  9
$PELEVATION
 40
0.0
  9
$THICKNESS
 40
0.0
  9
$LIMCHECK
 70
     0
  9
$CHAMFERA
 40
0.0
  9
$CHAMFERB
 40
0.0
  9
$CHAMFERC
 40
0.0
  9
$CHAMFERD
 40
0.0
  9
$SKPOLY
 70
     0
  9
$TDCREATE
 40
2458682.537002107
  9
$TDUCREATE
 40
2458682.162002107
  9
$TDUPDATE
 40
2459611.700320533
  9
$TDUUPDATE
 40
2459611.325320533
  9
$TDINDWG
 40
0.0019004167
  9
$TDUSRTIMER
 40
0.0001847685
  9
$USRTIMER
 70
     1
  9
$ANGBASE
 50
0.0
  9
$ANGDIR
 70
     0
  9
$PDMODE
 70
     0
  9
$PDSIZE
 40
-1.0
  9
$PLINEWID
 40
0.0
  9
$SPLFRAME
 70
     0
  9
$SPLINETYPE
 70
     6
  9
$SPLINESEGS
 70
     8
  9
$HANDSEED
  5
698
  9
$SURFTAB1
 70
     6
  9
$SURFTAB2
 70
     6
  9
$SURFTYPE
 70
     6
  9
$SURFU
 70
     6
  9
$SURFV
 70
     6
  9
$UCSBASE
  2

  9
$UCSNAME
  2

  9
$UCSORG
 10
0.0
 20
0.0
 30
0.0
  9
$UCSXDIR
 10
1.0
 20
0.0
 30
0.0
  9
$UCSYDIR
 10
0.0
 20
1.0
 30
0.0
  9
$UCSORTHOREF
  2

  9
$UCSORTHOVIEW
 70
     1
  9
$UCSORGTOP
 10
0.0
 20
0.0
 30
0.0
  9
$UCSORGBOTTOM
 10
0.0
 20
0.0
 30
0.0
  9
$UCSORGLEFT
 10
0.0
 20
0.0
 30
0.0
  9
$UCSORGRIGHT
 10
0.0
 20
0.0
 30
0.0
  9
$UCSORGFRONT
 10
0.0
 20
0.0
 30
0.0
  9
$UCSORGBACK
 10
0.0
 20
0.0
 30
0.0
  9
$PUCSBASE
  2

  9
$PUCSNAME
  2

  9
$PUCSORG
 10
0.0
 20
0.0
 30
0.0
  9
$PUCSXDIR
 10
1.0
 20
0.0
 30
0.0
  9
$PUCSYDIR
 10
0.0
 20
1.0
 30
0.0
  9
$PUCSORTHOREF
  2

  9
$PUCSORTHOVIEW
 70
     0
  9
$PUCSORGTOP
 10
0.0
 20
0.0
 30
0.0
  9
$PUCSORGBOTTOM
 10
0.0
 20
0.0
 30
0.0
  9
$PUCSORGLEFT
 10
0.0
 20
0.0
 30
0.0
  9
$PUCSORGRIGHT
 10
0.0
 20
0.0
 30
0.0
  9
$PUCSORGFRONT
 10
0.0
 20
0.0
 30
0.0
  9
$PUCSORGBACK
 10
0.0
 20
0.0
 30
0.0
  9
$USERI1
 70
     0
  9
$USERI2
 70
     0
  9
$USERI3
 70
     0
  9
$USERI4
 70
     0
  9
$USERI5
 70
     0
  9
$USERR1
 40
0.0
  9
$USERR2
 40
0.0
  9
$USERR3
 40
0.0
  9
$USERR4
 40
0.0
  9
$USERR5
 40
0.0
  9
$WORLDVIEW
 70
     1
  9
$SHADEDGE
 70
     3
  9
$SHADEDIF
 70
    70
  9
$TILEMODE
 70
     1
  9
$MAXACTVP
 70
    64
  9
$PINSBASE
 10
0.0
 20
0.0
 30
0.0
  9
$PLIMCHECK
 70
     0
  9
$PEXTMIN
 10
1.000000000000000E+20
 20
1.000000000000000E+20
 30
1.000000000000000E+20
  9
$PEXTMAX
 10
-1.000000000000000E+20
 20
-1.000000000000000E+20
 30
-1.000000000000000E+20
  9
$PLIMMIN
 10
0.0
 20
0.0
  9
$PLIMMAX
 10
0.0
 20
0.0
  9
$UNITMODE
 70
     0
  9
$VISRETAIN
 70
     1
  9
$PLINEGEN
 70
     0
  9
$PSLTSCALE
 70
     1
  9
$TREEDEPTH
 70
  3020
  9
$CMLSTYLE
  2
Standard
  9
$CMLJUST
 70
     0
  9
$CMLSCALE
 40
20.0
  9
$PROXYGRAPHICS
 70
     1
  9
$MEASUREMENT
 70
     1
  9
$CELWEIGHT
370
    -1
  9
$ENDCAPS
280
     0
  9
$JOINSTYLE
280
     0
  9
$LWDISPLAY
290
     1
  9
$INSUNITS
 70
     4
  9
$HYPERLINKBASE
  1

  9
$STYLESHEET
  1

  9
$XEDIT
290
     1
  9
$CEPSNTYPE
380
     0
  9
$PSTYLEMODE
290
     1
  9
$FINGERPRINTGUID
  2
{1A54AFE4-E985-48C0-86FF-39F61F1616D1}
  9
$VERSIONGUID
  2
{FAEB1C32-E019-11D5-929B-00C0DF256EC4}
  9
$EXTNAMES
290
     1
  9
$PSVPSCALE
 40
0.0
  9
$OLESTARTUP
290
     0
  0
ENDSEC
  0
SECTION
  2
CLASSES
  0
CLASS
  1
ACDBDICTIONARYWDFLT
  2
AcDbDictionaryWithDefault
  3
ObjectDBX Classes
 90
        0
280
     0
281
     0
  0
CLASS
  1
VISUALSTYLE
  2
AcDbVisualStyle
  3
ObjectDBX Classes
 90
     4095
280
     0
281
     0
  0
CLASS
  1
MATERIAL
  2
AcDbMaterial
  3
ObjectDBX Classes
 90
     1153
280
     0
281
     0
  0
CLASS
  1
SCALE
  2
AcDbScale
  3
ObjectDBX Classes
 90
     1153
280
     0
281
     0
  0
CLASS
  1
TABLESTYLE
  2
AcDbTableStyle
  3
ObjectDBX Classes
 90
     4095
280
     0
281
     0
  0
CLASS
  1
MLEADERSTYLE
  2
AcDbMLeaderStyle
  3
ACDB_MLEADERSTYLE_CLASS
 90
     4095
280
     0
281
     0
  0
CLASS
  1
SUN
  2
AcDbSun
  3
SCENEOE
 90
     1153
280
     0
281
     0
  0
CLASS
  1
ACDBPLACEHOLDER
  2
AcDbPlaceHolder
  3
ObjectDBX Classes
 90
        0
280
     0
281
     0
  0
CLASS
  1
LAYOUT
  2
AcDbLayout
  3
ObjectDBX Classes
 90
        0
280
     0
281
     0
  0
CLASS
  1
DICTIONARYVAR
  2
AcDbDictionaryVar
  3
ObjectDBX Classes
 90
        0
280
     0
281
     0
  0
ENDSEC
  0
SECTION
  2
TABLES
  0
TABLE
  2
VPORT
  5
8
330
0
100
AcDbSymbolTable
 70
     1
  0
VPORT
  5
29
330
8
100
AcDbSymbolTableRecord
100
AcDbViewportTableRecord
  2
*Active
 70
     0
 10
0.0
 20
0.0
 11
1.0
 21
1.0
 12
454.2123785259562
 22
278.0293671947036
 13
0.0
 23
0.0
 14
10.0
 24
10.0
 15
10.0
 25
10.0
 16
0.0
 26
0.0
 36
1.0
 17
0.0
 27
0.0
 37
0.0
 40
196.6078909197875
 41
1.972805933250927
 42
50.0
 43
0.0
 44
0.0
 50
0.0
 51
0.0
 71
    16
 72
  2000
 73
     1
 74
     3
 75
     0
 76
     0
 77
     0
 78
     0
281
     0
 65
     1
110
0.0
120
0.0
130
0.0
111
1.0
121
0.0
131
0.0
112
0.0
122
1.0
132
0.0
 79
     1
146
0.0
  0
ENDTAB
  0
TABLE
  2
LTYPE
  5
5
330
0
100
AcDbSymbolTable
 70
     6
  0
LTYPE
  5
14
330
5
100
AcDbSymbolTableRecord
100
AcDbLinetypeTableRecord
  2
ByBlock
 70
     0
  3

 72
    65
 73
     0
 40
0.0
  0
LTYPE
  5
15
330
5
100
AcDbSymbolTableRecord
100
AcDbLinetypeTableRecord
  2
ByLayer
 70
     0
  3

 72
    65
 73
     0
 40
0.0
  0
LTYPE
  5
16
330
5
100
AcDbSymbolTableRecord
100
AcDbLinetypeTableRecord
  2
Continuous
 70
     0
  3
Solid line
 72
    65
 73
     0
 40
0.0
  0
LTYPE
  5
6E
330
5
100
AcDbSymbolTableRecord
100
AcDbLinetypeTableRecord
  2
HIDDEN
 70
     0
  3
Hidden __ __ __ __ __ __ __ __ __ __ __ __ __ __
 72
    65
 73
     2
 40
1.905
 49
1.27
 74
     0
 49
-0.635
 74
     0
  0
LTYPE
  5
6F
330
5
100
AcDbSymbolTableRecord
100
AcDbLinetypeTableRecord
  2
PHANTOM
 70
     0
  3
Phantom ______  __  __  ______  __  __  ______
 72
    65
 73
     6
 40
12.7
 49
6.35
 74
     0
 49
-1.27
 74
     0
 49
1.27
 74
     0
 49
-1.27
 74
     0
 49
1.27
 74
     0
 49
-1.27
 74
     0
  0
LTYPE
  5
70
330
5
100
AcDbSymbolTableRecord
100
AcDbLinetypeTableRecord
  2
CENTER
 70
     0
  3
Center ____ _ ____ _ ____ _ ____ _ ____ _ ____
 72
    65
 73
     4
 40
10.16
 49
6.35
 74
     0
 49
-1.27
 74
     0
 49
1.27
 74
     0
 49
-1.27
 74
     0
  0
LTYPE
  5
71
330
5
100
AcDbSymbolTableRecord
100
AcDbLinetypeTableRecord
  2
CENTERX2
 70
     0
  3
Center (2x) ________  __  ________  __  _____
 72
    65
 73
     4
 40
20.32
 49
12.7
 74
     0
 49
-2.54
 74
     0
 49
2.54
 74
     0
 49
-2.54
 74
     0
  0
LTYPE
  5
72
330
5
100
AcDbSymbolTableRecord
100
AcDbLinetypeTableRecord
  2
DOT2
 70
     0
  3
Dot (.5x) ........................................
 72
    65
 73
     2
 40
0.635
 49
0.0
 74
     0
 49
-0.635
 74
     0
  0
ENDTAB
  0
TABLE
  2
LAYER
  5
2
102
{ACAD_XDICTIONARY
360
303
102
}
330
0
100
AcDbSymbolTable
 70
     3
  0
LAYER
  5
10
330
2
100
AcDbSymbolTableRecord
100
AcDbLayerTableRecord
  2
0
 70
     0
 62
     7
  6
Continuous
370
    -3
390
F
  0
LAYER
  5
73
330
2
100
AcDbSymbolTableRecord
100
AcDbLayerTableRecord
  2
FORMAT
 70
     0
 62
     7
  6
Continuous
370
    -3
390
F
  0
LAYER
  5
2E6
102
{ACAD_XDICTIONARY
360
2E7
102
}
330
2
100
AcDbSymbolTableRecord
100
AcDbLayerTableRecord
  2
寸法線
 70
     0
 62
     7
  6
Continuous
370
    -3
390
F
  0
ENDTAB
  0
TABLE
  2
STYLE
  5
3
330
0
100
AcDbSymbolTable
 70
     3
  0
STYLE
  5
11
330
3
100
AcDbSymbolTableRecord
100
AcDbTextStyleTableRecord
  2
Standard
 70
     0
 40
0.0
 41
1.0
 50
0.0
 71
     0
 42
3.5
  3
txt
  4
bigfont
  0
STYLE
  5
E1
330
3
100
AcDbSymbolTableRecord
100
AcDbTextStyleTableRecord
  2
SLDTEXTSTYLE0
 70
     0
 40
0.0
 41
0.75
 50
0.0
 71
     0
 42
3.5
  3
TXT
  4
bigfont
  0
STYLE
  5
135
330
3
100
AcDbSymbolTableRecord
100
AcDbTextStyleTableRecord
  2
SLDTEXTSTYLE1
 70
     0
 40
0.0
 41
0.65625
 50
0.0
 71
     0
 42
3.5
  3
TXT
  4
bigfont
  0
ENDTAB
  0
TABLE
  2
VIEW
  5
6
330
0
100
AcDbSymbolTable
 70
     0
  0
ENDTAB
  0
TABLE
  2
UCS
  5
7
330
0
100
AcDbSymbolTable
 70
     0
  0
ENDTAB
  0
TABLE
  2
APPID
  5
9
330
0
100
AcDbSymbolTable
 70
     4
  0
APPID
  5
12
330
9
100
AcDbSymbolTableRecord
100
AcDbRegAppTableRecord
  2
ACAD
 70
     0
  0
APPID
  5
2F3
330
9
100
AcDbSymbolTableRecord
100
AcDbRegAppTableRecord
  2
ACAD_DSTYLE_DIMJAG
 70
     0
  0
APPID
  5
2F4
330
9
100
AcDbSymbolTableRecord
100
AcDbRegAppTableRecord
  2
ACAD_DSTYLE_DIMTALN
 70
     0
  0
APPID
  5
49B
330
9
100
AcDbSymbolTableRecord
100
AcDbRegAppTableRecord
  2
PE_URL
 70
     0
  0
ENDTAB
  0
TABLE
  2
DIMSTYLE
  5
A
330
0
100
AcDbSymbolTable
 70
     8
100
AcDbDimStyleTable
  0
DIMSTYLE
105
27
330
A
100
AcDbSymbolTableRecord
100
AcDbDimStyleTableRecord
  2
ISO-25
 70
     0
 41
2.5
 42
0.625
 43
3.75
 44
1.25
 73
     0
 74
     0
 77
     1
 78
     8
140
2.5
141
2.5
143
0.03937007874016
147
0.625
171
     3
172
     1
178
     0
271
     2
272
     2
274
     3
278
    44
283
     0
284
     8
340
11
  0
DIMSTYLE
105
2EC
330
A
100
AcDbSymbolTableRecord
100
AcDbDimStyleTableRecord
  2
STANDARD
 70
     0
 41
2.5
 42
1.5
 44
1.0
 73
     0
 74
     0
 77
     3
 78
     8
 79
     2
140
2.500000000000003
141
0.0
147
1.0
171
     0
172
     1
173
     1
176
     8
177
     8
271
     2
178
   256
179
     2
271
     2
272
     2
274
     0
289
     1
340
11
341
2ED
343
2ED
344
2ED
1001
ACAD_DSTYLE_DIMJAG
1070
   388
1040
1.5
1001
ACAD_DSTYLE_DIMTALN
1070
   392
1070
     0
  0
DIMSTYLE
105
2F5
330
A
100
AcDbSymbolTableRecord
100
AcDbDimStyleTableRecord
  2
STANDARD$0
 70
     0
 41
2.5
 42
1.0
 43
4.0
 44
1.0
 73
     0
 74
     0
 77
     1
 78
     8
140
2.5
145
1.0
147
0.9999999999999991
171
     0
172
     1
176
     8
177
     8
271
     2
178
   256
271
     2
272
     2
274
     0
284
     8
289
     1
340
11
341
2F6
342
2ED
371
    -1
372
    -1
1001
ACAD_DSTYLE_DIMJAG
1070
   388
1040
1.5
1001
ACAD_DSTYLE_DIMTALN
1070
   392
1070
     0
  0
DIMSTYLE
105
2FC
330
A
100
AcDbSymbolTableRecord
100
AcDbDimStyleTableRecord
  2
STANDARD-1
 70
     0
 41
4.0
 42
3.0
 43
2.0
 44
2.0
 73
     0
 74
     0
 77
     3
 78
     8
 79
     2
140
5.0
141
0.0
147
2.0
172
     1
176
   252
177
   252
178
     0
179
     2
271
     2
272
     2
288
     1
289
     0
340
11
341
2ED
342
2ED
1001
ACAD_DSTYLE_DIMJAG
1070
   388
1040
1.5
1001
ACAD_DSTYLE_DIMTALN
1070
   392
1070
     0
  0
DIMSTYLE
105
48E
330
A
100
AcDbSymbolTableRecord
100
AcDbDimStyleTableRecord
  2
SLDDIMSTYLE1
 70
     0
 41
2.5
 44
0.0
 45
0.000000001
 47
0.4
 48
0.4
 71
     1
 73
     0
 74
     0
 77
     3
 78
    12
 79
     3
140
4.0
147
1.0
173
     1
178
     0
271
     1
272
     1
276
     2
284
     8
340
E1
341
490
343
490
344
490
  0
DIMSTYLE
105
496
330
A
100
AcDbSymbolTableRecord
100
AcDbDimStyleTableRecord
  2
SLDDIMSTYLE3
 70
     0
 41
2.5
 44
0.0
 45
0.000000001
146
2.5
147
0.0
173
     1
178
     0
271
     0
272
     0
276
     2
340
11
341
490
343
490
344
490
  0
DIMSTYLE
105
497
330
A
100
AcDbSymbolTableRecord
100
AcDbDimStyleTableRecord
  2
SLDDIMSTYLE4
 70
     0
 41
2.5
 44
0.0
 45
0.000000001
 47
2.0
 48
2.0
 71
     1
 73
     0
 74
     0
 77
     3
 78
    12
 79
     3
140
4.0
147
1.0
172
     1
173
     1
178
     0
271
     2
272
     2
276
     2
284
     8
289
     0
340
E1
341
490
343
490
344
490
  0
DIMSTYLE
105
498
330
A
100
AcDbSymbolTableRecord
100
AcDbDimStyleTableRecord
  2
STANDARD$2
 70
     0
 41
2.5
 42
1.5
 43
7.0
 44
1.0
 45
0.0
 73
     0
 74
     0
 77
     3
 78
     8
 79
     2
140
3.0
141
0.0
146
0.6
147
1.0
171
     0
172
     1
176
     8
177
     8
271
     3
178
   256
179
     3
271
     3
272
     3
274
     0
284
     8
285
     8
286
     8
289
     0
340
11
341
490
342
490
1001
ACAD_DSTYLE_DIMJAG
1070
   388
1040
1.5
1001
ACAD_DSTYLE_DIMTALN
1070
   392
1070
     0
  0
ENDTAB
  0
TABLE
  2
BLOCK_RECORD
  5
1
330
0
100
AcDbSymbolTable
 70
     7
  0
BLOCK_RECORD
  5
1F
330
1
100
AcDbSymbolTableRecord
100
AcDbBlockTableRecord
  2
*Model_Space
340
22
  0
BLOCK_RECORD
  5
1B
330
1
100
AcDbSymbolTableRecord
100
AcDbBlockTableRecord
  2
*Paper_Space
340
1E
  0
BLOCK_RECORD
  5
23
330
1
100
AcDbSymbolTableRecord
100
AcDbBlockTableRecord
  2
*Paper_Space0
340
26
  0
BLOCK_RECORD
  5
142
330
1
100
AcDbSymbolTableRecord
100
AcDbBlockTableRecord
  2
SW_NOTE_0
340
0
  0
BLOCK_RECORD
  5
2ED
330
1
100
AcDbSymbolTableRecord
100
AcDbBlockTableRecord
  2
_OPEN
340
0
  0
BLOCK_RECORD
  5
2F6
330
1
100
AcDbSymbolTableRecord
100
AcDbBlockTableRecord
  2
SUN
340
0
  0
BLOCK_RECORD
  5
48B
330
1
100
AcDbSymbolTableRecord
100
AcDbBlockTableRecord
  2
A$C9403
340
0
102
{BLKREFS
331
0
102
}
  0
BLOCK_RECORD
  5
490
330
1
100
AcDbSymbolTableRecord
100
AcDbBlockTableRecord
  2
_OPEN30
340
0
  0
BLOCK_RECORD
  5
5E8
330
1
100
AcDbSymbolTableRecord
100
AcDbBlockTableRecord
  2
A$C27022
340
0
102
{BLKREFS
331
696
102
}
  0
ENDTAB
  0
ENDSEC
  0
SECTION
  2
BLOCKS
  0
BLOCK
  5
20
330
1F
100
AcDbEntity
  8
0
100
AcDbBlockBegin
  2
*Model_Space
 70
     0
 10
0.0
 20
0.0
 30
0.0
  3
*Model_Space
  1

  0
ENDBLK
  5
21
330
1F
100
AcDbEntity
  8
0
100
AcDbBlockEnd
  0
BLOCK
  5
1C
330
1B
100
AcDbEntity
 67
     1
  8
0
100
AcDbBlockBegin
  2
*Paper_Space
 70
     0
 10
0.0
 20
0.0
 30
0.0
  3
*Paper_Space
  1

  0
ENDBLK
  5
1D
330
1B
100
AcDbEntity
 67
     1
  8
0
100
AcDbBlockEnd
  0
BLOCK
  5
24
330
23
100
AcDbEntity
  8
0
100
AcDbBlockBegin
  2
*Paper_Space0
 70
     0
 10
0.0
 20
0.0
 30
0.0
  3
*Paper_Space0
  1

  0
ENDBLK
  5
25
330
23
100
AcDbEntity
  8
0
100
AcDbBlockEnd
  0
BLOCK
  5
143
330
142
100
AcDbEntity
  8
0
100
AcDbBlockBegin
  2
SW_NOTE_0
 70
     0
 10
0.0
 20
0.0
 30
0.0
  3
SW_NOTE_0
  1

  0
MTEXT
  5
145
330
142
100
AcDbEntity
  8
0
  6
Continuous
 62
     0
370
     0
100
AcDbMText
 10
0.0
 20
1.933601609657942
 30
0.0
 40
1.5
 41
0.0
 71
     1
 72
     1
  1
指示なき場合：
  7
SLDTEXTSTYLE0
 73
     1
 44
1.0
  0
MTEXT
  5
146
330
142
100
AcDbEntity
  8
0
  6
Continuous
 62
     0
370
     0
100
AcDbMText
 10
0.0
 20
-0.5663983344627033
 30
0.0
 40
1.5
 41
0.0
 71
     1
 72
     1
  1
寸法はミリメータとする　
  7
SLDTEXTSTYLE0
 73
     1
 44
1.0
  0
MTEXT
  5
147
330
142
100
AcDbEntity
  8
0
  6
Continuous
 62
     0
370
     0
100
AcDbMText
 10
0.0
 20
-3.066398278583349
 30
0.0
 40
1.5
 41
0.0
 71
     1
 72
     1
  1
表面粗さ：
  7
SLDTEXTSTYLE0
 73
     1
 44
1.0
  0
MTEXT
  5
148
330
142
100
AcDbEntity
  8
0
  6
Continuous
 62
     0
370
     0
100
AcDbMText
 10
0.0
 20
-5.566398222703994
 30
0.0
 40
1.5
 41
0.0
 71
     1
 72
     1
  1
　公差　：
  7
SLDTEXTSTYLE0
 73
     1
 44
1.0
  0
MTEXT
  5
149
330
142
100
AcDbEntity
  8
0
  6
Continuous
 62
     0
370
     0
100
AcDbMText
 10
0.0
 20
-8.06639816682464
 30
0.0
 40
1.5
 41
0.0
 71
     1
 72
     1
  1
　寸法　：
  7
SLDTEXTSTYLE0
 73
     1
 44
1.0
  0
MTEXT
  5
14A
330
142
100
AcDbEntity
  8
0
  6
Continuous
 62
     0
370
     0
100
AcDbMText
 10
0.0
 20
-10.56639811094528
 30
0.0
 40
1.5
 41
0.0
 71
     1
 72
     1
  1
　角度　：
  7
SLDTEXTSTYLE0
 73
     1
 44
1.0
  0
ENDBLK
  5
144
330
142
100
AcDbEntity
  8
0
100
AcDbBlockEnd
  0
BLOCK
  5
2EE
330
2ED
100
AcDbEntity
  8
0
100
AcDbBlockBegin
  2
_OPEN
 70
     0
 10
0.0
 20
0.0
 30
0.0
  3
_OPEN
  1

  0
LINE
  5
2EF
330
2ED
100
AcDbEntity
  8
0
  6
ByBlock
 62
     0
100
AcDbLine
 10
-1.0
 20
0.1666666666666667
 30
0.0
 11
0.0
 21
0.0
 31
0.0
  0
LINE
  5
2F0
330
2ED
100
AcDbEntity
  8
0
  6
ByBlock
 62
     0
100
AcDbLine
 10
0.0
 20
0.0
 30
0.0
 11
-1.0
 21
-0.1666666666666667
 31
0.0
  0
LINE
  5
2F1
330
2ED
100
AcDbEntity
  8
0
  6
ByBlock
 62
     0
100
AcDbLine
 10
0.0
 20
0.0
 30
0.0
 11
-1.0
 21
0.0
 31
0.0
  0
ENDBLK
  5
2F2
330
2ED
100
AcDbEntity
  8
0
100
AcDbBlockEnd
  0
BLOCK
  5
2F7
330
2F6
100
AcDbEntity
  8
0
100
AcDbBlockBegin
  2
SUN
 70
     0
 10
0.0
 20
0.0
 30
0.0
  3
SUN
  1

  0
LINE
  5
2F8
330
2F6
100
AcDbEntity
  8
0
100
AcDbLine
 10
-0.0000000000000568
 20
0.0
 30
0.0
 11
-1.500000000000057
 21
0.0
 31
0.0
  0
LINE
  5
2F9
330
2F6
100
AcDbEntity
  8
0
100
AcDbLine
 10
-0.0000000000000568
 20
0.0000000000000284
 30
0.0
 11
-1.500000000000057
 21
0.401923788646684
 31
0.0
  0
LINE
  5
2FA
330
2F6
100
AcDbEntity
  8
0
100
AcDbLine
 10
-0.0000000000000568
 20
0.0000000000000284
 30
0.0
 11
-1.500000000000057
 21
-0.4019237886466556
 31
0.0
  0
ENDBLK
  5
2FB
330
2F6
100
AcDbEntity
  8
0
100
AcDbBlockEnd
  0
BLOCK
  5
537
330
48B
100
AcDbEntity
  8
0
100
AcDbBlockBegin
  2
A$C9403
 70
     0
 10
0.0
 20
0.0
 30
0.0
  3
A$C9403
  1

  0
ARC
  5
4A3
330
48B
100
AcDbEntity
  8
0
  6
Continuous
 62
     7
370
     5
100
AcDbCircle
 10
229.7268674709485
 20
10.40510139778416
 30
0.0
 40
0.1999999999999977
100
AcDbArc
 50
299.9973117335443
 51
0.0
1001
PE_URL
1000

  0
LINE
  5
4A4
330
48B
100
AcDbEntity
  8
0
  6
Continuous
 62
     7
370
     5
100
AcDbLine
 10
229.9268674709492
 20
10.40510139778416
 30
0.0
 11
229.9268674709492
 21
41.10703592468781
 31
0.0
1001
PE_URL
1000

  0
LINE
  5
4A5
330
48B
100
AcDbEntity
  8
0
  6
Continuous
 62
     7
370
     5
100
AcDbLine
 10
226.0791934146328
 20
8.068410135158047
 30
0.0
 11
229.8268593442117
 21
10.23189162530616
 31
0.0
1001
PE_URL
1000

  0
LINE
  5
4A6
330
48B
100
AcDbEntity
  8
0
  6
Continuous
 62
     7
370
     5
100
AcDbLine
 10
211.1713886087164
 20
0.4758146890253556
 30
0.0
 11
211.9492060680222
 21
0.0267902275227243
 31
0.0
1001
PE_URL
1000

  0
LINE
  5
4A7
330
48B
100
AcDbEntity
  8
0
  6
Continuous
 62
     7
370
     5
100
AcDbLine
 10
212.1491898145487
 20
0.0267902275227243
 30
0.0
 11
212.4129838086519
 21
0.1790752588403848
 31
0.0
1001
PE_URL
1000

  0
ARC
  5
4A8
330
48B
100
AcDbEntity
  8
0
  6
Continuous
 62
     7
370
     5
100
AcDbCircle
 10
212.0491979412855
 20
0.1999999999989086
 30
0.0
 40
0.2000000000000119
100
AcDbArc
 50
240.0026882664557
 51
299.9973117335443
1001
PE_URL
1000

  0
LINE
  5
4A9
330
48B
100
AcDbEntity
  8
0
  6
Continuous
 62
     7
370
     5
100
AcDbLine
 10
229.8268593442117
 20
41.28024569716399
 30
0.0
 11
229.0490418849076
 21
41.72927015866662
 31
0.0
1001
PE_URL
1000

  0
ARC
  5
4AA
330
48B
100
AcDbEntity
  8
0
  6
Continuous
 62
     7
370
     5
100
AcDbCircle
 10
229.7268674709485
 20
41.10703592468781
 30
0.0
 40
0.1999999999999915
100
AcDbArc
 50
0.0
 51
60.00268826645569
1001
PE_URL
1000

  0
LINE
  5
4AB
330
48B
100
AcDbEntity
  8
0
  6
Continuous
 62
     7
370
     5
100
AcDbLine
 10
225.0599627258271
 20
8.60897701794238
 30
0.0
 11
225.9792015413695
 21
8.078311745257452
 31
0.0
1001
PE_URL
1000

  0
LINE
  5
4AC
330
48B
100
AcDbEntity
  8
0
  6
Continuous
 62
     7
370
     5
100
AcDbLine
 10
228.807628655406
 20
10.77245850809049
 30
0.0
 11
225.0599627258271
 21
8.60897701794238
 31
0.0
1001
PE_URL
1000

  0
LINE
  5
4AD
330
48B
100
AcDbEntity
  8
0
  6
Continuous
 62
     7
370
     5
100
AcDbLine
 10
228.807628655406
 20
10.77245850809049
 30
0.0
 11
228.9490500116444
 21
10.6908176969082
 31
0.0
1001
PE_URL
1000

  0
LINE
  5
4AE
330
48B
100
AcDbEntity
  8
0
  6
Continuous
 62
     7
370
     5
100
AcDbLine
 10
228.9490500116444
 20
10.6908176969082
 30
0.0
 11
229.7268674709485
 21
10.24179323540739
 31
0.0
1001
PE_URL
1000

  0
LINE
  5
4AF
330
48B
100
AcDbEntity
  8
0
  6
Continuous
 62
     7
370
     5
100
AcDbLine
 10
229.7268674709485
 20
10.24179323540739
 30
0.0
 11
225.9792015413695
 21
8.078311745257452
 31
0.0
1001
PE_URL
1000

  0
LINE
  5
4B0
330
48B
100
AcDbEntity
  8
0
  6
Continuous
 62
     7
370
     5
100
AcDbLine
 10
228.9490500116444
 20
10.6908176969082
 30
0.0
 11
228.9490500116444
 21
10.85409931927279
 31
0.0
1001
PE_URL
1000

  0
ARC
  5
4B1
330
48B
100
AcDbEntity
  8
0
  6
Continuous
 62
     7
370
     5
100
AcDbCircle
 10
229.004256494396
 20
41.65168663675286
 30
0.0
 40
0.087341839485677
100
AcDbArc
 50
350.7859630095144
 51
129.2032852356726
1001
PE_URL
1000

  0
LINE
  5
4B2
330
48B
100
AcDbEntity
  8
0
  6
Continuous
 62
     7
370
     5
100
AcDbLine
 10
229.090471367881
 20
10.93576667046727
 30
0.0
 11
229.090471367881
 21
41.63770119737273
 31
0.0
1001
PE_URL
1000

  0
ARC
  5
4B3
330
48B
100
AcDbEntity
  8
0
  6
Continuous
 62
     7
370
     5
100
AcDbCircle
 10
228.783428147608
 20
10.94973884091996
 30
0.0
 40
0.3073609615144978
100
AcDbArc
 50
302.6054783400416
 51
357.3945215142353
1001
PE_URL
1000

  0
ARC
  5
4B4
330
48B
100
AcDbEntity
  8
0
  6
Continuous
 62
     7
370
     5
100
AcDbCircle
 10
229.5612456069139
 20
10.50071437941733
 30
0.0
 40
0.3073609615145143
100
AcDbArc
 50
302.605478339756
 51
357.3945215142353
1001
PE_URL
1000

  0
LINE
  5
4B5
330
48B
100
AcDbEntity
  8
0
  6
Continuous
 62
     7
370
     5
100
AcDbLine
 10
229.8682888271869
 20
10.48674220896646
 30
0.0
 11
229.090471367881
 21
10.93576667046727
 31
0.0
1001
PE_URL
1000

  0
ELLIPSE
  5
4B6
330
48B
100
AcDbEntity
  8
0
  6
Continuous
 62
     7
370
     5
100
AcDbEllipse
 10
176.722295216292
 20
-3.21116017024724
 30
0.0
 11
39.87053690075359
 21
32.52861516048737
 31
0.0
210
0.0
220
0.0
230
1.0
 40
0.4458570691551014
 41
5.317963906477249
 42
5.662729421897061
1001
PE_URL
1000

  0
LINE
  5
4B7
330
48B
100
AcDbEntity
  8
0
  6
Continuous
 62
     7
370
     5
100
AcDbLine
 10
211.3420911601006
 20
0.689818327082321
 30
0.0
 11
211.129959125743
 21
0.5673571103070572
 31
0.0
1001
PE_URL
1000

  0
LINE
  5
4B8
330
48B
100
AcDbEntity
  8
0
  6
Continuous
 62
     7
370
     5
100
AcDbLine
 10
229.8682888271869
 20
41.1886767358701
 30
0.0
 11
229.8682888271869
 21
10.48674220896646
 31
0.0
1001
PE_URL
1000

  0
LINE
  5
4B9
330
48B
100
AcDbEntity
  8
0
  6
Continuous
 62
     7
370
     5
100
AcDbLine
 10
229.090471367881
 20
41.63770119737273
 30
0.0
 11
229.8682888271869
 21
41.1886767358701
 31
0.0
1001
PE_URL
1000

  0
ARC
  5
4BA
330
48B
100
AcDbEntity
  8
0
  6
Continuous
 62
     7
370
     5
100
AcDbCircle
 10
226.0377855523402
 20
8.160088011081825
 30
0.0
 40
0.1005954471804303
100
AcDbArc
 50
234.3824225241604
 51
294.3071190453506
1001
PE_URL
1000

  0
SPLINE
  5
4BB
330
48B
100
AcDbEntity
  8
0
  6
Continuous
 62
     7
370
     5
100
AcDbSpline
210
0.0
220
0.0
230
1.0
 70
     8
 71
     3
 72
    12
 73
     8
 74
     0
 42
0.000000001
 43
0.00000001
 40
0.0
 40
0.0
 40
0.0
 40
0.0
 40
0.1212419228879833
 40
0.2416905704578783
 40
0.4249864672770828
 40
0.708486853243328
 40
1.0
 40
1.0
 40
1.0
 40
1.0
 10
212.2613299756431
 20
0.1591530543955741
 30
0.0
 10
212.274229762832
 20
0.1540116150390531
 30
0.0
 10
212.2999449350282
 20
0.1437623763158626
 30
0.0
 10
212.3533447012596
 20
0.1502971011832415
 30
0.0
 10
212.424438315953
 20
0.1809658523088729
 30
0.0
 10
212.5069383742884
 20
0.2463496618202043
 30
0.0
 10
212.5539666592631
 20
0.3097412618044473
 30
0.0
 10
212.5778084691701
 20
0.3418787398622953
 30
0.0
1001
PE_URL
1000

  0
LINE
  5
4BC
330
48B
100
AcDbEntity
  8
0
  6
Continuous
 62
     7
370
     5
100
AcDbLine
 10
211.3420911601006
 20
0.689818327082321
 30
0.0
 11
212.2613299756431
 21
0.1591530543955741
 31
0.0
1001
PE_URL
1000

  0
ELLIPSE
  5
4BD
330
48B
100
AcDbEntity
  8
0
  6
Continuous
 62
     7
370
     5
100
AcDbEllipse
 10
177.7829553880729
 20
-3.823466254114464
 30
0.0
 11
39.87053690075359
 21
32.52861516048736
 31
0.0
210
0.0
220
0.0
230
1.0
 40
0.4458570691551015
 41
5.32513823729937
 42
5.662729421897099
1001
PE_URL
1000

  0
LINE
  5
4BE
330
48B
100
AcDbEntity
  8
0
  6
Continuous
 62
     7
370
     5
100
AcDbLine
 10
212.2613299756431
 20
0.1591530543955741
 30
0.0
 11
212.0491979412855
 21
0.0366918376221292
 31
0.0
1001
PE_URL
1000

  0
LINE
  5
4BF
330
48B
100
AcDbEntity
  8
0
  6
Continuous
 62
     7
370
     5
100
AcDbLine
 10
212.0491979412855
 20
0.0366918376221292
 30
0.0
 11
211.2713804819796
 21
0.4857162991247606
 31
0.0
1001
PE_URL
1000

  0
LINE
  5
4C0
330
48B
100
AcDbEntity
  8
0
  6
Continuous
 62
     7
370
     5
100
AcDbLine
 10
211.2713804819796
 20
0.4857162991247606
 30
0.0
 11
211.129959125743
 21
0.5673571103070572
 31
0.0
1001
PE_URL
1000

  0
ARC
  5
4C1
330
48B
100
AcDbEntity
  8
0
  6
Continuous
 62
     7
370
     5
100
AcDbCircle
 10
211.216173999228
 20
0.5533982109391218
 30
0.0
 40
0.0873418394856956
100
AcDbArc
 50
170.7859630095143
 51
309.2032852356726
1001
PE_URL
1000

  0
LINE
  5
4C2
330
48B
100
AcDbEntity
  8
0
  6
Continuous
 62
     7
370
     5
100
AcDbLine
 10
15.04924870271134
 20
129.8455816174319
 30
0.0
 11
225.0599627151169
 21
8.608977011761453
 31
0.0
1001
PE_URL
1000

  0
LINE
  5
4C3
330
48B
100
AcDbEntity
  8
0
  6
Continuous
 62
     7
370
     5
100
AcDbLine
 10
18.93833599923892
 20
132.090703924945
 30
0.0
 11
228.9490500116444
 21
10.85409931927279
 31
0.0
1001
PE_URL
1000

  0
LINE
  5
4C4
330
48B
100
AcDbEntity
  8
0
  6
Continuous
 62
     7
370
     5
100
AcDbLine
 10
225.0599627151169
 20
8.608977011761453
 30
0.0
 11
228.9490500116444
 21
10.85409931927279
 31
0.0
1001
PE_URL
1000

  0
LINE
  5
4C5
330
48B
100
AcDbEntity
  8
0
  6
Continuous
 62
     7
370
     5
100
AcDbLine
 10
18.93833599923892
 20
163.1192547766041
 30
0.0
 11
228.9490500116444
 21
41.88265017093181
 31
0.0
1001
PE_URL
1000

  0
LINE
  5
4C6
330
48B
100
AcDbEntity
  8
0
  6
Continuous
 62
     7
370
     5
100
AcDbLine
 10
228.9490500116444
 20
10.85409931927279
 30
0.0
 11
228.9490500116444
 21
41.88265017093181
 31
0.0
1001
PE_URL
1000

  0
LINE
  5
4C7
330
48B
100
AcDbEntity
  8
0
  6
Continuous
 62
     7
370
     5
100
AcDbLine
 10
1.331377147693274
 20
121.9264229327528
 30
0.0
 11
211.3420911600988
 21
0.6898183270805021
 31
0.0
1001
PE_URL
1000

  0
LINE
  5
4C8
330
48B
100
AcDbEntity
  8
0
  6
Continuous
 62
     7
370
     5
100
AcDbLine
 10
0.9778237571008503
 20
121.722320904797
 30
0.0
 11
210.9885377695064
 21
0.4857162991247606
 31
0.0
1001
PE_URL
1000

  0
LINE
  5
4C9
330
48B
100
AcDbEntity
  8
0
  6
Continuous
 62
     7
370
     5
100
AcDbLine
 10
210.9885377695064
 20
0.4857162991247606
 30
0.0
 11
211.3420911600988
 21
0.6898183270805021
 31
0.0
1001
PE_URL
1000

  0
ARC
  5
4CA
330
48B
100
AcDbEntity
  8
0
  6
Continuous
 62
     7
370
     5
100
AcDbCircle
 10
229.8267760584513
 20
10.39512012240448
 30
0.0
 40
0.100587855698831
100
AcDbArc
 50
5.694799251123807
 51
65.62534170627755
1001
PE_URL
1000

  0
ARC
  5
4CB
330
48B
100
AcDbEntity
  8
0
  6
Continuous
 62
     7
370
     5
100
AcDbCircle
 10
229.7854514819192
 20
10.32356950122994
 30
0.0
 40
0.100595447180408
100
AcDbArc
 50
234.3824225241604
 51
294.3071190453506
1001
PE_URL
1000

  0
ARC
  5
4CC
330
48B
100
AcDbEntity
  8
0
  6
Continuous
 62
     7
370
     5
100
AcDbCircle
 10
229.8267760584513
 20
41.09705464930812
 30
0.0
 40
0.10058785569881
100
AcDbArc
 50
5.694799251123807
 51
65.62534170627755
1001
PE_URL
1000

  0
ARC
  5
4CD
330
48B
100
AcDbEntity
  8
0
  6
Continuous
 62
     7
370
     5
100
AcDbCircle
 10
211.9906139303166
 20
0.1184681034465029
 30
0.0
 40
0.1005954471804416
100
AcDbArc
 50
245.6928809532787
 51
305.617577474394
1001
PE_URL
1000

  0
ARC
  5
4CE
330
48B
100
AcDbEntity
  8
0
  6
Continuous
 62
     7
370
     5
100
AcDbCircle
 10
212.1077819522543
 20
0.1184681034465029
 30
0.0
 40
0.1005954471803004
100
AcDbArc
 50
234.382422525606
 51
294.3071190467213
1001
PE_URL
1000

  0
ARC
  5
4CF
330
48B
100
AcDbEntity
  8
0
  6
Continuous
 62
     7
370
     5
100
AcDbCircle
 10
229.7702884467362
 20
41.19949408335015
 30
0.0
 40
0.0985955859812574
100
AcDbArc
 50
353.7011524746487
 51
54.98666713283841
1001
PE_URL
1000

  0
ARC
  5
4D0
102
{ACAD_REACTORS
102
}
330
48B
100
AcDbEntity
  8
0
  6
Continuous
 62
     7
370
     5
100
AcDbCircle
 10
0.2000000000007276
 20
122.4979399097101
 30
0.0
 40
0.2000000000000266
100
AcDbArc
 50
180.0
 51
240.0026882671675
1001
PE_URL
1000

  0
LINE
  5
4D1
102
{ACAD_REACTORS
102
}
330
48B
100
AcDbEntity
  8
0
  6
Continuous
 62
     7
370
     5
100
AcDbLine
 10
0.000007869075489
 20
153.1998690405235
 30
0.0
 11
0.000007869075489
 21
122.4979352298033
 31
0.0
1001
PE_URL
1000

  0
LINE
  5
4D2
102
{ACAD_REACTORS
102
}
330
48B
100
AcDbEntity
  8
0
  6
Continuous
 62
     7
370
     5
100
AcDbLine
 10
0.1000098282347608
 20
122.3247295231231
 30
0.0
 11
0.8778299174991844
 21
121.8757035433737
 31
0.0
1001
PE_URL
1000

  0
ARC
  5
4D3
102
{ACAD_REACTORS
102
}
330
48B
100
AcDbEntity
  8
0
  6
Continuous
 62
     7
370
     5
100
AcDbCircle
 10
17.87766952965831
 20
163.4049758343972
 30
0.0
 40
0.2000000000000692
100
AcDbArc
 50
60.00268826574386
 51
119.9973117342562
1001
PE_URL
1000

  0
LINE
  5
4D4
102
{ACAD_REACTORS
102
}
330
48B
100
AcDbEntity
  8
0
  6
Continuous
 62
     7
370
     5
100
AcDbLine
 10
18.75548255551621
 20
163.1291591683294
 30
0.0
 11
17.97766246623723
 21
163.5781851480788
 31
0.0
1001
PE_URL
1000

  0
LINE
  5
4D5
102
{ACAD_REACTORS
102
}
330
48B
100
AcDbEntity
  8
0
  6
Continuous
 62
     7
370
     5
100
AcDbLine
 10
17.77767764569944
 20
163.5781862885888
 30
0.0
 11
0.1000078526158177
 21
153.3730847387342
 31
0.0
1001
PE_URL
1000

  0
ARC
  5
4D6
102
{ACAD_REACTORS
102
}
330
48B
100
AcDbEntity
  8
0
  6
Continuous
 62
     7
370
     5
100
AcDbCircle
 10
0.2000000000007276
 20
153.1998744366138
 30
0.0
 40
0.2000000000000058
100
AcDbArc
 50
119.9973117342562
 51
180.0
1001
PE_URL
1000

  0
ARC
  5
4D7
102
{ACAD_REACTORS
102
}
330
48B
100
AcDbEntity
  8
0
  6
Continuous
 62
     7
370
     5
100
AcDbCircle
 10
17.87766825907966
 20
132.5117064717379
 30
0.0
 40
0.3074344667704958
100
AcDbArc
 50
62.61204326917793
 51
117.3873406417743
1001
PE_URL
1000

  0
ARC
  5
4D8
102
{ACAD_REACTORS
102
}
330
48B
100
AcDbEntity
  8
0
  6
Continuous
 62
     7
370
     5
100
AcDbCircle
 10
17.71204854616008
 20
132.7986536399258
 30
0.0
 40
0.307361364265666
100
AcDbArc
 50
302.6055705223808
 51
357.3944846940835
1001
PE_URL
1000

  0
ARC
  5
4D9
102
{ACAD_REACTORS
102
}
330
48B
100
AcDbEntity
  8
0
  6
Continuous
 62
     7
370
     5
100
AcDbCircle
 10
18.04331944861406
 20
132.7986718128268
 30
0.0
 40
0.3073906335224548
100
AcDbArc
 50
182.6083741325351
 51
237.3921868405903
1001
PE_URL
1000

  0
LINE
  5
4DA
102
{ACAD_REACTORS
102
}
330
48B
100
AcDbEntity
  8
0
  6
Continuous
 62
     7
370
     5
100
AcDbLine
 10
17.73624729359653
 20
132.7846827745234
 30
0.0
 11
17.73624729359653
 21
163.4866165852436
 31
0.0
1001
PE_URL
1000

  0
ARC
  5
4DB
102
{ACAD_REACTORS
102
}
330
48B
100
AcDbEntity
  8
0
  6
Continuous
 62
     7
370
     5
100
AcDbCircle
 10
17.87766825907966
 20
163.2136402824581
 30
0.0
 40
0.3074344667709842
100
AcDbArc
 50
62.61204326917793
 51
117.3873406417743
1001
PE_URL
1000

  0
LINE
  5
4DC
102
{ACAD_REACTORS
102
}
330
48B
100
AcDbEntity
  8
0
  6
Continuous
 62
     7
370
     5
100
AcDbLine
 10
18.01909215977867
 20
163.4866150645648
 30
0.0
 11
18.01909215977867
 21
132.7846812538482
 31
0.0
1001
PE_URL
1000

  0
LINE
  5
4DD
102
{ACAD_REACTORS
102
}
330
48B
100
AcDbEntity
  8
0
  6
Continuous
 62
     7
370
     5
100
AcDbLine
 10
11.73818209732053
 20
129.322073440424
 30
0.0
 11
17.73624729359653
 21
132.7846827745234
 31
0.0
1001
PE_URL
1000

  0
LINE
  5
4DE
102
{ACAD_REACTORS
102
}
330
48B
100
AcDbEntity
  8
0
  6
Continuous
 62
     7
370
     5
100
AcDbLine
 10
17.87767104377781
 20
132.539732423098
 30
0.0
 11
11.87713729341704
 21
129.0756980230544
 31
0.0
1001
PE_URL
1000

  0
ELLIPSE
  5
4DF
102
{ACAD_REACTORS
102
}
330
48B
100
AcDbEntity
  8
0
  6
Continuous
 62
     7
370
     5
100
AcDbEllipse
 10
11.8771359653947
 20
129.2390070148867
 30
0.0
 11
-0.0974149464412335
 21
0.1746892004040888
 31
0.0
210
0.0
220
0.0
230
1.0
 40
0.5672183927596084
 41
0.7939066863166244
 42
2.364703013104416
1001
PE_URL
1000

  0
LINE
  5
4E0
102
{ACAD_REACTORS
102
}
330
48B
100
AcDbEntity
  8
0
  6
Continuous
 62
     7
370
     5
100
AcDbLine
 10
18.01909215977867
 20
132.7846812538482
 30
0.0
 11
18.79691224905764
 21
132.3356552740988
 31
0.0
1001
PE_URL
1000

  0
ARC
  5
4E1
102
{ACAD_REACTORS
102
}
330
48B
100
AcDbEntity
  8
0
  6
Continuous
 62
     7
370
     5
100
AcDbCircle
 10
18.48986863541722
 20
132.3496276601763
 30
0.0
 40
0.3073613642652704
100
AcDbArc
 50
302.6055705204045
 51
357.3944846940835
1001
PE_URL
1000

  0
LINE
  5
4E2
102
{ACAD_REACTORS
102
}
330
48B
100
AcDbEntity
  8
0
  6
Continuous
 62
     7
370
     5
100
AcDbLine
 10
18.65549113305678
 20
132.0907064433486
 30
0.0
 11
17.87767104377781
 21
132.539732423098
 31
0.0
1001
PE_URL
1000

  0
LINE
  5
4E3
102
{ACAD_REACTORS
102
}
330
48B
100
AcDbEntity
  8
0
  6
Continuous
 62
     7
370
     5
100
AcDbLine
 10
18.79691224905764
 20
163.037589084819
 30
0.0
 11
18.01909215977867
 21
163.4866150645648
 31
0.0
1001
PE_URL
1000

  0
LINE
  5
4E4
102
{ACAD_REACTORS
102
}
330
48B
100
AcDbEntity
  8
0
  6
Continuous
 62
     7
370
     5
100
AcDbLine
 10
18.79691224905764
 20
163.037589084819
 30
0.0
 11
18.79691224905764
 21
132.3356552740988
 31
0.0
1001
PE_URL
1000

  0
LINE
  5
4E5
102
{ACAD_REACTORS
102
}
330
48B
100
AcDbEntity
  8
0
  6
Continuous
 62
     7
370
     5
100
AcDbLine
 10
17.73624729359653
 20
163.4866165852436
 30
0.0
 11
0.0585775005201867
 21
153.2815150353927
 31
0.0
1001
PE_URL
1000

  0
LINE
  5
4E6
102
{ACAD_REACTORS
102
}
330
48B
100
AcDbEntity
  8
0
  6
Continuous
 62
     7
370
     5
100
AcDbLine
 10
11.73818209732053
 20
129.322073440424
 30
0.0
 11
11.73818209732053
 21
136.1136151558967
 31
0.0
1001
PE_URL
1000

  0
LINE
  5
4E7
102
{ACAD_REACTORS
102
}
330
48B
100
AcDbEntity
  8
0
  6
Continuous
 62
     7
370
     5
100
AcDbLine
 10
11.73818209732053
 20
136.1136151558967
 30
0.0
 11
6.056642696796189
 21
132.8337322742482
 31
0.0
1001
PE_URL
1000

  0
LINE
  5
4E8
102
{ACAD_REACTORS
102
}
330
48B
100
AcDbEntity
  8
0
  6
Continuous
 62
     7
370
     5
100
AcDbLine
 10
6.056642696796189
 20
126.0421905587755
 30
0.0
 11
6.056642696796189
 21
132.8337322742482
 31
0.0
1001
PE_URL
1000

  0
LINE
  5
4E9
102
{ACAD_REACTORS
102
}
330
48B
100
AcDbEntity
  8
0
  6
Continuous
 62
     7
370
     5
100
AcDbLine
 10
0.0585775005201867
 20
122.5795812246724
 30
0.0
 11
6.056642696796189
 21
126.0421905587755
 31
0.0
1001
PE_URL
1000

  0
LINE
  5
4EA
102
{ACAD_REACTORS
102
}
330
48B
100
AcDbEntity
  8
0
  6
Continuous
 62
     7
370
     5
100
AcDbLine
 10
0.0585775005201867
 20
153.2815150353927
 30
0.0
 11
0.0585775005201867
 21
122.5795812246724
 31
0.0
1001
PE_URL
1000

  0
LINE
  5
4EB
102
{ACAD_REACTORS
102
}
330
48B
100
AcDbEntity
  8
0
  6
Continuous
 62
     7
370
     5
100
AcDbLine
 10
5.368049790737132
 20
126.2907806350813
 30
0.0
 11
5.368049790737132
 21
133.2313773429523
 31
0.0
1001
PE_URL
1000

  0
LINE
  5
4EC
102
{ACAD_REACTORS
102
}
330
48B
100
AcDbEntity
  8
0
  6
Continuous
 62
     7
370
     5
100
AcDbLine
 10
5.368049790737132
 20
133.2313773429523
 30
0.0
 11
12.42677500337959
 21
137.3062926711973
 31
0.0
1001
PE_URL
1000

  0
LINE
  5
4ED
102
{ACAD_REACTORS
102
}
330
48B
100
AcDbEntity
  8
0
  6
Continuous
 62
     7
370
     5
100
AcDbLine
 10
12.42677500337959
 20
137.3062926711973
 30
0.0
 11
12.42677500337959
 21
130.3656959633299
 31
0.0
1001
PE_URL
1000

  0
LINE
  5
4EE
102
{ACAD_REACTORS
102
}
330
48B
100
AcDbEntity
  8
0
  6
Continuous
 62
     7
370
     5
100
AcDbLine
 10
12.42677500337959
 20
130.3656959633299
 30
0.0
 11
17.17673273309993
 21
133.107788193618
 31
0.0
1001
PE_URL
1000

  0
LINE
  5
4EF
102
{ACAD_REACTORS
102
}
330
48B
100
AcDbEntity
  8
0
  6
Continuous
 62
     7
370
     5
100
AcDbLine
 10
17.17673273309993
 20
133.107788193618
 30
0.0
 11
17.17673273309993
 21
162.5175112231082
 31
0.0
1001
PE_URL
1000

  0
LINE
  5
4F0
102
{ACAD_REACTORS
102
}
330
48B
100
AcDbEntity
  8
0
  6
Continuous
 62
     7
370
     5
100
AcDbLine
 10
17.17673273309993
 20
162.5175112231082
 30
0.0
 11
0.6180920610167959
 21
152.9584114342797
 31
0.0
1001
PE_URL
1000

  0
LINE
  5
4F1
102
{ACAD_REACTORS
102
}
330
48B
100
AcDbEntity
  8
0
  6
Continuous
 62
     7
370
     5
100
AcDbLine
 10
0.6180920610167959
 20
152.9584114342797
 30
0.0
 11
0.6180920610167959
 21
123.5486884047932
 31
0.0
1001
PE_URL
1000

  0
LINE
  5
4F2
102
{ACAD_REACTORS
102
}
330
48B
100
AcDbEntity
  8
0
  6
Continuous
 62
     7
370
     5
100
AcDbLine
 10
0.6180920610167959
 20
123.5486884047932
 30
0.0
 11
5.368049790737132
 21
126.2907806350813
 31
0.0
1001
PE_URL
1000

  0
LINE
  5
4F3
102
{ACAD_REACTORS
102
}
330
48B
100
AcDbEntity
  8
0
  6
Continuous
 62
     7
370
     5
100
AcDbLine
 10
12.43293733361861
 20
128.7434413420997
 30
0.0
 11
6.776082815438713
 21
125.4778087397026
 31
0.0
1001
PE_URL
1000

  0
LINE
  5
4F4
102
{ACAD_REACTORS
102
}
330
48B
100
AcDbEntity
  8
0
  6
Continuous
 62
     7
370
     5
100
AcDbLine
 10
12.43293733361861
 20
128.7434413420997
 30
0.0
 11
11.87713729341704
 21
129.0756980230544
 31
0.0
1001
PE_URL
1000

  0
LINE
  5
4F5
102
{ACAD_REACTORS
102
}
330
48B
100
AcDbEntity
  8
0
  6
Continuous
 62
     7
370
     5
100
AcDbLine
 10
18.79691488323806
 20
132.0090642501746
 30
0.0
 11
18.65549113305678
 21
132.0907064433486
 31
0.0
1001
PE_URL
1000

  0
LINE
  5
4F6
102
{ACAD_REACTORS
102
}
330
48B
100
AcDbEntity
  8
0
  6
Continuous
 62
     7
370
     5
100
AcDbLine
 10
18.79691488323806
 20
132.0090642501746
 30
0.0
 11
1.119245090139884
 21
121.8039627003236
 31
0.0
1001
PE_URL
1000

  0
LINE
  5
4F7
102
{ACAD_REACTORS
102
}
330
48B
100
AcDbEntity
  8
0
  6
Continuous
 62
     7
370
     5
100
AcDbLine
 10
1.119245090139884
 20
121.8039627003236
 30
0.0
 11
0.9778213399804372
 21
121.8856048934977
 31
0.0
1001
PE_URL
1000

  0
LINE
  5
4F8
102
{ACAD_REACTORS
102
}
330
48B
100
AcDbEntity
  8
0
  6
Continuous
 62
     7
370
     5
100
AcDbLine
 10
0.2000012506941857
 20
122.3346308732471
 30
0.0
 11
0.9778213399804372
 21
121.8856048934977
 31
0.0
1001
PE_URL
1000

  0
LINE
  5
4F9
102
{ACAD_REACTORS
102
}
330
48B
100
AcDbEntity
  8
0
  6
Continuous
 62
     7
370
     5
100
AcDbLine
 10
6.200535001076787
 20
125.7986652732907
 30
0.0
 11
0.2000012506941857
 21
122.3346308732471
 31
0.0
1001
PE_URL
1000

  0
LINE
  5
4FA
102
{ACAD_REACTORS
102
}
330
48B
100
AcDbEntity
  8
0
  6
Continuous
 62
     7
370
     5
100
AcDbLine
 10
6.776082815438713
 20
125.4778087397026
 30
0.0
 11
6.200535001076787
 21
125.7986652732907
 31
0.0
1001
PE_URL
1000

  0
LINE
  5
4FB
102
{ACAD_REACTORS
102
}
330
48B
100
AcDbEntity
  8
0
  6
Continuous
 62
     7
370
     5
100
AcDbLine
 10
18.79691488323806
 20
132.0090642501746
 30
0.0
 11
18.79691488323806
 21
132.3356540455352
 31
0.0
1001
PE_URL
1000

  0
LINE
  5
4FC
102
{ACAD_REACTORS
102
}
330
48B
100
AcDbEntity
  8
0
  6
Continuous
 62
     7
370
     5
100
AcDbLine
 10
18.79691488323806
 20
163.0375897692938
 30
0.0
 11
18.79691488323806
 21
163.0376141041052
 31
0.0
1001
PE_URL
1000

  0
LINE
  5
4FD
102
{ACAD_REACTORS
102
}
330
48B
100
AcDbEntity
  8
0
  6
Continuous
 62
     7
370
     5
100
AcDbLine
 10
12.50366336742081
 20
137.2649521302446
 30
0.0
 11
12.42677500337959
 21
137.3062926711973
 31
0.0
1001
PE_URL
1000

  0
LINE
  5
4FE
102
{ACAD_REACTORS
102
}
330
48B
100
AcDbEntity
  8
0
  6
Continuous
 62
     7
370
     5
100
AcDbLine
 10
11.78178630483671
 20
129.1772201763342
 30
0.0
 11
6.566258352115256
 21
126.1663599772
 31
0.0
1001
PE_URL
1000

  0
LINE
  5
4FF
102
{ACAD_REACTORS
102
}
330
48B
100
AcDbEntity
  8
0
  6
Continuous
 62
     7
370
     5
100
AcDbLine
 10
6.566258352115256
 20
126.1663599772
 30
0.0
 11
6.776082815438713
 21
125.4778087397026
 31
0.0
1001
PE_URL
1000

  0
LINE
  5
500
102
{ACAD_REACTORS
102
}
330
48B
100
AcDbEntity
  8
0
  6
Continuous
 62
     7
370
     5
100
AcDbLine
 10
11.73818802422102
 20
129.5561648271396
 30
0.0
 11
6.566258352115256
 21
126.5704733796701
 31
0.0
1001
PE_URL
1000

  0
LINE
  5
501
102
{ACAD_REACTORS
102
}
330
48B
100
AcDbEntity
  8
0
  6
Continuous
 62
     7
370
     5
100
AcDbLine
 10
6.566258352115256
 20
126.5704733796701
 30
0.0
 11
6.566258352115256
 21
126.1663599772
 31
0.0
1001
PE_URL
1000

  0
LINE
  5
502
102
{ACAD_REACTORS
102
}
330
48B
100
AcDbEntity
  8
0
  6
Continuous
 62
     7
370
     5
100
AcDbLine
 10
11.73818802422102
 20
130.1319004454745
 30
0.0
 11
6.566258352115256
 21
127.1462089980087
 31
0.0
1001
PE_URL
1000

  0
LINE
  5
503
102
{ACAD_REACTORS
102
}
330
48B
100
AcDbEntity
  8
0
  6
Continuous
 62
     7
370
     5
100
AcDbLine
 10
6.566258352115256
 20
127.1462089980087
 30
0.0
 11
6.715468074016826
 21
126.6566064707913
 31
0.0
1001
PE_URL
1000

  0
LINE
  5
504
102
{ACAD_REACTORS
102
}
330
48B
100
AcDbEntity
  8
0
  6
Continuous
 62
     7
370
     5
100
AcDbLine
 10
11.73818802422102
 20
130.5360138479446
 30
0.0
 11
6.566258352115256
 21
127.5503224004715
 31
0.0
1001
PE_URL
1000

  0
LINE
  5
505
102
{ACAD_REACTORS
102
}
330
48B
100
AcDbEntity
  8
0
  6
Continuous
 62
     7
370
     5
100
AcDbLine
 10
6.566258352115256
 20
127.5503224004715
 30
0.0
 11
6.566258352115256
 21
127.1462089980087
 31
0.0
1001
PE_URL
1000

  0
LINE
  5
506
102
{ACAD_REACTORS
102
}
330
48B
100
AcDbEntity
  8
0
  6
Continuous
 62
     7
370
     5
100
AcDbLine
 10
11.73818802422102
 20
131.1117494662794
 30
0.0
 11
6.566258352115256
 21
128.1260580188064
 31
0.0
1001
PE_URL
1000

  0
LINE
  5
507
102
{ACAD_REACTORS
102
}
330
48B
100
AcDbEntity
  8
0
  6
Continuous
 62
     7
370
     5
100
AcDbLine
 10
6.566258352115256
 20
128.1260580188064
 30
0.0
 11
6.715468074016826
 21
127.6364554915963
 31
0.0
1001
PE_URL
1000

  0
LINE
  5
508
102
{ACAD_REACTORS
102
}
330
48B
100
AcDbEntity
  8
0
  6
Continuous
 62
     7
370
     5
100
AcDbLine
 10
11.73818802422102
 20
131.5158626786324
 30
0.0
 11
6.566258352115256
 21
128.5301712311593
 31
0.0
1001
PE_URL
1000

  0
LINE
  5
509
102
{ACAD_REACTORS
102
}
330
48B
100
AcDbEntity
  8
0
  6
Continuous
 62
     7
370
     5
100
AcDbLine
 10
6.566258352115256
 20
128.5301712311593
 30
0.0
 11
6.566258352115256
 21
128.1260580188064
 31
0.0
1001
PE_URL
1000

  0
LINE
  5
50A
102
{ACAD_REACTORS
102
}
330
48B
100
AcDbEntity
  8
0
  6
Continuous
 62
     7
370
     5
100
AcDbLine
 10
11.73818802422102
 20
132.0915984870808
 30
0.0
 11
6.566258352115256
 21
129.1059070396077
 31
0.0
1001
PE_URL
1000

  0
LINE
  5
50B
102
{ACAD_REACTORS
102
}
330
48B
100
AcDbEntity
  8
0
  6
Continuous
 62
     7
370
     5
100
AcDbLine
 10
6.566258352115256
 20
129.1059070396077
 30
0.0
 11
6.715468074016826
 21
128.6163043222841
 31
0.0
1001
PE_URL
1000

  0
LINE
  5
50C
102
{ACAD_REACTORS
102
}
330
48B
100
AcDbEntity
  8
0
  6
Continuous
 62
     7
370
     5
100
AcDbLine
 10
11.73818802422102
 20
132.4957118895509
 30
0.0
 11
6.566258352115256
 21
129.5100204420778
 31
0.0
1001
PE_URL
1000

  0
LINE
  5
50D
102
{ACAD_REACTORS
102
}
330
48B
100
AcDbEntity
  8
0
  6
Continuous
 62
     7
370
     5
100
AcDbLine
 10
6.566258352115256
 20
129.5100204420778
 30
0.0
 11
6.566258352115256
 21
129.1059070396077
 31
0.0
1001
PE_URL
1000

  0
LINE
  5
50E
102
{ACAD_REACTORS
102
}
330
48B
100
AcDbEntity
  8
0
  6
Continuous
 62
     7
370
     5
100
AcDbLine
 10
11.73818802422102
 20
133.0714473177686
 30
0.0
 11
6.566258352115256
 21
130.0857558702992
 31
0.0
1001
PE_URL
1000

  0
LINE
  5
50F
102
{ACAD_REACTORS
102
}
330
48B
100
AcDbEntity
  8
0
  6
Continuous
 62
     7
370
     5
100
AcDbLine
 10
6.566258352115256
 20
130.0857558702992
 30
0.0
 11
6.715468074016826
 21
129.5961533430891
 31
0.0
1001
PE_URL
1000

  0
LINE
  5
510
102
{ACAD_REACTORS
102
}
330
48B
100
AcDbEntity
  8
0
  6
Continuous
 62
     7
370
     5
100
AcDbLine
 10
11.73818802422102
 20
133.4755607202387
 30
0.0
 11
6.566258352115256
 21
130.4898692727656
 31
0.0
1001
PE_URL
1000

  0
LINE
  5
511
102
{ACAD_REACTORS
102
}
330
48B
100
AcDbEntity
  8
0
  6
Continuous
 62
     7
370
     5
100
AcDbLine
 10
6.566258352115256
 20
130.4898692727656
 30
0.0
 11
6.566258352115256
 21
130.0857558702992
 31
0.0
1001
PE_URL
1000

  0
LINE
  5
512
102
{ACAD_REACTORS
102
}
330
48B
100
AcDbEntity
  8
0
  6
Continuous
 62
     7
370
     5
100
AcDbLine
 10
11.73818802422102
 20
134.0512961484565
 30
0.0
 11
6.566258352115256
 21
131.0656047009834
 31
0.0
1001
PE_URL
1000

  0
LINE
  5
513
102
{ACAD_REACTORS
102
}
330
48B
100
AcDbEntity
  8
0
  6
Continuous
 62
     7
370
     5
100
AcDbLine
 10
6.566258352115256
 20
131.0656047009834
 30
0.0
 11
6.715468074016826
 21
130.5760021737733
 31
0.0
1001
PE_URL
1000

  0
LINE
  5
514
102
{ACAD_REACTORS
102
}
330
48B
100
AcDbEntity
  8
0
  6
Continuous
 62
     7
370
     5
100
AcDbLine
 10
11.73818802422102
 20
134.4554095509266
 30
0.0
 11
6.566258352115256
 21
131.4697181034535
 31
0.0
1001
PE_URL
1000

  0
LINE
  5
515
102
{ACAD_REACTORS
102
}
330
48B
100
AcDbEntity
  8
0
  6
Continuous
 62
     7
370
     5
100
AcDbLine
 10
6.566258352115256
 20
131.4697181034535
 30
0.0
 11
6.566258352115256
 21
131.0656047009834
 31
0.0
1001
PE_URL
1000

  0
LINE
  5
516
102
{ACAD_REACTORS
102
}
330
48B
100
AcDbEntity
  8
0
  6
Continuous
 62
     7
370
     5
100
AcDbLine
 10
6.056642696796189
 20
132.8337322742482
 30
0.0
 11
6.776082815438713
 21
132.4184060179214
 31
0.0
1001
PE_URL
1000

  0
LINE
  5
517
102
{ACAD_REACTORS
102
}
330
48B
100
AcDbEntity
  8
0
  6
Continuous
 62
     7
370
     5
100
AcDbLine
 10
6.776082815438713
 20
132.4184060179214
 30
0.0
 11
6.776082815438713
 21
131.5908645962372
 31
0.0
1001
PE_URL
1000

  0
ELLIPSE
  5
518
102
{ACAD_REACTORS
102
}
330
48B
100
AcDbEntity
  8
0
  6
Continuous
 62
     7
370
     5
100
AcDbEllipse
 10
6.200533564257057
 20
125.9619742023169
 30
0.0
 11
-0.1026525863727841
 21
0.1716643463722676
 31
0.0
210
0.0
220
0.0
230
1.0
 40
0.5873687162540266
 41
0.7764427606264497
 42
2.34723908744941
1001
PE_URL
1000

  0
ARC
  5
519
102
{ACAD_REACTORS
102
}
330
48B
100
AcDbEntity
  8
0
  6
Continuous
 62
     7
370
     5
100
AcDbCircle
 10
0.3656496555377089
 20
122.5935702629758
 30
0.0
 40
0.3073906335227956
100
AcDbArc
 50
182.6083741325351
 51
237.392186838614
1001
PE_URL
1000

  0
LINE
  5
51A
102
{ACAD_REACTORS
102
}
330
48B
100
AcDbEntity
  8
0
  6
Continuous
 62
     7
370
     5
100
AcDbLine
 10
11.73817304234035
 20
135.2829597321652
 30
0.0
 11
6.776082815438713
 21
132.4184060179214
 31
0.0
1001
PE_URL
1000

  0
LINE
  5
51B
102
{ACAD_REACTORS
102
}
330
48B
100
AcDbEntity
  8
0
  6
Continuous
 62
     7
370
     5
100
AcDbLine
 10
0.69498042505802
 20
152.9140237185165
 30
0.0
 11
0.6180920610167959
 21
152.9584114342797
 31
0.0
1001
PE_URL
1000

  0
ARC
  5
51C
102
{ACAD_REACTORS
102
}
330
48B
100
AcDbEntity
  8
0
  6
Continuous
 62
     7
370
     5
100
AcDbCircle
 10
0.9192379109408648
 20
121.9673795749113
 30
0.0
 40
0.1005938202754376
100
AcDbArc
 50
245.6923804620636
 51
305.6178335874443
1001
PE_URL
1000

  0
ARC
  5
51D
102
{ACAD_REACTORS
102
}
330
48B
100
AcDbEntity
  8
0
  6
Continuous
 62
     7
370
     5
100
AcDbCircle
 10
18.70460988907507
 20
163.0509852871182
 30
0.0
 40
0.0932694156425426
100
AcDbArc
 50
351.742098493503
 51
56.94541242214181
1001
PE_URL
1000

  0
LINE
  5
51E
102
{ACAD_REACTORS
102
}
330
48B
100
AcDbEntity
  8
0
  6
Continuous
 62
     7
370
     5
100
AcDbLine
 10
18.93833599923892
 20
163.1192547766041
 30
0.0
 11
18.79691488323806
 21
163.0376141041052
 31
0.0
1001
PE_URL
1000

  0
LINE
  5
51F
102
{ACAD_REACTORS
102
}
330
48B
100
AcDbEntity
  8
0
  6
Continuous
 62
     7
370
     5
100
AcDbLine
 10
18.93833599923892
 20
132.0907049226735
 30
0.0
 11
18.93833599923892
 21
163.1192547766041
 31
0.0
1001
PE_URL
1000

  0
LINE
  5
520
102
{ACAD_REACTORS
102
}
330
48B
100
AcDbEntity
  8
0
  6
Continuous
 62
     7
370
     5
100
AcDbLine
 10
15.04924872377524
 20
129.8455826273239
 30
0.0
 11
18.93833599923892
 21
132.0907049226735
 31
0.0
1001
PE_URL
1000

  0
LINE
  5
521
102
{ACAD_REACTORS
102
}
330
48B
100
AcDbEntity
  8
0
  6
Continuous
 62
     7
370
     5
100
AcDbLine
 10
0.977823974139028
 20
121.7223220278283
 30
0.0
 11
1.331377422695368
 21
121.9264240892371
 31
0.0
1001
PE_URL
1000

  0
LINE
  5
522
102
{ACAD_REACTORS
102
}
330
48B
100
AcDbEntity
  8
0
  6
Continuous
 62
     7
370
     5
100
AcDbLine
 10
0.977823974139028
 20
121.7223220278283
 30
0.0
 11
0.977823974139028
 21
121.8856036530524
 31
0.0
1001
PE_URL
1000

  0
LINE
  5
523
102
{ACAD_REACTORS
102
}
330
48B
100
AcDbEntity
  8
0
  6
Continuous
 62
     7
370
     5
100
AcDbLine
 10
17.09985095452066
 20
162.3843457954245
 30
0.0
 11
0.6949738396178873
 21
152.9140118187206
 31
0.0
1001
PE_URL
1000

  0
LINE
  5
524
102
{ACAD_REACTORS
102
}
330
48B
100
AcDbEntity
  8
0
  6
Continuous
 62
     7
370
     5
100
AcDbLine
 10
17.09985095452066
 20
133.1521857179068
 30
0.0
 11
17.09985095452066
 21
162.3843457954245
 31
0.0
1001
PE_URL
1000

  0
LINE
  5
525
102
{ACAD_REACTORS
102
}
330
48B
100
AcDbEntity
  8
0
  6
Continuous
 62
     7
370
     5
100
AcDbLine
 10
12.50365711123959
 20
130.4988594898241
 30
0.0
 11
17.09985095452066
 21
133.1521857179068
 31
0.0
1001
PE_URL
1000

  0
LINE
  5
526
102
{ACAD_REACTORS
102
}
330
48B
100
AcDbEntity
  8
0
  6
Continuous
 62
     7
370
     5
100
AcDbLine
 10
12.50365711123959
 20
137.4394567680392
 30
0.0
 11
12.50365711123959
 21
130.4988594898241
 31
0.0
1001
PE_URL
1000

  0
LINE
  5
527
102
{ACAD_REACTORS
102
}
330
48B
100
AcDbEntity
  8
0
  6
Continuous
 62
     7
370
     5
100
AcDbLine
 10
5.291167682877131
 20
133.2757752475045
 30
0.0
 11
12.50365711123959
 21
137.4394567680392
 31
0.0
1001
PE_URL
1000

  0
LINE
  5
528
102
{ACAD_REACTORS
102
}
330
48B
100
AcDbEntity
  8
0
  6
Continuous
 62
     7
370
     5
100
AcDbLine
 10
5.291167682877131
 20
126.3351779692857
 30
0.0
 11
5.291167682877131
 21
133.2757752475045
 31
0.0
1001
PE_URL
1000

  0
LINE
  5
529
102
{ACAD_REACTORS
102
}
330
48B
100
AcDbEntity
  8
0
  6
Continuous
 62
     7
370
     5
100
AcDbLine
 10
0.6949738396178873
 20
123.6818517412066
 30
0.0
 11
5.291167682877131
 21
126.3351779692857
 31
0.0
1001
PE_URL
1000

  0
LINE
  5
52A
102
{ACAD_REACTORS
102
}
330
48B
100
AcDbEntity
  8
0
  6
Continuous
 62
     7
370
     5
100
AcDbLine
 10
0.6949738396178873
 20
152.9140118187206
 30
0.0
 11
0.6949738396178873
 21
123.6818517412066
 31
0.0
1001
PE_URL
1000

  0
LINE
  5
52B
102
{ACAD_REACTORS
102
}
330
48B
100
AcDbEntity
  8
0
  6
Continuous
 62
     7
370
     5
100
AcDbLine
 10
12.50365711123959
 20
130.4988594898241
 30
0.0
 11
12.58055403635444
 21
130.4544678398634
 31
0.0
1001
PE_URL
1000

  0
LINE
  5
52C
102
{ACAD_REACTORS
102
}
330
48B
100
AcDbEntity
  8
0
  6
Continuous
 62
     7
370
     5
100
AcDbLine
 10
17.09985095452066
 20
133.1521857179068
 30
0.0
 11
17.17674787962096
 21
133.1077940679461
 31
0.0
1001
PE_URL
1000

  0
LINE
  5
52D
102
{ACAD_REACTORS
102
}
330
48B
100
AcDbEntity
  8
0
  6
Continuous
 62
     7
370
     5
100
AcDbLine
 10
17.09985095452066
 20
162.3843457954245
 30
0.0
 11
17.17672680619944
 21
162.3399663108903
 31
0.0
1001
PE_URL
1000

  0
LINE
  5
52E
102
{ACAD_REACTORS
102
}
330
48B
100
AcDbEntity
  8
0
  6
Continuous
 62
     7
370
     5
100
AcDbLine
 10
5.291167682877131
 20
133.2757752475045
 30
0.0
 11
5.368064607999258
 21
133.2313835975438
 31
0.0
1001
PE_URL
1000

  0
LINE
  5
52F
102
{ACAD_REACTORS
102
}
330
48B
100
AcDbEntity
  8
0
  6
Continuous
 62
     7
370
     5
100
AcDbLine
 10
5.291167682877131
 20
126.3351779692857
 30
0.0
 11
5.368064607999258
 21
126.2907863193286
 31
0.0
1001
PE_URL
1000

  0
LINE
  5
530
102
{ACAD_REACTORS
102
}
330
48B
100
AcDbEntity
  8
0
  6
Continuous
 62
     7
370
     5
100
AcDbLine
 10
0.6949738396178873
 20
123.6818517412066
 30
0.0
 11
0.7718707647181873
 21
123.6374600912386
 31
0.0
1001
PE_URL
1000

  0
ARC
  5
531
102
{ACAD_REACTORS
102
}
330
48B
100
AcDbEntity
  8
0
  6
Continuous
 62
     7
370
     5
100
AcDbCircle
 10
0.1414178216764412
 20
122.4164055546607
 30
0.0
 40
0.1005938202754242
100
AcDbArc
 50
245.6923804620636
 51
305.6178335814231
1001
PE_URL
1000

  0
ARC
  5
532
102
{ACAD_REACTORS
102
}
330
48B
100
AcDbEntity
  8
0
  6
Continuous
 62
     7
370
     5
100
AcDbCircle
 10
0.1000714271540346
 20
122.4879843361123
 30
0.0
 40
0.1005571277498974
100
AcDbArc
 50
114.3708046324333
 51
174.3208514256892
1001
PE_URL
1000

  0
ARC
  5
533
102
{ACAD_REACTORS
102
}
330
48B
100
AcDbEntity
  8
0
  6
Continuous
 62
     7
370
     5
100
AcDbCircle
 10
0.1000714271540346
 20
153.1899181468325
 30
0.0
 40
0.1005571277496546
100
AcDbArc
 50
114.3708046338051
 51
174.3208514246579
1001
PE_URL
1000

  0
LWPOLYLINE
  5
534
102
{ACAD_REACTORS
102
}
330
48B
100
AcDbEntity
  8
0
  6
Continuous
 62
     7
370
     5
100
AcDbPolyline
 90
        6
 70
   128
 43
0.0
 10
17.73624729359653
 20
163.4866165852436
 10
17.73896576533662
 20
163.5169075982085
 10
17.74701581339832
 20
163.5428948914887
 10
17.760081336437
 20
163.5635867918099
 10
17.77767764569944
 20
163.5781771630318
 10
17.77767764569944
 20
163.5781862885888
1001
PE_URL
1000

  0
ARC
  5
535
102
{ACAD_REACTORS
102
}
330
48B
100
AcDbEntity
  8
0
  6
Continuous
 62
     7
370
     5
100
AcDbCircle
 10
17.92392484873926
 20
163.4987150570087
 30
0.0
 40
0.0959334504234428
100
AcDbArc
 50
352.7540398580751
 51
55.93347106089591
1001
PE_URL
1000

  0
LWPOLYLINE
  5
536
102
{ACAD_REACTORS
102
}
330
48B
100
AcDbEntity
  8
0
  6
Continuous
 62
     7
370
     5
100
AcDbPolyline
 90
        6
 70
   128
 43
0.0
 10
0.0585775005201867
 20
153.2815150353927
 10
0.0612959722602682
 20
153.3118060483575
 10
0.0693460203146969
 20
153.3377933416377
 10
0.0824115433606494
 20
153.3584852419626
 10
0.1000078526158177
 20
153.3730756131808
 10
0.1000078526158177
 20
153.3730847387342
1001
PE_URL
1000

  0
ENDBLK
  5
538
330
48B
100
AcDbEntity
  8
0
100
AcDbBlockEnd
  0
BLOCK
  5
491
330
490
100
AcDbEntity
  8
0
100
AcDbBlockBegin
  2
_OPEN30
 70
     0
 10
0.0
 20
0.0
 30
0.0
  3
_OPEN30
  1

  0
LINE
  5
492
330
490
100
AcDbEntity
  8
0
  6
ByBlock
 62
     0
100
AcDbLine
 10
-1.0
 20
0.26794919
 30
0.0
 11
0.0
 21
0.0
 31
0.0
  0
LINE
  5
493
330
490
100
AcDbEntity
  8
0
  6
ByBlock
 62
     0
100
AcDbLine
 10
0.0
 20
0.0
 30
0.0
 11
-1.0
 21
-0.26794919
 31
0.0
  0
LINE
  5
494
330
490
100
AcDbEntity
  8
0
  6
ByBlock
 62
     0
100
AcDbLine
 10
0.0
 20
0.0
 30
0.0
 11
-1.0
 21
0.0
 31
0.0
  0
ENDBLK
  5
495
330
490
100
AcDbEntity
  8
0
100
AcDbBlockEnd
  0
BLOCK
  5
694
330
5E8
100
AcDbEntity
  8
0
100
AcDbBlockBegin
  2
A$C27022
 70
     0
 10
0.0
 20
0.0
 30
0.0
  3
A$C27022
  1

  0
ARC
  5
5FF
330
5E8
100
AcDbEntity
  8
0
  6
Continuous
 62
     7
370
     5
100
AcDbCircle
 10
229.7268674709521
 20
10.40510139778416
 30
0.0
 40
0.1999999999999977
100
AcDbArc
 50
299.9973117335443
 51
0.0
1001
PE_URL
1000

  0
LINE
  5
600
330
5E8
100
AcDbEntity
  8
0
  6
Continuous
 62
     7
370
     5
100
AcDbLine
 10
229.9268674709529
 20
10.40510139778416
 30
0.0
 11
229.9268674709529
 21
41.10703592468781
 31
0.0
1001
PE_URL
1000

  0
LINE
  5
601
330
5E8
100
AcDbEntity
  8
0
  6
Continuous
 62
     7
370
     5
100
AcDbLine
 10
224.3114264490177
 20
7.047899988076097
 30
0.0
 11
229.8268593442153
 21
10.23189162530616
 31
0.0
1001
PE_URL
1000

  0
LINE
  5
602
330
5E8
100
AcDbEntity
  8
0
  6
Continuous
 62
     7
370
     5
100
AcDbLine
 10
212.1491898145505
 20
0.0267902275227243
 30
0.0
 11
212.7834170240822
 21
0.3929218022549321
 31
0.0
1001
PE_URL
1000

  0
LINE
  5
603
330
5E8
100
AcDbEntity
  8
0
  6
Continuous
 62
     7
370
     5
100
AcDbLine
 10
211.17138860872
 20
0.4758146890253556
 30
0.0
 11
211.9492060680241
 21
0.0267902275227243
 31
0.0
1001
PE_URL
1000

  0
ARC
  5
604
330
5E8
100
AcDbEntity
  8
0
  6
Continuous
 62
     7
370
     5
100
AcDbCircle
 10
212.0491979412873
 20
0.1999999999989086
 30
0.0
 40
0.2000000000000119
100
AcDbArc
 50
240.0026882664557
 51
299.9973117335443
1001
PE_URL
1000

  0
LINE
  5
605
330
5E8
100
AcDbEntity
  8
0
  6
Continuous
 62
     7
370
     5
100
AcDbLine
 10
229.8268593442153
 20
41.28024569716217
 30
0.0
 11
229.0490418849113
 21
41.72927015866662
 31
0.0
1001
PE_URL
1000

  0
ARC
  5
606
330
5E8
100
AcDbEntity
  8
0
  6
Continuous
 62
     7
370
     5
100
AcDbCircle
 10
229.7268674709521
 20
41.10703592468781
 30
0.0
 40
0.1999999999999915
100
AcDbArc
 50
0.0
 51
60.00268826645569
1001
PE_URL
1000

  0
LINE
  5
607
330
5E8
100
AcDbEntity
  8
0
  6
Continuous
 62
     7
370
     5
100
AcDbLine
 10
223.2921957602121
 20
7.588466870860429
 30
0.0
 11
224.2114345757545
 21
7.057801598175502
 31
0.0
1001
PE_URL
1000

  0
LINE
  5
608
330
5E8
100
AcDbEntity
  8
0
  6
Continuous
 62
     7
370
     5
100
AcDbLine
 10
228.8076286554096
 20
10.77245850809049
 30
0.0
 11
223.2921957602121
 21
7.588466870860429
 31
0.0
1001
PE_URL
1000

  0
LINE
  5
609
330
5E8
100
AcDbEntity
  8
0
  6
Continuous
 62
     7
370
     5
100
AcDbLine
 10
228.8076286554096
 20
10.77245850809049
 30
0.0
 11
228.9490500116481
 21
10.6908176969082
 31
0.0
1001
PE_URL
1000

  0
LINE
  5
60A
330
5E8
100
AcDbEntity
  8
0
  6
Continuous
 62
     7
370
     5
100
AcDbLine
 10
228.9490500116481
 20
10.6908176969082
 30
0.0
 11
229.7268674709521
 21
10.24179323540739
 31
0.0
1001
PE_URL
1000

  0
LINE
  5
60B
330
5E8
100
AcDbEntity
  8
0
  6
Continuous
 62
     7
370
     5
100
AcDbLine
 10
229.7268674709521
 20
10.24179323540739
 30
0.0
 11
224.2114345757545
 21
7.057801598175502
 31
0.0
1001
PE_URL
1000

  0
LINE
  5
60C
330
5E8
100
AcDbEntity
  8
0
  6
Continuous
 62
     7
370
     5
100
AcDbLine
 10
228.9490500116481
 20
10.6908176969082
 30
0.0
 11
228.9490500116481
 21
10.85409931927279
 31
0.0
1001
PE_URL
1000

  0
ARC
  5
60D
330
5E8
100
AcDbEntity
  8
0
  6
Continuous
 62
     7
370
     5
100
AcDbCircle
 10
229.0042564943979
 20
41.65168663675286
 30
0.0
 40
0.087341839485677
100
AcDbArc
 50
350.7859630083365
 51
129.2032852339938
1001
PE_URL
1000

  0
LINE
  5
60E
330
5E8
100
AcDbEntity
  8
0
  6
Continuous
 62
     7
370
     5
100
AcDbLine
 10
229.0904713678829
 20
10.93576667046727
 30
0.0
 11
229.0904713678829
 21
41.63770119737092
 31
0.0
1001
PE_URL
1000

  0
ARC
  5
60F
330
5E8
100
AcDbEntity
  8
0
  6
Continuous
 62
     7
370
     5
100
AcDbCircle
 10
228.7834281476098
 20
10.94973884091996
 30
0.0
 40
0.3073609615144978
100
AcDbArc
 50
302.6054783405099
 51
357.3945215142353
1001
PE_URL
1000

  0
ARC
  5
610
330
5E8
100
AcDbEntity
  8
0
  6
Continuous
 62
     7
370
     5
100
AcDbCircle
 10
229.5612456069175
 20
10.50071437941733
 30
0.0
 40
0.3073609615145143
100
AcDbArc
 50
302.605478339756
 51
357.3945215142353
1001
PE_URL
1000

  0
LINE
  5
611
330
5E8
100
AcDbEntity
  8
0
  6
Continuous
 62
     7
370
     5
100
AcDbLine
 10
229.8682888271906
 20
10.48674220896646
 30
0.0
 11
229.0904713678829
 21
10.93576667046727
 31
0.0
1001
PE_URL
1000

  0
ELLIPSE
  5
612
330
5E8
100
AcDbEntity
  8
0
  6
Continuous
 62
     7
370
     5
100
AcDbEllipse
 10
-496.1182434169787
 20
-395.4936916990082
 30
0.0
 11
715.7068760690388
 21
416.9264721031494
 31
0.0
210
0.0
220
0.0
230
1.0
 40
0.082125850382977
 41
6.079285487282356
 42
6.155631138134288
1001
PE_URL
1000

  0
LINE
  5
613
330
5E8
100
AcDbEntity
  8
0
  6
Continuous
 62
     7
370
     5
100
AcDbLine
 10
211.6956445507531
 20
0.8939203550689854
 30
0.0
 11
211.1299591257448
 21
0.5673571103070572
 31
0.0
1001
PE_URL
1000

  0
LINE
  5
614
330
5E8
100
AcDbEntity
  8
0
  6
Continuous
 62
     7
370
     5
100
AcDbLine
 10
229.8682888271906
 20
41.1886767358701
 30
0.0
 11
229.8682888271906
 21
10.48674220896646
 31
0.0
1001
PE_URL
1000

  0
LINE
  5
615
330
5E8
100
AcDbEntity
  8
0
  6
Continuous
 62
     7
370
     5
100
AcDbLine
 10
229.0904713678829
 20
41.63770119737092
 30
0.0
 11
229.8682888271906
 21
41.1886767358701
 31
0.0
1001
PE_URL
1000

  0
ARC
  5
616
330
5E8
100
AcDbEntity
  8
0
  6
Continuous
 62
     7
370
     5
100
AcDbCircle
 10
224.2700185867216
 20
7.139577863999875
 30
0.0
 40
0.1005954471803899
100
AcDbArc
 50
234.3824225270515
 51
294.3071190476655
1001
PE_URL
1000

  0
SPLINE
  5
617
330
5E8
100
AcDbEntity
  8
0
  6
Continuous
 62
     7
370
     5
100
AcDbSpline
210
0.0
220
0.0
230
1.0
 70
     8
 71
     3
 72
    13
 73
     9
 74
     0
 42
0.000000001
 43
0.00000001
 40
0.0
 40
0.0
 40
0.0
 40
0.0
 40
0.4307424195859285
 40
0.5999510817153207
 40
0.7699697019237596
 40
0.867581350275413
 40
0.9661065409844867
 40
1.0
 40
1.0
 40
1.0
 40
1.0
 10
212.988889192904
 20
0.5791905903461156
 30
0.0
 10
212.9445435075177
 20
0.5286005346933962
 30
0.0
 10
212.8827774944548
 20
0.4581371736840083
 30
0.0
 10
212.7826324999369
 20
0.3900389064983756
 30
0.0
 10
212.7206420960974
 20
0.3609591232634557
 30
0.0
 10
212.6669070071912
 20
0.3503469286297332
 30
0.0
 10
212.6340368746314
 20
0.3535778889963694
 30
0.0
 10
212.6187867420304
 20
0.3612829255762335
 30
0.0
 10
212.6148833662955
 20
0.3632550823858764
 30
0.0
1001
PE_URL
1000

  0
LINE
  5
618
330
5E8
100
AcDbEntity
  8
0
  6
Continuous
 62
     7
370
     5
100
AcDbLine
 10
211.6956445507531
 20
0.8939203550689854
 30
0.0
 11
212.6148833662955
 21
0.3632550823858764
 31
0.0
1001
PE_URL
1000

  0
ELLIPSE
  5
619
330
5E8
100
AcDbEntity
  8
0
  6
Continuous
 62
     7
370
     5
100
AcDbEllipse
 10
-495.0575832451977
 20
-396.1059977828772
 30
0.0
 11
715.7068760690386
 21
416.9264721031493
 31
0.0
210
0.0
220
0.0
230
1.0
 40
0.082125850382977
 41
6.081387503400965
 42
6.15563113813433
1001
PE_URL
1000

  0
LINE
  5
61A
330
5E8
100
AcDbEntity
  8
0
  6
Continuous
 62
     7
370
     5
100
AcDbLine
 10
212.6148833662955
 20
0.3632550823858764
 30
0.0
 11
212.0491979412873
 21
0.0366918376221292
 31
0.0
1001
PE_URL
1000

  0
LINE
  5
61B
330
5E8
100
AcDbEntity
  8
0
  6
Continuous
 62
     7
370
     5
100
AcDbLine
 10
212.0491979412873
 20
0.0366918376221292
 30
0.0
 11
211.2713804819832
 21
0.4857162991247606
 31
0.0
1001
PE_URL
1000

  0
LINE
  5
61C
330
5E8
100
AcDbEntity
  8
0
  6
Continuous
 62
     7
370
     5
100
AcDbLine
 10
211.2713804819832
 20
0.4857162991247606
 30
0.0
 11
211.1299591257448
 21
0.5673571103070572
 31
0.0
1001
PE_URL
1000

  0
ARC
  5
61D
330
5E8
100
AcDbEntity
  8
0
  6
Continuous
 62
     7
370
     5
100
AcDbCircle
 10
211.2161739992298
 20
0.5533982109391218
 30
0.0
 40
0.0873418394856956
100
AcDbArc
 50
170.7859630095143
 51
309.2032852365973
1001
PE_URL
1000

  0
LINE
  5
61E
330
5E8
100
AcDbEntity
  8
0
  6
Continuous
 62
     7
370
     5
100
AcDbLine
 10
1.684930538289336
 20
122.1305249607067
 30
0.0
 11
211.6956445506949
 21
0.8939203550362436
 31
0.0
1001
PE_URL
1000

  0
ELLIPSE
  5
61F
330
5E8
100
AcDbEntity
  8
0
  6
Continuous
 62
     7
370
     5
100
AcDbEllipse
 10
-496.1182434170369
 20
-395.4936916990446
 30
0.0
 11
715.7068760690412
 21
416.9264721031507
 31
0.0
210
0.0
220
0.0
230
1.0
 40
0.0821258503829767
 41
6.079285487282335
 42
6.15563113813484
1001
PE_URL
1000

  0
LINE
  5
620
330
5E8
100
AcDbEntity
  8
0
  6
Continuous
 62
     7
370
     5
100
AcDbLine
 10
0.9778237571044883
 20
121.7223209047952
 30
0.0
 11
210.9885377695064
 21
0.4857162991247606
 31
0.0
1001
PE_URL
1000

  0
LINE
  5
621
330
5E8
100
AcDbEntity
  8
0
  6
Continuous
 62
     7
370
     5
100
AcDbLine
 10
210.9885377695064
 20
0.4857162991247606
 30
0.0
 11
211.6956445506949
 21
0.8939203550362436
 31
0.0
1001
PE_URL
1000

  0
LINE
  5
622
330
5E8
100
AcDbEntity
  8
0
  6
Continuous
 62
     7
370
     5
100
AcDbLine
 10
13.28148174974922
 20
128.825071477655
 30
0.0
 11
223.2921957621547
 21
7.588466871980927
 31
0.0
1001
PE_URL
1000

  0
LINE
  5
623
330
5E8
100
AcDbEntity
  8
0
  6
Continuous
 62
     7
370
     5
100
AcDbLine
 10
18.93833599923892
 20
132.090703924945
 30
0.0
 11
228.9490500116481
 21
10.85409931927279
 31
0.0
1001
PE_URL
1000

  0
LINE
  5
624
330
5E8
100
AcDbEntity
  8
0
  6
Continuous
 62
     7
370
     5
100
AcDbLine
 10
223.2921957621547
 20
7.588466871980927
 30
0.0
 11
228.9490500116481
 21
10.85409931927279
 31
0.0
1001
PE_URL
1000

  0
LINE
  5
625
330
5E8
100
AcDbEntity
  8
0
  6
Continuous
 62
     7
370
     5
100
AcDbLine
 10
18.93833599923892
 20
163.1192547766041
 30
0.0
 11
228.9490500116481
 21
41.88265017092999
 31
0.0
1001
PE_URL
1000

  0
LINE
  5
626
330
5E8
100
AcDbEntity
  8
0
  6
Continuous
 62
     7
370
     5
100
AcDbLine
 10
228.9490500116481
 20
10.85409931927279
 30
0.0
 11
228.9490500116481
 21
41.88265017092999
 31
0.0
1001
PE_URL
1000

  0
ARC
  5
627
330
5E8
100
AcDbEntity
  8
0
  6
Continuous
 62
     7
370
     5
100
AcDbCircle
 10
229.8267760584531
 20
10.39512012240448
 30
0.0
 40
0.100587855698831
100
AcDbArc
 50
5.694799249989994
 51
65.62534170533378
1001
PE_URL
1000

  0
ARC
  5
628
330
5E8
100
AcDbEntity
  8
0
  6
Continuous
 62
     7
370
     5
100
AcDbCircle
 10
229.7854514819228
 20
10.32356950122994
 30
0.0
 40
0.100595447180408
100
AcDbArc
 50
234.3824225241604
 51
294.3071190453506
1001
PE_URL
1000

  0
ARC
  5
629
330
5E8
100
AcDbEntity
  8
0
  6
Continuous
 62
     7
370
     5
100
AcDbCircle
 10
229.8267760584531
 20
41.09705464930812
 30
0.0
 40
0.10058785569881
100
AcDbArc
 50
5.694799249989994
 51
65.62534170490619
1001
PE_URL
1000

  0
ARC
  5
62A
330
5E8
100
AcDbEntity
  8
0
  6
Continuous
 62
     7
370
     5
100
AcDbCircle
 10
212.1077819522579
 20
0.1184681034465029
 30
0.0
 40
0.1005954471803004
100
AcDbArc
 50
234.3824225247637
 51
294.3071190453506
1001
PE_URL
1000

  0
ARC
  5
62B
330
5E8
100
AcDbEntity
  8
0
  6
Continuous
 62
     7
370
     5
100
AcDbCircle
 10
211.9906139303166
 20
0.1184681034465029
 30
0.0
 40
0.1005954471804416
100
AcDbArc
 50
245.6928809546494
 51
305.6175774752363
1001
PE_URL
1000

  0
ARC
  5
62C
330
5E8
100
AcDbEntity
  8
0
  6
Continuous
 62
     7
370
     5
100
AcDbCircle
 10
229.7702884467399
 20
41.19949408335015
 30
0.0
 40
0.0985955859812574
100
AcDbArc
 50
353.7011524746487
 51
54.98666713283841
1001
PE_URL
1000

  0
ARC
  5
62D
102
{ACAD_REACTORS
102
}
330
5E8
100
AcDbEntity
  8
0
  6
Continuous
 62
     7
370
     5
100
AcDbCircle
 10
0.2000000000007276
 20
122.4979399097101
 30
0.0
 40
0.2000000000000266
100
AcDbArc
 50
180.0
 51
240.0026882676188
1001
PE_URL
1000

  0
LINE
  5
62E
102
{ACAD_REACTORS
102
}
330
5E8
100
AcDbEntity
  8
0
  6
Continuous
 62
     7
370
     5
100
AcDbLine
 10
0.000007869075489
 20
153.1998690405235
 30
0.0
 11
0.000007869075489
 21
122.4979352298033
 31
0.0
1001
PE_URL
1000

  0
LINE
  5
62F
102
{ACAD_REACTORS
102
}
330
5E8
100
AcDbEntity
  8
0
  6
Continuous
 62
     7
370
     5
100
AcDbLine
 10
0.1000098282347608
 20
122.3247295231231
 30
0.0
 11
0.8778299174991844
 21
121.8757035433737
 31
0.0
1001
PE_URL
1000

  0
ARC
  5
630
102
{ACAD_REACTORS
102
}
330
5E8
100
AcDbEntity
  8
0
  6
Continuous
 62
     7
370
     5
100
AcDbCircle
 10
17.87766952965831
 20
163.4049758343972
 30
0.0
 40
0.2000000000000692
100
AcDbArc
 50
60.00268826529256
 51
119.9973117347074
1001
PE_URL
1000

  0
LINE
  5
631
102
{ACAD_REACTORS
102
}
330
5E8
100
AcDbEntity
  8
0
  6
Continuous
 62
     7
370
     5
100
AcDbLine
 10
18.75548255551621
 20
163.1291591683294
 30
0.0
 11
17.97766246623723
 21
163.5781851480788
 31
0.0
1001
PE_URL
1000

  0
LINE
  5
632
102
{ACAD_REACTORS
102
}
330
5E8
100
AcDbEntity
  8
0
  6
Continuous
 62
     7
370
     5
100
AcDbLine
 10
17.77767764569944
 20
163.5781862885888
 30
0.0
 11
0.1000078526158177
 21
153.3730847387342
 31
0.0
1001
PE_URL
1000

  0
ARC
  5
633
102
{ACAD_REACTORS
102
}
330
5E8
100
AcDbEntity
  8
0
  6
Continuous
 62
     7
370
     5
100
AcDbCircle
 10
0.2000000000007276
 20
153.1998744366138
 30
0.0
 40
0.2000000000000058
100
AcDbArc
 50
119.9973117347074
 51
180.0
1001
PE_URL
1000

  0
ARC
  5
634
102
{ACAD_REACTORS
102
}
330
5E8
100
AcDbEntity
  8
0
  6
Continuous
 62
     7
370
     5
100
AcDbCircle
 10
17.87766825907966
 20
132.5117064717379
 30
0.0
 40
0.3074344667704958
100
AcDbArc
 50
62.61204326947894
 51
117.3873406417743
1001
PE_URL
1000

  0
ARC
  5
635
102
{ACAD_REACTORS
102
}
330
5E8
100
AcDbEntity
  8
0
  6
Continuous
 62
     7
370
     5
100
AcDbCircle
 10
17.71204854616008
 20
132.7986536399258
 30
0.0
 40
0.307361364265666
100
AcDbArc
 50
302.6055705220951
 51
357.3944846940835
1001
PE_URL
1000

  0
ARC
  5
636
102
{ACAD_REACTORS
102
}
330
5E8
100
AcDbEntity
  8
0
  6
Continuous
 62
     7
370
     5
100
AcDbCircle
 10
18.04331944861406
 20
132.7986718128268
 30
0.0
 40
0.3073906335224548
100
AcDbArc
 50
182.6083741325351
 51
237.3921868405903
1001
PE_URL
1000

  0
LINE
  5
637
102
{ACAD_REACTORS
102
}
330
5E8
100
AcDbEntity
  8
0
  6
Continuous
 62
     7
370
     5
100
AcDbLine
 10
17.73624729359653
 20
132.7846827745234
 30
0.0
 11
17.73624729359653
 21
163.4866165852436
 31
0.0
1001
PE_URL
1000

  0
ARC
  5
638
102
{ACAD_REACTORS
102
}
330
5E8
100
AcDbEntity
  8
0
  6
Continuous
 62
     7
370
     5
100
AcDbCircle
 10
17.87766825907966
 20
163.2136402824581
 30
0.0
 40
0.3074344667709842
100
AcDbArc
 50
62.61204326947894
 51
117.3873406417743
1001
PE_URL
1000

  0
LINE
  5
639
102
{ACAD_REACTORS
102
}
330
5E8
100
AcDbEntity
  8
0
  6
Continuous
 62
     7
370
     5
100
AcDbLine
 10
18.01909215977867
 20
163.4866150645648
 30
0.0
 11
18.01909215977867
 21
132.7846812538482
 31
0.0
1001
PE_URL
1000

  0
LINE
  5
63A
102
{ACAD_REACTORS
102
}
330
5E8
100
AcDbEntity
  8
0
  6
Continuous
 62
     7
370
     5
100
AcDbLine
 10
11.73818209732053
 20
129.322073440424
 30
0.0
 11
17.73624729359653
 21
132.7846827745234
 31
0.0
1001
PE_URL
1000

  0
LINE
  5
63B
102
{ACAD_REACTORS
102
}
330
5E8
100
AcDbEntity
  8
0
  6
Continuous
 62
     7
370
     5
100
AcDbLine
 10
17.87767104377781
 20
132.539732423098
 30
0.0
 11
11.87713729341704
 21
129.0756980230544
 31
0.0
1001
PE_URL
1000

  0
ELLIPSE
  5
63C
102
{ACAD_REACTORS
102
}
330
5E8
100
AcDbEntity
  8
0
  6
Continuous
 62
     7
370
     5
100
AcDbEllipse
 10
11.8771359653947
 20
129.2390070148867
 30
0.0
 11
-0.0974149464412335
 21
0.1746892004040888
 31
0.0
210
0.0
220
0.0
230
1.0
 40
0.5672183927596084
 41
0.7939066863166244
 42
2.364703013104416
1001
PE_URL
1000

  0
LINE
  5
63D
102
{ACAD_REACTORS
102
}
330
5E8
100
AcDbEntity
  8
0
  6
Continuous
 62
     7
370
     5
100
AcDbLine
 10
18.01909215977867
 20
132.7846812538482
 30
0.0
 11
18.79691224905764
 21
132.3356552740988
 31
0.0
1001
PE_URL
1000

  0
ARC
  5
63E
102
{ACAD_REACTORS
102
}
330
5E8
100
AcDbEntity
  8
0
  6
Continuous
 62
     7
370
     5
100
AcDbCircle
 10
18.48986863541722
 20
132.3496276601763
 30
0.0
 40
0.3073613642652704
100
AcDbArc
 50
302.6055705204045
 51
357.3944846940835
1001
PE_URL
1000

  0
LINE
  5
63F
102
{ACAD_REACTORS
102
}
330
5E8
100
AcDbEntity
  8
0
  6
Continuous
 62
     7
370
     5
100
AcDbLine
 10
18.65549113305678
 20
132.0907064433486
 30
0.0
 11
17.87767104377781
 21
132.539732423098
 31
0.0
1001
PE_URL
1000

  0
LINE
  5
640
102
{ACAD_REACTORS
102
}
330
5E8
100
AcDbEntity
  8
0
  6
Continuous
 62
     7
370
     5
100
AcDbLine
 10
18.79691224905764
 20
163.037589084819
 30
0.0
 11
18.01909215977867
 21
163.4866150645648
 31
0.0
1001
PE_URL
1000

  0
LINE
  5
641
102
{ACAD_REACTORS
102
}
330
5E8
100
AcDbEntity
  8
0
  6
Continuous
 62
     7
370
     5
100
AcDbLine
 10
18.79691224905764
 20
163.037589084819
 30
0.0
 11
18.79691224905764
 21
132.3356552740988
 31
0.0
1001
PE_URL
1000

  0
LINE
  5
642
102
{ACAD_REACTORS
102
}
330
5E8
100
AcDbEntity
  8
0
  6
Continuous
 62
     7
370
     5
100
AcDbLine
 10
17.73624729359653
 20
163.4866165852436
 30
0.0
 11
0.0585775005201867
 21
153.2815150353927
 31
0.0
1001
PE_URL
1000

  0
LINE
  5
643
102
{ACAD_REACTORS
102
}
330
5E8
100
AcDbEntity
  8
0
  6
Continuous
 62
     7
370
     5
100
AcDbLine
 10
11.73818209732053
 20
129.322073440424
 30
0.0
 11
11.73818209732053
 21
136.1136151558967
 31
0.0
1001
PE_URL
1000

  0
LINE
  5
644
102
{ACAD_REACTORS
102
}
330
5E8
100
AcDbEntity
  8
0
  6
Continuous
 62
     7
370
     5
100
AcDbLine
 10
11.73818209732053
 20
136.1136151558967
 30
0.0
 11
6.056642696796189
 21
132.8337322742482
 31
0.0
1001
PE_URL
1000

  0
LINE
  5
645
102
{ACAD_REACTORS
102
}
330
5E8
100
AcDbEntity
  8
0
  6
Continuous
 62
     7
370
     5
100
AcDbLine
 10
6.056642696796189
 20
126.0421905587755
 30
0.0
 11
6.056642696796189
 21
132.8337322742482
 31
0.0
1001
PE_URL
1000

  0
LINE
  5
646
102
{ACAD_REACTORS
102
}
330
5E8
100
AcDbEntity
  8
0
  6
Continuous
 62
     7
370
     5
100
AcDbLine
 10
0.0585775005201867
 20
122.5795812246724
 30
0.0
 11
6.056642696796189
 21
126.0421905587755
 31
0.0
1001
PE_URL
1000

  0
LINE
  5
647
102
{ACAD_REACTORS
102
}
330
5E8
100
AcDbEntity
  8
0
  6
Continuous
 62
     7
370
     5
100
AcDbLine
 10
0.0585775005201867
 20
153.2815150353927
 30
0.0
 11
0.0585775005201867
 21
122.5795812246724
 31
0.0
1001
PE_URL
1000

  0
LINE
  5
648
102
{ACAD_REACTORS
102
}
330
5E8
100
AcDbEntity
  8
0
  6
Continuous
 62
     7
370
     5
100
AcDbLine
 10
5.368049790737132
 20
126.2907806350813
 30
0.0
 11
5.368049790737132
 21
133.2313773429523
 31
0.0
1001
PE_URL
1000

  0
LINE
  5
649
102
{ACAD_REACTORS
102
}
330
5E8
100
AcDbEntity
  8
0
  6
Continuous
 62
     7
370
     5
100
AcDbLine
 10
5.368049790737132
 20
133.2313773429523
 30
0.0
 11
12.42677500337959
 21
137.3062926711973
 31
0.0
1001
PE_URL
1000

  0
LINE
  5
64A
102
{ACAD_REACTORS
102
}
330
5E8
100
AcDbEntity
  8
0
  6
Continuous
 62
     7
370
     5
100
AcDbLine
 10
12.42677500337959
 20
137.3062926711973
 30
0.0
 11
12.42677500337959
 21
130.3656959633299
 31
0.0
1001
PE_URL
1000

  0
LINE
  5
64B
102
{ACAD_REACTORS
102
}
330
5E8
100
AcDbEntity
  8
0
  6
Continuous
 62
     7
370
     5
100
AcDbLine
 10
12.42677500337959
 20
130.3656959633299
 30
0.0
 11
17.17673273309993
 21
133.107788193618
 31
0.0
1001
PE_URL
1000

  0
LINE
  5
64C
102
{ACAD_REACTORS
102
}
330
5E8
100
AcDbEntity
  8
0
  6
Continuous
 62
     7
370
     5
100
AcDbLine
 10
17.17673273309993
 20
133.107788193618
 30
0.0
 11
17.17673273309993
 21
162.5175112231082
 31
0.0
1001
PE_URL
1000

  0
LINE
  5
64D
102
{ACAD_REACTORS
102
}
330
5E8
100
AcDbEntity
  8
0
  6
Continuous
 62
     7
370
     5
100
AcDbLine
 10
17.17673273309993
 20
162.5175112231082
 30
0.0
 11
0.6180920610167959
 21
152.9584114342797
 31
0.0
1001
PE_URL
1000

  0
LINE
  5
64E
102
{ACAD_REACTORS
102
}
330
5E8
100
AcDbEntity
  8
0
  6
Continuous
 62
     7
370
     5
100
AcDbLine
 10
0.6180920610167959
 20
152.9584114342797
 30
0.0
 11
0.6180920610167959
 21
123.5486884047932
 31
0.0
1001
PE_URL
1000

  0
LINE
  5
64F
102
{ACAD_REACTORS
102
}
330
5E8
100
AcDbEntity
  8
0
  6
Continuous
 62
     7
370
     5
100
AcDbLine
 10
0.6180920610167959
 20
123.5486884047932
 30
0.0
 11
5.368049790737132
 21
126.2907806350813
 31
0.0
1001
PE_URL
1000

  0
LINE
  5
650
102
{ACAD_REACTORS
102
}
330
5E8
100
AcDbEntity
  8
0
  6
Continuous
 62
     7
370
     5
100
AcDbLine
 10
12.43293733361861
 20
128.7434413420997
 30
0.0
 11
6.776082815438713
 21
125.4778087397026
 31
0.0
1001
PE_URL
1000

  0
LINE
  5
651
102
{ACAD_REACTORS
102
}
330
5E8
100
AcDbEntity
  8
0
  6
Continuous
 62
     7
370
     5
100
AcDbLine
 10
12.43293733361861
 20
128.7434413420997
 30
0.0
 11
11.87713729341704
 21
129.0756980230544
 31
0.0
1001
PE_URL
1000

  0
LINE
  5
652
102
{ACAD_REACTORS
102
}
330
5E8
100
AcDbEntity
  8
0
  6
Continuous
 62
     7
370
     5
100
AcDbLine
 10
18.79691488323806
 20
132.0090642501746
 30
0.0
 11
18.65549113305678
 21
132.0907064433486
 31
0.0
1001
PE_URL
1000

  0
LINE
  5
653
102
{ACAD_REACTORS
102
}
330
5E8
100
AcDbEntity
  8
0
  6
Continuous
 62
     7
370
     5
100
AcDbLine
 10
18.79691488323806
 20
132.0090642501746
 30
0.0
 11
1.119245090139884
 21
121.8039627003236
 31
0.0
1001
PE_URL
1000

  0
LINE
  5
654
102
{ACAD_REACTORS
102
}
330
5E8
100
AcDbEntity
  8
0
  6
Continuous
 62
     7
370
     5
100
AcDbLine
 10
1.119245090139884
 20
121.8039627003236
 30
0.0
 11
0.9778213399804372
 21
121.8856048934977
 31
0.0
1001
PE_URL
1000

  0
LINE
  5
655
102
{ACAD_REACTORS
102
}
330
5E8
100
AcDbEntity
  8
0
  6
Continuous
 62
     7
370
     5
100
AcDbLine
 10
0.2000012506941857
 20
122.3346308732471
 30
0.0
 11
0.9778213399804372
 21
121.8856048934977
 31
0.0
1001
PE_URL
1000

  0
LINE
  5
656
102
{ACAD_REACTORS
102
}
330
5E8
100
AcDbEntity
  8
0
  6
Continuous
 62
     7
370
     5
100
AcDbLine
 10
6.200535001076787
 20
125.7986652732907
 30
0.0
 11
0.2000012506941857
 21
122.3346308732471
 31
0.0
1001
PE_URL
1000

  0
LINE
  5
657
102
{ACAD_REACTORS
102
}
330
5E8
100
AcDbEntity
  8
0
  6
Continuous
 62
     7
370
     5
100
AcDbLine
 10
6.776082815438713
 20
125.4778087397026
 30
0.0
 11
6.200535001076787
 21
125.7986652732907
 31
0.0
1001
PE_URL
1000

  0
LINE
  5
658
102
{ACAD_REACTORS
102
}
330
5E8
100
AcDbEntity
  8
0
  6
Continuous
 62
     7
370
     5
100
AcDbLine
 10
18.79691488323806
 20
132.0090642501746
 30
0.0
 11
18.79691488323806
 21
132.3356540455352
 31
0.0
1001
PE_URL
1000

  0
LINE
  5
659
102
{ACAD_REACTORS
102
}
330
5E8
100
AcDbEntity
  8
0
  6
Continuous
 62
     7
370
     5
100
AcDbLine
 10
18.79691488323806
 20
163.0375897692938
 30
0.0
 11
18.79691488323806
 21
163.0376141041052
 31
0.0
1001
PE_URL
1000

  0
LINE
  5
65A
102
{ACAD_REACTORS
102
}
330
5E8
100
AcDbEntity
  8
0
  6
Continuous
 62
     7
370
     5
100
AcDbLine
 10
12.50366336742081
 20
137.2649521302446
 30
0.0
 11
12.42677500337959
 21
137.3062926711973
 31
0.0
1001
PE_URL
1000

  0
LINE
  5
65B
102
{ACAD_REACTORS
102
}
330
5E8
100
AcDbEntity
  8
0
  6
Continuous
 62
     7
370
     5
100
AcDbLine
 10
11.78178630483671
 20
129.1772201763342
 30
0.0
 11
6.566258352115256
 21
126.1663599772
 31
0.0
1001
PE_URL
1000

  0
LINE
  5
65C
102
{ACAD_REACTORS
102
}
330
5E8
100
AcDbEntity
  8
0
  6
Continuous
 62
     7
370
     5
100
AcDbLine
 10
6.566258352115256
 20
126.1663599772
 30
0.0
 11
6.776082815438713
 21
125.4778087397026
 31
0.0
1001
PE_URL
1000

  0
LINE
  5
65D
102
{ACAD_REACTORS
102
}
330
5E8
100
AcDbEntity
  8
0
  6
Continuous
 62
     7
370
     5
100
AcDbLine
 10
11.73818802422102
 20
129.5561648271396
 30
0.0
 11
6.566258352115256
 21
126.5704733796701
 31
0.0
1001
PE_URL
1000

  0
LINE
  5
65E
102
{ACAD_REACTORS
102
}
330
5E8
100
AcDbEntity
  8
0
  6
Continuous
 62
     7
370
     5
100
AcDbLine
 10
6.566258352115256
 20
126.5704733796701
 30
0.0
 11
6.566258352115256
 21
126.1663599772
 31
0.0
1001
PE_URL
1000

  0
LINE
  5
65F
102
{ACAD_REACTORS
102
}
330
5E8
100
AcDbEntity
  8
0
  6
Continuous
 62
     7
370
     5
100
AcDbLine
 10
11.73818802422102
 20
130.1319004454745
 30
0.0
 11
6.566258352115256
 21
127.1462089980087
 31
0.0
1001
PE_URL
1000

  0
LINE
  5
660
102
{ACAD_REACTORS
102
}
330
5E8
100
AcDbEntity
  8
0
  6
Continuous
 62
     7
370
     5
100
AcDbLine
 10
6.566258352115256
 20
127.1462089980087
 30
0.0
 11
6.715468074016826
 21
126.6566064707913
 31
0.0
1001
PE_URL
1000

  0
LINE
  5
661
102
{ACAD_REACTORS
102
}
330
5E8
100
AcDbEntity
  8
0
  6
Continuous
 62
     7
370
     5
100
AcDbLine
 10
11.73818802422102
 20
130.5360138479446
 30
0.0
 11
6.566258352115256
 21
127.5503224004715
 31
0.0
1001
PE_URL
1000

  0
LINE
  5
662
102
{ACAD_REACTORS
102
}
330
5E8
100
AcDbEntity
  8
0
  6
Continuous
 62
     7
370
     5
100
AcDbLine
 10
6.566258352115256
 20
127.5503224004715
 30
0.0
 11
6.566258352115256
 21
127.1462089980087
 31
0.0
1001
PE_URL
1000

  0
LINE
  5
663
102
{ACAD_REACTORS
102
}
330
5E8
100
AcDbEntity
  8
0
  6
Continuous
 62
     7
370
     5
100
AcDbLine
 10
11.73818802422102
 20
131.1117494662794
 30
0.0
 11
6.566258352115256
 21
128.1260580188064
 31
0.0
1001
PE_URL
1000

  0
LINE
  5
664
102
{ACAD_REACTORS
102
}
330
5E8
100
AcDbEntity
  8
0
  6
Continuous
 62
     7
370
     5
100
AcDbLine
 10
6.566258352115256
 20
128.1260580188064
 30
0.0
 11
6.715468074016826
 21
127.6364554915963
 31
0.0
1001
PE_URL
1000

  0
LINE
  5
665
102
{ACAD_REACTORS
102
}
330
5E8
100
AcDbEntity
  8
0
  6
Continuous
 62
     7
370
     5
100
AcDbLine
 10
11.73818802422102
 20
131.5158626786324
 30
0.0
 11
6.566258352115256
 21
128.5301712311593
 31
0.0
1001
PE_URL
1000

  0
LINE
  5
666
102
{ACAD_REACTORS
102
}
330
5E8
100
AcDbEntity
  8
0
  6
Continuous
 62
     7
370
     5
100
AcDbLine
 10
6.566258352115256
 20
128.5301712311593
 30
0.0
 11
6.566258352115256
 21
128.1260580188064
 31
0.0
1001
PE_URL
1000

  0
LINE
  5
667
102
{ACAD_REACTORS
102
}
330
5E8
100
AcDbEntity
  8
0
  6
Continuous
 62
     7
370
     5
100
AcDbLine
 10
11.73818802422102
 20
132.0915984870808
 30
0.0
 11
6.566258352115256
 21
129.1059070396077
 31
0.0
1001
PE_URL
1000

  0
LINE
  5
668
102
{ACAD_REACTORS
102
}
330
5E8
100
AcDbEntity
  8
0
  6
Continuous
 62
     7
370
     5
100
AcDbLine
 10
6.566258352115256
 20
129.1059070396077
 30
0.0
 11
6.715468074016826
 21
128.6163043222841
 31
0.0
1001
PE_URL
1000

  0
LINE
  5
669
102
{ACAD_REACTORS
102
}
330
5E8
100
AcDbEntity
  8
0
  6
Continuous
 62
     7
370
     5
100
AcDbLine
 10
11.73818802422102
 20
132.4957118895509
 30
0.0
 11
6.566258352115256
 21
129.5100204420778
 31
0.0
1001
PE_URL
1000

  0
LINE
  5
66A
102
{ACAD_REACTORS
102
}
330
5E8
100
AcDbEntity
  8
0
  6
Continuous
 62
     7
370
     5
100
AcDbLine
 10
6.566258352115256
 20
129.5100204420778
 30
0.0
 11
6.566258352115256
 21
129.1059070396077
 31
0.0
1001
PE_URL
1000

  0
LINE
  5
66B
102
{ACAD_REACTORS
102
}
330
5E8
100
AcDbEntity
  8
0
  6
Continuous
 62
     7
370
     5
100
AcDbLine
 10
11.73818802422102
 20
133.0714473177686
 30
0.0
 11
6.566258352115256
 21
130.0857558702992
 31
0.0
1001
PE_URL
1000

  0
LINE
  5
66C
102
{ACAD_REACTORS
102
}
330
5E8
100
AcDbEntity
  8
0
  6
Continuous
 62
     7
370
     5
100
AcDbLine
 10
6.566258352115256
 20
130.0857558702992
 30
0.0
 11
6.715468074016826
 21
129.5961533430891
 31
0.0
1001
PE_URL
1000

  0
LINE
  5
66D
102
{ACAD_REACTORS
102
}
330
5E8
100
AcDbEntity
  8
0
  6
Continuous
 62
     7
370
     5
100
AcDbLine
 10
11.73818802422102
 20
133.4755607202387
 30
0.0
 11
6.566258352115256
 21
130.4898692727656
 31
0.0
1001
PE_URL
1000

  0
LINE
  5
66E
102
{ACAD_REACTORS
102
}
330
5E8
100
AcDbEntity
  8
0
  6
Continuous
 62
     7
370
     5
100
AcDbLine
 10
6.566258352115256
 20
130.4898692727656
 30
0.0
 11
6.566258352115256
 21
130.0857558702992
 31
0.0
1001
PE_URL
1000

  0
LINE
  5
66F
102
{ACAD_REACTORS
102
}
330
5E8
100
AcDbEntity
  8
0
  6
Continuous
 62
     7
370
     5
100
AcDbLine
 10
11.73818802422102
 20
134.0512961484565
 30
0.0
 11
6.566258352115256
 21
131.0656047009834
 31
0.0
1001
PE_URL
1000

  0
LINE
  5
670
102
{ACAD_REACTORS
102
}
330
5E8
100
AcDbEntity
  8
0
  6
Continuous
 62
     7
370
     5
100
AcDbLine
 10
6.566258352115256
 20
131.0656047009834
 30
0.0
 11
6.715468074016826
 21
130.5760021737733
 31
0.0
1001
PE_URL
1000

  0
LINE
  5
671
102
{ACAD_REACTORS
102
}
330
5E8
100
AcDbEntity
  8
0
  6
Continuous
 62
     7
370
     5
100
AcDbLine
 10
11.73818802422102
 20
134.4554095509266
 30
0.0
 11
6.566258352115256
 21
131.4697181034535
 31
0.0
1001
PE_URL
1000

  0
LINE
  5
672
102
{ACAD_REACTORS
102
}
330
5E8
100
AcDbEntity
  8
0
  6
Continuous
 62
     7
370
     5
100
AcDbLine
 10
6.566258352115256
 20
131.4697181034535
 30
0.0
 11
6.566258352115256
 21
131.0656047009834
 31
0.0
1001
PE_URL
1000

  0
LINE
  5
673
102
{ACAD_REACTORS
102
}
330
5E8
100
AcDbEntity
  8
0
  6
Continuous
 62
     7
370
     5
100
AcDbLine
 10
6.056642696796189
 20
132.8337322742482
 30
0.0
 11
6.776082815438713
 21
132.4184060179214
 31
0.0
1001
PE_URL
1000

  0
LINE
  5
674
102
{ACAD_REACTORS
102
}
330
5E8
100
AcDbEntity
  8
0
  6
Continuous
 62
     7
370
     5
100
AcDbLine
 10
6.776082815438713
 20
132.4184060179214
 30
0.0
 11
6.776082815438713
 21
131.5908645962372
 31
0.0
1001
PE_URL
1000

  0
ELLIPSE
  5
675
102
{ACAD_REACTORS
102
}
330
5E8
100
AcDbEntity
  8
0
  6
Continuous
 62
     7
370
     5
100
AcDbEllipse
 10
6.200533564257057
 20
125.9619742023169
 30
0.0
 11
-0.1026525863727841
 21
0.1716643463722676
 31
0.0
210
0.0
220
0.0
230
1.0
 40
0.5873687162540266
 41
0.7764427606437972
 42
2.34723908744941
1001
PE_URL
1000

  0
ARC
  5
676
102
{ACAD_REACTORS
102
}
330
5E8
100
AcDbEntity
  8
0
  6
Continuous
 62
     7
370
     5
100
AcDbCircle
 10
0.3656496555377089
 20
122.5935702629758
 30
0.0
 40
0.3073906335227956
100
AcDbArc
 50
182.6083741325351
 51
237.3921868388996
1001
PE_URL
1000

  0
LINE
  5
677
102
{ACAD_REACTORS
102
}
330
5E8
100
AcDbEntity
  8
0
  6
Continuous
 62
     7
370
     5
100
AcDbLine
 10
11.73817304234035
 20
135.2829597321652
 30
0.0
 11
6.776082815438713
 21
132.4184060179214
 31
0.0
1001
PE_URL
1000

  0
LINE
  5
678
102
{ACAD_REACTORS
102
}
330
5E8
100
AcDbEntity
  8
0
  6
Continuous
 62
     7
370
     5
100
AcDbLine
 10
0.69498042505802
 20
152.9140237185165
 30
0.0
 11
0.6180920610167959
 21
152.9584114342797
 31
0.0
1001
PE_URL
1000

  0
ARC
  5
679
102
{ACAD_REACTORS
102
}
330
5E8
100
AcDbEntity
  8
0
  6
Continuous
 62
     7
370
     5
100
AcDbCircle
 10
0.9192379109408648
 20
121.9673795749113
 30
0.0
 40
0.1005938202754376
100
AcDbArc
 50
245.6923804620636
 51
305.6178335874443
1001
PE_URL
1000

  0
ARC
  5
67A
102
{ACAD_REACTORS
102
}
330
5E8
100
AcDbEntity
  8
0
  6
Continuous
 62
     7
370
     5
100
AcDbCircle
 10
18.70460988907507
 20
163.0509852871182
 30
0.0
 40
0.0932694156425426
100
AcDbArc
 50
351.742098493503
 51
56.94541242307837
1001
PE_URL
1000

  0
LINE
  5
67B
102
{ACAD_REACTORS
102
}
330
5E8
100
AcDbEntity
  8
0
  6
Continuous
 62
     7
370
     5
100
AcDbLine
 10
18.93833599923892
 20
163.1192547766041
 30
0.0
 11
18.79691488323806
 21
163.0376141041052
 31
0.0
1001
PE_URL
1000

  0
LINE
  5
67C
102
{ACAD_REACTORS
102
}
330
5E8
100
AcDbEntity
  8
0
  6
Continuous
 62
     7
370
     5
100
AcDbLine
 10
18.93833599923892
 20
132.0907049226735
 30
0.0
 11
18.93833599923892
 21
163.1192547766041
 31
0.0
1001
PE_URL
1000

  0
LINE
  5
67D
102
{ACAD_REACTORS
102
}
330
5E8
100
AcDbEntity
  8
0
  6
Continuous
 62
     7
370
     5
100
AcDbLine
 10
15.04924872377524
 20
129.8455826273239
 30
0.0
 11
18.93833599923892
 21
132.0907049226735
 31
0.0
1001
PE_URL
1000

  0
LINE
  5
67E
102
{ACAD_REACTORS
102
}
330
5E8
100
AcDbEntity
  8
0
  6
Continuous
 62
     7
370
     5
100
AcDbLine
 10
0.977823974139028
 20
121.7223220278283
 30
0.0
 11
1.331377422695368
 21
121.9264240892371
 31
0.0
1001
PE_URL
1000

  0
LINE
  5
67F
102
{ACAD_REACTORS
102
}
330
5E8
100
AcDbEntity
  8
0
  6
Continuous
 62
     7
370
     5
100
AcDbLine
 10
0.977823974139028
 20
121.7223220278283
 30
0.0
 11
0.977823974139028
 21
121.8856036530524
 31
0.0
1001
PE_URL
1000

  0
LINE
  5
680
102
{ACAD_REACTORS
102
}
330
5E8
100
AcDbEntity
  8
0
  6
Continuous
 62
     7
370
     5
100
AcDbLine
 10
17.09985095452066
 20
162.3843457954245
 30
0.0
 11
0.6949738396178873
 21
152.9140118187206
 31
0.0
1001
PE_URL
1000

  0
LINE
  5
681
102
{ACAD_REACTORS
102
}
330
5E8
100
AcDbEntity
  8
0
  6
Continuous
 62
     7
370
     5
100
AcDbLine
 10
17.09985095452066
 20
133.1521857179068
 30
0.0
 11
17.09985095452066
 21
162.3843457954245
 31
0.0
1001
PE_URL
1000

  0
LINE
  5
682
102
{ACAD_REACTORS
102
}
330
5E8
100
AcDbEntity
  8
0
  6
Continuous
 62
     7
370
     5
100
AcDbLine
 10
12.50365711123959
 20
130.4988594898241
 30
0.0
 11
17.09985095452066
 21
133.1521857179068
 31
0.0
1001
PE_URL
1000

  0
LINE
  5
683
102
{ACAD_REACTORS
102
}
330
5E8
100
AcDbEntity
  8
0
  6
Continuous
 62
     7
370
     5
100
AcDbLine
 10
12.50365711123959
 20
137.4394567680392
 30
0.0
 11
12.50365711123959
 21
130.4988594898241
 31
0.0
1001
PE_URL
1000

  0
LINE
  5
684
102
{ACAD_REACTORS
102
}
330
5E8
100
AcDbEntity
  8
0
  6
Continuous
 62
     7
370
     5
100
AcDbLine
 10
5.291167682877131
 20
133.2757752475045
 30
0.0
 11
12.50365711123959
 21
137.4394567680392
 31
0.0
1001
PE_URL
1000

  0
LINE
  5
685
102
{ACAD_REACTORS
102
}
330
5E8
100
AcDbEntity
  8
0
  6
Continuous
 62
     7
370
     5
100
AcDbLine
 10
5.291167682877131
 20
126.3351779692857
 30
0.0
 11
5.291167682877131
 21
133.2757752475045
 31
0.0
1001
PE_URL
1000

  0
LINE
  5
686
102
{ACAD_REACTORS
102
}
330
5E8
100
AcDbEntity
  8
0
  6
Continuous
 62
     7
370
     5
100
AcDbLine
 10
0.6949738396178873
 20
123.6818517412066
 30
0.0
 11
5.291167682877131
 21
126.3351779692857
 31
0.0
1001
PE_URL
1000

  0
LINE
  5
687
102
{ACAD_REACTORS
102
}
330
5E8
100
AcDbEntity
  8
0
  6
Continuous
 62
     7
370
     5
100
AcDbLine
 10
0.6949738396178873
 20
152.9140118187206
 30
0.0
 11
0.6949738396178873
 21
123.6818517412066
 31
0.0
1001
PE_URL
1000

  0
LINE
  5
688
102
{ACAD_REACTORS
102
}
330
5E8
100
AcDbEntity
  8
0
  6
Continuous
 62
     7
370
     5
100
AcDbLine
 10
12.50365711123959
 20
130.4988594898241
 30
0.0
 11
12.58055403635444
 21
130.4544678398634
 31
0.0
1001
PE_URL
1000

  0
LINE
  5
689
102
{ACAD_REACTORS
102
}
330
5E8
100
AcDbEntity
  8
0
  6
Continuous
 62
     7
370
     5
100
AcDbLine
 10
17.09985095452066
 20
133.1521857179068
 30
0.0
 11
17.17674787962096
 21
133.1077940679461
 31
0.0
1001
PE_URL
1000

  0
LINE
  5
68A
102
{ACAD_REACTORS
102
}
330
5E8
100
AcDbEntity
  8
0
  6
Continuous
 62
     7
370
     5
100
AcDbLine
 10
17.09985095452066
 20
162.3843457954245
 30
0.0
 11
17.17672680619944
 21
162.3399663108903
 31
0.0
1001
PE_URL
1000

  0
LINE
  5
68B
102
{ACAD_REACTORS
102
}
330
5E8
100
AcDbEntity
  8
0
  6
Continuous
 62
     7
370
     5
100
AcDbLine
 10
5.291167682877131
 20
133.2757752475045
 30
0.0
 11
5.368064607999258
 21
133.2313835975438
 31
0.0
1001
PE_URL
1000

  0
LINE
  5
68C
102
{ACAD_REACTORS
102
}
330
5E8
100
AcDbEntity
  8
0
  6
Continuous
 62
     7
370
     5
100
AcDbLine
 10
5.291167682877131
 20
126.3351779692857
 30
0.0
 11
5.368064607999258
 21
126.2907863193286
 31
0.0
1001
PE_URL
1000

  0
LINE
  5
68D
102
{ACAD_REACTORS
102
}
330
5E8
100
AcDbEntity
  8
0
  6
Continuous
 62
     7
370
     5
100
AcDbLine
 10
0.6949738396178873
 20
123.6818517412066
 30
0.0
 11
0.7718707647181873
 21
123.6374600912386
 31
0.0
1001
PE_URL
1000

  0
ARC
  5
68E
102
{ACAD_REACTORS
102
}
330
5E8
100
AcDbEntity
  8
0
  6
Continuous
 62
     7
370
     5
100
AcDbCircle
 10
0.1414178216764412
 20
122.4164055546607
 30
0.0
 40
0.1005938202754242
100
AcDbArc
 50
245.6923804620636
 51
305.6178335822653
1001
PE_URL
1000

  0
ARC
  5
68F
102
{ACAD_REACTORS
102
}
330
5E8
100
AcDbEntity
  8
0
  6
Continuous
 62
     7
370
     5
100
AcDbCircle
 10
0.1000714271540346
 20
122.4879843361123
 30
0.0
 40
0.1005571277498974
100
AcDbArc
 50
114.3708046324333
 51
174.3208514256892
1001
PE_URL
1000

  0
ARC
  5
690
102
{ACAD_REACTORS
102
}
330
5E8
100
AcDbEntity
  8
0
  6
Continuous
 62
     7
370
     5
100
AcDbCircle
 10
0.1000714271540346
 20
153.1899181468325
 30
0.0
 40
0.1005571277496546
100
AcDbArc
 50
114.3708046347491
 51
174.3208514246579
1001
PE_URL
1000

  0
LWPOLYLINE
  5
691
102
{ACAD_REACTORS
102
}
330
5E8
100
AcDbEntity
  8
0
  6
Continuous
 62
     7
370
     5
100
AcDbPolyline
 90
        6
 70
   128
 43
0.0
 10
17.73624729359653
 20
163.4866165852436
 10
17.73896576533662
 20
163.5169075982085
 10
17.74701581339832
 20
163.5428948914887
 10
17.760081336437
 20
163.5635867918099
 10
17.77767764569944
 20
163.5781771630318
 10
17.77767764569944
 20
163.5781862885888
1001
PE_URL
1000

  0
ARC
  5
692
102
{ACAD_REACTORS
102
}
330
5E8
100
AcDbEntity
  8
0
  6
Continuous
 62
     7
370
     5
100
AcDbCircle
 10
17.92392484873926
 20
163.4987150570087
 30
0.0
 40
0.0959334504234428
100
AcDbArc
 50
352.7540398582122
 51
55.93347105999597
1001
PE_URL
1000

  0
LWPOLYLINE
  5
693
102
{ACAD_REACTORS
102
}
330
5E8
100
AcDbEntity
  8
0
  6
Continuous
 62
     7
370
     5
100
AcDbPolyline
 90
        6
 70
   128
 43
0.0
 10
0.0585775005201867
 20
153.2815150353927
 10
0.0612959722602682
 20
153.3118060483575
 10
0.0693460203146969
 20
153.3377933416377
 10
0.0824115433606494
 20
153.3584852419626
 10
0.1000078526158177
 20
153.3730756131808
 10
0.1000078526158177
 20
153.3730847387342
1001
PE_URL
1000

  0
ENDBLK
  5
695
330
5E8
100
AcDbEntity
  8
0
100
AcDbBlockEnd
  0
ENDSEC
  0
SECTION
  2
ENTITIES
  0
MTEXT
  5
308
330
1F
100
AcDbEntity
  8
寸法線
100
AcDbMText
 10
363.4799605709871
 20
193.3196167438273
 30
0.0
 40
11.66666666666667
 41
273.3522079092451
 71
     1
 72
     5
  1
{MPP-10/0300/COS45/L}
 73
     1
 44
1.0
1001
ACAD
1000
ACAD_MTEXT_DEFINED_HEIGHT_BEGIN
1070
    46
1040
11.66666666666667
1000
ACAD_MTEXT_DEFINED_HEIGHT_END
  0
INSERT
  5
696
330
1F
100
AcDbEntity
  8
0
100
AcDbBlockReference
  2
A$C27022
 10
338.8336853698137
 20
210.8008084778492
 30
0.0
  0
ENDSEC
  0
SECTION
  2
OBJECTS
  0
DICTIONARY
  5
C
330
0
100
AcDbDictionary
281
     1
  3
ACAD_DETAILVIEWSTYLE
350
330
  3
ACAD_GROUP
350
D
  3
ACAD_LAYOUT
350
1A
  3
ACAD_MLINESTYLE
350
17
  3
ACAD_PLOTSETTINGS
350
19
  3
ACAD_PLOTSTYLENAME
350
E
  3
ACAD_SCALELIST
350
47
  3
ACAD_SECTIONVIEWSTYLE
350
331
  3
AcDbVariableDictionary
350
32B
  3
APPDATA
350
2E4
  3
DWGPROPS
350
697
  0
DICTIONARY
  5
303
330
2
100
AcDbDictionary
280
     1
281
     1
  3
ACAD_LAYERSTATES
360
304
  0
DICTIONARY
  5
2E7
330
2E6
100
AcDbDictionary
280
     1
281
     1
  3
ADSK_XREC_LAYER_RECONCILED
360
2E8
  0
DICTIONARY
  5
330
102
{ACAD_REACTORS
330
C
102
}
330
C
100
AcDbDictionary
281
     1
  0
DICTIONARY
  5
D
102
{ACAD_REACTORS
330
C
102
}
330
C
100
AcDbDictionary
281
     1
  0
DICTIONARY
  5
1A
102
{ACAD_REACTORS
330
C
102
}
330
C
100
AcDbDictionary
281
     1
  3
Layout1
350
1E
  3
Layout2
350
26
  3
Model
350
22
  0
DICTIONARY
  5
17
102
{ACAD_REACTORS
330
C
102
}
330
C
100
AcDbDictionary
281
     1
  3
Standard
350
18
  0
DICTIONARY
  5
19
102
{ACAD_REACTORS
330
C
102
}
330
C
100
AcDbDictionary
281
     1
  0
ACDBDICTIONARYWDFLT
  5
E
102
{ACAD_REACTORS
330
C
102
}
330
C
100
AcDbDictionary
281
     1
  3
Normal
350
F
100
AcDbDictionaryWithDefault
340
F
  0
DICTIONARY
  5
47
102
{ACAD_REACTORS
330
C
102
}
330
C
100
AcDbDictionary
281
     1
  3
A0
350
48
  3
A1
350
49
  3
A2
350
4A
  3
A3
350
4B
  3
A4
350
4C
  3
A5
350
4D
  3
A6
350
4E
  3
A7
350
4F
  3
A8
350
50
  3
A9
350
51
  3
B0
350
52
  3
B1
350
53
  3
B2
350
54
  3
B3
350
55
  3
B4
350
56
  3
B5
350
57
  3
B6
350
58
  3
B7
350
59
  3
B8
350
5A
  3
B9
350
5B
  3
C0
350
5C
  3
C1
350
5D
  3
C2
350
5E
  3
C3
350
5F
  3
C4
350
60
  3
C5
350
61
  3
C6
350
62
  3
C7
350
63
  3
C8
350
64
  3
C9
350
65
  3
D0
350
66
  3
D1
350
67
  3
D2
350
68
  0
DICTIONARY
  5
331
102
{ACAD_REACTORS
330
C
102
}
330
C
100
AcDbDictionary
281
     1
  0
DICTIONARY
  5
32B
102
{ACAD_REACTORS
330
C
102
}
330
C
100
AcDbDictionary
281
     1
  0
DICTIONARY
  5
2E4
102
{ACAD_REACTORS
330
C
102
}
330
C
100
AcDbDictionary
281
     1
  0
XRECORD
  5
697
102
{ACAD_REACTORS
330
C
102
}
330
C
100
AcDbXrecord
280
     1
  1
DWGPROPS COOKIE
  2

  3

  4

  6

  7

  8
ModuleX
  9

300
=
301
=
302
=
303
=
304
=
305
=
306
=
307
=
308
=
309
=
 40
0.0
 41
2458682.162002107
 42
2459611.325320533
  1

 90
        0
  0
DICTIONARY
  5
304
102
{ACAD_REACTORS
330
303
102
}
330
303
100
AcDbDictionary
281
     1
  0
XRECORD
  5
2E8
102
{ACAD_REACTORS
330
2E7
102
}
330
2E7
100
AcDbXrecord
280
     1
290
     1
  0
LAYOUT
  5
1E
102
{ACAD_REACTORS
330
1A
102
}
330
1A
100
AcDbPlotSettings
  1

  2
none_device
  4

  6

 40
0.0
 41
0.0
 42
0.0
 43
0.0
 44
0.0
 45
0.0
 46
0.0
 47
0.0
 48
0.0
 49
0.0
140
0.0
141
0.0
142
1.0
143
1.0
 70
   688
 72
     1
 73
     0
 74
     5
  7

 75
    16
147
1.0
148
0.0
149
0.0
100
AcDbLayout
  1
Layout1
 70
     1
 71
     1
 10
0.0
 20
0.0
 11
420.0
 21
297.0
 12
0.0
 22
0.0
 32
0.0
 14
1.000000000000000E+20
 24
1.000000000000000E+20
 34
1.000000000000000E+20
 15
-1.000000000000000E+20
 25
-1.000000000000000E+20
 35
-1.000000000000000E+20
146
0.0
 13
0.0
 23
0.0
 33
0.0
 16
1.0
 26
0.0
 36
0.0
 17
0.0
 27
1.0
 37
0.0
 76
     0
330
1B
  0
LAYOUT
  5
26
102
{ACAD_REACTORS
330
1A
102
}
330
1A
100
AcDbPlotSettings
  1

  2
none_device
  4

  6

 40
0.0
 41
0.0
 42
0.0
 43
0.0
 44
0.0
 45
0.0
 46
0.0
 47
0.0
 48
0.0
 49
0.0
140
0.0
141
0.0
142
1.0
143
1.0
 70
   688
 72
     1
 73
     0
 74
     5
  7

 75
    16
147
1.0
148
0.0
149
0.0
100
AcDbLayout
  1
Layout2
 70
     1
 71
     2
 10
0.0
 20
0.0
 11
0.0
 21
0.0
 12
0.0
 22
0.0
 32
0.0
 14
0.0
 24
0.0
 34
0.0
 15
0.0
 25
0.0
 35
0.0
146
0.0
 13
0.0
 23
0.0
 33
0.0
 16
1.0
 26
0.0
 36
0.0
 17
0.0
 27
1.0
 37
0.0
 76
     0
330
23
  0
LAYOUT
  5
22
102
{ACAD_REACTORS
330
1A
102
}
330
1A
100
AcDbPlotSettings
  1

  2
none_device
  4
Letter_(8.50_x_11.00_Inches)
  6

 40
6.35
 41
6.35
 42
6.35000508
 43
6.35000508
 44
215.9
 45
279.4
 46
0.0
 47
0.0
 48
0.0
 49
0.0
140
0.0
141
0.0
142
1.0
143
1.0
 70
  1712
 72
     1
 73
     0
 74
     0
  7

 75
     0
147
1.0
148
0.0
149
0.0
100
AcDbLayout
  1
Model
 70
     1
 71
     0
 10
0.0
 20
0.0
 11
1189.0
 21
841.0
 12
0.0
 22
0.0
 32
0.0
 14
338.8336853698144
 24
181.6529500771607
 34
0.0
 15
569.5910716820981
 25
374.4057843122482
 35
0.0
146
0.0
 13
0.0
 23
0.0
 33
0.0
 16
1.0
 26
0.0
 36
0.0
 17
0.0
 27
1.0
 37
0.0
 76
     0
330
1F
331
29
  0
MLINESTYLE
  5
18
102
{ACAD_REACTORS
330
17
102
}
330
17
100
AcDbMlineStyle
  2
Standard
 70
     0
  3

 62
   256
 51
90.0
 52
90.0
 71
     2
 49
0.5
 62
   256
  6
BYLAYER
 49
-0.5
 62
   256
  6
BYLAYER
  0
ACDBPLACEHOLDER
  5
F
102
{ACAD_REACTORS
330
E
102
}
330
E
  0
SCALE
  5
48
102
{ACAD_REACTORS
330
47
102
}
330
47
100
AcDbScale
 70
     0
300
1:1
140
1.0
141
1.0
290
     1
  0
SCALE
  5
49
102
{ACAD_REACTORS
330
47
102
}
330
47
100
AcDbScale
 70
     0
300
1:2
140
1.0
141
2.0
290
     0
  0
SCALE
  5
4A
102
{ACAD_REACTORS
330
47
102
}
330
47
100
AcDbScale
 70
     0
300
1:4
140
1.0
141
4.0
290
     0
  0
SCALE
  5
4B
102
{ACAD_REACTORS
330
47
102
}
330
47
100
AcDbScale
 70
     0
300
1:5
140
1.0
141
5.0
290
     0
  0
SCALE
  5
4C
102
{ACAD_REACTORS
330
47
102
}
330
47
100
AcDbScale
 70
     0
300
1:8
140
1.0
141
8.0
290
     0
  0
SCALE
  5
4D
102
{ACAD_REACTORS
330
47
102
}
330
47
100
AcDbScale
 70
     0
300
1:10
140
1.0
141
10.0
290
     0
  0
SCALE
  5
4E
102
{ACAD_REACTORS
330
47
102
}
330
47
100
AcDbScale
 70
     0
300
1:16
140
1.0
141
16.0
290
     0
  0
SCALE
  5
4F
102
{ACAD_REACTORS
330
47
102
}
330
47
100
AcDbScale
 70
     0
300
1:20
140
1.0
141
20.0
290
     0
  0
SCALE
  5
50
102
{ACAD_REACTORS
330
47
102
}
330
47
100
AcDbScale
 70
     0
300
1:30
140
1.0
141
30.0
290
     0
  0
SCALE
  5
51
102
{ACAD_REACTORS
330
47
102
}
330
47
100
AcDbScale
 70
     0
300
1:40
140
1.0
141
40.0
290
     0
  0
SCALE
  5
52
102
{ACAD_REACTORS
330
47
102
}
330
47
100
AcDbScale
 70
     0
300
1:50
140
1.0
141
50.0
290
     0
  0
SCALE
  5
53
102
{ACAD_REACTORS
330
47
102
}
330
47
100
AcDbScale
 70
     0
300
1:100
140
1.0
141
100.0
290
     0
  0
SCALE
  5
54
102
{ACAD_REACTORS
330
47
102
}
330
47
100
AcDbScale
 70
     0
300
2:1
140
2.0
141
1.0
290
     0
  0
SCALE
  5
55
102
{ACAD_REACTORS
330
47
102
}
330
47
100
AcDbScale
 70
     0
300
4:1
140
4.0
141
1.0
290
     0
  0
SCALE
  5
56
102
{ACAD_REACTORS
330
47
102
}
330
47
100
AcDbScale
 70
     0
300
8:1
140
8.0
141
1.0
290
     0
  0
SCALE
  5
57
102
{ACAD_REACTORS
330
47
102
}
330
47
100
AcDbScale
 70
     0
300
10:1
140
10.0
141
1.0
290
     0
  0
SCALE
  5
58
102
{ACAD_REACTORS
330
47
102
}
330
47
100
AcDbScale
 70
     0
300
100:1
140
100.0
141
1.0
290
     0
  0
SCALE
  5
59
102
{ACAD_REACTORS
330
47
102
}
330
47
100
AcDbScale
 70
     0
300
1/128" = 1'-0"
140
0.0078125
141
12.0
290
     0
  0
SCALE
  5
5A
102
{ACAD_REACTORS
330
47
102
}
330
47
100
AcDbScale
 70
     0
300
1/64" = 1'-0"
140
0.015625
141
12.0
290
     0
  0
SCALE
  5
5B
102
{ACAD_REACTORS
330
47
102
}
330
47
100
AcDbScale
 70
     0
300
1/32" = 1'-0"
140
0.03125
141
12.0
290
     0
  0
SCALE
  5
5C
102
{ACAD_REACTORS
330
47
102
}
330
47
100
AcDbScale
 70
     0
300
1/16" = 1'-0"
140
0.0625
141
12.0
290
     0
  0
SCALE
  5
5D
102
{ACAD_REACTORS
330
47
102
}
330
47
100
AcDbScale
 70
     0
300
3/32" = 1'-0"
140
0.09375
141
12.0
290
     0
  0
SCALE
  5
5E
102
{ACAD_REACTORS
330
47
102
}
330
47
100
AcDbScale
 70
     0
300
1/8" = 1'-0"
140
0.125
141
12.0
290
     0
  0
SCALE
  5
5F
102
{ACAD_REACTORS
330
47
102
}
330
47
100
AcDbScale
 70
     0
300
3/16" = 1'-0"
140
0.1875
141
12.0
290
     0
  0
SCALE
  5
60
102
{ACAD_REACTORS
330
47
102
}
330
47
100
AcDbScale
 70
     0
300
1/4" = 1'-0"
140
0.25
141
12.0
290
     0
  0
SCALE
  5
61
102
{ACAD_REACTORS
330
47
102
}
330
47
100
AcDbScale
 70
     0
300
3/8" = 1'-0"
140
0.375
141
12.0
290
     0
  0
SCALE
  5
62
102
{ACAD_REACTORS
330
47
102
}
330
47
100
AcDbScale
 70
     0
300
1/2" = 1'-0"
140
0.5
141
12.0
290
     0
  0
SCALE
  5
63
102
{ACAD_REACTORS
330
47
102
}
330
47
100
AcDbScale
 70
     0
300
3/4" = 1'-0"
140
0.75
141
12.0
290
     0
  0
SCALE
  5
64
102
{ACAD_REACTORS
330
47
102
}
330
47
100
AcDbScale
 70
     0
300
1" = 1'-0"
140
1.0
141
12.0
290
     0
  0
SCALE
  5
65
102
{ACAD_REACTORS
330
47
102
}
330
47
100
AcDbScale
 70
     0
300
1-1/2" = 1'-0"
140
1.5
141
12.0
290
     0
  0
SCALE
  5
66
102
{ACAD_REACTORS
330
47
102
}
330
47
100
AcDbScale
 70
     0
300
3" = 1'-0"
140
3.0
141
12.0
290
     0
  0
SCALE
  5
67
102
{ACAD_REACTORS
330
47
102
}
330
47
100
AcDbScale
 70
     0
300
6" = 1'-0"
140
6.0
141
12.0
290
     0
  0
SCALE
  5
68
102
{ACAD_REACTORS
330
47
102
}
330
47
100
AcDbScale
 70
     0
300
1'-0" = 1'-0"
140
12.0
141
12.0
290
     0
  0
ENDSEC
  0
EOF
