  0
SECTION
  2
HEADER
  9
$ACADVER
  1
AC1015
  9
$ACADMAINTVER
 70
     6
  9
$DWGCODEPAGE
  3
ANSI_932
  9
$INSBASE
 10
0.0
 20
0.0
 30
0.0
  9
$EXTMIN
 10
338.8336916676097
 20
181.6529500771607
 30
0.0
  9
$EXTMAX
 10
569.5910716820981
 20
374.4057795535773
 30
0.0
  9
$LIMMIN
 10
0.0
 20
0.0
  9
$LIMMAX
 10
1189.0
 20
841.0
  9
$ORTHOMODE
 70
     0
  9
$REGENMODE
 70
     1
  9
$FILLMODE
 70
     1
  9
$QTEXTMODE
 70
     0
  9
$MIRRTEXT
 70
     1
  9
$LTSCALE
 40
1.0
  9
$ATTMODE
 70
     1
  9
$TEXTSIZE
 40
3.5
  9
$TRACEWID
 40
1.0
  9
$TEXTSTYLE
  7
Standard
  9
$CLAYER
  8
0
  9
$CELTYPE
  6
ByLayer
  9
$CECOLOR
 62
   256
  9
$CELTSCALE
 40
1.0
  9
$DISPSILH
 70
     0
  9
$DIMSCALE
 40
1.0
  9
$DIMASZ
 40
3.302
  9
$DIMEXO
 40
1.0
  9
$DIMDLI
 40
3.75
  9
$DIMRND
 40
0.0
  9
$DIMDLE
 40
0.0
  9
$DIMEXE
 40
1.0
  9
$DIMTP
 40
0.0
  9
$DIMTM
 40
0.0
  9
$DIMTXT
 40
3.5
  9
$DIMCEN
 40
2.5
  9
$DIMTSZ
 40
0.0
  9
$DIMTOL
 70
     0
  9
$DIMLIM
 70
     0
  9
$DIMTIH
 70
     1
  9
$DIMTOH
 70
     1
  9
$DIMSE1
 70
     0
  9
$DIMSE2
 70
     0
  9
$DIMTAD
 70
     1
  9
$DIMZIN
 70
     0
  9
$DIMBLK
  1

  9
$DIMASO
 70
     1
  9
$DIMSHO
 70
     1
  9
$DIMPOST
  1

  9
$DIMAPOST
  1

  9
$DIMALT
 70
     0
  9
$DIMALTD
 70
     3
  9
$DIMALTF
 40
0.0393700787401575
  9
$DIMLFAC
 40
1.0
  9
$DIMTOFL
 70
     1
  9
$DIMTVP
 40
0.0
  9
$DIMTIX
 70
     0
  9
$DIMSOXD
 70
     0
  9
$DIMSAH
 70
     0
  9
$DIMBLK1
  1

  9
$DIMBLK2
  1

  9
$DIMSTYLE
  2
ISO-25
  9
$DIMCLRD
 70
     0
  9
$DIMCLRE
 70
     0
  9
$DIMCLRT
 70
     0
  9
$DIMTFAC
 40
1.0
  9
$DIMGAP
 40
1.524
  9
$DIMJUST
 70
     0
  9
$DIMSD1
 70
     0
  9
$DIMSD2
 70
     0
  9
$DIMTOLJ
 70
     0
  9
$DIMTZIN
 70
     0
  9
$DIMALTZ
 70
     0
  9
$DIMALTTZ
 70
     0
  9
$DIMUPT
 70
     0
  9
$DIMDEC
 70
     2
  9
$DIMTDEC
 70
     2
  9
$DIMALTU
 70
     2
  9
$DIMALTTD
 70
     3
  9
$DIMTXSTY
  7
Standard
  9
$DIMAUNIT
 70
     0
  9
$DIMADEC
 70
     2
  9
$DIMALTRND
 40
0.0
  9
$DIMAZIN
 70
     0
  9
$DIMDSEP
 70
    44
  9
$DIMATFIT
 70
     3
  9
$DIMFRAC
 70
     0
  9
$DIMLDRBLK
  1

  9
$DIMLUNIT
 70
     2
  9
$DIMLWD
 70
    -2
  9
$DIMLWE
 70
    -2
  9
$DIMTMOVE
 70
     0
  9
$LUNITS
 70
     2
  9
$LUPREC
 70
     2
  9
$SKETCHINC
 40
1.0
  9
$FILLETRAD
 40
10.0
  9
$AUNITS
 70
     0
  9
$AUPREC
 70
     2
  9
$MENU
  1
.
  9
$ELEVATION
 40
0.0
  9
$PELEVATION
 40
0.0
  9
$THICKNESS
 40
0.0
  9
$LIMCHECK
 70
     0
  9
$CHAMFERA
 40
0.0
  9
$CHAMFERB
 40
0.0
  9
$CHAMFERC
 40
0.0
  9
$CHAMFERD
 40
0.0
  9
$SKPOLY
 70
     0
  9
$TDCREATE
 40
2458682.537002107
  9
$TDUCREATE
 40
2458682.162002107
  9
$TDUPDATE
 40
2459611.700775011
  9
$TDUUPDATE
 40
2459611.325775011
  9
$TDINDWG
 40
0.0019001852
  9
$TDUSRTIMER
 40
0.0003668056
  9
$USRTIMER
 70
     1
  9
$ANGBASE
 50
0.0
  9
$ANGDIR
 70
     0
  9
$PDMODE
 70
     0
  9
$PDSIZE
 40
-1.0
  9
$PLINEWID
 40
0.0
  9
$SPLFRAME
 70
     0
  9
$SPLINETYPE
 70
     6
  9
$SPLINESEGS
 70
     8
  9
$HANDSEED
  5
721
  9
$SURFTAB1
 70
     6
  9
$SURFTAB2
 70
     6
  9
$SURFTYPE
 70
     6
  9
$SURFU
 70
     6
  9
$SURFV
 70
     6
  9
$UCSBASE
  2

  9
$UCSNAME
  2

  9
$UCSORG
 10
0.0
 20
0.0
 30
0.0
  9
$UCSXDIR
 10
1.0
 20
0.0
 30
0.0
  9
$UCSYDIR
 10
0.0
 20
1.0
 30
0.0
  9
$UCSORTHOREF
  2

  9
$UCSORTHOVIEW
 70
     1
  9
$UCSORGTOP
 10
0.0
 20
0.0
 30
0.0
  9
$UCSORGBOTTOM
 10
0.0
 20
0.0
 30
0.0
  9
$UCSORGLEFT
 10
0.0
 20
0.0
 30
0.0
  9
$UCSORGRIGHT
 10
0.0
 20
0.0
 30
0.0
  9
$UCSORGFRONT
 10
0.0
 20
0.0
 30
0.0
  9
$UCSORGBACK
 10
0.0
 20
0.0
 30
0.0
  9
$PUCSBASE
  2

  9
$PUCSNAME
  2

  9
$PUCSORG
 10
0.0
 20
0.0
 30
0.0
  9
$PUCSXDIR
 10
1.0
 20
0.0
 30
0.0
  9
$PUCSYDIR
 10
0.0
 20
1.0
 30
0.0
  9
$PUCSORTHOREF
  2

  9
$PUCSORTHOVIEW
 70
     0
  9
$PUCSORGTOP
 10
0.0
 20
0.0
 30
0.0
  9
$PUCSORGBOTTOM
 10
0.0
 20
0.0
 30
0.0
  9
$PUCSORGLEFT
 10
0.0
 20
0.0
 30
0.0
  9
$PUCSORGRIGHT
 10
0.0
 20
0.0
 30
0.0
  9
$PUCSORGFRONT
 10
0.0
 20
0.0
 30
0.0
  9
$PUCSORGBACK
 10
0.0
 20
0.0
 30
0.0
  9
$USERI1
 70
     0
  9
$USERI2
 70
     0
  9
$USERI3
 70
     0
  9
$USERI4
 70
     0
  9
$USERI5
 70
     0
  9
$USERR1
 40
0.0
  9
$USERR2
 40
0.0
  9
$USERR3
 40
0.0
  9
$USERR4
 40
0.0
  9
$USERR5
 40
0.0
  9
$WORLDVIEW
 70
     1
  9
$SHADEDGE
 70
     3
  9
$SHADEDIF
 70
    70
  9
$TILEMODE
 70
     1
  9
$MAXACTVP
 70
    64
  9
$PINSBASE
 10
0.0
 20
0.0
 30
0.0
  9
$PLIMCHECK
 70
     0
  9
$PEXTMIN
 10
1.000000000000000E+20
 20
1.000000000000000E+20
 30
1.000000000000000E+20
  9
$PEXTMAX
 10
-1.000000000000000E+20
 20
-1.000000000000000E+20
 30
-1.000000000000000E+20
  9
$PLIMMIN
 10
0.0
 20
0.0
  9
$PLIMMAX
 10
0.0
 20
0.0
  9
$UNITMODE
 70
     0
  9
$VISRETAIN
 70
     1
  9
$PLINEGEN
 70
     0
  9
$PSLTSCALE
 70
     1
  9
$TREEDEPTH
 70
  3020
  9
$CMLSTYLE
  2
Standard
  9
$CMLJUST
 70
     0
  9
$CMLSCALE
 40
20.0
  9
$PROXYGRAPHICS
 70
     1
  9
$MEASUREMENT
 70
     1
  9
$CELWEIGHT
370
    -1
  9
$ENDCAPS
280
     0
  9
$JOINSTYLE
280
     0
  9
$LWDISPLAY
290
     1
  9
$INSUNITS
 70
     4
  9
$HYPERLINKBASE
  1

  9
$STYLESHEET
  1

  9
$XEDIT
290
     1
  9
$CEPSNTYPE
380
     0
  9
$PSTYLEMODE
290
     1
  9
$FINGERPRINTGUID
  2
{1A54AFE4-E985-48C0-86FF-39F61F1616D1}
  9
$VERSIONGUID
  2
{FAEB1C32-E019-11D5-929B-00C0DF256EC4}
  9
$EXTNAMES
290
     1
  9
$PSVPSCALE
 40
0.0
  9
$OLESTARTUP
290
     0
  0
ENDSEC
  0
SECTION
  2
CLASSES
  0
CLASS
  1
ACDBDICTIONARYWDFLT
  2
AcDbDictionaryWithDefault
  3
ObjectDBX Classes
 90
        0
280
     0
281
     0
  0
CLASS
  1
VISUALSTYLE
  2
AcDbVisualStyle
  3
ObjectDBX Classes
 90
     4095
280
     0
281
     0
  0
CLASS
  1
MATERIAL
  2
AcDbMaterial
  3
ObjectDBX Classes
 90
     1153
280
     0
281
     0
  0
CLASS
  1
SCALE
  2
AcDbScale
  3
ObjectDBX Classes
 90
     1153
280
     0
281
     0
  0
CLASS
  1
TABLESTYLE
  2
AcDbTableStyle
  3
ObjectDBX Classes
 90
     4095
280
     0
281
     0
  0
CLASS
  1
MLEADERSTYLE
  2
AcDbMLeaderStyle
  3
ACDB_MLEADERSTYLE_CLASS
 90
     4095
280
     0
281
     0
  0
CLASS
  1
SUN
  2
AcDbSun
  3
SCENEOE
 90
     1153
280
     0
281
     0
  0
CLASS
  1
ACDBPLACEHOLDER
  2
AcDbPlaceHolder
  3
ObjectDBX Classes
 90
        0
280
     0
281
     0
  0
CLASS
  1
LAYOUT
  2
AcDbLayout
  3
ObjectDBX Classes
 90
        0
280
     0
281
     0
  0
CLASS
  1
DICTIONARYVAR
  2
AcDbDictionaryVar
  3
ObjectDBX Classes
 90
        0
280
     0
281
     0
  0
ENDSEC
  0
SECTION
  2
TABLES
  0
TABLE
  2
VPORT
  5
8
330
0
100
AcDbSymbolTable
 70
     1
  0
VPORT
  5
29
330
8
100
AcDbSymbolTableRecord
100
AcDbViewportTableRecord
  2
*Active
 70
     0
 10
0.0
 20
0.0
 11
1.0
 21
1.0
 12
454.2123816748539
 22
278.0293648153689
 13
0.0
 23
0.0
 14
10.0
 24
10.0
 15
10.0
 25
10.0
 16
0.0
 26
0.0
 36
1.0
 17
0.0
 27
0.0
 37
0.0
 40
196.6078860659449
 41
1.972805933250927
 42
50.0
 43
0.0
 44
0.0
 50
0.0
 51
0.0
 71
    16
 72
  2000
 73
     1
 74
     3
 75
     0
 76
     0
 77
     0
 78
     0
281
     0
 65
     1
110
0.0
120
0.0
130
0.0
111
1.0
121
0.0
131
0.0
112
0.0
122
1.0
132
0.0
 79
     1
146
0.0
  0
ENDTAB
  0
TABLE
  2
LTYPE
  5
5
330
0
100
AcDbSymbolTable
 70
     6
  0
LTYPE
  5
14
330
5
100
AcDbSymbolTableRecord
100
AcDbLinetypeTableRecord
  2
ByBlock
 70
     0
  3

 72
    65
 73
     0
 40
0.0
  0
LTYPE
  5
15
330
5
100
AcDbSymbolTableRecord
100
AcDbLinetypeTableRecord
  2
ByLayer
 70
     0
  3

 72
    65
 73
     0
 40
0.0
  0
LTYPE
  5
16
330
5
100
AcDbSymbolTableRecord
100
AcDbLinetypeTableRecord
  2
Continuous
 70
     0
  3
Solid line
 72
    65
 73
     0
 40
0.0
  0
LTYPE
  5
6E
330
5
100
AcDbSymbolTableRecord
100
AcDbLinetypeTableRecord
  2
HIDDEN
 70
     0
  3
Hidden __ __ __ __ __ __ __ __ __ __ __ __ __ __
 72
    65
 73
     2
 40
1.905
 49
1.27
 74
     0
 49
-0.635
 74
     0
  0
LTYPE
  5
6F
330
5
100
AcDbSymbolTableRecord
100
AcDbLinetypeTableRecord
  2
PHANTOM
 70
     0
  3
Phantom ______  __  __  ______  __  __  ______
 72
    65
 73
     6
 40
12.7
 49
6.35
 74
     0
 49
-1.27
 74
     0
 49
1.27
 74
     0
 49
-1.27
 74
     0
 49
1.27
 74
     0
 49
-1.27
 74
     0
  0
LTYPE
  5
70
330
5
100
AcDbSymbolTableRecord
100
AcDbLinetypeTableRecord
  2
CENTER
 70
     0
  3
Center ____ _ ____ _ ____ _ ____ _ ____ _ ____
 72
    65
 73
     4
 40
10.16
 49
6.35
 74
     0
 49
-1.27
 74
     0
 49
1.27
 74
     0
 49
-1.27
 74
     0
  0
LTYPE
  5
71
330
5
100
AcDbSymbolTableRecord
100
AcDbLinetypeTableRecord
  2
CENTERX2
 70
     0
  3
Center (2x) ________  __  ________  __  _____
 72
    65
 73
     4
 40
20.32
 49
12.7
 74
     0
 49
-2.54
 74
     0
 49
2.54
 74
     0
 49
-2.54
 74
     0
  0
LTYPE
  5
72
330
5
100
AcDbSymbolTableRecord
100
AcDbLinetypeTableRecord
  2
DOT2
 70
     0
  3
Dot (.5x) ........................................
 72
    65
 73
     2
 40
0.635
 49
0.0
 74
     0
 49
-0.635
 74
     0
  0
ENDTAB
  0
TABLE
  2
LAYER
  5
2
102
{ACAD_XDICTIONARY
360
303
102
}
330
0
100
AcDbSymbolTable
 70
     3
  0
LAYER
  5
10
330
2
100
AcDbSymbolTableRecord
100
AcDbLayerTableRecord
  2
0
 70
     0
 62
     7
  6
Continuous
370
    -3
390
F
  0
LAYER
  5
73
330
2
100
AcDbSymbolTableRecord
100
AcDbLayerTableRecord
  2
FORMAT
 70
     0
 62
     7
  6
Continuous
370
    -3
390
F
  0
LAYER
  5
2E6
102
{ACAD_XDICTIONARY
360
2E7
102
}
330
2
100
AcDbSymbolTableRecord
100
AcDbLayerTableRecord
  2
寸法線
 70
     0
 62
     7
  6
Continuous
370
    -3
390
F
  0
ENDTAB
  0
TABLE
  2
STYLE
  5
3
330
0
100
AcDbSymbolTable
 70
     3
  0
STYLE
  5
11
330
3
100
AcDbSymbolTableRecord
100
AcDbTextStyleTableRecord
  2
Standard
 70
     0
 40
0.0
 41
1.0
 50
0.0
 71
     0
 42
3.5
  3
txt
  4
bigfont
  0
STYLE
  5
E1
330
3
100
AcDbSymbolTableRecord
100
AcDbTextStyleTableRecord
  2
SLDTEXTSTYLE0
 70
     0
 40
0.0
 41
0.75
 50
0.0
 71
     0
 42
3.5
  3
TXT
  4
bigfont
  0
STYLE
  5
135
330
3
100
AcDbSymbolTableRecord
100
AcDbTextStyleTableRecord
  2
SLDTEXTSTYLE1
 70
     0
 40
0.0
 41
0.65625
 50
0.0
 71
     0
 42
3.5
  3
TXT
  4
bigfont
  0
ENDTAB
  0
TABLE
  2
VIEW
  5
6
330
0
100
AcDbSymbolTable
 70
     0
  0
ENDTAB
  0
TABLE
  2
UCS
  5
7
330
0
100
AcDbSymbolTable
 70
     0
  0
ENDTAB
  0
TABLE
  2
APPID
  5
9
330
0
100
AcDbSymbolTable
 70
     4
  0
APPID
  5
12
330
9
100
AcDbSymbolTableRecord
100
AcDbRegAppTableRecord
  2
ACAD
 70
     0
  0
APPID
  5
2F3
330
9
100
AcDbSymbolTableRecord
100
AcDbRegAppTableRecord
  2
ACAD_DSTYLE_DIMJAG
 70
     0
  0
APPID
  5
2F4
330
9
100
AcDbSymbolTableRecord
100
AcDbRegAppTableRecord
  2
ACAD_DSTYLE_DIMTALN
 70
     0
  0
APPID
  5
5E6
330
9
100
AcDbSymbolTableRecord
100
AcDbRegAppTableRecord
  2
PE_URL
 70
     0
  0
ENDTAB
  0
TABLE
  2
DIMSTYLE
  5
A
330
0
100
AcDbSymbolTable
 70
     8
100
AcDbDimStyleTable
  0
DIMSTYLE
105
27
330
A
100
AcDbSymbolTableRecord
100
AcDbDimStyleTableRecord
  2
ISO-25
 70
     0
 41
2.5
 42
0.625
 43
3.75
 44
1.25
 73
     0
 74
     0
 77
     1
 78
     8
140
2.5
141
2.5
143
0.03937007874016
147
0.625
171
     3
172
     1
178
     0
271
     2
272
     2
274
     3
278
    44
283
     0
284
     8
340
11
  0
DIMSTYLE
105
2EC
330
A
100
AcDbSymbolTableRecord
100
AcDbDimStyleTableRecord
  2
STANDARD
 70
     0
 41
2.5
 42
1.5
 44
1.0
 73
     0
 74
     0
 77
     3
 78
     8
 79
     2
140
2.500000000000003
141
0.0
147
1.0
171
     0
172
     1
173
     1
176
     8
177
     8
271
     2
178
   256
179
     2
271
     2
272
     2
274
     0
289
     1
340
11
341
2ED
343
2ED
344
2ED
1001
ACAD_DSTYLE_DIMJAG
1070
   388
1040
1.5
1001
ACAD_DSTYLE_DIMTALN
1070
   392
1070
     0
  0
DIMSTYLE
105
2F5
330
A
100
AcDbSymbolTableRecord
100
AcDbDimStyleTableRecord
  2
STANDARD$0
 70
     0
 41
2.5
 42
1.0
 43
4.0
 44
1.0
 73
     0
 74
     0
 77
     1
 78
     8
140
2.5
145
1.0
147
0.9999999999999991
171
     0
172
     1
176
     8
177
     8
271
     2
178
   256
271
     2
272
     2
274
     0
284
     8
289
     1
340
11
341
2F6
342
2ED
371
    -1
372
    -1
1001
ACAD_DSTYLE_DIMJAG
1070
   388
1040
1.5
1001
ACAD_DSTYLE_DIMTALN
1070
   392
1070
     0
  0
DIMSTYLE
105
2FC
330
A
100
AcDbSymbolTableRecord
100
AcDbDimStyleTableRecord
  2
STANDARD-1
 70
     0
 41
4.0
 42
3.0
 43
2.0
 44
2.0
 73
     0
 74
     0
 77
     3
 78
     8
 79
     2
140
5.0
141
0.0
147
2.0
172
     1
176
   252
177
   252
178
     0
179
     2
271
     2
272
     2
288
     1
289
     0
340
11
341
2ED
342
2ED
1001
ACAD_DSTYLE_DIMJAG
1070
   388
1040
1.5
1001
ACAD_DSTYLE_DIMTALN
1070
   392
1070
     0
  0
DIMSTYLE
105
5D9
330
A
100
AcDbSymbolTableRecord
100
AcDbDimStyleTableRecord
  2
SLDDIMSTYLE1
 70
     0
 41
2.5
 44
0.0
 45
0.000000001
 47
0.4
 48
0.4
 71
     1
 73
     0
 74
     0
 77
     3
 78
    12
 79
     3
140
4.0
147
1.0
173
     1
178
     0
271
     1
272
     1
276
     2
284
     8
340
E1
341
5DB
343
5DB
344
5DB
  0
DIMSTYLE
105
5E1
330
A
100
AcDbSymbolTableRecord
100
AcDbDimStyleTableRecord
  2
SLDDIMSTYLE3
 70
     0
 41
2.5
 44
0.0
 45
0.000000001
146
2.5
147
0.0
173
     1
178
     0
271
     0
272
     0
276
     2
340
11
341
5DB
343
5DB
344
5DB
  0
DIMSTYLE
105
5E2
330
A
100
AcDbSymbolTableRecord
100
AcDbDimStyleTableRecord
  2
SLDDIMSTYLE4
 70
     0
 41
2.5
 44
0.0
 45
0.000000001
 47
2.0
 48
2.0
 71
     1
 73
     0
 74
     0
 77
     3
 78
    12
 79
     3
140
4.0
147
1.0
172
     1
173
     1
178
     0
271
     2
272
     2
276
     2
284
     8
289
     0
340
E1
341
5DB
343
5DB
344
5DB
  0
DIMSTYLE
105
5E3
330
A
100
AcDbSymbolTableRecord
100
AcDbDimStyleTableRecord
  2
STANDARD$2
 70
     0
 41
2.5
 42
1.5
 43
7.0
 44
1.0
 45
0.0
 73
     0
 74
     0
 77
     3
 78
     8
 79
     2
140
3.0
141
0.0
146
0.6
147
1.0
171
     0
172
     1
176
     8
177
     8
271
     3
178
   256
179
     3
271
     3
272
     3
274
     0
284
     8
285
     8
286
     8
289
     0
340
11
341
5DB
342
5DB
1001
ACAD_DSTYLE_DIMJAG
1070
   388
1040
1.5
1001
ACAD_DSTYLE_DIMTALN
1070
   392
1070
     0
  0
ENDTAB
  0
TABLE
  2
BLOCK_RECORD
  5
1
330
0
100
AcDbSymbolTable
 70
     6
  0
BLOCK_RECORD
  5
1F
330
1
100
AcDbSymbolTableRecord
100
AcDbBlockTableRecord
  2
*Model_Space
340
22
  0
BLOCK_RECORD
  5
1B
330
1
100
AcDbSymbolTableRecord
100
AcDbBlockTableRecord
  2
*Paper_Space
340
1E
  0
BLOCK_RECORD
  5
23
330
1
100
AcDbSymbolTableRecord
100
AcDbBlockTableRecord
  2
*Paper_Space0
340
26
  0
BLOCK_RECORD
  5
142
330
1
100
AcDbSymbolTableRecord
100
AcDbBlockTableRecord
  2
SW_NOTE_0
340
0
  0
BLOCK_RECORD
  5
2ED
330
1
100
AcDbSymbolTableRecord
100
AcDbBlockTableRecord
  2
_OPEN
340
0
  0
BLOCK_RECORD
  5
2F6
330
1
100
AcDbSymbolTableRecord
100
AcDbBlockTableRecord
  2
SUN
340
0
  0
BLOCK_RECORD
  5
5D6
330
1
100
AcDbSymbolTableRecord
100
AcDbBlockTableRecord
  2
A$C3602
340
0
102
{BLKREFS
331
71F
102
}
  0
BLOCK_RECORD
  5
5DB
330
1
100
AcDbSymbolTableRecord
100
AcDbBlockTableRecord
  2
_OPEN30
340
0
  0
ENDTAB
  0
ENDSEC
  0
SECTION
  2
BLOCKS
  0
BLOCK
  5
20
330
1F
100
AcDbEntity
  8
0
100
AcDbBlockBegin
  2
*Model_Space
 70
     0
 10
0.0
 20
0.0
 30
0.0
  3
*Model_Space
  1

  0
ENDBLK
  5
21
330
1F
100
AcDbEntity
  8
0
100
AcDbBlockEnd
  0
BLOCK
  5
1C
330
1B
100
AcDbEntity
 67
     1
  8
0
100
AcDbBlockBegin
  2
*Paper_Space
 70
     0
 10
0.0
 20
0.0
 30
0.0
  3
*Paper_Space
  1

  0
ENDBLK
  5
1D
330
1B
100
AcDbEntity
 67
     1
  8
0
100
AcDbBlockEnd
  0
BLOCK
  5
24
330
23
100
AcDbEntity
  8
0
100
AcDbBlockBegin
  2
*Paper_Space0
 70
     0
 10
0.0
 20
0.0
 30
0.0
  3
*Paper_Space0
  1

  0
ENDBLK
  5
25
330
23
100
AcDbEntity
  8
0
100
AcDbBlockEnd
  0
BLOCK
  5
143
330
142
100
AcDbEntity
  8
0
100
AcDbBlockBegin
  2
SW_NOTE_0
 70
     0
 10
0.0
 20
0.0
 30
0.0
  3
SW_NOTE_0
  1

  0
MTEXT
  5
145
330
142
100
AcDbEntity
  8
0
  6
Continuous
 62
     0
370
     0
100
AcDbMText
 10
0.0
 20
1.933601609657942
 30
0.0
 40
1.5
 41
0.0
 71
     1
 72
     1
  1
指示なき場合：
  7
SLDTEXTSTYLE0
 73
     1
 44
1.0
  0
MTEXT
  5
146
330
142
100
AcDbEntity
  8
0
  6
Continuous
 62
     0
370
     0
100
AcDbMText
 10
0.0
 20
-0.5663983344627033
 30
0.0
 40
1.5
 41
0.0
 71
     1
 72
     1
  1
寸法はミリメータとする　
  7
SLDTEXTSTYLE0
 73
     1
 44
1.0
  0
MTEXT
  5
147
330
142
100
AcDbEntity
  8
0
  6
Continuous
 62
     0
370
     0
100
AcDbMText
 10
0.0
 20
-3.066398278583349
 30
0.0
 40
1.5
 41
0.0
 71
     1
 72
     1
  1
表面粗さ：
  7
SLDTEXTSTYLE0
 73
     1
 44
1.0
  0
MTEXT
  5
148
330
142
100
AcDbEntity
  8
0
  6
Continuous
 62
     0
370
     0
100
AcDbMText
 10
0.0
 20
-5.566398222703994
 30
0.0
 40
1.5
 41
0.0
 71
     1
 72
     1
  1
　公差　：
  7
SLDTEXTSTYLE0
 73
     1
 44
1.0
  0
MTEXT
  5
149
330
142
100
AcDbEntity
  8
0
  6
Continuous
 62
     0
370
     0
100
AcDbMText
 10
0.0
 20
-8.06639816682464
 30
0.0
 40
1.5
 41
0.0
 71
     1
 72
     1
  1
　寸法　：
  7
SLDTEXTSTYLE0
 73
     1
 44
1.0
  0
MTEXT
  5
14A
330
142
100
AcDbEntity
  8
0
  6
Continuous
 62
     0
370
     0
100
AcDbMText
 10
0.0
 20
-10.56639811094528
 30
0.0
 40
1.5
 41
0.0
 71
     1
 72
     1
  1
　角度　：
  7
SLDTEXTSTYLE0
 73
     1
 44
1.0
  0
ENDBLK
  5
144
330
142
100
AcDbEntity
  8
0
100
AcDbBlockEnd
  0
BLOCK
  5
2EE
330
2ED
100
AcDbEntity
  8
0
100
AcDbBlockBegin
  2
_OPEN
 70
     0
 10
0.0
 20
0.0
 30
0.0
  3
_OPEN
  1

  0
LINE
  5
2EF
330
2ED
100
AcDbEntity
  8
0
  6
ByBlock
 62
     0
100
AcDbLine
 10
-1.0
 20
0.1666666666666667
 30
0.0
 11
0.0
 21
0.0
 31
0.0
  0
LINE
  5
2F0
330
2ED
100
AcDbEntity
  8
0
  6
ByBlock
 62
     0
100
AcDbLine
 10
0.0
 20
0.0
 30
0.0
 11
-1.0
 21
-0.1666666666666667
 31
0.0
  0
LINE
  5
2F1
330
2ED
100
AcDbEntity
  8
0
  6
ByBlock
 62
     0
100
AcDbLine
 10
0.0
 20
0.0
 30
0.0
 11
-1.0
 21
0.0
 31
0.0
  0
ENDBLK
  5
2F2
330
2ED
100
AcDbEntity
  8
0
100
AcDbBlockEnd
  0
BLOCK
  5
2F7
330
2F6
100
AcDbEntity
  8
0
100
AcDbBlockBegin
  2
SUN
 70
     0
 10
0.0
 20
0.0
 30
0.0
  3
SUN
  1

  0
LINE
  5
2F8
330
2F6
100
AcDbEntity
  8
0
100
AcDbLine
 10
-0.0000000000000568
 20
0.0
 30
0.0
 11
-1.500000000000057
 21
0.0
 31
0.0
  0
LINE
  5
2F9
330
2F6
100
AcDbEntity
  8
0
100
AcDbLine
 10
-0.0000000000000568
 20
0.0000000000000284
 30
0.0
 11
-1.500000000000057
 21
0.401923788646684
 31
0.0
  0
LINE
  5
2FA
330
2F6
100
AcDbEntity
  8
0
100
AcDbLine
 10
-0.0000000000000568
 20
0.0000000000000284
 30
0.0
 11
-1.500000000000057
 21
-0.4019237886466556
 31
0.0
  0
ENDBLK
  5
2FB
330
2F6
100
AcDbEntity
  8
0
100
AcDbBlockEnd
  0
BLOCK
  5
71D
330
5D6
100
AcDbEntity
  8
0
100
AcDbBlockBegin
  2
A$C3602
 70
     0
 10
0.0
 20
0.0
 30
0.0
  3
A$C3602
  1

  0
ARC
  5
5EE
330
5D6
100
AcDbEntity
  8
0
  6
Continuous
 62
     7
370
     5
100
AcDbCircle
 10
0.2000000000025466
 20
122.4979351510428
 30
0.0
 40
0.2000000000000126
100
AcDbArc
 50
180.0
 51
240.0026882664557
1001
PE_URL
1000

  0
LINE
  5
5EF
330
5D6
100
AcDbEntity
  8
0
  6
Continuous
 62
     7
370
     5
100
AcDbLine
 10
0.000000000001819
 20
153.1998696779465
 30
0.0
 11
0.000000000001819
 21
122.4979351510428
 31
0.0
1001
PE_URL
1000

  0
LINE
  5
5F0
330
5D6
100
AcDbEntity
  8
0
  6
Continuous
 62
     7
370
     5
100
AcDbLine
 10
0.1000081267393398
 20
122.3247253785648
 30
0.0
 11
0.8778255860470381
 21
121.875700917064
 31
0.0
1001
PE_URL
1000

  0
ARC
  5
5F1
330
5D6
100
AcDbEntity
  8
0
  6
Continuous
 62
     7
370
     5
100
AcDbCircle
 10
17.8776695296674
 20
163.4049710757299
 30
0.0
 40
0.2000000000000126
100
AcDbArc
 50
60.00268826645569
 51
119.9973117335443
1001
PE_URL
1000

  0
LINE
  5
5F2
330
5D6
100
AcDbEntity
  8
0
  6
Continuous
 62
     7
370
     5
100
AcDbLine
 10
18.75547886223467
 20
163.1291563867035
 30
0.0
 11
17.97766140293061
 21
163.5781808482079
 31
0.0
1001
PE_URL
1000

  0
LINE
  5
5F3
330
5D6
100
AcDbEntity
  8
0
  6
Continuous
 62
     7
370
     5
100
AcDbLine
 10
17.77767765640419
 20
163.5781808482079
 30
0.0
 11
16.50488545026928
 21
162.8434135475673
 31
0.0
1001
PE_URL
1000

  0
LINE
  5
5F4
330
5D6
100
AcDbEntity
  8
0
  6
Continuous
 62
     7
370
     5
100
AcDbLine
 10
7.147238932937398
 20
147.2486009018321
 30
0.0
 11
5.367685123559568
 21
148.4246183903178
 31
0.0
1001
PE_URL
1000

  0
LINE
  5
5F5
330
5D6
100
AcDbEntity
  8
0
  6
Continuous
 62
     7
370
     5
100
AcDbLine
 10
3.62339374484327
 20
151.7806855321778
 30
0.0
 11
2.56273357306236
 21
152.3929916160469
 31
0.0
1001
PE_URL
1000

  0
LINE
  5
5F6
330
5D6
100
AcDbEntity
  8
0
  6
Continuous
 62
     7
370
     5
100
AcDbLine
 10
1.372800332874249
 20
154.1078467510633
 30
0.0
 11
0.1000081267393398
 21
153.3730794504227
 31
0.0
1001
PE_URL
1000

  0
ARC
  5
5F7
330
5D6
100
AcDbEntity
  8
0
  6
Continuous
 62
     7
370
     5
100
AcDbCircle
 10
0.2000000000025466
 20
153.1998696779465
 30
0.0
 40
0.2000000000000064
100
AcDbArc
 50
119.9973117335443
 51
180.0
1001
PE_URL
1000

  0
SPLINE
  5
5F8
330
5D6
100
AcDbEntity
  8
0
  6
Continuous
 62
     7
370
     5
100
AcDbSpline
210
0.0
220
0.0
230
1.0
 70
     8
 71
     3
 72
     9
 73
     5
 74
     0
 42
0.000000001
 43
0.00000001
 40
0.0
 40
0.0
 40
0.0
 40
0.0
 40
0.3739117899940256
 40
1.0
 40
1.0
 40
1.0
 40
1.0
 10
7.591299087338484
 20
147.456851240966
 30
0.0
 10
7.508338717218066
 20
147.4646507118359
 30
0.0
 10
7.286467216132223
 20
147.4855098317585
 30
0.0
 10
7.080059221780175
 20
147.4196389278331
 30
0.0
 10
6.950829610066648
 20
147.3783979315031
 30
0.0
1001
PE_URL
1000

  0
LINE
  5
5F9
330
5D6
100
AcDbEntity
  8
0
  6
Continuous
 62
     7
370
     5
100
AcDbLine
 10
3.886924501150133
 20
135.4163898685201
 30
0.0
 11
3.745503144911709
 21
135.4980306797024
 31
0.0
1001
PE_URL
1000

  0
LINE
  5
5FA
330
5D6
100
AcDbEntity
  8
0
  6
Continuous
 62
     7
370
     5
100
AcDbLine
 10
1.745665679640297
 20
132.0338352301787
 30
0.0
 11
1.887087035878722
 21
131.9521944189964
 31
0.0
1001
PE_URL
1000

  0
LINE
  5
5FB
330
5D6
100
AcDbEntity
  8
0
  6
Continuous
 62
     7
370
     5
100
AcDbLine
 10
2.988867762580412
 20
134.2427545406154
 30
0.0
 11
3.360143972311562
 21
133.9084100262025
 31
0.0
1001
PE_URL
1000

  0
LINE
  5
5FC
330
5D6
100
AcDbEntity
  8
0
  6
Continuous
 62
     7
370
     5
100
AcDbLine
 10
2.929432175385955
 20
133.1625367914839
 30
0.0
 11
2.454253897240051
 21
133.3168485371316
 31
0.0
1001
PE_URL
1000

  0
LINE
  5
5FD
330
5D6
100
AcDbEntity
  8
0
  6
Continuous
 62
     7
370
     5
100
AcDbLine
 10
16.19058249379486
 20
147.4183853126906
 30
0.0
 11
16.04916113755644
 21
147.5000261238729
 31
0.0
1001
PE_URL
1000

  0
LINE
  5
5FE
330
5D6
100
AcDbEntity
  8
0
  6
Continuous
 62
     7
370
     5
100
AcDbLine
 10
14.04932367228503
 20
144.035830674351
 30
0.0
 11
14.19074502852345
 21
143.9541898631687
 31
0.0
1001
PE_URL
1000

  0
LINE
  5
5FF
330
5D6
100
AcDbEntity
  8
0
  6
Continuous
 62
     7
370
     5
100
AcDbLine
 10
15.29252575522878
 20
146.2447499847858
 30
0.0
 11
15.66380196495993
 21
145.9104054703766
 31
0.0
1001
PE_URL
1000

  0
LINE
  5
600
330
5D6
100
AcDbEntity
  8
0
  6
Continuous
 62
     7
370
     5
100
AcDbLine
 10
15.23309016803069
 20
145.1645322356544
 30
0.0
 11
14.75791188988842
 21
145.3188439813039
 31
0.0
1001
PE_URL
1000

  0
LINE
  5
601
330
5D6
100
AcDbEntity
  8
0
  6
Continuous
 62
     7
370
     5
100
AcDbLine
 10
228.8076223576154
 20
10.77245850809231
 30
0.0
 11
223.2921894624178
 21
7.588466870862248
 31
0.0
1001
PE_URL
1000

  0
ELLIPSE
  5
602
330
5D6
100
AcDbEntity
  8
0
  6
Continuous
 62
     7
370
     5
100
AcDbEllipse
 10
-496.1182497147729
 20
-395.4936916990064
 30
0.0
 11
715.7068760690388
 21
416.9264721031494
 31
0.0
210
0.0
220
0.0
230
1.0
 40
0.082125850382977
 41
6.079285487282356
 42
6.155631138134277
1001
PE_URL
1000

  0
LINE
  5
603
330
5D6
100
AcDbEntity
  8
0
  6
Continuous
 62
     7
370
     5
100
AcDbLine
 10
211.6956382529588
 20
0.8939203550708044
 30
0.0
 11
211.1299528279505
 21
0.5673571103088761
 31
0.0
1001
PE_URL
1000

  0
ELLIPSE
  5
604
330
5D6
100
AcDbEntity
  8
0
  6
Continuous
 62
     7
370
     5
100
AcDbEllipse
 10
-706.1289637272366
 20
-274.2570870933687
 30
0.0
 11
715.7068760690412
 21
416.9264721031507
 31
0.0
210
0.0
220
0.0
230
1.0
 40
0.0821258503829767
 41
6.079285487282335
 42
6.222532031972294
1001
PE_URL
1000

  0
LINE
  5
605
330
5D6
100
AcDbEntity
  8
0
  6
Continuous
 62
     7
370
     5
100
AcDbLine
 10
0.9778174593102449
 20
121.722320904797
 30
0.0
 11
1.684924240495093
 21
122.1305249607085
 31
0.0
1001
PE_URL
1000

  0
LINE
  5
606
330
5D6
100
AcDbEntity
  8
0
  6
Continuous
 62
     7
370
     5
100
AcDbLine
 10
0.9778174593102449
 20
121.722320904797
 30
0.0
 11
0.9778174593102449
 21
121.8856025271616
 31
0.0
1001
PE_URL
1000

  0
LINE
  5
607
330
5D6
100
AcDbEntity
  8
0
  6
Continuous
 62
     7
370
     5
100
AcDbLine
 10
2.392031021679941
 20
153.5672798682808
 30
0.0
 11
2.392031021679941
 21
152.3422696003563
 31
0.0
1001
PE_URL
1000

  0
LINE
  5
608
330
5D6
100
AcDbEntity
  8
0
  6
Continuous
 62
     7
370
     5
100
AcDbLine
 10
3.581973783320791
 20
151.8045967670023
 30
0.0
 11
3.664823227818488
 21
151.8524247332625
 31
0.0
1001
PE_URL
1000

  0
LINE
  5
609
330
5D6
100
AcDbEntity
  8
0
  6
Continuous
 62
     7
370
     5
100
AcDbLine
 10
3.664823227818488
 20
151.8524247332625
 30
0.0
 11
3.664823227818488
 21
150.6276135154349
 31
0.0
1001
PE_URL
1000

  0
LINE
  5
60A
330
5D6
100
AcDbEntity
  8
0
  6
Continuous
 62
     7
370
     5
100
AcDbLine
 10
1.684924240495093
 20
122.1305249607085
 30
0.0
 11
211.6956382529006
 21
0.8939203550380626
 31
0.0
1001
PE_URL
1000

  0
LINE
  5
60B
330
5D6
100
AcDbEntity
  8
0
  6
Continuous
 62
     7
370
     5
100
AcDbLine
 10
10.72981479023474
 20
139.1918400506383
 30
0.0
 11
14.28419372557437
 21
137.1399407671706
 31
0.0
1001
PE_URL
1000

  0
ELLIPSE
  5
60C
330
5D6
100
AcDbEntity
  8
0
  6
Continuous
 62
     7
370
     5
100
AcDbEllipse
 10
-496.1182497148311
 20
-395.4936916990428
 30
0.0
 11
715.7068760690412
 21
416.9264721031507
 31
0.0
210
0.0
220
0.0
230
1.0
 40
0.0821258503829767
 41
6.079285487282335
 42
6.15563113813484
1001
PE_URL
1000

  0
LINE
  5
60D
330
5D6
100
AcDbEntity
  8
0
  6
Continuous
 62
     7
370
     5
100
AcDbLine
 10
0.9778174593102449
 20
121.722320904797
 30
0.0
 11
210.9885314717121
 21
0.4857162991265795
 31
0.0
1001
PE_URL
1000

  0
LINE
  5
60E
330
5D6
100
AcDbEntity
  8
0
  6
Continuous
 62
     7
370
     5
100
AcDbLine
 10
210.9885314717121
 20
0.4857162991265795
 30
0.0
 11
211.6956382529006
 21
0.8939203550380626
 31
0.0
1001
PE_URL
1000

  0
LINE
  5
60F
330
5D6
100
AcDbEntity
  8
0
  6
Continuous
 62
     7
370
     5
100
AcDbLine
 10
10.80028301541279
 20
139.2666427882523
 30
0.0
 11
14.29645313647234
 21
137.2483467380025
 31
0.0
1001
PE_URL
1000

  0
LINE
  5
610
330
5D6
100
AcDbEntity
  8
0
  6
Continuous
 62
     7
370
     5
100
AcDbLine
 10
11.26161095666794
 20
139.5805243779814
 30
0.0
 11
14.35804580266449
 21
137.7929905901128
 31
0.0
1001
PE_URL
1000

  0
LINE
  5
611
330
5D6
100
AcDbEntity
  8
0
  6
Continuous
 62
     7
370
     5
100
AcDbLine
 10
3.664823227818488
 20
149.1580789141535
 30
0.0
 11
5.106587006650443
 21
148.3257664009016
 31
0.0
1001
PE_URL
1000

  0
LINE
  5
612
330
5D6
100
AcDbEntity
  8
0
  6
Continuous
 62
     7
370
     5
100
AcDbLine
 10
3.664823227818488
 20
150.6276135154349
 30
0.0
 11
8.332658949688266
 21
147.9329293111641
 31
0.0
1001
PE_URL
1000

  0
LINE
  5
613
330
5D6
100
AcDbEntity
  8
0
  6
Continuous
 62
     7
370
     5
100
AcDbLine
 10
3.664823227818488
 20
151.8524247332625
 30
0.0
 11
9.393491522585464
 21
148.5453349200779
 31
0.0
1001
PE_URL
1000

  0
LINE
  5
614
330
5D6
100
AcDbEntity
  8
0
  6
Continuous
 62
     7
370
     5
100
AcDbLine
 10
2.392031021679941
 20
153.5672798682808
 30
0.0
 11
10.24236446224859
 21
149.0353788372649
 31
0.0
1001
PE_URL
1000

  0
LINE
  5
615
330
5D6
100
AcDbEntity
  8
0
  6
Continuous
 62
     7
370
     5
100
AcDbLine
 10
18.93832970144467
 20
163.1192547766059
 30
0.0
 11
18.7969083433436
 21
163.0376139643449
 31
0.0
1001
PE_URL
1000

  0
LINE
  5
616
330
5D6
100
AcDbEntity
  8
0
  6
Continuous
 62
     7
370
     5
100
AcDbLine
 10
18.93832970144467
 20
132.0907039249469
 30
0.0
 11
18.93832970144467
 21
163.1192547766059
 31
0.0
1001
PE_URL
1000

  0
LINE
  5
617
330
5D6
100
AcDbEntity
  8
0
  6
Continuous
 62
     7
370
     5
100
AcDbLine
 10
13.28147545195498
 20
128.8250714776568
 30
0.0
 11
18.93832970144467
 21
132.0907039249469
 31
0.0
1001
PE_URL
1000

  0
LINE
  5
618
330
5D6
100
AcDbEntity
  8
0
  6
Continuous
 62
     7
370
     5
100
AcDbLine
 10
13.28147545195498
 20
128.8250714776568
 30
0.0
 11
223.2921894643605
 21
7.588466871982746
 31
0.0
1001
PE_URL
1000

  0
LINE
  5
619
330
5D6
100
AcDbEntity
  8
0
  6
Continuous
 62
     7
370
     5
100
AcDbLine
 10
18.93832970144467
 20
132.0907039249469
 30
0.0
 11
228.9490437138538
 21
10.85409931927461
 31
0.0
1001
PE_URL
1000

  0
LINE
  5
61A
330
5D6
100
AcDbEntity
  8
0
  6
Continuous
 62
     7
370
     5
100
AcDbLine
 10
223.2921894643605
 20
7.588466871982746
 30
0.0
 11
228.9490437138538
 21
10.85409931927461
 31
0.0
1001
PE_URL
1000

  0
LINE
  5
61B
330
5D6
100
AcDbEntity
  8
0
  6
Continuous
 62
     7
370
     5
100
AcDbLine
 10
18.93832970144467
 20
163.1192547766059
 30
0.0
 11
228.9490437138538
 21
41.88265017093181
 31
0.0
1001
PE_URL
1000

  0
LINE
  5
61C
330
5D6
100
AcDbEntity
  8
0
  6
Continuous
 62
     7
370
     5
100
AcDbLine
 10
12.8936990549355
 20
140.5227087821531
 30
0.0
 11
14.32611791971613
 21
139.6957909729554
 31
0.0
1001
PE_URL
1000

  0
ARC
  5
61D
330
5D6
100
AcDbEntity
  8
0
  6
Continuous
 62
     7
370
     5
100
AcDbCircle
 10
17.8776695296674
 20
132.5117351430181
 30
0.0
 40
0.3074043815823183
100
AcDbArc
 50
62.60967223711902
 51
117.390327763639
1001
PE_URL
1000

  0
ARC
  5
61E
330
5D6
100
AcDbEntity
  8
0
  6
Continuous
 62
     7
370
     5
100
AcDbCircle
 10
17.71204766562914
 20
132.7986495304594
 30
0.0
 40
0.307360961514362
100
AcDbArc
 50
302.6054783405099
 51
357.394521514574
1001
PE_URL
1000

  0
ARC
  5
61F
330
5D6
100
AcDbEntity
  8
0
  6
Continuous
 62
     7
370
     5
100
AcDbCircle
 10
18.04329139370202
 20
132.7986495304594
 30
0.0
 40
0.3073609615143536
100
AcDbArc
 50
182.605478485426
 51
237.3945216602441
1001
PE_URL
1000

  0
LINE
  5
620
330
5D6
100
AcDbEntity
  8
0
  6
Continuous
 62
     7
370
     5
100
AcDbLine
 10
17.73624817342898
 20
132.7846773600086
 30
0.0
 11
17.73624817342898
 21
163.4866118869122
 31
0.0
1001
PE_URL
1000

  0
ARC
  5
621
330
5D6
100
AcDbEntity
  8
0
  6
Continuous
 62
     7
370
     5
100
AcDbCircle
 10
17.8776695296674
 20
163.2136696699217
 30
0.0
 40
0.3074043815823688
100
AcDbArc
 50
62.60967223711902
 51
117.390327763639
1001
PE_URL
1000

  0
LINE
  5
622
330
5D6
100
AcDbEntity
  8
0
  6
Continuous
 62
     7
370
     5
100
AcDbLine
 10
18.01909088590219
 20
163.4866118869122
 30
0.0
 11
18.01909088590219
 21
132.7846773600086
 31
0.0
1001
PE_URL
1000

  0
LINE
  5
623
330
5D6
100
AcDbEntity
  8
0
  6
Continuous
 62
     7
370
     5
100
AcDbLine
 10
12.22081527823138
 20
129.6006857227785
 30
0.0
 11
17.73624817342898
 21
132.7846773600086
 31
0.0
1001
PE_URL
1000

  0
LINE
  5
624
330
5D6
100
AcDbEntity
  8
0
  6
Continuous
 62
     7
370
     5
100
AcDbLine
 10
17.8776695296674
 20
132.5397283864495
 30
0.0
 11
12.36223663446617
 21
129.3557367492194
 31
0.0
1001
PE_URL
1000

  0
ARC
  5
625
330
5D6
100
AcDbEntity
  8
0
  6
Continuous
 62
     7
370
     5
100
AcDbCircle
 10
12.52785849850443
 20
129.6146578932294
 30
0.0
 40
0.3073609615143814
100
AcDbArc
 50
182.6054784857647
 51
237.3945216594901
1001
PE_URL
1000

  0
ARC
  5
626
330
5D6
100
AcDbEntity
  8
0
  6
Continuous
 62
     7
370
     5
100
AcDbCircle
 10
18.48986512493684
 20
132.3496250689586
 30
0.0
 40
0.3073609615145252
100
AcDbArc
 50
302.6054783395732
 51
357.3945215142353
1001
PE_URL
1000

  0
LINE
  5
627
330
5D6
100
AcDbEntity
  8
0
  6
Continuous
 62
     7
370
     5
100
AcDbLine
 10
18.65548698897146
 20
132.0907039249469
 30
0.0
 11
17.8776695296674
 21
132.5397283864495
 31
0.0
1001
PE_URL
1000

  0
LINE
  5
628
330
5D6
100
AcDbEntity
  8
0
  6
Continuous
 62
     7
370
     5
100
AcDbLine
 10
18.01909088590219
 20
132.7846773600086
 30
0.0
 11
18.79690834520989
 21
132.3356528985059
 31
0.0
1001
PE_URL
1000

  0
LINE
  5
629
330
5D6
100
AcDbEntity
  8
0
  6
Continuous
 62
     7
370
     5
100
AcDbLine
 10
18.79690834520989
 20
132.3356528985059
 30
0.0
 11
18.79690834520989
 21
163.0375874254114
 31
0.0
1001
PE_URL
1000

  0
LINE
  5
62A
330
5D6
100
AcDbEntity
  8
0
  6
Continuous
 62
     7
370
     5
100
AcDbLine
 10
18.79690834520989
 20
163.0375874254114
 30
0.0
 11
18.01909088590219
 21
163.4866118869122
 31
0.0
1001
PE_URL
1000

  0
LWPOLYLINE
  5
62B
330
5D6
100
AcDbEntity
  8
0
  6
Continuous
 62
     7
370
     5
100
AcDbPolyline
 90
       17
 70
   128
 43
0.0
 10
16.60487732353249
 20
146.6659773221163
 10
16.4864616662835
 20
147.285066027498
 10
16.14924240492292
 20
147.6731842818463
 10
15.64455811508196
 20
147.7712445992347
 10
15.04924240492073
 20
147.5643181852593
 10
14.4539266947595
 20
147.0839077106593
 10
13.94924240491855
 20
146.4031513152568
 10
13.61202314355796
 20
145.6256879891826
 10
13.49360748630897
 20
144.8698794761058
 10
13.61202314355796
 20
144.2507907707241
 10
13.94924240491855
 20
143.8626725163776
 10
14.4539266947595
 20
143.7646121989892
 10
15.04924240492073
 20
143.9715386129628
 10
15.64455811508196
 20
144.4519490875628
 10
16.14924240492292
 20
145.1327054829653
 10
16.4864616662835
 20
145.9101688090395
 10
16.60487732353249
 20
146.6659773221163
1001
PE_URL
1000

  0
LWPOLYLINE
  5
62C
330
5D6
100
AcDbEntity
  8
0
  6
Continuous
 62
     7
370
     5
100
AcDbPolyline
 90
       17
 70
   128
 43
0.0
 10
4.301219330884123
 20
134.6639818779458
 10
4.182803673638773
 20
135.2830705833276
 10
3.845584412274548
 20
135.671188837674
 10
3.340900122437233
 20
135.7692491550606
 10
2.745584412276003
 20
135.5623227410888
 10
2.150268702114772
 20
135.0819122664871
 10
1.64558441227382
 20
134.4011558710863
 10
1.308365150909594
 20
133.6236925450103
 10
1.189949493664244
 20
132.8678840319353
 10
1.308365150909594
 20
132.2487953265536
 10
1.64558441227382
 20
131.8606770722054
 10
2.150268702114772
 20
131.7626167548169
 10
2.745584412276003
 20
131.9695431687924
 10
3.340900122437233
 20
132.4499536433923
 10
3.845584412274548
 20
133.1307100387949
 10
4.182803673638773
 20
133.9081733648691
 10
4.301219330884123
 20
134.6639818779458
1001
PE_URL
1000

  0
LINE
  5
62D
330
5D6
100
AcDbEntity
  8
0
  6
Continuous
 62
     7
370
     5
100
AcDbLine
 10
12.22081527823138
 20
130.417226534626
 30
0.0
 11
13.02285564476369
 21
130.716926420444
 31
0.0
1001
PE_URL
1000

  0
LINE
  5
62E
330
5D6
100
AcDbEntity
  8
0
  6
Continuous
 62
     7
370
     5
100
AcDbLine
 10
13.1740566767603
 20
130.8042129182704
 30
0.0
 11
13.02285564476369
 21
130.716926420444
 31
0.0
1001
PE_URL
1000

  0
SPLINE
  5
62F
330
5D6
100
AcDbEntity
  8
0
  6
Continuous
 62
     7
370
     5
100
AcDbSpline
210
0.0
220
0.0
230
1.0
 70
     8
 71
     3
 72
    11
 73
     7
 74
     0
 42
0.000000001
 43
0.00000001
 40
0.0
 40
0.0
 40
0.0
 40
0.0
 40
0.0107217471084956
 40
0.3398482869591821
 40
0.6688080568836824
 40
1.0
 40
1.0
 40
1.0
 40
1.0
 10
14.14812005848398
 20
141.8374977238109
 30
0.0
 10
14.15538928731439
 20
141.8045583140938
 30
0.0
 10
14.38580275816821
 20
140.7604745604858
 30
0.0
 10
14.54125647616638
 20
138.4500974864586
 30
0.0
 10
14.07740503547211
 20
134.6906356952004
 30
0.0
 10
13.4758508087707
 20
132.1026041504829
 30
0.0
 10
13.1740566767603
 20
130.8042129182704
 30
0.0
1001
PE_URL
1000

  0
LWPOLYLINE
  5
630
330
5D6
100
AcDbEntity
  8
0
  6
Continuous
 62
     7
370
     5
100
AcDbPolyline
 90
        9
 70
   128
 43
0.0
 10
13.4589119947359
 20
142.0736114347437
 10
13.57726281359101
 20
142.1304154472837
 10
13.69227462168965
 20
142.1625799364338
 10
13.80070261117544
 20
142.1691974511432
 10
13.89948772232856
 20
142.1500812926333
 10
13.98584294823922
 20
142.1057707817126
 10
14.0573319641644
 20
142.0375160430067
 10
14.1119378631065
 20
141.9472427354067
 10
14.14812005848398
 20
141.8374977238109
1001
PE_URL
1000

  0
LINE
  5
631
330
5D6
100
AcDbEntity
  8
0
  6
Continuous
 62
     7
370
     5
100
AcDbLine
 10
9.97743048002485
 20
140.0637949364482
 30
0.0
 11
13.4589119947359
 21
142.0736114347437
 31
0.0
1001
PE_URL
1000

  0
ARC
  5
632
330
5D6
100
AcDbEntity
  8
0
  6
Continuous
 62
     7
370
     5
100
AcDbCircle
 10
10.82414763343877
 20
138.7533880541523
 30
0.0
 40
1.560159009541628
100
AcDbArc
 50
122.8684539593371
 51
172.681356291689
1001
PE_URL
1000

  0
ELLIPSE
  5
633
330
5D6
100
AcDbEntity
  8
0
  6
Continuous
 62
     7
370
     5
100
AcDbEllipse
 10
-707.189623898963
 20
-273.6447810094651
 30
0.0
 11
715.7068760690451
 21
416.9264721031473
 31
0.0
210
0.0
220
0.0
230
1.0
 40
0.0821258503829768
 41
6.081387503400954
 42
6.222532031972068
1001
PE_URL
1000

  0
LINE
  5
634
330
5D6
100
AcDbEntity
  8
0
  6
Continuous
 62
     7
370
     5
100
AcDbLine
 10
0.0585786437677598
 20
122.5795759622251
 30
0.0
 11
0.8568485391424474
 21
123.0404073637528
 31
0.0
1001
PE_URL
1000

  0
LINE
  5
635
330
5D6
100
AcDbEntity
  8
0
  6
Continuous
 62
     7
370
     5
100
AcDbLine
 10
0.0585786437677598
 20
153.2815104891288
 30
0.0
 11
0.0585786437677598
 21
122.5795759622251
 31
0.0
1001
PE_URL
1000

  0
LINE
  5
636
330
5D6
100
AcDbEntity
  8
0
  6
Continuous
 62
     7
370
     5
100
AcDbLine
 10
1.331370849902669
 20
154.0162777897694
 30
0.0
 11
0.0585786437677598
 21
153.2815104891288
 31
0.0
1001
PE_URL
1000

  0
LINE
  5
637
330
5D6
100
AcDbEntity
  8
0
  6
Continuous
 62
     7
370
     5
100
AcDbLine
 10
1.331370849902669
 20
154.0162777897694
 30
0.0
 11
1.331370849902669
 21
151.7299635164891
 31
0.0
1001
PE_URL
1000

  0
LINE
  5
638
330
5D6
100
AcDbEntity
  8
0
  6
Continuous
 62
     7
370
     5
100
AcDbLine
 10
1.331370849902669
 20
151.7299635164891
 30
0.0
 11
2.462741699799153
 21
152.3830900059475
 31
0.0
1001
PE_URL
1000

  0
ARC
  5
639
330
5D6
100
AcDbEntity
  8
0
  6
Continuous
 62
     7
370
     5
100
AcDbCircle
 10
2.517948182552573
 20
152.3154080941331
 30
0.0
 40
0.0873418394857002
100
AcDbArc
 50
350.7859630083365
 51
129.2032852373515
1001
PE_URL
1000

  0
LINE
  5
63A
330
5D6
100
AcDbEntity
  8
0
  6
Continuous
 62
     7
370
     5
100
AcDbLine
 10
2.604163056037578
 20
152.3014226547511
 30
0.0
 11
2.604163056037578
 21
146.8811478037842
 31
0.0
1001
PE_URL
1000

  0
LINE
  5
63B
330
5D6
100
AcDbEntity
  8
0
  6
Continuous
 62
     7
370
     5
100
AcDbLine
 10
2.604163056037578
 20
146.8811478037842
 30
0.0
 11
5.264318287097922
 21
148.4168227309146
 31
0.0
1001
PE_URL
1000

  0
ELLIPSE
  5
63C
330
5D6
100
AcDbEntity
  8
0
  6
Continuous
 62
     7
370
     5
100
AcDbEllipse
 10
5.264145934446788
 20
148.2533155279107
 30
0.0
 11
0.1001137647703985
 21
0.1734208491335494
 31
0.0
210
0.0
220
0.0
230
1.0
 40
0.5766787367376255
 41
5.498315064858291
 42
7.067893416475567
1001
PE_URL
1000

  0
LINE
  5
63D
330
5D6
100
AcDbEntity
  8
0
  6
Continuous
 62
     7
370
     5
100
AcDbLine
 10
5.405653493266072
 20
148.3352051292659
 30
0.0
 11
5.405653493266072
 21
146.243205027964
 31
0.0
1001
PE_URL
1000

  0
LINE
  5
63E
330
5D6
100
AcDbEntity
  8
0
  6
Continuous
 62
     7
370
     5
100
AcDbLine
 10
5.405653493266072
 20
146.243205027964
 30
0.0
 11
12.38917332393066
 21
150.2747052133109
 31
0.0
1001
PE_URL
1000

  0
LINE
  5
63F
330
5D6
100
AcDbEntity
  8
0
  6
Continuous
 62
     7
370
     5
100
AcDbLine
 10
12.38917332393066
 20
150.2747052133109
 30
0.0
 11
12.38917332393066
 21
152.366705314611
 31
0.0
1001
PE_URL
1000

  0
ELLIPSE
  5
640
330
5D6
100
AcDbEntity
  8
0
  6
Continuous
 62
     7
370
     5
100
AcDbEllipse
 10
12.53068088274631
 20
152.4481968630043
 30
0.0
 11
0.09999184349459971
 21
0.1732097896632752
 31
0.0
210
0.0
220
0.0
230
1.0
 40
0.5780852101872573
 41
0.7859256885307266
 42
2.355504040163044
1001
PE_URL
1000

  0
LINE
  5
641
330
5D6
100
AcDbEntity
  8
0
  6
Continuous
 62
     7
370
     5
100
AcDbLine
 10
12.53050853009518
 20
152.6115050718745
 30
0.0
 11
15.19066376115916
 21
154.1471799990049
 31
0.0
1001
PE_URL
1000

  0
LINE
  5
642
330
5D6
100
AcDbEntity
  8
0
  6
Continuous
 62
     7
370
     5
100
AcDbLine
 10
15.19066376115916
 20
154.1471799990049
 30
0.0
 11
15.19066376115916
 21
159.5674548499755
 31
0.0
1001
PE_URL
1000

  0
ARC
  5
643
330
5D6
100
AcDbEntity
  8
0
  6
Continuous
 62
     7
370
     5
100
AcDbCircle
 10
15.4977069814322
 20
159.553482679521
 30
0.0
 40
0.3073609615144981
100
AcDbArc
 50
122.6054783405099
 51
177.3945215138965
1001
PE_URL
1000

  0
LINE
  5
644
330
5D6
100
AcDbEntity
  8
0
  6
Continuous
 62
     7
370
     5
100
AcDbLine
 10
15.33208511739394
 20
159.8124038235346
 30
0.0
 11
16.46345596729407
 21
160.465530312993
 31
0.0
1001
PE_URL
1000

  0
LINE
  5
645
330
5D6
100
AcDbEntity
  8
0
  6
Continuous
 62
     7
370
     5
100
AcDbLine
 10
16.46345596729407
 20
160.465530312993
 30
0.0
 11
16.46345596729407
 21
162.7518445862715
 31
0.0
1001
PE_URL
1000

  0
LINE
  5
646
330
5D6
100
AcDbEntity
  8
0
  6
Continuous
 62
     7
370
     5
100
AcDbLine
 10
17.73624817342898
 20
163.4866118869122
 30
0.0
 11
16.46345596729407
 21
162.7518445862715
 31
0.0
1001
PE_URL
1000

  0
LINE
  5
647
330
5D6
100
AcDbEntity
  8
0
  6
Continuous
 62
     7
370
     5
100
AcDbLine
 10
12.22081527823138
 20
129.6006857227785
 30
0.0
 11
12.22081527823138
 21
130.417226534626
 31
0.0
1001
PE_URL
1000

  0
LINE
  5
648
330
5D6
100
AcDbEntity
  8
0
  6
Continuous
 62
     7
370
     5
100
AcDbLine
 10
18.79690834520989
 20
132.0090631137646
 30
0.0
 11
18.65548698897146
 21
132.0907039249469
 31
0.0
1001
PE_URL
1000

  0
LINE
  5
649
330
5D6
100
AcDbEntity
  8
0
  6
Continuous
 62
     7
370
     5
100
AcDbLine
 10
18.79690834520989
 20
132.0090631137646
 30
0.0
 11
13.28147545000866
 21
128.8250714765327
 31
0.0
1001
PE_URL
1000

  0
LINE
  5
64A
330
5D6
100
AcDbEntity
  8
0
  6
Continuous
 62
     7
370
     5
100
AcDbLine
 10
13.28147545000866
 20
128.8250714765327
 30
0.0
 11
12.36223663446617
 21
129.3557367492194
 31
0.0
1001
PE_URL
1000

  0
LINE
  5
64B
330
5D6
100
AcDbEntity
  8
0
  6
Continuous
 62
     7
370
     5
100
AcDbLine
 10
18.79690834520989
 20
132.0090631137646
 30
0.0
 11
18.79690834520989
 21
132.3356528985059
 31
0.0
1001
PE_URL
1000

  0
LINE
  5
64C
330
5D6
100
AcDbEntity
  8
0
  6
Continuous
 62
     7
370
     5
100
AcDbLine
 10
18.79690834520989
 20
163.0375874254114
 30
0.0
 11
18.79690834520989
 21
163.0376139654236
 31
0.0
1001
PE_URL
1000

  0
LINE
  5
64D
330
5D6
100
AcDbEntity
  8
0
  6
Continuous
 62
     7
370
     5
100
AcDbLine
 10
1.6849242405533
 20
122.1305249607431
 30
0.0
 11
0.7656854250108154
 21
122.661190233428
 31
0.0
1001
PE_URL
1000

  0
SPLINE
  5
64E
330
5D6
100
AcDbEntity
  8
0
  6
Continuous
 62
     7
370
     5
100
AcDbSpline
210
0.0
220
0.0
230
1.0
 70
     8
 71
     3
 72
    13
 73
     9
 74
     0
 42
0.000000001
 43
0.00000001
 40
0.0
 40
0.0
 40
0.0
 40
0.0
 40
0.4307424195859318
 40
0.599951081715334
 40
0.7699697019237784
 40
0.8675813502754917
 40
0.9661065409845143
 40
1.0
 40
1.0
 40
1.0
 40
1.0
 10
0.8568485391424474
 20
123.0404073637528
 30
0.0
 10
0.8192746319127764
 20
122.9859080437836
 30
0.0
 10
0.7669405564611225
 20
122.9099997410904
 30
0.0
 10
0.7313586178297555
 20
122.8046300150872
 30
0.0
 10
0.7233661512418621
 20
122.744377886198
 30
0.0
 10
0.7321551843724592
 20
122.6976712842024
 30
0.0
 10
0.7480221510795673
 20
122.6727669160409
 30
0.0
 10
0.7620857505444292
 20
122.6635494953043
 30
0.0
 10
0.7656854250108154
 20
122.661190233428
 30
0.0
1001
PE_URL
1000

  0
LINE
  5
64F
330
5D6
100
AcDbEntity
  8
0
  6
Continuous
 62
     7
370
     5
100
AcDbLine
 10
10.33735934247125
 20
138.3398265052947
 30
0.0
 11
9.276699170690335
 21
138.9521325891601
 31
0.0
1001
PE_URL
1000

  0
ELLIPSE
  5
650
330
5D6
100
AcDbEntity
  8
0
  6
Continuous
 62
     7
370
     5
100
AcDbEllipse
 10
-706.128963727182
 20
-274.2570870933323
 30
0.0
 11
715.7068760690451
 21
416.9264721031473
 31
0.0
210
0.0
220
0.0
230
1.0
 40
0.0821258503829769
 41
6.079285487282356
 42
6.222532031972068
1001
PE_URL
1000

  0
LINE
  5
651
330
5D6
100
AcDbEntity
  8
0
  6
Continuous
 62
     7
370
     5
100
AcDbLine
 10
9.97743048002485
 20
140.0637949364482
 30
0.0
 11
11.03809065180576
 21
139.4514888525828
 31
0.0
1001
PE_URL
1000

  0
LINE
  5
652
330
5D6
100
AcDbEntity
  8
0
  6
Continuous
 62
     7
370
     5
100
AcDbLine
 10
14.20489871469726
 20
141.2796482338217
 30
0.0
 11
11.03809065180576
 21
139.4514888525828
 31
0.0
1001
PE_URL
1000

  0
ARC
  5
653
330
5D6
100
AcDbEntity
  8
0
  6
Continuous
 62
     7
370
     5
100
AcDbCircle
 10
0.3656218640408042
 20
122.593548132676
 30
0.0
 40
0.3073609615144638
100
AcDbArc
 50
182.6054784857647
 51
237.3945216594901
1001
PE_URL
1000

  0
LINE
  5
654
330
5D6
100
AcDbEntity
  8
0
  6
Continuous
 62
     7
370
     5
100
AcDbLine
 10
0.7656854250108154
 20
122.661190233428
 30
0.0
 11
0.2000000000025466
 21
122.3346269886661
 31
0.0
1001
PE_URL
1000

  0
LINE
  5
655
330
5D6
100
AcDbEntity
  8
0
  6
Continuous
 62
     7
370
     5
100
AcDbLine
 10
0.9778174593102449
 20
121.8856025271616
 30
0.0
 11
1.119238815545032
 21
121.8039617159793
 31
0.0
1001
PE_URL
1000

  0
LINE
  5
656
330
5D6
100
AcDbEntity
  8
0
  6
Continuous
 62
     7
370
     5
100
AcDbLine
 10
0.2000000000025466
 20
122.3346269886661
 30
0.0
 11
0.9778174593102449
 21
121.8856025271616
 31
0.0
1001
PE_URL
1000

  0
LINE
  5
657
330
5D6
100
AcDbEntity
  8
0
  6
Continuous
 62
     7
370
     5
100
AcDbLine
 10
1.6849242405533
 20
122.1305249607431
 30
0.0
 11
1.119238815545032
 21
121.8039617159793
 31
0.0
1001
PE_URL
1000

  0
ARC
  5
658
330
5D6
100
AcDbEntity
  8
0
  6
Continuous
 62
     7
370
     5
100
AcDbCircle
 10
11.88480780521968
 20
138.1410819702851
 30
0.0
 40
1.560159009541751
100
AcDbArc
 50
122.8684539593371
 51
172.681356291689
1001
PE_URL
1000

  0
ARC
  5
659
330
5D6
100
AcDbEntity
  8
0
  6
Continuous
 62
     7
370
     5
100
AcDbCircle
 10
0.9192334483395825
 20
121.967378792986
 30
0.0
 40
0.100595447180207
100
AcDbArc
 50
245.6928809546494
 51
305.6175774758397
1001
PE_URL
1000

  0
ARC
  5
65A
330
5D6
100
AcDbEntity
  8
0
  6
Continuous
 62
     7
370
     5
100
AcDbCircle
 10
18.69890796465734
 20
163.0484047728442
 30
0.0
 40
0.098595586076416
100
AcDbArc
 50
353.7011525084606
 51
54.98666709951929
1001
PE_URL
1000

  0
ARC
  5
65B
330
5D6
100
AcDbEntity
  8
0
  6
Continuous
 62
     7
370
     5
100
AcDbCircle
 10
16.55859307843821
 20
162.7639573920078
 30
0.0
 40
0.0959051092491525
100
AcDbArc
 50
124.0563508162586
 51
187.2558295737598
1001
PE_URL
1000

  0
LINE
  5
65C
330
5D6
100
AcDbEntity
  8
0
  6
Continuous
 62
     7
370
     5
100
AcDbLine
 10
3.664823227818488
 20
151.6891165708857
 30
0.0
 11
2.604163056037578
 21
152.3014226547511
 31
0.0
1001
PE_URL
1000

  0
LINE
  5
65D
330
5D6
100
AcDbEntity
  8
0
  6
Continuous
 62
     7
370
     5
100
AcDbLine
 10
3.664823227818488
 20
151.6891165708857
 30
0.0
 11
3.664823227818488
 21
147.4934538876514
 31
0.0
1001
PE_URL
1000

  0
ARC
  5
65E
330
5D6
100
AcDbEntity
  8
0
  6
Continuous
 62
     7
370
     5
100
AcDbCircle
 10
3.566822847375079
 20
151.6999339183694
 30
0.0
 40
0.0985955859731772
100
AcDbArc
 50
353.7011524719675
 51
54.98666713448188
1001
PE_URL
1000

  0
ARC
  5
65F
330
5D6
100
AcDbEntity
  8
0
  6
Continuous
 62
     7
370
     5
100
AcDbCircle
 10
1.417585723387674
 20
154.0302632291496
 30
0.0
 40
0.0873418394856966
100
AcDbArc
 50
50.79671476600625
 51
189.2140369904857
1001
PE_URL
1000

  0
LINE
  5
660
330
5D6
100
AcDbEntity
  8
0
  6
Continuous
 62
     7
370
     5
100
AcDbLine
 10
2.392031021679941
 20
153.5672798682808
 30
0.0
 11
1.472792206137456
 21
154.0979451409639
 31
0.0
1001
PE_URL
1000

  0
LWPOLYLINE
  5
661
330
5D6
100
AcDbEntity
  8
0
  6
Continuous
 62
     7
370
     5
100
AcDbPolyline
 90
        3
 70
   128
 43
0.0
 10
2.818224755787014
 20
132.0134366869916
 10
2.345809668366201
 20
131.8630955981916
 10
1.887087035878722
 20
131.9521944189964
1001
PE_URL
1000

  0
ARC
  5
662
330
5D6
100
AcDbEntity
  8
0
  6
Continuous
 62
     7
370
     5
100
AcDbCircle
 10
3.397087021136031
 20
134.6547199198667
 30
0.0
 40
0.9055837164553628
100
AcDbArc
 50
355.2302046758208
 51
57.25452801235438
1001
PE_URL
1000

  0
LWPOLYLINE
  5
663
330
5D6
100
AcDbEntity
  8
0
  6
Continuous
 62
     7
370
     5
100
AcDbPolyline
 90
       17
 70
   128
 43
0.0
 10
2.745584412276003
 20
132.1328513311691
 10
2.204388312131414
 20
131.9447364093739
 10
1.745584412276003
 20
132.0338821524547
 10
1.439021447398773
 20
132.3867169291352
 10
1.331370849902669
 20
132.9495248431176
 10
1.439021447398773
 20
133.6366234913676
 10
1.745584412276003
 20
134.3434083332559
 10
2.204388312131414
 20
134.9622777836212
 10
2.745584412276003
 20
135.399014578712
 10
3.286780512420592
 20
135.5871295005072
 10
3.745584412276003
 20
135.4979837574265
 10
4.052147377153233
 20
135.1451489807459
 10
4.159797974649337
 20
134.5823410667635
 10
4.052147377153233
 20
133.8952424185136
 10
3.745584412276003
 20
133.1884575766253
 10
3.286780512420592
 20
132.56958812626
 10
2.745584412276003
 20
132.1328513311691
1001
PE_URL
1000

  0
LINE
  5
664
330
5D6
100
AcDbEntity
  8
0
  6
Continuous
 62
     7
370
     5
100
AcDbLine
 10
2.929432175385955
 20
134.7702609025528
 30
0.0
 11
2.56173664916605
 21
134.5579947934766
 31
0.0
1001
PE_URL
1000

  0
LINE
  5
665
330
5D6
100
AcDbEntity
  8
0
  6
Continuous
 62
     7
370
     5
100
AcDbLine
 10
2.56173664916605
 20
134.5579947934766
 30
0.0
 11
2.56173664916605
 21
134.1962822876922
 31
0.0
1001
PE_URL
1000

  0
ELLIPSE
  5
666
330
5D6
100
AcDbEntity
  8
0
  6
Continuous
 62
     7
370
     5
100
AcDbEllipse
 10
2.276769837289976
 20
134.03666182899
 30
0.0
 11
0.1999830001076503
 21
0.3464199758967367
 31
0.0
210
0.0
220
0.0
230
1.0
 40
0.5860215324410186
 41
3.934333415644928
 42
5.490277059494505
1001
PE_URL
1000

  0
LINE
  5
667
330
5D6
100
AcDbEntity
  8
0
  6
Continuous
 62
     7
370
     5
100
AcDbLine
 10
2.281002203382741
 20
133.7100359655833
 30
0.0
 11
1.967766952971942
 21
133.5292091045285
 31
0.0
1001
PE_URL
1000

  0
LINE
  5
668
330
5D6
100
AcDbEntity
  8
0
  6
Continuous
 62
     7
370
     5
100
AcDbLine
 10
1.967766952971942
 20
133.5292091045285
 30
0.0
 11
1.967766952971942
 21
133.1046078823474
 31
0.0
1001
PE_URL
1000

  0
LINE
  5
669
330
5D6
100
AcDbEntity
  8
0
  6
Continuous
 62
     7
370
     5
100
AcDbLine
 10
1.967766952971942
 20
133.1046078823474
 30
0.0
 11
2.281002203382741
 21
133.2854347434022
 31
0.0
1001
PE_URL
1000

  0
ELLIPSE
  5
66A
330
5D6
100
AcDbEntity
  8
0
  6
Continuous
 62
     7
370
     5
100
AcDbEllipse
 10
2.276769837289976
 20
132.9539222941185
 30
0.0
 11
0.202977034475527
 21
0.3516029848151163
 31
0.0
210
0.0
220
0.0
230
1.0
 40
0.5688689412912328
 41
5.50513457434273
 42
7.06107821818198
1001
PE_URL
1000

  0
LINE
  5
66B
330
5D6
100
AcDbEntity
  8
0
  6
Continuous
 62
     7
370
     5
100
AcDbLine
 10
2.56173664916605
 20
133.1233175131147
 30
0.0
 11
2.56173664916605
 21
132.7616050073284
 31
0.0
1001
PE_URL
1000

  0
LINE
  5
66C
330
5D6
100
AcDbEntity
  8
0
  6
Continuous
 62
     7
370
     5
100
AcDbLine
 10
2.56173664916605
 20
132.7616050073284
 30
0.0
 11
2.929432175385955
 21
132.9738711164046
 31
0.0
1001
PE_URL
1000

  0
LINE
  5
66D
330
5D6
100
AcDbEntity
  8
0
  6
Continuous
 62
     7
370
     5
100
AcDbLine
 10
2.929432175385955
 20
132.9738711164046
 30
0.0
 11
2.929432175385955
 21
133.335583622189
 31
0.0
1001
PE_URL
1000

  0
ELLIPSE
  5
66E
330
5D6
100
AcDbEntity
  8
0
  6
Continuous
 62
     7
370
     5
100
AcDbEllipse
 10
3.21439898726203
 20
133.4952040808912
 30
0.0
 11
0.1999830001076504
 21
0.3464199758967084
 31
0.0
210
0.0
220
0.0
230
1.0
 40
0.5860215324410546
 41
0.7927407620551447
 42
2.348684405910312
1001
PE_URL
1000

  0
LINE
  5
66F
330
5D6
100
AcDbEntity
  8
0
  6
Continuous
 62
     7
370
     5
100
AcDbLine
 10
3.210166621169265
 20
133.8218299442979
 30
0.0
 11
3.523401871580063
 21
134.0026568053527
 31
0.0
1001
PE_URL
1000

  0
LINE
  5
670
330
5D6
100
AcDbEntity
  8
0
  6
Continuous
 62
     7
370
     5
100
AcDbLine
 10
3.523401871580063
 20
134.0026568053527
 30
0.0
 11
3.523401871580063
 21
134.4272580275338
 31
0.0
1001
PE_URL
1000

  0
LINE
  5
671
330
5D6
100
AcDbEntity
  8
0
  6
Continuous
 62
     7
370
     5
100
AcDbLine
 10
3.523401871580063
 20
134.4272580275338
 30
0.0
 11
3.210166621169265
 21
134.2464311664789
 31
0.0
1001
PE_URL
1000

  0
ELLIPSE
  5
672
330
5D6
100
AcDbEntity
  8
0
  6
Continuous
 62
     7
370
     5
100
AcDbEllipse
 10
3.21439898726203
 20
134.5779436157627
 30
0.0
 11
0.2029770344755271
 21
0.3516029848150879
 31
0.0
210
0.0
220
0.0
230
1.0
 40
0.5688689412912673
 41
2.363541920753008
 42
3.919485564592197
1001
PE_URL
1000

  0
LINE
  5
673
330
5D6
100
AcDbEntity
  8
0
  6
Continuous
 62
     7
370
     5
100
AcDbLine
 10
2.929432175385955
 20
134.4085483967665
 30
0.0
 11
2.929432175385955
 21
134.7702609025528
 31
0.0
1001
PE_URL
1000

  0
LINE
  5
674
330
5D6
100
AcDbEntity
  8
0
  6
Continuous
 62
     7
370
     5
100
AcDbLine
 10
2.936070397479853
 20
134.3418888380384
 30
0.0
 11
2.56173664916605
 21
134.5579947934766
 31
0.0
1001
PE_URL
1000

  0
LINE
  5
675
330
5D6
100
AcDbEntity
  8
0
  6
Continuous
 62
     7
370
     5
100
AcDbLine
 10
2.342185590210647
 20
133.3130541420123
 30
0.0
 11
1.967766952971942
 21
133.5292091045285
 31
0.0
1001
PE_URL
1000

  0
LWPOLYLINE
  5
676
330
5D6
100
AcDbEntity
  8
0
  6
Continuous
 62
     7
370
     5
100
AcDbPolyline
 90
       17
 70
   128
 43
0.0
 10
15.04924240492437
 20
144.1348467753414
 10
14.50804630477614
 20
143.946731853548
 10
14.04924240492437
 20
144.035877596627
 10
13.74267944004714
 20
144.3887123733057
 10
13.6350288425474
 20
144.9515202872899
 10
13.74267944004714
 20
145.6386189355417
 10
14.04924240492437
 20
146.3454037774263
 10
14.50804630477614
 20
146.9642732277916
 10
15.04924240492437
 20
147.4010100228843
 10
15.59043850506896
 20
147.5891249446777
 10
16.04924240492437
 20
147.4999792015969
 10
16.35580536979796
 20
147.14714442492
 10
16.46345596729407
 20
146.584336510934
 10
16.35580536979796
 20
145.8972378626841
 10
16.04924240492437
 20
145.1904530207994
 10
15.59043850506896
 20
144.5715835704341
 10
15.04924240492437
 20
144.1348467753414
1001
PE_URL
1000

  0
LINE
  5
677
330
5D6
100
AcDbEntity
  8
0
  6
Continuous
 62
     7
370
     5
100
AcDbLine
 10
15.23309016803069
 20
146.7722563467232
 30
0.0
 11
14.86539464181442
 21
146.5599902376507
 31
0.0
1001
PE_URL
1000

  0
LINE
  5
678
330
5D6
100
AcDbEntity
  8
0
  6
Continuous
 62
     7
370
     5
100
AcDbLine
 10
14.86539464181442
 20
146.5599902376507
 30
0.0
 11
14.86539464181442
 21
146.1982777318644
 31
0.0
1001
PE_URL
1000

  0
ELLIPSE
  5
679
330
5D6
100
AcDbEntity
  8
0
  6
Continuous
 62
     7
370
     5
100
AcDbEllipse
 10
14.58042782993471
 20
146.0386572731622
 30
0.0
 11
0.1999830001076504
 21
0.3464199758967084
 31
0.0
210
0.0
220
0.0
230
1.0
 40
0.5860215324410469
 41
3.934333415644944
 42
5.49027705949457
1001
PE_URL
1000

  0
LINE
  5
67A
330
5D6
100
AcDbEntity
  8
0
  6
Continuous
 62
     7
370
     5
100
AcDbLine
 10
14.58466019602747
 20
145.7120314097538
 30
0.0
 11
14.27142494561667
 21
145.531204548699
 31
0.0
1001
PE_URL
1000

  0
LINE
  5
67B
330
5D6
100
AcDbEntity
  8
0
  6
Continuous
 62
     7
370
     5
100
AcDbLine
 10
14.27142494561667
 20
145.531204548699
 30
0.0
 11
14.27142494561667
 21
145.1066033265197
 31
0.0
1001
PE_URL
1000

  0
LINE
  5
67C
330
5D6
100
AcDbEntity
  8
0
  6
Continuous
 62
     7
370
     5
100
AcDbLine
 10
14.27142494561667
 20
145.1066033265197
 30
0.0
 11
14.58466019602747
 21
145.2874301875727
 31
0.0
1001
PE_URL
1000

  0
ELLIPSE
  5
67D
330
5D6
100
AcDbEntity
  8
0
  6
Continuous
 62
     7
370
     5
100
AcDbEllipse
 10
14.58042782993471
 20
144.9559177382907
 30
0.0
 11
0.2029770344755306
 21
0.3516029848150879
 31
0.0
210
0.0
220
0.0
230
1.0
 40
0.5688689412912649
 41
5.505134574351621
 42
7.061078218182002
1001
PE_URL
1000

  0
LINE
  5
67E
330
5D6
100
AcDbEntity
  8
0
  6
Continuous
 62
     7
370
     5
100
AcDbLine
 10
14.86539464181442
 20
145.125312957287
 30
0.0
 11
14.86539464181442
 21
144.7636004515025
 31
0.0
1001
PE_URL
1000

  0
LINE
  5
67F
330
5D6
100
AcDbEntity
  8
0
  6
Continuous
 62
     7
370
     5
100
AcDbLine
 10
14.86539464181442
 20
144.7636004515025
 30
0.0
 11
15.23309016803069
 21
144.975866560575
 31
0.0
1001
PE_URL
1000

  0
LINE
  5
680
330
5D6
100
AcDbEntity
  8
0
  6
Continuous
 62
     7
370
     5
100
AcDbLine
 10
15.23309016803069
 20
144.975866560575
 30
0.0
 11
15.23309016803069
 21
145.3375790663613
 31
0.0
1001
PE_URL
1000

  0
ELLIPSE
  5
681
330
5D6
100
AcDbEntity
  8
0
  6
Continuous
 62
     7
370
     5
100
AcDbEllipse
 10
15.51805697990676
 20
145.4971995250635
 30
0.0
 11
0.1999830001076504
 21
0.3464199758967084
 31
0.0
210
0.0
220
0.0
230
1.0
 40
0.5860215324410826
 41
0.7927407620423658
 42
2.348684405899279
1001
PE_URL
1000

  0
LINE
  5
682
330
5D6
100
AcDbEntity
  8
0
  6
Continuous
 62
     7
370
     5
100
AcDbLine
 10
15.51382461381763
 20
145.823825388472
 30
0.0
 11
15.82705986422843
 21
146.004652249525
 31
0.0
1001
PE_URL
1000

  0
LINE
  5
683
330
5D6
100
AcDbEntity
  8
0
  6
Continuous
 62
     7
370
     5
100
AcDbLine
 10
15.82705986422843
 20
146.004652249525
 30
0.0
 11
15.82705986422843
 21
146.4292534717042
 31
0.0
1001
PE_URL
1000

  0
LINE
  5
684
330
5D6
100
AcDbEntity
  8
0
  6
Continuous
 62
     7
370
     5
100
AcDbLine
 10
15.82705986422843
 20
146.4292534717042
 30
0.0
 11
15.51382461381763
 21
146.2484266106512
 31
0.0
1001
PE_URL
1000

  0
ELLIPSE
  5
685
330
5D6
100
AcDbEntity
  8
0
  6
Continuous
 62
     7
370
     5
100
AcDbEllipse
 10
15.51805697990676
 20
146.5799390599332
 30
0.0
 11
0.2029770344755306
 21
0.3516029848150595
 31
0.0
210
0.0
220
0.0
230
1.0
 40
0.5688689412912994
 41
2.363541920761901
 42
3.919485564604999
1001
PE_URL
1000

  0
LINE
  5
686
330
5D6
100
AcDbEntity
  8
0
  6
Continuous
 62
     7
370
     5
100
AcDbLine
 10
15.23309016803069
 20
146.410543840937
 30
0.0
 11
15.23309016803069
 21
146.7722563467232
 31
0.0
1001
PE_URL
1000

  0
LWPOLYLINE
  5
687
330
5D6
100
AcDbEntity
  8
0
  6
Continuous
 62
     7
370
     5
100
AcDbPolyline
 90
        3
 70
   128
 43
0.0
 10
15.13826100073675
 20
144.0240760102479
 10
14.64946766101457
 20
143.8650910423657
 10
14.19074502852345
 20
143.9541898631687
1001
PE_URL
1000

  0
ARC
  5
688
330
5D6
100
AcDbEntity
  8
0
  6
Continuous
 62
     7
370
     5
100
AcDbCircle
 10
15.70074333183766
 20
146.6567133970839
 30
0.0
 40
0.9055862806003095
100
AcDbArc
 50
355.2298147688873
 51
57.25450582313303
1001
PE_URL
1000

  0
LINE
  5
689
330
5D6
100
AcDbEntity
  8
0
  6
Continuous
 62
     7
370
     5
100
AcDbLine
 10
15.23972839012458
 20
146.3438842822088
 30
0.0
 11
14.86539464181442
 21
146.5599902376507
 31
0.0
1001
PE_URL
1000

  0
LINE
  5
68A
330
5D6
100
AcDbEntity
  8
0
  6
Continuous
 62
     7
370
     5
100
AcDbLine
 10
14.64584358285538
 20
145.3150495861828
 30
0.0
 11
14.27142494561667
 21
145.531204548699
 31
0.0
1001
PE_URL
1000

  0
LINE
  5
68B
330
5D6
100
AcDbEntity
  8
0
  6
Continuous
 62
     7
370
     5
100
AcDbLine
 10
14.17580744291081
 20
141.6597565016618
 30
0.0
 11
13.4589119947359
 21
142.0736114347437
 31
0.0
1001
PE_URL
1000

  0
ARC
  5
68C
330
5D6
100
AcDbEntity
  8
0
  6
Continuous
 62
     7
370
     5
100
AcDbCircle
 10
0.1414159890318842
 20
122.4164032544886
 30
0.0
 40
0.1005954471804208
100
AcDbArc
 50
245.6928809546494
 51
305.6175774758397
1001
PE_URL
1000

  0
ARC
  5
68D
330
5D6
100
AcDbEntity
  8
0
  6
Continuous
 62
     7
370
     5
100
AcDbCircle
 10
0.1000914125015697
 20
122.4879538756632
 30
0.0
 40
0.1005878556987697
100
AcDbArc
 50
114.3746582927787
 51
174.3052007499072
1001
PE_URL
1000

  0
ARC
  5
68E
330
5D6
100
AcDbEntity
  8
0
  6
Continuous
 62
     7
370
     5
100
AcDbCircle
 10
0.1000914125015697
 20
153.1898884025668
 30
0.0
 40
0.1005878556988135
100
AcDbArc
 50
114.3746582927787
 51
174.3052007488762
1001
PE_URL
1000

  0
ARC
  5
68F
330
5D6
100
AcDbEntity
  8
0
  6
Continuous
 62
     7
370
     5
100
AcDbCircle
 10
17.83138528469317
 20
163.4987246925939
 30
0.0
 40
0.0959051093593635
100
AcDbArc
 50
124.0563508580314
 51
187.2558295335765
1001
PE_URL
1000

  0
ARC
  5
690
330
5D6
100
AcDbEntity
  8
0
  6
Continuous
 62
     7
370
     5
100
AcDbCircle
 10
17.92109050546969
 20
163.4974292343995
 30
0.0
 40
0.0985955859652507
100
AcDbArc
 50
353.7011524694022
 51
54.98666713673186
1001
PE_URL
1000

  0
LINE
  5
691
330
5D6
100
AcDbEntity
  8
0
  6
Continuous
 62
     7
370
     5
100
AcDbLine
 10
7.0952884140479
 20
147.2186105056408
 30
0.0
 11
5.405653493266072
 21
148.3352051292659
 31
0.0
1001
PE_URL
1000

  0
ARC
  5
692
330
5D6
100
AcDbEntity
  8
0
  6
Continuous
 62
     7
370
     5
100
AcDbCircle
 10
0.1537157550392294
 20
153.2936232948068
 30
0.0
 40
0.0959051093672933
100
AcDbArc
 50
124.0563508628247
 51
187.2558295307342
1001
PE_URL
1000

  0
LINE
  5
693
330
5D6
100
AcDbEntity
  8
0
  6
Continuous
 62
     7
370
     5
100
AcDbLine
 10
3.210166621169265
 20
134.2464311664789
 30
0.0
 11
3.497483437759001
 21
133.9876944119915
 31
0.0
1001
PE_URL
1000

  0
LINE
  5
694
330
5D6
100
AcDbEntity
  8
0
  6
Continuous
 62
     7
370
     5
100
AcDbLine
 10
2.929432175385955
 20
133.0039102482478
 30
0.0
 11
2.56173664916605
 21
133.1233175131147
 31
0.0
1001
PE_URL
1000

  0
LINE
  5
695
330
5D6
100
AcDbEntity
  8
0
  6
Continuous
 62
     7
370
     5
100
AcDbLine
 10
2.929432190840089
 20
133.3356919941725
 30
0.0
 11
2.281002203382741
 21
133.7100359655833
 31
0.0
1001
PE_URL
1000

  0
LINE
  5
696
330
5D6
100
AcDbEntity
  8
0
  6
Continuous
 62
     7
370
     5
100
AcDbLine
 10
2.56173664916605
 20
134.1962822876922
 30
0.0
 11
3.210260490292058
 21
133.8218841337894
 31
0.0
1001
PE_URL
1000

  0
LINE
  5
697
330
5D6
100
AcDbEntity
  8
0
  6
Continuous
 62
     7
370
     5
100
AcDbLine
 10
15.51382461381763
 20
146.2484266106512
 30
0.0
 11
15.80114143040737
 21
145.9896898561619
 31
0.0
1001
PE_URL
1000

  0
LINE
  5
698
330
5D6
100
AcDbEntity
  8
0
  6
Continuous
 62
     7
370
     5
100
AcDbLine
 10
15.23309016803069
 20
145.0059056924201
 30
0.0
 11
14.86539464181442
 21
145.125312957287
 31
0.0
1001
PE_URL
1000

  0
LINE
  5
699
330
5D6
100
AcDbEntity
  8
0
  6
Continuous
 62
     7
370
     5
100
AcDbLine
 10
15.23309018348482
 20
145.3376874383448
 30
0.0
 11
14.58466019602747
 21
145.7120314097538
 31
0.0
1001
PE_URL
1000

  0
LINE
  5
69A
330
5D6
100
AcDbEntity
  8
0
  6
Continuous
 62
     7
370
     5
100
AcDbLine
 10
14.86539464181442
 20
146.1982777318644
 30
0.0
 11
15.51391848293679
 21
145.8238795779598
 31
0.0
1001
PE_URL
1000

  0
LINE
  5
69B
330
5D6
100
AcDbEntity
  8
0
  6
Continuous
 62
     7
370
     5
100
AcDbLine
 10
228.8076223576154
 20
10.77245850809049
 30
0.0
 11
225.0599564280365
 21
8.60897701794238
 31
0.0
1001
PE_URL
1000

  0
LINE
  5
69C
330
5D6
100
AcDbEntity
  8
0
  6
Continuous
 62
     7
370
     5
100
AcDbLine
 10
211.3420848623082
 20
0.689818327082321
 30
0.0
 11
211.1299528279505
 21
0.5673571103070572
 31
0.0
1001
PE_URL
1000

  0
LINE
  5
69D
330
5D6
100
AcDbEntity
  8
0
  6
Continuous
 62
     7
370
     5
100
AcDbLine
 10
225.0599564173262
 20
8.608977011761453
 30
0.0
 11
228.9490437138538
 21
10.85409931927279
 31
0.0
1001
PE_URL
1000

  0
LINE
  5
69E
330
5D6
100
AcDbEntity
  8
0
  6
Continuous
 62
     7
370
     5
100
AcDbLine
 10
210.9885314717158
 20
0.4857162991247606
 30
0.0
 11
211.3420848623082
 21
0.6898183270805021
 31
0.0
1001
PE_URL
1000

  0
ARC
  5
69F
102
{ACAD_REACTORS
102
}
330
5D6
100
AcDbEntity
  8
0
  6
Continuous
 62
     7
370
     5
100
AcDbCircle
 10
229.7268611731652
 20
10.40510139778235
 30
0.0
 40
0.1999999999999886
100
AcDbArc
 50
299.9973117300549
 51
0.0
1001
PE_URL
1000

  0
LINE
  5
6A0
102
{ACAD_REACTORS
102
}
330
5D6
100
AcDbEntity
  8
0
  6
Continuous
 62
     7
370
     5
100
AcDbLine
 10
229.9268611731623
 20
10.40510139778235
 30
0.0
 11
229.9268611731623
 21
41.10703592468963
 31
0.0
1001
PE_URL
1000

  0
LINE
  5
6A1
102
{ACAD_REACTORS
102
}
330
5D6
100
AcDbEntity
  8
0
  6
Continuous
 62
     7
370
     5
100
AcDbLine
 10
223.9578667625701
 20
6.843797961237215
 30
0.0
 11
229.8268530464211
 21
10.23189162530798
 31
0.0
1001
PE_URL
1000

  0
LINE
  5
6A2
102
{ACAD_REACTORS
102
}
330
5D6
100
AcDbEntity
  8
0
  6
Continuous
 62
     7
370
     5
100
AcDbLine
 10
212.1491835167635
 20
0.0267902275245433
 30
0.0
 11
212.6907031819519
 21
0.3394028760903893
 31
0.0
1001
PE_URL
1000

  0
LINE
  5
6A3
102
{ACAD_REACTORS
102
}
330
5D6
100
AcDbEntity
  8
0
  6
Continuous
 62
     7
370
     5
100
AcDbLine
 10
211.1713823109258
 20
0.4758146890253556
 30
0.0
 11
211.9491997702371
 21
0.0267902275245433
 31
0.0
1001
PE_URL
1000

  0
ARC
  5
6A4
102
{ACAD_REACTORS
102
}
330
5D6
100
AcDbEntity
  8
0
  6
Continuous
 62
     7
370
     5
100
AcDbCircle
 10
212.049191643493
 20
0.1999999999989086
 30
0.0
 40
0.1999999999999839
100
AcDbArc
 50
240.0026882699451
 51
299.9973117358706
1001
PE_URL
1000

  0
LINE
  5
6A5
102
{ACAD_REACTORS
102
}
330
5D6
100
AcDbEntity
  8
0
  6
Continuous
 62
     7
370
     5
100
AcDbLine
 10
229.8268530464211
 20
41.28024569716399
 30
0.0
 11
229.049035587117
 21
41.7292701586648
 31
0.0
1001
PE_URL
1000

  0
ARC
  5
6A6
102
{ACAD_REACTORS
102
}
330
5D6
100
AcDbEntity
  8
0
  6
Continuous
 62
     7
370
     5
100
AcDbCircle
 10
229.7268611731652
 20
41.10703592468963
 30
0.0
 40
0.2000000000000455
100
AcDbArc
 50
0.0
 51
60.00268826878195
1001
PE_URL
1000

  0
ARC
  5
6A7
102
{ACAD_REACTORS
102
}
330
5D6
100
AcDbEntity
  8
0
  6
Continuous
 62
     7
370
     5
100
AcDbCircle
 10
229.5612393091233
 20
10.50071437941915
 30
0.0
 40
0.3073609615146223
100
AcDbArc
 50
302.6054783412639
 51
357.3945215142353
1001
PE_URL
1000

  0
LINE
  5
6A8
102
{ACAD_REACTORS
102
}
330
5D6
100
AcDbEntity
  8
0
  6
Continuous
 62
     7
370
     5
100
AcDbLine
 10
228.9490437138538
 20
10.69081769691002
 30
0.0
 11
229.7268611731652
 21
10.2417932354092
 31
0.0
1001
PE_URL
1000

  0
ARC
  5
6A9
102
{ACAD_REACTORS
102
}
330
5D6
100
AcDbEntity
  8
0
  6
Continuous
 62
     7
370
     5
100
AcDbCircle
 10
228.7834218498192
 20
10.94973884091996
 30
0.0
 40
0.3073609615143345
100
AcDbArc
 50
302.605478339756
 51
357.394521514574
1001
PE_URL
1000

  0
LINE
  5
6AA
102
{ACAD_REACTORS
102
}
330
5D6
100
AcDbEntity
  8
0
  6
Continuous
 62
     7
370
     5
100
AcDbLine
 10
229.8682825293963
 20
10.48674220896828
 30
0.0
 11
229.0904650700923
 21
10.93576667046909
 31
0.0
1001
PE_URL
1000

  0
LINE
  5
6AB
102
{ACAD_REACTORS
102
}
330
5D6
100
AcDbEntity
  8
0
  6
Continuous
 62
     7
370
     5
100
AcDbLine
 10
228.9490437138538
 20
10.69081769691002
 30
0.0
 11
228.9490437138538
 21
10.85409931927461
 31
0.0
1001
PE_URL
1000

  0
ARC
  5
6AC
102
{ACAD_REACTORS
102
}
330
5D6
100
AcDbEntity
  8
0
  6
Continuous
 62
     7
370
     5
100
AcDbCircle
 10
229.0042501966036
 20
41.65168663675468
 30
0.0
 40
0.087341839485746
100
AcDbArc
 50
350.7859630083365
 51
129.2032852339938
1001
PE_URL
1000

  0
LINE
  5
6AD
102
{ACAD_REACTORS
102
}
330
5D6
100
AcDbEntity
  8
0
  6
Continuous
 62
     7
370
     5
100
AcDbLine
 10
229.0904650700923
 20
10.93576667046909
 30
0.0
 11
229.0904650700923
 21
41.63770119737273
 31
0.0
1001
PE_URL
1000

  0
LINE
  5
6AE
102
{ACAD_REACTORS
102
}
330
5D6
100
AcDbEntity
  8
0
  6
Continuous
 62
     7
370
     5
100
AcDbLine
 10
222.9386360737644
 20
7.384364844021547
 30
0.0
 11
223.8578748892996
 21
6.853699571338439
 31
0.0
1001
PE_URL
1000

  0
LINE
  5
6AF
102
{ACAD_REACTORS
102
}
330
5D6
100
AcDbEntity
  8
0
  6
Continuous
 62
     7
370
     5
100
AcDbLine
 10
228.8076223576154
 20
10.77245850809231
 30
0.0
 11
222.9386360737644
 21
7.384364844021547
 31
0.0
1001
PE_URL
1000

  0
LINE
  5
6B0
102
{ACAD_REACTORS
102
}
330
5D6
100
AcDbEntity
  8
0
  6
Continuous
 62
     7
370
     5
100
AcDbLine
 10
228.8076223576154
 20
10.77245850809231
 30
0.0
 11
228.9490437138538
 21
10.69081769691002
 31
0.0
1001
PE_URL
1000

  0
LINE
  5
6B1
102
{ACAD_REACTORS
102
}
330
5D6
100
AcDbEntity
  8
0
  6
Continuous
 62
     7
370
     5
100
AcDbLine
 10
229.7268611731652
 20
10.2417932354092
 30
0.0
 11
223.8578748892996
 21
6.853699571338439
 31
0.0
1001
PE_URL
1000

  0
LINE
  5
6B2
102
{ACAD_REACTORS
102
}
330
5D6
100
AcDbEntity
  8
0
  6
Continuous
 62
     7
370
     5
100
AcDbLine
 10
211.5514000490894
 20
0.8106534123598976
 30
0.0
 11
211.1299528279578
 21
0.5673571103052382
 31
0.0
1001
PE_URL
1000

  0
LINE
  5
6B3
102
{ACAD_REACTORS
102
}
330
5D6
100
AcDbEntity
  8
0
  6
Continuous
 62
     7
370
     5
100
AcDbLine
 10
229.8682825293963
 20
41.18867673586828
 30
0.0
 11
229.8682825293963
 21
10.48674220896828
 31
0.0
1001
PE_URL
1000

  0
LINE
  5
6B4
102
{ACAD_REACTORS
102
}
330
5D6
100
AcDbEntity
  8
0
  6
Continuous
 62
     7
370
     5
100
AcDbLine
 10
229.0904650700923
 20
41.63770119737273
 30
0.0
 11
229.8682825293963
 21
41.18867673586828
 31
0.0
1001
PE_URL
1000

  0
ARC
  5
6B5
102
{ACAD_REACTORS
102
}
330
5D6
100
AcDbEntity
  8
0
  6
Continuous
 62
     7
370
     5
100
AcDbCircle
 10
223.9164589002703
 20
6.935475837160993
 30
0.0
 40
0.1005954471805307
100
AcDbArc
 50
234.3824225241604
 51
294.3071190499803
1001
PE_URL
1000

  0
SPLINE
  5
6B6
102
{ACAD_REACTORS
102
}
330
5D6
100
AcDbEntity
  8
0
  6
Continuous
 62
     7
370
     5
100
AcDbSpline
210
0.0
220
0.0
230
1.0
 70
     8
 71
     3
 72
    12
 73
     8
 74
     0
 42
0.000000001
 43
0.00000001
 40
0.0
 40
0.0
 40
0.0
 40
0.0
 40
0.0387553262043726
 40
0.0871410193705393
 40
0.1705660849329844
 40
0.4064812181754115
 40
1.0
 40
1.0
 40
1.0
 40
1.0
 10
212.4706388646246
 20
0.2799881396731507
 30
0.0
 10
212.4773651449086
 20
0.2771624634060572
 30
0.0
 10
212.4924891285718
 20
0.2708089544921677
 30
0.0
 10
212.529507126319
 20
0.2716442851942702
 30
0.0
 10
212.6080350649954
 20
0.2921057518487942
 30
0.0
 10
212.7867730444941
 20
0.3890515042385232
 30
0.0
 10
212.9153030821562
 20
0.5060719514967786
 30
0.0
 10
213.0072754382363
 20
0.5898083794872946
 30
0.0
1001
PE_URL
1000

  0
LINE
  5
6B7
102
{ACAD_REACTORS
102
}
330
5D6
100
AcDbEntity
  8
0
  6
Continuous
 62
     7
370
     5
100
AcDbLine
 10
211.5514000490894
 20
0.8106534123598976
 30
0.0
 11
212.4706388646246
 21
0.2799881396731507
 31
0.0
1001
PE_URL
1000

  0
LINE
  5
6B8
102
{ACAD_REACTORS
102
}
330
5D6
100
AcDbEntity
  8
0
  6
Continuous
 62
     7
370
     5
100
AcDbLine
 10
212.4706388646246
 20
0.2799881396731507
 30
0.0
 11
212.049191643493
 21
0.0366918376221292
 31
0.0
1001
PE_URL
1000

  0
LINE
  5
6B9
102
{ACAD_REACTORS
102
}
330
5D6
100
AcDbEntity
  8
0
  6
Continuous
 62
     7
370
     5
100
AcDbLine
 10
212.049191643493
 20
0.0366918376221292
 30
0.0
 11
211.2713741841962
 21
0.4857162991265795
 31
0.0
1001
PE_URL
1000

  0
LINE
  5
6BA
102
{ACAD_REACTORS
102
}
330
5D6
100
AcDbEntity
  8
0
  6
Continuous
 62
     7
370
     5
100
AcDbLine
 10
211.2713741841962
 20
0.4857162991265795
 30
0.0
 11
211.1299528279578
 21
0.5673571103052382
 31
0.0
1001
PE_URL
1000

  0
ARC
  5
6BB
102
{ACAD_REACTORS
102
}
330
5D6
100
AcDbEntity
  8
0
  6
Continuous
 62
     7
370
     5
100
AcDbCircle
 10
211.2161677014392
 20
0.5533982109427598
 30
0.0
 40
0.087341839485688
100
AcDbArc
 50
170.7859630118701
 51
309.2032852373515
1001
PE_URL
1000

  0
LINE
  5
6BC
102
{ACAD_REACTORS
102
}
330
5D6
100
AcDbEntity
  8
0
  6
Continuous
 62
     7
370
     5
100
AcDbLine
 10
210.9885314717194
 20
0.4857162991265795
 30
0.0
 11
211.5514000490894
 21
0.8106534123598976
 31
0.0
1001
PE_URL
1000

  0
LINE
  5
6BD
102
{ACAD_REACTORS
102
}
330
5D6
100
AcDbEntity
  8
0
  6
Continuous
 62
     7
370
     5
100
AcDbLine
 10
228.9490437138538
 20
10.85409931927461
 30
0.0
 11
228.9490437138538
 21
41.88265017093181
 31
0.0
1001
PE_URL
1000

  0
LINE
  5
6BE
102
{ACAD_REACTORS
102
}
330
5D6
100
AcDbEntity
  8
0
  6
Continuous
 62
     7
370
     5
100
AcDbLine
 10
222.9386360737644
 20
7.384364844025185
 30
0.0
 11
228.9490437138538
 21
10.85409931927461
 31
0.0
1001
PE_URL
1000

  0
ARC
  5
6BF
102
{ACAD_REACTORS
102
}
330
5D6
100
AcDbEntity
  8
0
  6
Continuous
 62
     7
370
     5
100
AcDbCircle
 10
229.8267697606589
 20
10.3951201224063
 30
0.0
 40
0.1005878556988982
100
AcDbArc
 50
5.694799249061806
 51
65.62534170533378
1001
PE_URL
1000

  0
ARC
  5
6C0
102
{ACAD_REACTORS
102
}
330
5D6
100
AcDbEntity
  8
0
  6
Continuous
 62
     7
370
     5
100
AcDbCircle
 10
229.7854451841358
 20
10.32356950122812
 30
0.0
 40
0.1005954471804294
100
AcDbArc
 50
234.3824225247637
 51
294.3071190407209
1001
PE_URL
1000

  0
ARC
  5
6C1
102
{ACAD_REACTORS
102
}
330
5D6
100
AcDbEntity
  8
0
  6
Continuous
 62
     7
370
     5
100
AcDbCircle
 10
229.8267697606589
 20
41.0970546493063
 30
0.0
 40
0.100587855699062
100
AcDbArc
 50
5.694799253185804
 51
65.62534170533378
1001
PE_URL
1000

  0
ARC
  5
6C2
102
{ACAD_REACTORS
102
}
330
5D6
100
AcDbEntity
  8
0
  6
Continuous
 62
     7
370
     5
100
AcDbCircle
 10
212.1077756544637
 20
0.1184681034446839
 30
0.0
 40
0.1005954471804427
100
AcDbArc
 50
234.3824225247637
 51
294.3071190499803
1001
PE_URL
1000

  0
ARC
  5
6C3
102
{ACAD_REACTORS
102
}
330
5D6
100
AcDbEntity
  8
0
  6
Continuous
 62
     7
370
     5
100
AcDbCircle
 10
211.9906076325224
 20
0.1184681034446839
 30
0.0
 40
0.1005954471803091
100
AcDbArc
 50
245.6928809588526
 51
305.6175774752363
1001
PE_URL
1000

  0
ARC
  5
6C4
102
{ACAD_REACTORS
102
}
330
5D6
100
AcDbEntity
  8
0
  6
Continuous
 62
     7
370
     5
100
AcDbCircle
 10
229.7702821488801
 20
41.19949408331922
 30
0.0
 40
0.0985955860455737
100
AcDbArc
 50
353.7011524946997
 51
54.98666711258866
1001
PE_URL
1000

  0
ARC
  5
6C5
102
{ACAD_REACTORS
102
}
330
5D6
100
AcDbEntity
  8
0
  6
Continuous
 62
     7
370
     5
100
AcDbCircle
 10
229.7268612791977
 20
10.40510218218878
 30
0.0
 40
0.2000000000001592
100
AcDbArc
 50
299.9973117309575
 51
0.0
1001
PE_URL
1000

  0
LINE
  5
6C6
102
{ACAD_REACTORS
102
}
330
5D6
100
AcDbEntity
  8
0
  6
Continuous
 62
     7
370
     5
100
AcDbLine
 10
229.9268613804761
 20
10.40510225264916
 30
0.0
 11
229.9268613804761
 21
41.10703606336938
 31
0.0
1001
PE_URL
1000

  0
LINE
  5
6C7
102
{ACAD_REACTORS
102
}
330
5D6
100
AcDbEntity
  8
0
  6
Continuous
 62
     7
370
     5
100
AcDbLine
 10
223.8280649692988
 20
6.768865746287702
 30
0.0
 11
229.826853247434
 21
10.23189250667383
 31
0.0
1001
PE_URL
1000

  0
LINE
  5
6C8
102
{ACAD_REACTORS
102
}
330
5D6
100
AcDbEntity
  8
0
  6
Continuous
 62
     7
370
     5
100
AcDbLine
 10
212.1491834543576
 20
0.0267909568156028
 30
0.0
 11
218.1479717325146
 21
3.489817717201731
 31
0.0
1001
PE_URL
1000

  0
LINE
  5
6C9
102
{ACAD_REACTORS
102
}
330
5D6
100
AcDbEntity
  8
0
  6
Continuous
 62
     7
370
     5
100
AcDbLine
 10
211.1713827324729
 20
0.4758156594343745
 30
0.0
 11
211.9492001978524
 21
0.0267911944265506
 31
0.0
1001
PE_URL
1000

  0
ARC
  5
6CA
102
{ACAD_REACTORS
102
}
330
5D6
100
AcDbEntity
  8
0
  6
Continuous
 62
     7
370
     5
100
AcDbCircle
 10
212.0491917495183
 20
0.2000007844053471
 30
0.0
 40
0.2000000000000692
100
AcDbArc
 50
240.0026882676188
 51
299.9973117323812
1001
PE_URL
1000

  0
LINE
  5
6CB
102
{ACAD_REACTORS
102
}
330
5D6
100
AcDbEntity
  8
0
  6
Continuous
 62
     7
370
     5
100
AcDbLine
 10
229.8268528358549
 20
41.28024681937859
 30
0.0
 11
229.0490353704754
 21
41.72927128438641
 31
0.0
1001
PE_URL
1000

  0
ARC
  5
6CC
102
{ACAD_REACTORS
102
}
330
5D6
100
AcDbEntity
  8
0
  6
Continuous
 62
     7
370
     5
100
AcDbCircle
 10
229.7268612791977
 20
41.10703670908879
 30
0.0
 40
0.2000000000001592
100
AcDbArc
 50
0.0
 51
60.00268826878195
1001
PE_URL
1000

  0
LINE
  5
6CD
102
{ACAD_REACTORS
102
}
330
5D6
100
AcDbEntity
  8
0
  6
Continuous
 62
     7
370
     5
100
AcDbLine
 10
210.9885316862728
 20
0.4857171461790131
 30
0.0
 11
211.5514002139553
 21
0.8106542307305062
 31
0.0
1001
PE_URL
1000

  0
LINE
  5
6CE
102
{ACAD_REACTORS
102
}
330
5D6
100
AcDbEntity
  8
0
  6
Continuous
 62
     7
370
     5
100
AcDbLine
 10
228.9490437113582
 20
10.85410004102778
 30
0.0
 11
228.9490437113582
 21
41.88264989495838
 31
0.0
1001
PE_URL
1000

  0
LINE
  5
6CF
102
{ACAD_REACTORS
102
}
330
5D6
100
AcDbEntity
  8
0
  6
Continuous
 62
     7
370
     5
100
AcDbLine
 10
222.9386360738954
 20
7.384365567299028
 30
0.0
 11
228.9490437113582
 21
10.85410004102778
 31
0.0
1001
PE_URL
1000

  0
LINE
  5
6D0
102
{ACAD_REACTORS
102
}
330
5D6
100
AcDbEntity
  8
0
  6
Continuous
 62
     7
370
     5
100
AcDbLine
 10
211.1299528022737
 20
0.5673578186779196
 30
0.0
 11
228.8076225953573
 21
10.77245936852887
 31
0.0
1001
PE_URL
1000

  0
ARC
  5
6D1
102
{ACAD_REACTORS
102
}
330
5D6
100
AcDbEntity
  8
0
  6
Continuous
 62
     7
370
     5
100
AcDbCircle
 10
229.0042512334567
 20
41.65168816889673
 30
0.0
 40
0.0873410548014984
100
AcDbArc
 50
350.7848636095952
 51
129.2043846340605
1001
PE_URL
1000

  0
LINE
  5
6D2
102
{ACAD_REACTORS
102
}
330
5D6
100
AcDbEntity
  8
0
  6
Continuous
 62
     7
370
     5
100
AcDbLine
 10
229.0904650640168
 20
10.93576739015589
 30
0.0
 11
229.0904650640168
 21
41.63770120087611
 31
0.0
1001
PE_URL
1000

  0
ARC
  5
6D3
102
{ACAD_REACTORS
102
}
330
5D6
100
AcDbEntity
  8
0
  6
Continuous
 62
     7
370
     5
100
AcDbCircle
 10
228.7834214503982
 20
10.9497397762334
 30
0.0
 40
0.307361364266226
100
AcDbArc
 50
302.6055705219125
 51
357.3944846940835
1001
PE_URL
1000

  0
LINE
  5
6D4
102
{ACAD_REACTORS
102
}
330
5D6
100
AcDbEntity
  8
0
  6
Continuous
 62
     7
370
     5
100
AcDbLine
 10
228.949043948016
 20
10.85410018463335
 30
0.0
 11
228.949043948016
 21
10.69081855940931
 31
0.0
1001
PE_URL
1000

  0
LINE
  5
6D5
102
{ACAD_REACTORS
102
}
330
5D6
100
AcDbEntity
  8
0
  6
Continuous
 62
     7
370
     5
100
AcDbLine
 10
217.4939138470963
 20
3.832990254750257
 30
0.0
 11
223.1507683652762
 21
7.098622857150986
 31
0.0
1001
PE_URL
1000

  0
LINE
  5
6D6
102
{ACAD_REACTORS
102
}
330
5D6
100
AcDbEntity
  8
0
  6
Continuous
 62
     7
370
     5
100
AcDbLine
 10
217.4939138470963
 20
3.832990254750257
 30
0.0
 11
218.0497253706726
 21
3.500726944594135
 31
0.0
1001
PE_URL
1000

  0
LINE
  5
6D7
102
{ACAD_REACTORS
102
}
330
5D6
100
AcDbEntity
  8
0
  6
Continuous
 62
     7
370
     5
100
AcDbLine
 10
212.0491916203191
 20
0.0366925445505331
 30
0.0
 11
218.0497253706726
 21
3.500726944594135
 31
0.0
1001
PE_URL
1000

  0
LINE
  5
6D8
102
{ACAD_REACTORS
102
}
330
5D6
100
AcDbEntity
  8
0
  6
Continuous
 62
     7
370
     5
100
AcDbLine
 10
211.2713741549323
 20
0.4857170095583569
 30
0.0
 11
212.0491916203191
 21
0.0366925445505331
 31
0.0
1001
PE_URL
1000

  0
LINE
  5
6D9
102
{ACAD_REACTORS
102
}
330
5D6
100
AcDbEntity
  8
0
  6
Continuous
 62
     7
370
     5
100
AcDbLine
 10
211.1299528022737
 20
0.5673578186779196
 30
0.0
 11
211.2713741549323
 21
0.4857170095583569
 31
0.0
1001
PE_URL
1000

  0
LINE
  5
6DA
102
{ACAD_REACTORS
102
}
330
5D6
100
AcDbEntity
  8
0
  6
Continuous
 62
     7
370
     5
100
AcDbLine
 10
228.949043948016
 20
10.69081855940931
 30
0.0
 11
228.8076225953573
 21
10.77245936852887
 31
0.0
1001
PE_URL
1000

  0
LINE
  5
6DB
102
{ACAD_REACTORS
102
}
330
5D6
100
AcDbEntity
  8
0
  6
Continuous
 62
     7
370
     5
100
AcDbLine
 10
229.7268614133955
 20
10.24179409440148
 30
0.0
 11
228.949043948016
 21
10.69081855940931
 31
0.0
1001
PE_URL
1000

  0
LINE
  5
6DC
102
{ACAD_REACTORS
102
}
330
5D6
100
AcDbEntity
  8
0
  6
Continuous
 62
     7
370
     5
100
AcDbLine
 10
223.7263276630129
 20
6.777759694357883
 30
0.0
 11
229.7268614133955
 21
10.24179409440148
 31
0.0
1001
PE_URL
1000

  0
LINE
  5
6DD
102
{ACAD_REACTORS
102
}
330
5D6
100
AcDbEntity
  8
0
  6
Continuous
 62
     7
370
     5
100
AcDbLine
 10
223.1507683652762
 20
7.098622857150986
 30
0.0
 11
223.7263276630129
 21
6.777759694357883
 31
0.0
1001
PE_URL
1000

  0
ARC
  5
6DE
102
{ACAD_REACTORS
102
}
330
5D6
100
AcDbEntity
  8
0
  6
Continuous
 62
     7
370
     5
100
AcDbCircle
 10
229.5612389157777
 20
10.50071531122558
 30
0.0
 40
0.3073613642654958
100
AcDbArc
 50
302.6055705219125
 51
357.3944846937448
1001
PE_URL
1000

  0
LINE
  5
6DF
102
{ACAD_REACTORS
102
}
330
5D6
100
AcDbEntity
  8
0
  6
Continuous
 62
     7
370
     5
100
AcDbLine
 10
229.0904650640168
 20
10.93576739015589
 30
0.0
 11
229.8682825293963
 21
10.48674292514806
 31
0.0
1001
PE_URL
1000

  0
LINE
  5
6E0
102
{ACAD_REACTORS
102
}
330
5D6
100
AcDbEntity
  8
0
  6
Continuous
 62
     7
370
     5
100
AcDbLine
 10
229.8682825293963
 20
41.18867673586828
 30
0.0
 11
229.0904650640168
 21
41.63770120087611
 31
0.0
1001
PE_URL
1000

  0
LINE
  5
6E1
102
{ACAD_REACTORS
102
}
330
5D6
100
AcDbEntity
  8
0
  6
Continuous
 62
     7
370
     5
100
AcDbLine
 10
229.8682825293963
 20
10.48674292514806
 30
0.0
 11
229.8682825293963
 21
41.18867673586828
 31
0.0
1001
PE_URL
1000

  0
ELLIPSE
  5
6E2
102
{ACAD_REACTORS
102
}
330
5D6
100
AcDbEntity
  8
0
  6
Continuous
 62
     7
370
     5
100
AcDbEllipse
 10
223.7263277149341
 20
6.941067889581973
 30
0.0
 11
-0.1026525863727556
 21
0.1716643463723244
 31
0.0
210
0.0
220
0.0
230
1.0
 40
0.5873687162543159
 41
2.34723908744996
 42
3.132555986671399
1001
PE_URL
1000

  0
ELLIPSE
  5
6E3
102
{ACAD_REACTORS
102
}
330
5D6
100
AcDbEntity
  8
0
  6
Continuous
 62
     7
370
     5
100
AcDbEllipse
 10
218.0497253137746
 20
3.664035077012159
 30
0.0
 11
-0.09741494644117667
 21
0.1746892004042024
 31
0.0
210
0.0
220
0.0
230
1.0
 40
0.5672183927595438
 41
2.364703013104976
 42
3.935499339862527
1001
PE_URL
1000

  0
LINE
  5
6E4
102
{ACAD_REACTORS
102
}
330
5D6
100
AcDbEntity
  8
0
  6
Continuous
 62
     7
370
     5
100
AcDbLine
 10
218.1886781795565
 20
3.58096922184086
 30
0.0
 11
218.1886781795565
 21
4.234069213483963
 31
0.0
1001
PE_URL
1000

  0
ARC
  5
6E5
102
{ACAD_REACTORS
102
}
330
5D6
100
AcDbEntity
  8
0
  6
Continuous
 62
     7
370
     5
100
AcDbCircle
 10
211.216167917135
 20
0.5533991149877693
 30
0.0
 40
0.0873418346896072
100
AcDbArc
 50
170.7860017442641
 51
309.2030804341355
1001
PE_URL
1000

  0
ARC
  5
6E6
102
{ACAD_REACTORS
102
}
330
5D6
100
AcDbEntity
  8
0
  6
Continuous
 62
     7
370
     5
100
AcDbCircle
 10
229.7854453764176
 20
10.3235702470356
 30
0.0
 40
0.10059532723993
100
AcDbArc
 50
234.3824071895336
 51
294.3071553619965
1001
PE_URL
1000

  0
ARC
  5
6E7
102
{ACAD_REACTORS
102
}
330
5D6
100
AcDbEntity
  8
0
  6
Continuous
 62
     7
370
     5
100
AcDbCircle
 10
229.8267704531991
 20
10.3951210643736
 30
0.0
 40
0.1005873642279442
100
AcDbArc
 50
5.694777305296686
 51
65.62564794554383
1001
PE_URL
1000

  0
ARC
  5
6E8
102
{ACAD_REACTORS
102
}
330
5D6
100
AcDbEntity
  8
0
  6
Continuous
 62
     7
370
     5
100
AcDbCircle
 10
229.8267704531991
 20
41.09705487509382
 30
0.0
 40
0.1005873642280742
100
AcDbArc
 50
5.69477730632769
 51
65.62564794554383
1001
PE_URL
1000

  0
ARC
  5
6E9
102
{ACAD_REACTORS
102
}
330
5D6
100
AcDbEntity
  8
0
  6
Continuous
 62
     7
370
     5
100
AcDbCircle
 10
212.1077755833339
 20
0.1184686971846531
 30
0.0
 40
0.1005953272400822
100
AcDbArc
 50
234.3824071866424
 51
294.3071553619965
1001
PE_URL
1000

  0
ARC
  5
6EA
102
{ACAD_REACTORS
102
}
330
5D6
100
AcDbEntity
  8
0
  6
Continuous
 62
     7
370
     5
100
AcDbCircle
 10
211.9906081912941
 20
0.1184672259641957
 30
0.0
 40
0.1005938202752688
100
AcDbArc
 50
245.6923804620636
 51
305.6178335776897
1001
PE_URL
1000

  0
ARC
  5
6EB
102
{ACAD_REACTORS
102
}
330
5D6
100
AcDbEntity
  8
0
  6
Continuous
 62
     7
370
     5
100
AcDbCircle
 10
229.7759801694137
 20
41.20207293817111
 30
0.0
 40
0.093269415642402
100
AcDbArc
 50
351.7420984911308
 51
56.94541242865304
1001
PE_URL
1000

  0
LINE
  5
6EC
102
{ACAD_REACTORS
102
}
330
5D6
100
AcDbEntity
  8
0
  6
Continuous
 62
     7
370
     5
100
AcDbLine
 10
212.1491834543576
 20
0.0267909568228788
 30
0.0
 11
218.1479717325146
 21
3.489817717201731
 31
0.0
1001
PE_URL
1000

  0
LINE
  5
6ED
102
{ACAD_REACTORS
102
}
330
5D6
100
AcDbEntity
  8
0
  6
Continuous
 62
     7
370
     5
100
AcDbLine
 10
211.1713827324729
 20
0.4758156594416505
 30
0.0
 11
211.9492001978524
 21
0.0267911944338266
 31
0.0
1001
PE_URL
1000

  0
ARC
  5
6EE
102
{ACAD_REACTORS
102
}
330
5D6
100
AcDbEntity
  8
0
  6
Continuous
 62
     7
370
     5
100
AcDbCircle
 10
212.0491917495183
 20
0.200000784412623
 30
0.0
 40
0.1999999999999916
100
AcDbArc
 50
240.0026882676188
 51
299.9973117323812
1001
PE_URL
1000

  0
LINE
  5
6EF
102
{ACAD_REACTORS
102
}
330
5D6
100
AcDbEntity
  8
0
  6
Continuous
 62
     7
370
     5
100
AcDbLine
 10
217.4939138470963
 20
3.832990254757533
 30
0.0
 11
218.0497253706944
 21
3.500726944594135
 31
0.0
1001
PE_URL
1000

  0
LINE
  5
6F0
102
{ACAD_REACTORS
102
}
330
5D6
100
AcDbEntity
  8
0
  6
Continuous
 62
     7
370
     5
100
AcDbLine
 10
212.0491916203191
 20
0.0366925445505331
 30
0.0
 11
218.0497253706944
 21
3.500726944594135
 31
0.0
1001
PE_URL
1000

  0
LINE
  5
6F1
102
{ACAD_REACTORS
102
}
330
5D6
100
AcDbEntity
  8
0
  6
Continuous
 62
     7
370
     5
100
AcDbLine
 10
211.2713741549323
 20
0.4857170095656329
 30
0.0
 11
212.0491916203191
 21
0.0366925445505331
 31
0.0
1001
PE_URL
1000

  0
LINE
  5
6F2
102
{ACAD_REACTORS
102
}
330
5D6
100
AcDbEntity
  8
0
  6
Continuous
 62
     7
370
     5
100
AcDbLine
 10
211.1299528022737
 20
0.5673578186851955
 30
0.0
 11
211.2713741549323
 21
0.4857170095656329
 31
0.0
1001
PE_URL
1000

  0
ELLIPSE
  5
6F3
102
{ACAD_REACTORS
102
}
330
5D6
100
AcDbEntity
  8
0
  6
Continuous
 62
     7
370
     5
100
AcDbEllipse
 10
218.0497253137746
 20
3.664035077019435
 30
0.0
 11
-0.0974149464412335
 21
0.1746892004040888
 31
0.0
210
0.0
220
0.0
230
1.0
 40
0.5672183927598565
 41
2.364703013104635
 42
3.935499339883922
1001
PE_URL
1000

  0
LINE
  5
6F4
102
{ACAD_REACTORS
102
}
330
5D6
100
AcDbEntity
  8
0
  6
Continuous
 62
     7
370
     5
100
AcDbLine
 10
218.1886781795565
 20
3.580969221848136
 30
0.0
 11
218.1886781795565
 21
4.234069213491239
 31
0.0
1001
PE_URL
1000

  0
ARC
  5
6F5
102
{ACAD_REACTORS
102
}
330
5D6
100
AcDbEntity
  8
0
  6
Continuous
 62
     7
370
     5
100
AcDbCircle
 10
211.216167917135
 20
0.5533991149950452
 30
0.0
 40
0.087341834689551
100
AcDbArc
 50
170.7860017442641
 51
309.203080431532
1001
PE_URL
1000

  0
LINE
  5
6F6
102
{ACAD_REACTORS
102
}
330
5D6
100
AcDbEntity
  8
0
  6
Continuous
 62
     7
370
     5
100
AcDbLine
 10
210.9885316862583
 20
0.485717146186289
 30
0.0
 11
211.3420851348146
 21
0.6898192075987026
 31
0.0
1001
PE_URL
1000

  0
ARC
  5
6F7
102
{ACAD_REACTORS
102
}
330
5D6
100
AcDbEntity
  8
0
  6
Continuous
 62
     7
370
     5
100
AcDbCircle
 10
212.1077755833339
 20
0.1184686971919291
 30
0.0
 40
0.100595327240016
100
AcDbArc
 50
234.3824071866424
 51
294.3071553666261
1001
PE_URL
1000

  0
ARC
  5
6F8
102
{ACAD_REACTORS
102
}
330
5D6
100
AcDbEntity
  8
0
  6
Continuous
 62
     7
370
     5
100
AcDbCircle
 10
211.9906081912723
 20
0.1184672259641957
 30
0.0
 40
0.1005938202749814
100
AcDbArc
 50
245.6923804620636
 51
305.6178335828687
1001
PE_URL
1000

  0
ARC
  5
6F9
102
{ACAD_REACTORS
102
}
330
5D6
100
AcDbEntity
  8
0
  6
Continuous
 62
     7
370
     5
100
AcDbCircle
 10
229.7268611616255
 20
10.4051020949355
 30
0.0
 40
0.2000000000000124
100
AcDbArc
 50
299.9973117323812
 51
0.0
1001
PE_URL
1000

  0
LINE
  5
6FA
102
{ACAD_REACTORS
102
}
330
5D6
100
AcDbEntity
  8
0
  6
Continuous
 62
     7
370
     5
100
AcDbLine
 10
229.9268611616299
 20
10.4051020949355
 30
0.0
 11
229.9268611616299
 21
41.10703662184278
 31
0.0
1001
PE_URL
1000

  0
LINE
  5
6FB
102
{ACAD_REACTORS
102
}
330
5D6
100
AcDbEntity
  8
0
  6
Continuous
 62
     7
370
     5
100
AcDbLine
 10
223.8280648352684
 20
6.768865607415137
 30
0.0
 11
229.8268530348887
 21
10.23189232246114
 31
0.0
1001
PE_URL
1000

  0
LINE
  5
6FC
102
{ACAD_REACTORS
102
}
330
5D6
100
AcDbEntity
  8
0
  6
Continuous
 62
     7
370
     5
100
AcDbLine
 10
212.1491835052238
 20
0.0267909246776981
 30
0.0
 11
218.1479717048514
 21
3.489817639723697
 31
0.0
1001
PE_URL
1000

  0
LINE
  5
6FD
102
{ACAD_REACTORS
102
}
330
5D6
100
AcDbEntity
  8
0
  6
Continuous
 62
     7
370
     5
100
AcDbLine
 10
211.1713822993934
 20
0.4758153861785104
 30
0.0
 11
211.9491997586974
 21
0.0267909246776981
 31
0.0
1001
PE_URL
1000

  0
ARC
  5
6FE
102
{ACAD_REACTORS
102
}
330
5D6
100
AcDbEntity
  8
0
  6
Continuous
 62
     7
370
     5
100
AcDbCircle
 10
212.0491916319606
 20
0.2000006971520634
 30
0.0
 40
0.1999999999999708
100
AcDbArc
 50
240.0026882664557
 51
299.9973117335443
1001
PE_URL
1000

  0
LINE
  5
6FF
102
{ACAD_REACTORS
102
}
330
5D6
100
AcDbEntity
  8
0
  6
Continuous
 62
     7
370
     5
100
AcDbLine
 10
229.8268530348887
 20
41.28024639431715
 30
0.0
 11
229.0490355755846
 21
41.72927085581796
 31
0.0
1001
PE_URL
1000

  0
ARC
  5
700
102
{ACAD_REACTORS
102
}
330
5D6
100
AcDbEntity
  8
0
  6
Continuous
 62
     7
370
     5
100
AcDbCircle
 10
229.7268611616255
 20
41.10703662184278
 30
0.0
 40
0.20000000000002
100
AcDbArc
 50
0.0
 51
60.00268826761882
1001
PE_URL
1000

  0
LINE
  5
701
102
{ACAD_REACTORS
102
}
330
5D6
100
AcDbEntity
  8
0
  6
Continuous
 62
     7
370
     5
100
AcDbLine
 10
211.1299528164182
 20
0.5673578074583929
 30
0.0
 11
228.807622346083
 21
10.77245920524547
 31
0.0
1001
PE_URL
1000

  0
ARC
  5
702
102
{ACAD_REACTORS
102
}
330
5D6
100
AcDbEntity
  8
0
  6
Continuous
 62
     7
370
     5
100
AcDbCircle
 10
228.7834218382868
 20
10.94973953807312
 30
0.0
 40
0.307360961513707
100
AcDbArc
 50
302.605478339756
 51
357.394521514574
1001
PE_URL
1000

  0
LINE
  5
703
102
{ACAD_REACTORS
102
}
330
5D6
100
AcDbEntity
  8
0
  6
Continuous
 62
     7
370
     5
100
AcDbLine
 10
228.9490437023214
 20
10.69081839406317
 30
0.0
 11
228.9490437023214
 21
41.71936924572037
 31
0.0
1001
PE_URL
1000

  0
ARC
  5
704
102
{ACAD_REACTORS
102
}
330
5D6
100
AcDbEntity
  8
0
  6
Continuous
 62
     7
370
     5
100
AcDbCircle
 10
229.0042501850712
 20
41.65168733390783
 30
0.0
 40
0.0873418394857385
100
AcDbArc
 50
350.7859630083365
 51
129.2032852339938
1001
PE_URL
1000

  0
LINE
  5
705
102
{ACAD_REACTORS
102
}
330
5D6
100
AcDbEntity
  8
0
  6
Continuous
 62
     7
370
     5
100
AcDbLine
 10
229.0904650585599
 20
10.93576736762225
 30
0.0
 11
229.0904650585599
 21
41.63770189452589
 31
0.0
1001
PE_URL
1000

  0
LINE
  5
706
102
{ACAD_REACTORS
102
}
330
5D6
100
AcDbEntity
  8
0
  6
Continuous
 62
     7
370
     5
100
AcDbLine
 10
217.4939138470963
 20
3.832990254750257
 30
0.0
 11
223.1507680965897
 21
7.098622702042121
 31
0.0
1001
PE_URL
1000

  0
LINE
  5
707
102
{ACAD_REACTORS
102
}
330
5D6
100
AcDbEntity
  8
0
  6
Continuous
 62
     7
370
     5
100
AcDbLine
 10
217.4939138470963
 20
3.832990254750257
 30
0.0
 11
218.0497251962242
 21
3.500726827382096
 31
0.0
1001
PE_URL
1000

  0
LINE
  5
708
102
{ACAD_REACTORS
102
}
330
5D6
100
AcDbEntity
  8
0
  6
Continuous
 62
     7
370
     5
100
AcDbLine
 10
212.0491916319606
 20
0.036692534775284
 30
0.0
 11
218.0497251962242
 21
3.500726827382096
 31
0.0
1001
PE_URL
1000

  0
LINE
  5
709
102
{ACAD_REACTORS
102
}
330
5D6
100
AcDbEntity
  8
0
  6
Continuous
 62
     7
370
     5
100
AcDbLine
 10
211.2713741726566
 20
0.4857169962797343
 30
0.0
 11
212.0491916319606
 21
0.036692534775284
 31
0.0
1001
PE_URL
1000

  0
LINE
  5
70A
102
{ACAD_REACTORS
102
}
330
5D6
100
AcDbEntity
  8
0
  6
Continuous
 62
     7
370
     5
100
AcDbLine
 10
211.1299528164182
 20
0.5673578074583929
 30
0.0
 11
211.2713741726566
 21
0.4857169962797343
 31
0.0
1001
PE_URL
1000

  0
LINE
  5
70B
102
{ACAD_REACTORS
102
}
330
5D6
100
AcDbEntity
  8
0
  6
Continuous
 62
     7
370
     5
100
AcDbLine
 10
228.9490437023214
 20
10.69081839406317
 30
0.0
 11
228.807622346083
 21
10.77245920524547
 31
0.0
1001
PE_URL
1000

  0
LINE
  5
70C
102
{ACAD_REACTORS
102
}
330
5D6
100
AcDbEntity
  8
0
  6
Continuous
 62
     7
370
     5
100
AcDbLine
 10
229.7268611616255
 20
10.24179393256236
 30
0.0
 11
228.9490437023214
 21
10.69081839406317
 31
0.0
1001
PE_URL
1000

  0
LINE
  5
70D
102
{ACAD_REACTORS
102
}
330
5D6
100
AcDbEntity
  8
0
  6
Continuous
 62
     7
370
     5
100
AcDbLine
 10
223.7263275973619
 20
6.777759639955548
 30
0.0
 11
229.7268611616255
 21
10.24179393256236
 31
0.0
1001
PE_URL
1000

  0
LINE
  5
70E
102
{ACAD_REACTORS
102
}
330
5D6
100
AcDbEntity
  8
0
  6
Continuous
 62
     7
370
     5
100
AcDbLine
 10
223.1507680965897
 20
7.098622702042121
 30
0.0
 11
223.7263275973619
 21
6.777759639955548
 31
0.0
1001
PE_URL
1000

  0
LINE
  5
70F
102
{ACAD_REACTORS
102
}
330
5D6
100
AcDbEntity
  8
0
  6
Continuous
 62
     7
370
     5
100
AcDbLine
 10
229.0904650585599
 20
10.93576736762225
 30
0.0
 11
229.8682825178639
 21
10.48674290612144
 31
0.0
1001
PE_URL
1000

  0
ARC
  5
710
102
{ACAD_REACTORS
102
}
330
5D6
100
AcDbEntity
  8
0
  6
Continuous
 62
     7
370
     5
100
AcDbCircle
 10
229.5612392975909
 20
10.50071507657231
 30
0.0
 40
0.3073609615149109
100
AcDbArc
 50
302.6054783395732
 51
357.3945215135578
1001
PE_URL
1000

  0
LINE
  5
711
102
{ACAD_REACTORS
102
}
330
5D6
100
AcDbEntity
  8
0
  6
Continuous
 62
     7
370
     5
100
AcDbLine
 10
229.8682825178639
 20
41.18867743302144
 30
0.0
 11
229.0904650585599
 21
41.63770189452589
 31
0.0
1001
PE_URL
1000

  0
LINE
  5
712
102
{ACAD_REACTORS
102
}
330
5D6
100
AcDbEntity
  8
0
  6
Continuous
 62
     7
370
     5
100
AcDbLine
 10
229.8682825178639
 20
10.48674290612144
 30
0.0
 11
229.8682825178639
 21
41.18867743302144
 31
0.0
1001
PE_URL
1000

  0
ELLIPSE
  5
713
102
{ACAD_REACTORS
102
}
330
5D6
100
AcDbEntity
  8
0
  6
Continuous
 62
     7
370
     5
100
AcDbEllipse
 10
223.7263275973619
 20
6.941067802328689
 30
0.0
 11
-0.1026525863727556
 21
0.1716643463722676
 31
0.0
210
0.0
220
0.0
230
1.0
 40
0.5873687162543133
 41
2.347239087449792
 42
3.132555986817167
1001
PE_URL
1000

  0
ELLIPSE
  5
714
102
{ACAD_REACTORS
102
}
330
5D6
100
AcDbEntity
  8
0
  6
Continuous
 62
     7
370
     5
100
AcDbEllipse
 10
218.0497251962242
 20
3.664034989758875
 30
0.0
 11
-0.09741494644129034
 21
0.1746892004041456
 31
0.0
210
0.0
220
0.0
230
1.0
 40
0.5672183927595275
 41
2.364703013104216
 42
3.935499339928639
1001
PE_URL
1000

  0
LINE
  5
715
102
{ACAD_REACTORS
102
}
330
5D6
100
AcDbEntity
  8
0
  6
Continuous
 62
     7
370
     5
100
AcDbLine
 10
218.1886780335062
 20
3.580969132917744
 30
0.0
 11
218.1886780335062
 21
4.234069082363931
 31
0.0
1001
PE_URL
1000

  0
ARC
  5
716
102
{ACAD_REACTORS
102
}
330
5D6
100
AcDbEntity
  8
0
  6
Continuous
 62
     7
370
     5
100
AcDbCircle
 10
211.2161676899068
 20
0.5533989080959145
 30
0.0
 40
0.0873418394856741
100
AcDbArc
 50
170.7859630118701
 51
309.2032852332395
1001
PE_URL
1000

  0
ARC
  5
717
102
{ACAD_REACTORS
102
}
330
5D6
100
AcDbEntity
  8
0
  6
Continuous
 62
     7
370
     5
100
AcDbCircle
 10
229.7854451725962
 20
10.32357019838491
 30
0.0
 40
0.1005954471807688
100
AcDbArc
 50
234.3824225241604
 51
294.3071190453506
1001
PE_URL
1000

  0
ARC
  5
718
102
{ACAD_REACTORS
102
}
330
5D6
100
AcDbEntity
  8
0
  6
Continuous
 62
     7
370
     5
100
AcDbCircle
 10
229.8267697491265
 20
10.39512081955945
 30
0.0
 40
0.1005878556989259
100
AcDbArc
 50
5.694799249061806
 51
65.62534170533378
1001
PE_URL
1000

  0
ARC
  5
719
102
{ACAD_REACTORS
102
}
330
5D6
100
AcDbEntity
  8
0
  6
Continuous
 62
     7
370
     5
100
AcDbCircle
 10
229.8267697491265
 20
41.09705534645946
 30
0.0
 40
0.1005878556988379
100
AcDbArc
 50
5.694799251123807
 51
65.62534170533378
1001
PE_URL
1000

  0
ARC
  5
71A
102
{ACAD_REACTORS
102
}
330
5D6
100
AcDbEntity
  8
0
  6
Continuous
 62
     7
370
     5
100
AcDbCircle
 10
212.1077756429313
 20
0.1184688005978387
 30
0.0
 40
0.100595447180329
100
AcDbArc
 50
234.3824225247637
 51
294.3071190453506
1001
PE_URL
1000

  0
ARC
  5
71B
102
{ACAD_REACTORS
102
}
330
5D6
100
AcDbEntity
  8
0
  6
Continuous
 62
     7
370
     5
100
AcDbCircle
 10
211.99060762099
 20
0.1184688005978387
 30
0.0
 40
0.1005954471799664
100
AcDbArc
 50
245.6928809542229
 51
305.6175774758397
1001
PE_URL
1000

  0
ARC
  5
71C
102
{ACAD_REACTORS
102
}
330
5D6
100
AcDbEntity
  8
0
  6
Continuous
 62
     7
370
     5
100
AcDbCircle
 10
229.7731454062396
 20
41.20079023854669
 30
0.0
 40
0.0959051096936088
100
AcDbArc
 50
352.7441705860327
 51
55.94364901725881
1001
PE_URL
1000

  0
ENDBLK
  5
71E
330
5D6
100
AcDbEntity
  8
0
100
AcDbBlockEnd
  0
BLOCK
  5
5DC
330
5DB
100
AcDbEntity
  8
0
100
AcDbBlockBegin
  2
_OPEN30
 70
     0
 10
0.0
 20
0.0
 30
0.0
  3
_OPEN30
  1

  0
LINE
  5
5DD
330
5DB
100
AcDbEntity
  8
0
  6
ByBlock
 62
     0
100
AcDbLine
 10
-1.0
 20
0.26794919
 30
0.0
 11
0.0
 21
0.0
 31
0.0
  0
LINE
  5
5DE
330
5DB
100
AcDbEntity
  8
0
  6
ByBlock
 62
     0
100
AcDbLine
 10
0.0
 20
0.0
 30
0.0
 11
-1.0
 21
-0.26794919
 31
0.0
  0
LINE
  5
5DF
330
5DB
100
AcDbEntity
  8
0
  6
ByBlock
 62
     0
100
AcDbLine
 10
0.0
 20
0.0
 30
0.0
 11
-1.0
 21
0.0
 31
0.0
  0
ENDBLK
  5
5E0
330
5DB
100
AcDbEntity
  8
0
100
AcDbBlockEnd
  0
ENDSEC
  0
SECTION
  2
ENTITIES
  0
MTEXT
  5
308
330
1F
100
AcDbEntity
  8
寸法線
100
AcDbMText
 10
363.4799605709871
 20
193.3196167438273
 30
0.0
 40
11.66666666666667
 41
273.3522079092451
 71
     1
 72
     5
  1
{MPP-10/0300/COS45/R}
 73
     1
 44
1.0
1001
ACAD
1000
ACAD_MTEXT_DEFINED_HEIGHT_BEGIN
1070
    46
1040
11.66666666666667
1000
ACAD_MTEXT_DEFINED_HEIGHT_END
  0
INSERT
  5
71F
330
1F
100
AcDbEntity
  8
0
100
AcDbBlockReference
  2
A$C3602
 10
338.8336916676079
 20
210.8008084778473
 30
0.0
  0
ENDSEC
  0
SECTION
  2
OBJECTS
  0
DICTIONARY
  5
C
330
0
100
AcDbDictionary
281
     1
  3
ACAD_DETAILVIEWSTYLE
350
4CD
  3
ACAD_GROUP
350
D
  3
ACAD_LAYOUT
350
1A
  3
ACAD_MLINESTYLE
350
17
  3
ACAD_PLOTSETTINGS
350
19
  3
ACAD_PLOTSTYLENAME
350
E
  3
ACAD_SCALELIST
350
47
  3
ACAD_SECTIONVIEWSTYLE
350
4CE
  3
AcDbVariableDictionary
350
4C8
  3
APPDATA
350
2E4
  3
DWGPROPS
350
720
  0
DICTIONARY
  5
303
330
2
100
AcDbDictionary
280
     1
281
     1
  3
ACAD_LAYERSTATES
360
304
  0
DICTIONARY
  5
2E7
330
2E6
100
AcDbDictionary
280
     1
281
     1
  3
ADSK_XREC_LAYER_RECONCILED
360
2E8
  0
DICTIONARY
  5
4CD
102
{ACAD_REACTORS
330
C
102
}
330
C
100
AcDbDictionary
281
     1
  0
DICTIONARY
  5
D
102
{ACAD_REACTORS
330
C
102
}
330
C
100
AcDbDictionary
281
     1
  0
DICTIONARY
  5
1A
102
{ACAD_REACTORS
330
C
102
}
330
C
100
AcDbDictionary
281
     1
  3
Layout1
350
1E
  3
Layout2
350
26
  3
Model
350
22
  0
DICTIONARY
  5
17
102
{ACAD_REACTORS
330
C
102
}
330
C
100
AcDbDictionary
281
     1
  3
Standard
350
18
  0
DICTIONARY
  5
19
102
{ACAD_REACTORS
330
C
102
}
330
C
100
AcDbDictionary
281
     1
  0
ACDBDICTIONARYWDFLT
  5
E
102
{ACAD_REACTORS
330
C
102
}
330
C
100
AcDbDictionary
281
     1
  3
Normal
350
F
100
AcDbDictionaryWithDefault
340
F
  0
DICTIONARY
  5
47
102
{ACAD_REACTORS
330
C
102
}
330
C
100
AcDbDictionary
281
     1
  3
A0
350
48
  3
A1
350
49
  3
A2
350
4A
  3
A3
350
4B
  3
A4
350
4C
  3
A5
350
4D
  3
A6
350
4E
  3
A7
350
4F
  3
A8
350
50
  3
A9
350
51
  3
B0
350
52
  3
B1
350
53
  3
B2
350
54
  3
B3
350
55
  3
B4
350
56
  3
B5
350
57
  3
B6
350
58
  3
B7
350
59
  3
B8
350
5A
  3
B9
350
5B
  3
C0
350
5C
  3
C1
350
5D
  3
C2
350
5E
  3
C3
350
5F
  3
C4
350
60
  3
C5
350
61
  3
C6
350
62
  3
C7
350
63
  3
C8
350
64
  3
C9
350
65
  3
D0
350
66
  3
D1
350
67
  3
D2
350
68
  0
DICTIONARY
  5
4CE
102
{ACAD_REACTORS
330
C
102
}
330
C
100
AcDbDictionary
281
     1
  0
DICTIONARY
  5
4C8
102
{ACAD_REACTORS
330
C
102
}
330
C
100
AcDbDictionary
281
     1
  0
DICTIONARY
  5
2E4
102
{ACAD_REACTORS
330
C
102
}
330
C
100
AcDbDictionary
281
     1
  0
XRECORD
  5
720
102
{ACAD_REACTORS
330
C
102
}
330
C
100
AcDbXrecord
280
     1
  1
DWGPROPS COOKIE
  2

  3

  4

  6

  7

  8
ModuleX
  9

300
=
301
=
302
=
303
=
304
=
305
=
306
=
307
=
308
=
309
=
 40
0.0
 41
2458682.162002107
 42
2459611.325775011
  1

 90
        0
  0
DICTIONARY
  5
304
102
{ACAD_REACTORS
330
303
102
}
330
303
100
AcDbDictionary
281
     1
  0
XRECORD
  5
2E8
102
{ACAD_REACTORS
330
2E7
102
}
330
2E7
100
AcDbXrecord
280
     1
290
     1
  0
LAYOUT
  5
1E
102
{ACAD_REACTORS
330
1A
102
}
330
1A
100
AcDbPlotSettings
  1

  2
none_device
  4

  6

 40
0.0
 41
0.0
 42
0.0
 43
0.0
 44
0.0
 45
0.0
 46
0.0
 47
0.0
 48
0.0
 49
0.0
140
0.0
141
0.0
142
1.0
143
1.0
 70
   688
 72
     1
 73
     0
 74
     5
  7

 75
    16
147
1.0
148
0.0
149
0.0
100
AcDbLayout
  1
Layout1
 70
     1
 71
     1
 10
0.0
 20
0.0
 11
420.0
 21
297.0
 12
0.0
 22
0.0
 32
0.0
 14
1.000000000000000E+20
 24
1.000000000000000E+20
 34
1.000000000000000E+20
 15
-1.000000000000000E+20
 25
-1.000000000000000E+20
 35
-1.000000000000000E+20
146
0.0
 13
0.0
 23
0.0
 33
0.0
 16
1.0
 26
0.0
 36
0.0
 17
0.0
 27
1.0
 37
0.0
 76
     0
330
1B
  0
LAYOUT
  5
26
102
{ACAD_REACTORS
330
1A
102
}
330
1A
100
AcDbPlotSettings
  1

  2
none_device
  4

  6

 40
0.0
 41
0.0
 42
0.0
 43
0.0
 44
0.0
 45
0.0
 46
0.0
 47
0.0
 48
0.0
 49
0.0
140
0.0
141
0.0
142
1.0
143
1.0
 70
   688
 72
     1
 73
     0
 74
     5
  7

 75
    16
147
1.0
148
0.0
149
0.0
100
AcDbLayout
  1
Layout2
 70
     1
 71
     2
 10
0.0
 20
0.0
 11
0.0
 21
0.0
 12
0.0
 22
0.0
 32
0.0
 14
0.0
 24
0.0
 34
0.0
 15
0.0
 25
0.0
 35
0.0
146
0.0
 13
0.0
 23
0.0
 33
0.0
 16
1.0
 26
0.0
 36
0.0
 17
0.0
 27
1.0
 37
0.0
 76
     0
330
23
  0
LAYOUT
  5
22
102
{ACAD_REACTORS
330
1A
102
}
330
1A
100
AcDbPlotSettings
  1

  2
none_device
  4
Letter_(8.50_x_11.00_Inches)
  6

 40
6.35
 41
6.35
 42
6.35000508
 43
6.35000508
 44
215.9
 45
279.4
 46
0.0
 47
0.0
 48
0.0
 49
0.0
140
0.0
141
0.0
142
1.0
143
1.0
 70
  1712
 72
     1
 73
     0
 74
     0
  7

 75
     0
147
1.0
148
0.0
149
0.0
100
AcDbLayout
  1
Model
 70
     1
 71
     0
 10
0.0
 20
0.0
 11
1189.0
 21
841.0
 12
0.0
 22
0.0
 32
0.0
 14
338.8336916676097
 24
181.6529500771607
 34
0.0
 15
569.5910716820981
 25
374.4057795535773
 35
0.0
146
0.0
 13
0.0
 23
0.0
 33
0.0
 16
1.0
 26
0.0
 36
0.0
 17
0.0
 27
1.0
 37
0.0
 76
     0
330
1F
331
29
  0
MLINESTYLE
  5
18
102
{ACAD_REACTORS
330
17
102
}
330
17
100
AcDbMlineStyle
  2
Standard
 70
     0
  3

 62
   256
 51
90.0
 52
90.0
 71
     2
 49
0.5
 62
   256
  6
BYLAYER
 49
-0.5
 62
   256
  6
BYLAYER
  0
ACDBPLACEHOLDER
  5
F
102
{ACAD_REACTORS
330
E
102
}
330
E
  0
SCALE
  5
48
102
{ACAD_REACTORS
330
47
102
}
330
47
100
AcDbScale
 70
     0
300
1:1
140
1.0
141
1.0
290
     1
  0
SCALE
  5
49
102
{ACAD_REACTORS
330
47
102
}
330
47
100
AcDbScale
 70
     0
300
1:2
140
1.0
141
2.0
290
     0
  0
SCALE
  5
4A
102
{ACAD_REACTORS
330
47
102
}
330
47
100
AcDbScale
 70
     0
300
1:4
140
1.0
141
4.0
290
     0
  0
SCALE
  5
4B
102
{ACAD_REACTORS
330
47
102
}
330
47
100
AcDbScale
 70
     0
300
1:5
140
1.0
141
5.0
290
     0
  0
SCALE
  5
4C
102
{ACAD_REACTORS
330
47
102
}
330
47
100
AcDbScale
 70
     0
300
1:8
140
1.0
141
8.0
290
     0
  0
SCALE
  5
4D
102
{ACAD_REACTORS
330
47
102
}
330
47
100
AcDbScale
 70
     0
300
1:10
140
1.0
141
10.0
290
     0
  0
SCALE
  5
4E
102
{ACAD_REACTORS
330
47
102
}
330
47
100
AcDbScale
 70
     0
300
1:16
140
1.0
141
16.0
290
     0
  0
SCALE
  5
4F
102
{ACAD_REACTORS
330
47
102
}
330
47
100
AcDbScale
 70
     0
300
1:20
140
1.0
141
20.0
290
     0
  0
SCALE
  5
50
102
{ACAD_REACTORS
330
47
102
}
330
47
100
AcDbScale
 70
     0
300
1:30
140
1.0
141
30.0
290
     0
  0
SCALE
  5
51
102
{ACAD_REACTORS
330
47
102
}
330
47
100
AcDbScale
 70
     0
300
1:40
140
1.0
141
40.0
290
     0
  0
SCALE
  5
52
102
{ACAD_REACTORS
330
47
102
}
330
47
100
AcDbScale
 70
     0
300
1:50
140
1.0
141
50.0
290
     0
  0
SCALE
  5
53
102
{ACAD_REACTORS
330
47
102
}
330
47
100
AcDbScale
 70
     0
300
1:100
140
1.0
141
100.0
290
     0
  0
SCALE
  5
54
102
{ACAD_REACTORS
330
47
102
}
330
47
100
AcDbScale
 70
     0
300
2:1
140
2.0
141
1.0
290
     0
  0
SCALE
  5
55
102
{ACAD_REACTORS
330
47
102
}
330
47
100
AcDbScale
 70
     0
300
4:1
140
4.0
141
1.0
290
     0
  0
SCALE
  5
56
102
{ACAD_REACTORS
330
47
102
}
330
47
100
AcDbScale
 70
     0
300
8:1
140
8.0
141
1.0
290
     0
  0
SCALE
  5
57
102
{ACAD_REACTORS
330
47
102
}
330
47
100
AcDbScale
 70
     0
300
10:1
140
10.0
141
1.0
290
     0
  0
SCALE
  5
58
102
{ACAD_REACTORS
330
47
102
}
330
47
100
AcDbScale
 70
     0
300
100:1
140
100.0
141
1.0
290
     0
  0
SCALE
  5
59
102
{ACAD_REACTORS
330
47
102
}
330
47
100
AcDbScale
 70
     0
300
1/128" = 1'-0"
140
0.0078125
141
12.0
290
     0
  0
SCALE
  5
5A
102
{ACAD_REACTORS
330
47
102
}
330
47
100
AcDbScale
 70
     0
300
1/64" = 1'-0"
140
0.015625
141
12.0
290
     0
  0
SCALE
  5
5B
102
{ACAD_REACTORS
330
47
102
}
330
47
100
AcDbScale
 70
     0
300
1/32" = 1'-0"
140
0.03125
141
12.0
290
     0
  0
SCALE
  5
5C
102
{ACAD_REACTORS
330
47
102
}
330
47
100
AcDbScale
 70
     0
300
1/16" = 1'-0"
140
0.0625
141
12.0
290
     0
  0
SCALE
  5
5D
102
{ACAD_REACTORS
330
47
102
}
330
47
100
AcDbScale
 70
     0
300
3/32" = 1'-0"
140
0.09375
141
12.0
290
     0
  0
SCALE
  5
5E
102
{ACAD_REACTORS
330
47
102
}
330
47
100
AcDbScale
 70
     0
300
1/8" = 1'-0"
140
0.125
141
12.0
290
     0
  0
SCALE
  5
5F
102
{ACAD_REACTORS
330
47
102
}
330
47
100
AcDbScale
 70
     0
300
3/16" = 1'-0"
140
0.1875
141
12.0
290
     0
  0
SCALE
  5
60
102
{ACAD_REACTORS
330
47
102
}
330
47
100
AcDbScale
 70
     0
300
1/4" = 1'-0"
140
0.25
141
12.0
290
     0
  0
SCALE
  5
61
102
{ACAD_REACTORS
330
47
102
}
330
47
100
AcDbScale
 70
     0
300
3/8" = 1'-0"
140
0.375
141
12.0
290
     0
  0
SCALE
  5
62
102
{ACAD_REACTORS
330
47
102
}
330
47
100
AcDbScale
 70
     0
300
1/2" = 1'-0"
140
0.5
141
12.0
290
     0
  0
SCALE
  5
63
102
{ACAD_REACTORS
330
47
102
}
330
47
100
AcDbScale
 70
     0
300
3/4" = 1'-0"
140
0.75
141
12.0
290
     0
  0
SCALE
  5
64
102
{ACAD_REACTORS
330
47
102
}
330
47
100
AcDbScale
 70
     0
300
1" = 1'-0"
140
1.0
141
12.0
290
     0
  0
SCALE
  5
65
102
{ACAD_REACTORS
330
47
102
}
330
47
100
AcDbScale
 70
     0
300
1-1/2" = 1'-0"
140
1.5
141
12.0
290
     0
  0
SCALE
  5
66
102
{ACAD_REACTORS
330
47
102
}
330
47
100
AcDbScale
 70
     0
300
3" = 1'-0"
140
3.0
141
12.0
290
     0
  0
SCALE
  5
67
102
{ACAD_REACTORS
330
47
102
}
330
47
100
AcDbScale
 70
     0
300
6" = 1'-0"
140
6.0
141
12.0
290
     0
  0
SCALE
  5
68
102
{ACAD_REACTORS
330
47
102
}
330
47
100
AcDbScale
 70
     0
300
1'-0" = 1'-0"
140
12.0
141
12.0
290
     0
  0
ENDSEC
  0
EOF
