  0
SECTION
  2
HEADER
  9
$ACADVER
  1
AC1015
  9
$ACADMAINTVER
 70
     6
  9
$DWGCODEPAGE
  3
ANSI_932
  9
$INSBASE
 10
0.0
 20
0.0
 30
0.0
  9
$EXTMIN
 10
245.7402427082417
 20
235.8285602370374
 30
0.0
  9
$EXTMAX
 10
480.0645191703703
 20
441.1440055198811
 30
0.0
  9
$LIMMIN
 10
0.0
 20
0.0
  9
$LIMMAX
 10
1189.0
 20
841.0
  9
$ORTHOMODE
 70
     0
  9
$REGENMODE
 70
     1
  9
$FILLMODE
 70
     1
  9
$QTEXTMODE
 70
     0
  9
$MIRRTEXT
 70
     1
  9
$LTSCALE
 40
1.0
  9
$ATTMODE
 70
     1
  9
$TEXTSIZE
 40
3.5
  9
$TRACEWID
 40
1.0
  9
$TEXTSTYLE
  7
Standard
  9
$CLAYER
  8
0
  9
$CELTYPE
  6
ByLayer
  9
$CECOLOR
 62
   256
  9
$CELTSCALE
 40
1.0
  9
$DISPSILH
 70
     0
  9
$DIMSCALE
 40
1.0
  9
$DIMASZ
 40
3.302
  9
$DIMEXO
 40
1.0
  9
$DIMDLI
 40
3.75
  9
$DIMRND
 40
0.0
  9
$DIMDLE
 40
0.0
  9
$DIMEXE
 40
1.0
  9
$DIMTP
 40
0.0
  9
$DIMTM
 40
0.0
  9
$DIMTXT
 40
3.5
  9
$DIMCEN
 40
2.5
  9
$DIMTSZ
 40
0.0
  9
$DIMTOL
 70
     0
  9
$DIMLIM
 70
     0
  9
$DIMTIH
 70
     1
  9
$DIMTOH
 70
     1
  9
$DIMSE1
 70
     0
  9
$DIMSE2
 70
     0
  9
$DIMTAD
 70
     1
  9
$DIMZIN
 70
     0
  9
$DIMBLK
  1

  9
$DIMASO
 70
     1
  9
$DIMSHO
 70
     1
  9
$DIMPOST
  1

  9
$DIMAPOST
  1

  9
$DIMALT
 70
     0
  9
$DIMALTD
 70
     3
  9
$DIMALTF
 40
0.0393700787401575
  9
$DIMLFAC
 40
1.0
  9
$DIMTOFL
 70
     1
  9
$DIMTVP
 40
0.0
  9
$DIMTIX
 70
     0
  9
$DIMSOXD
 70
     0
  9
$DIMSAH
 70
     0
  9
$DIMBLK1
  1

  9
$DIMBLK2
  1

  9
$DIMSTYLE
  2
ISO-25
  9
$DIMCLRD
 70
     0
  9
$DIMCLRE
 70
     0
  9
$DIMCLRT
 70
     0
  9
$DIMTFAC
 40
1.0
  9
$DIMGAP
 40
1.524
  9
$DIMJUST
 70
     0
  9
$DIMSD1
 70
     0
  9
$DIMSD2
 70
     0
  9
$DIMTOLJ
 70
     0
  9
$DIMTZIN
 70
     0
  9
$DIMALTZ
 70
     0
  9
$DIMALTTZ
 70
     0
  9
$DIMUPT
 70
     0
  9
$DIMDEC
 70
     2
  9
$DIMTDEC
 70
     2
  9
$DIMALTU
 70
     2
  9
$DIMALTTD
 70
     3
  9
$DIMTXSTY
  7
Standard
  9
$DIMAUNIT
 70
     0
  9
$DIMADEC
 70
     2
  9
$DIMALTRND
 40
0.0
  9
$DIMAZIN
 70
     0
  9
$DIMDSEP
 70
    44
  9
$DIMATFIT
 70
     3
  9
$DIMFRAC
 70
     0
  9
$DIMLDRBLK
  1

  9
$DIMLUNIT
 70
     2
  9
$DIMLWD
 70
    -2
  9
$DIMLWE
 70
    -2
  9
$DIMTMOVE
 70
     0
  9
$LUNITS
 70
     2
  9
$LUPREC
 70
     2
  9
$SKETCHINC
 40
1.0
  9
$FILLETRAD
 40
10.0
  9
$AUNITS
 70
     0
  9
$AUPREC
 70
     2
  9
$MENU
  1
.
  9
$ELEVATION
 40
0.0
  9
$PELEVATION
 40
0.0
  9
$THICKNESS
 40
0.0
  9
$LIMCHECK
 70
     0
  9
$CHAMFERA
 40
0.0
  9
$CHAMFERB
 40
0.0
  9
$CHAMFERC
 40
0.0
  9
$CHAMFERD
 40
0.0
  9
$SKPOLY
 70
     0
  9
$TDCREATE
 40
2458682.539137454
  9
$TDUCREATE
 40
2458682.164137454
  9
$TDUPDATE
 40
2459611.705369688
  9
$TDUUPDATE
 40
2459611.330369688
  9
$TDINDWG
 40
0.0029158102
  9
$TDUSRTIMER
 40
0.0002894213
  9
$USRTIMER
 70
     1
  9
$ANGBASE
 50
0.0
  9
$ANGDIR
 70
     0
  9
$PDMODE
 70
     0
  9
$PDSIZE
 40
-1.0
  9
$PLINEWID
 40
0.0
  9
$SPLFRAME
 70
     0
  9
$SPLINETYPE
 70
     6
  9
$SPLINESEGS
 70
     8
  9
$HANDSEED
  5
762
  9
$SURFTAB1
 70
     6
  9
$SURFTAB2
 70
     6
  9
$SURFTYPE
 70
     6
  9
$SURFU
 70
     6
  9
$SURFV
 70
     6
  9
$UCSBASE
  2

  9
$UCSNAME
  2

  9
$UCSORG
 10
0.0
 20
0.0
 30
0.0
  9
$UCSXDIR
 10
1.0
 20
0.0
 30
0.0
  9
$UCSYDIR
 10
0.0
 20
1.0
 30
0.0
  9
$UCSORTHOREF
  2

  9
$UCSORTHOVIEW
 70
     1
  9
$UCSORGTOP
 10
0.0
 20
0.0
 30
0.0
  9
$UCSORGBOTTOM
 10
0.0
 20
0.0
 30
0.0
  9
$UCSORGLEFT
 10
0.0
 20
0.0
 30
0.0
  9
$UCSORGRIGHT
 10
0.0
 20
0.0
 30
0.0
  9
$UCSORGFRONT
 10
0.0
 20
0.0
 30
0.0
  9
$UCSORGBACK
 10
0.0
 20
0.0
 30
0.0
  9
$PUCSBASE
  2

  9
$PUCSNAME
  2

  9
$PUCSORG
 10
0.0
 20
0.0
 30
0.0
  9
$PUCSXDIR
 10
1.0
 20
0.0
 30
0.0
  9
$PUCSYDIR
 10
0.0
 20
1.0
 30
0.0
  9
$PUCSORTHOREF
  2

  9
$PUCSORTHOVIEW
 70
     0
  9
$PUCSORGTOP
 10
0.0
 20
0.0
 30
0.0
  9
$PUCSORGBOTTOM
 10
0.0
 20
0.0
 30
0.0
  9
$PUCSORGLEFT
 10
0.0
 20
0.0
 30
0.0
  9
$PUCSORGRIGHT
 10
0.0
 20
0.0
 30
0.0
  9
$PUCSORGFRONT
 10
0.0
 20
0.0
 30
0.0
  9
$PUCSORGBACK
 10
0.0
 20
0.0
 30
0.0
  9
$USERI1
 70
     0
  9
$USERI2
 70
     0
  9
$USERI3
 70
     0
  9
$USERI4
 70
     0
  9
$USERI5
 70
     0
  9
$USERR1
 40
0.0
  9
$USERR2
 40
0.0
  9
$USERR3
 40
0.0
  9
$USERR4
 40
0.0
  9
$USERR5
 40
0.0
  9
$WORLDVIEW
 70
     1
  9
$SHADEDGE
 70
     3
  9
$SHADEDIF
 70
    70
  9
$TILEMODE
 70
     1
  9
$MAXACTVP
 70
    64
  9
$PINSBASE
 10
0.0
 20
0.0
 30
0.0
  9
$PLIMCHECK
 70
     0
  9
$PEXTMIN
 10
1.000000000000000E+20
 20
1.000000000000000E+20
 30
1.000000000000000E+20
  9
$PEXTMAX
 10
-1.000000000000000E+20
 20
-1.000000000000000E+20
 30
-1.000000000000000E+20
  9
$PLIMMIN
 10
0.0
 20
0.0
  9
$PLIMMAX
 10
0.0
 20
0.0
  9
$UNITMODE
 70
     0
  9
$VISRETAIN
 70
     1
  9
$PLINEGEN
 70
     0
  9
$PSLTSCALE
 70
     1
  9
$TREEDEPTH
 70
  3020
  9
$CMLSTYLE
  2
Standard
  9
$CMLJUST
 70
     0
  9
$CMLSCALE
 40
20.0
  9
$PROXYGRAPHICS
 70
     1
  9
$MEASUREMENT
 70
     1
  9
$CELWEIGHT
370
    -1
  9
$ENDCAPS
280
     0
  9
$JOINSTYLE
280
     0
  9
$LWDISPLAY
290
     1
  9
$INSUNITS
 70
     4
  9
$HYPERLINKBASE
  1

  9
$STYLESHEET
  1

  9
$XEDIT
290
     1
  9
$CEPSNTYPE
380
     0
  9
$PSTYLEMODE
290
     1
  9
$FINGERPRINTGUID
  2
{622E7696-5225-434D-B8B4-100EF819DE16}
  9
$VERSIONGUID
  2
{FAEB1C32-E019-11D5-929B-00C0DF256EC4}
  9
$EXTNAMES
290
     1
  9
$PSVPSCALE
 40
0.0
  9
$OLESTARTUP
290
     0
  0
ENDSEC
  0
SECTION
  2
CLASSES
  0
CLASS
  1
ACDBDICTIONARYWDFLT
  2
AcDbDictionaryWithDefault
  3
ObjectDBX Classes
 90
        0
280
     0
281
     0
  0
CLASS
  1
VISUALSTYLE
  2
AcDbVisualStyle
  3
ObjectDBX Classes
 90
     4095
280
     0
281
     0
  0
CLASS
  1
MATERIAL
  2
AcDbMaterial
  3
ObjectDBX Classes
 90
     1153
280
     0
281
     0
  0
CLASS
  1
SCALE
  2
AcDbScale
  3
ObjectDBX Classes
 90
     1153
280
     0
281
     0
  0
CLASS
  1
TABLESTYLE
  2
AcDbTableStyle
  3
ObjectDBX Classes
 90
     4095
280
     0
281
     0
  0
CLASS
  1
MLEADERSTYLE
  2
AcDbMLeaderStyle
  3
ACDB_MLEADERSTYLE_CLASS
 90
     4095
280
     0
281
     0
  0
CLASS
  1
SUN
  2
AcDbSun
  3
SCENEOE
 90
     1153
280
     0
281
     0
  0
CLASS
  1
ACDBPLACEHOLDER
  2
AcDbPlaceHolder
  3
ObjectDBX Classes
 90
        0
280
     0
281
     0
  0
CLASS
  1
LAYOUT
  2
AcDbLayout
  3
ObjectDBX Classes
 90
        0
280
     0
281
     0
  0
CLASS
  1
SORTENTSTABLE
  2
AcDbSortentsTable
  3
ObjectDBX Classes
 90
        0
280
     0
281
     0
  0
CLASS
  1
DICTIONARYVAR
  2
AcDbDictionaryVar
  3
ObjectDBX Classes
 90
        0
280
     0
281
     0
  0
ENDSEC
  0
SECTION
  2
TABLES
  0
TABLE
  2
VPORT
  5
8
330
0
100
AcDbSymbolTable
 70
     1
  0
VPORT
  5
29
330
8
100
AcDbSymbolTableRecord
100
AcDbViewportTableRecord
  2
*Active
 70
     0
 10
0.0
 20
0.0
 11
1.0
 21
1.0
 12
362.9023809393075
 22
338.4862828784593
 13
0.0
 23
0.0
 14
10.0
 24
10.0
 15
10.0
 25
10.0
 16
0.0
 26
0.0
 36
1.0
 17
0.0
 27
0.0
 37
0.0
 40
209.4217541885007
 41
1.972805933250927
 42
50.0
 43
0.0
 44
0.0
 50
0.0
 51
0.0
 71
    16
 72
  2000
 73
     1
 74
     3
 75
     0
 76
     0
 77
     0
 78
     0
281
     0
 65
     1
110
0.0
120
0.0
130
0.0
111
1.0
121
0.0
131
0.0
112
0.0
122
1.0
132
0.0
 79
     1
146
0.0
  0
ENDTAB
  0
TABLE
  2
LTYPE
  5
5
330
0
100
AcDbSymbolTable
 70
     6
  0
LTYPE
  5
14
330
5
100
AcDbSymbolTableRecord
100
AcDbLinetypeTableRecord
  2
ByBlock
 70
     0
  3

 72
    65
 73
     0
 40
0.0
  0
LTYPE
  5
15
330
5
100
AcDbSymbolTableRecord
100
AcDbLinetypeTableRecord
  2
ByLayer
 70
     0
  3

 72
    65
 73
     0
 40
0.0
  0
LTYPE
  5
16
330
5
100
AcDbSymbolTableRecord
100
AcDbLinetypeTableRecord
  2
Continuous
 70
     0
  3
Solid line
 72
    65
 73
     0
 40
0.0
  0
LTYPE
  5
6E
330
5
100
AcDbSymbolTableRecord
100
AcDbLinetypeTableRecord
  2
HIDDEN
 70
     0
  3
Hidden __ __ __ __ __ __ __ __ __ __ __ __ __ __
 72
    65
 73
     2
 40
1.905
 49
1.27
 74
     0
 49
-0.635
 74
     0
  0
LTYPE
  5
6F
330
5
100
AcDbSymbolTableRecord
100
AcDbLinetypeTableRecord
  2
PHANTOM
 70
     0
  3
Phantom ______  __  __  ______  __  __  ______
 72
    65
 73
     6
 40
12.7
 49
6.35
 74
     0
 49
-1.27
 74
     0
 49
1.27
 74
     0
 49
-1.27
 74
     0
 49
1.27
 74
     0
 49
-1.27
 74
     0
  0
LTYPE
  5
70
330
5
100
AcDbSymbolTableRecord
100
AcDbLinetypeTableRecord
  2
CENTER
 70
     0
  3
Center ____ _ ____ _ ____ _ ____ _ ____ _ ____
 72
    65
 73
     4
 40
10.16
 49
6.35
 74
     0
 49
-1.27
 74
     0
 49
1.27
 74
     0
 49
-1.27
 74
     0
  0
LTYPE
  5
71
330
5
100
AcDbSymbolTableRecord
100
AcDbLinetypeTableRecord
  2
CENTERX2
 70
     0
  3
Center (2x) ________  __  ________  __  _____
 72
    65
 73
     4
 40
20.32
 49
12.7
 74
     0
 49
-2.54
 74
     0
 49
2.54
 74
     0
 49
-2.54
 74
     0
  0
LTYPE
  5
72
330
5
100
AcDbSymbolTableRecord
100
AcDbLinetypeTableRecord
  2
DOT2
 70
     0
  3
Dot (.5x) ........................................
 72
    65
 73
     2
 40
0.635
 49
0.0
 74
     0
 49
-0.635
 74
     0
  0
ENDTAB
  0
TABLE
  2
LAYER
  5
2
102
{ACAD_XDICTIONARY
360
308
102
}
330
0
100
AcDbSymbolTable
 70
     3
  0
LAYER
  5
10
330
2
100
AcDbSymbolTableRecord
100
AcDbLayerTableRecord
  2
0
 70
     0
 62
     7
  6
Continuous
370
    -3
390
F
  0
LAYER
  5
73
330
2
100
AcDbSymbolTableRecord
100
AcDbLayerTableRecord
  2
FORMAT
 70
     0
 62
     7
  6
Continuous
370
    -3
390
F
  0
LAYER
  5
2E8
102
{ACAD_XDICTIONARY
360
2E9
102
}
330
2
100
AcDbSymbolTableRecord
100
AcDbLayerTableRecord
  2
寸法線
 70
     0
 62
     7
  6
Continuous
370
    -3
390
F
  0
ENDTAB
  0
TABLE
  2
STYLE
  5
3
330
0
100
AcDbSymbolTable
 70
     3
  0
STYLE
  5
11
330
3
100
AcDbSymbolTableRecord
100
AcDbTextStyleTableRecord
  2
Standard
 70
     0
 40
0.0
 41
1.0
 50
0.0
 71
     0
 42
3.5
  3
txt
  4
bigfont
  0
STYLE
  5
E1
330
3
100
AcDbSymbolTableRecord
100
AcDbTextStyleTableRecord
  2
SLDTEXTSTYLE0
 70
     0
 40
0.0
 41
0.75
 50
0.0
 71
     0
 42
3.5
  3
TXT
  4
bigfont
  0
STYLE
  5
135
330
3
100
AcDbSymbolTableRecord
100
AcDbTextStyleTableRecord
  2
SLDTEXTSTYLE1
 70
     0
 40
0.0
 41
0.65625
 50
0.0
 71
     0
 42
3.5
  3
TXT
  4
bigfont
  0
ENDTAB
  0
TABLE
  2
VIEW
  5
6
330
0
100
AcDbSymbolTable
 70
     0
  0
ENDTAB
  0
TABLE
  2
UCS
  5
7
330
0
100
AcDbSymbolTable
 70
     0
  0
ENDTAB
  0
TABLE
  2
APPID
  5
9
330
0
100
AcDbSymbolTable
 70
     5
  0
APPID
  5
12
330
9
100
AcDbSymbolTableRecord
100
AcDbRegAppTableRecord
  2
ACAD
 70
     0
  0
APPID
  5
2F4
330
9
100
AcDbSymbolTableRecord
100
AcDbRegAppTableRecord
  2
ACAD_DSTYLE_DIMJAG
 70
     0
  0
APPID
  5
2F5
330
9
100
AcDbSymbolTableRecord
100
AcDbRegAppTableRecord
  2
ACAD_DSTYLE_DIMTALN
 70
     0
  0
APPID
  5
2FE
330
9
100
AcDbSymbolTableRecord
100
AcDbRegAppTableRecord
  2
ACAD_PSEXT
 70
     0
  0
APPID
  5
683
330
9
100
AcDbSymbolTableRecord
100
AcDbRegAppTableRecord
  2
PE_URL
 70
     0
  0
ENDTAB
  0
TABLE
  2
DIMSTYLE
  5
A
330
0
100
AcDbSymbolTable
 70
     8
100
AcDbDimStyleTable
  0
DIMSTYLE
105
27
330
A
100
AcDbSymbolTableRecord
100
AcDbDimStyleTableRecord
  2
ISO-25
 70
     0
 41
2.5
 42
0.625
 43
3.75
 44
1.25
 73
     0
 74
     0
 77
     1
 78
     8
140
2.5
141
2.5
143
0.03937007874016
147
0.625
171
     3
172
     1
178
     0
271
     2
272
     2
274
     3
278
    44
283
     0
284
     8
340
11
  0
DIMSTYLE
105
2EC
330
A
100
AcDbSymbolTableRecord
100
AcDbDimStyleTableRecord
  2
STANDARD
 70
     0
 41
2.5
 42
1.5
 44
1.0
 73
     0
 74
     0
 77
     3
 78
     8
 79
     2
140
2.500000000000003
141
0.0
147
1.0
171
     0
172
     1
173
     1
176
     8
177
     8
271
     2
178
   256
179
     2
271
     2
272
     2
274
     0
289
     1
340
11
341
2EE
343
2EE
344
2EE
1001
ACAD_DSTYLE_DIMJAG
1070
   388
1040
1.5
1001
ACAD_DSTYLE_DIMTALN
1070
   392
1070
     0
  0
DIMSTYLE
105
2F6
330
A
100
AcDbSymbolTableRecord
100
AcDbDimStyleTableRecord
  2
STANDARD$0
 70
     0
 41
2.5
 42
1.0
 43
4.0
 44
1.0
 73
     0
 74
     0
 77
     1
 78
     8
140
2.5
145
1.0
147
0.9999999999999991
171
     0
172
     1
176
     8
177
     8
271
     2
178
   256
271
     2
272
     2
274
     0
284
     8
289
     1
340
11
341
2F7
342
2EE
371
    -1
372
    -1
1001
ACAD_DSTYLE_DIMJAG
1070
   388
1040
1.5
1001
ACAD_DSTYLE_DIMTALN
1070
   392
1070
     0
  0
DIMSTYLE
105
2FD
330
A
100
AcDbSymbolTableRecord
100
AcDbDimStyleTableRecord
  2
STANDARD-1
 70
     0
 41
4.0
 42
3.0
 43
2.0
 44
2.0
 73
     0
 74
     0
 77
     3
 78
     8
 79
     2
140
5.0
141
0.0
147
2.0
172
     1
176
   252
177
   252
178
     0
179
     2
271
     2
272
     2
288
     1
289
     0
340
11
341
2EE
342
2EE
1001
ACAD_DSTYLE_DIMJAG
1070
   388
1040
1.5
1001
ACAD_DSTYLE_DIMTALN
1070
   392
1070
     0
  0
DIMSTYLE
105
676
330
A
100
AcDbSymbolTableRecord
100
AcDbDimStyleTableRecord
  2
SLDDIMSTYLE1
 70
     0
 41
2.5
 44
0.0
 45
0.000000001
 47
0.4
 48
0.4
 71
     1
 73
     0
 74
     0
 77
     3
 78
    12
 79
     3
140
4.0
147
1.0
173
     1
178
     0
271
     1
272
     1
276
     2
284
     8
340
E1
341
678
343
678
344
678
  0
DIMSTYLE
105
67E
330
A
100
AcDbSymbolTableRecord
100
AcDbDimStyleTableRecord
  2
SLDDIMSTYLE3
 70
     0
 41
2.5
 44
0.0
 45
0.000000001
146
2.5
147
0.0
173
     1
178
     0
271
     0
272
     0
276
     2
340
11
341
678
343
678
344
678
  0
DIMSTYLE
105
67F
330
A
100
AcDbSymbolTableRecord
100
AcDbDimStyleTableRecord
  2
SLDDIMSTYLE4
 70
     0
 41
2.5
 44
0.0
 45
0.000000001
 47
2.0
 48
2.0
 71
     1
 73
     0
 74
     0
 77
     3
 78
    12
 79
     3
140
4.0
147
1.0
172
     1
173
     1
178
     0
271
     2
272
     2
276
     2
284
     8
289
     0
340
E1
341
678
343
678
344
678
  0
DIMSTYLE
105
680
330
A
100
AcDbSymbolTableRecord
100
AcDbDimStyleTableRecord
  2
STANDARD$2
 70
     0
 41
2.5
 42
1.5
 43
7.0
 44
1.0
 45
0.0
 73
     0
 74
     0
 77
     3
 78
     8
 79
     2
140
3.0
141
0.0
146
0.6
147
1.0
171
     0
172
     1
176
     8
177
     8
271
     3
178
   256
179
     3
271
     3
272
     3
274
     0
284
     8
285
     8
286
     8
289
     0
340
11
341
678
342
678
1001
ACAD_DSTYLE_DIMJAG
1070
   388
1040
1.5
1001
ACAD_DSTYLE_DIMTALN
1070
   392
1070
     0
  0
ENDTAB
  0
TABLE
  2
BLOCK_RECORD
  5
1
330
0
100
AcDbSymbolTable
 70
     6
  0
BLOCK_RECORD
  5
1F
330
1
100
AcDbSymbolTableRecord
100
AcDbBlockTableRecord
  2
*Model_Space
340
22
  0
BLOCK_RECORD
  5
1B
330
1
100
AcDbSymbolTableRecord
100
AcDbBlockTableRecord
  2
*Paper_Space
340
1E
  0
BLOCK_RECORD
  5
23
330
1
100
AcDbSymbolTableRecord
100
AcDbBlockTableRecord
  2
*Paper_Space0
340
26
  0
BLOCK_RECORD
  5
142
330
1
100
AcDbSymbolTableRecord
100
AcDbBlockTableRecord
  2
SW_NOTE_0
340
0
  0
BLOCK_RECORD
  5
2EE
330
1
100
AcDbSymbolTableRecord
100
AcDbBlockTableRecord
  2
_OPEN
340
0
  0
BLOCK_RECORD
  5
2F7
330
1
100
AcDbSymbolTableRecord
100
AcDbBlockTableRecord
  2
SUN
340
0
  0
BLOCK_RECORD
  5
673
330
1
100
AcDbSymbolTableRecord
100
AcDbBlockTableRecord
  2
A$C8394
340
0
102
{BLKREFS
331
760
102
}
  0
BLOCK_RECORD
  5
678
330
1
100
AcDbSymbolTableRecord
100
AcDbBlockTableRecord
  2
_OPEN30
340
0
  0
ENDTAB
  0
ENDSEC
  0
SECTION
  2
BLOCKS
  0
BLOCK
  5
20
330
1F
100
AcDbEntity
  8
0
100
AcDbBlockBegin
  2
*Model_Space
 70
     0
 10
0.0
 20
0.0
 30
0.0
  3
*Model_Space
  1

  0
ENDBLK
  5
21
330
1F
100
AcDbEntity
  8
0
100
AcDbBlockEnd
  0
BLOCK
  5
1C
330
1B
100
AcDbEntity
 67
     1
  8
0
100
AcDbBlockBegin
  2
*Paper_Space
 70
     0
 10
0.0
 20
0.0
 30
0.0
  3
*Paper_Space
  1

  0
ENDBLK
  5
1D
330
1B
100
AcDbEntity
 67
     1
  8
0
100
AcDbBlockEnd
  0
BLOCK
  5
24
330
23
100
AcDbEntity
  8
0
100
AcDbBlockBegin
  2
*Paper_Space0
 70
     0
 10
0.0
 20
0.0
 30
0.0
  3
*Paper_Space0
  1

  0
ENDBLK
  5
25
330
23
100
AcDbEntity
  8
0
100
AcDbBlockEnd
  0
BLOCK
  5
143
330
142
100
AcDbEntity
  8
0
100
AcDbBlockBegin
  2
SW_NOTE_0
 70
     0
 10
0.0
 20
0.0
 30
0.0
  3
SW_NOTE_0
  1

  0
MTEXT
  5
145
330
142
100
AcDbEntity
  8
0
  6
Continuous
 62
     0
370
     0
100
AcDbMText
 10
0.0
 20
1.933601609657942
 30
0.0
 40
1.5
 41
0.0
 71
     1
 72
     1
  1
指示なき場合：
  7
SLDTEXTSTYLE0
 73
     1
 44
1.0
  0
MTEXT
  5
146
330
142
100
AcDbEntity
  8
0
  6
Continuous
 62
     0
370
     0
100
AcDbMText
 10
0.0
 20
-0.5663983344627033
 30
0.0
 40
1.5
 41
0.0
 71
     1
 72
     1
  1
寸法はミリメータとする　
  7
SLDTEXTSTYLE0
 73
     1
 44
1.0
  0
MTEXT
  5
147
330
142
100
AcDbEntity
  8
0
  6
Continuous
 62
     0
370
     0
100
AcDbMText
 10
0.0
 20
-3.066398278583349
 30
0.0
 40
1.5
 41
0.0
 71
     1
 72
     1
  1
表面粗さ：
  7
SLDTEXTSTYLE0
 73
     1
 44
1.0
  0
MTEXT
  5
148
330
142
100
AcDbEntity
  8
0
  6
Continuous
 62
     0
370
     0
100
AcDbMText
 10
0.0
 20
-5.566398222703994
 30
0.0
 40
1.5
 41
0.0
 71
     1
 72
     1
  1
　公差　：
  7
SLDTEXTSTYLE0
 73
     1
 44
1.0
  0
MTEXT
  5
149
330
142
100
AcDbEntity
  8
0
  6
Continuous
 62
     0
370
     0
100
AcDbMText
 10
0.0
 20
-8.06639816682464
 30
0.0
 40
1.5
 41
0.0
 71
     1
 72
     1
  1
　寸法　：
  7
SLDTEXTSTYLE0
 73
     1
 44
1.0
  0
MTEXT
  5
14A
330
142
100
AcDbEntity
  8
0
  6
Continuous
 62
     0
370
     0
100
AcDbMText
 10
0.0
 20
-10.56639811094528
 30
0.0
 40
1.5
 41
0.0
 71
     1
 72
     1
  1
　角度　：
  7
SLDTEXTSTYLE0
 73
     1
 44
1.0
  0
ENDBLK
  5
144
330
142
100
AcDbEntity
  8
0
100
AcDbBlockEnd
  0
BLOCK
  5
2EF
330
2EE
100
AcDbEntity
  8
0
100
AcDbBlockBegin
  2
_OPEN
 70
     0
 10
0.0
 20
0.0
 30
0.0
  3
_OPEN
  1

  0
LINE
  5
2F0
330
2EE
100
AcDbEntity
  8
0
  6
ByBlock
 62
     0
100
AcDbLine
 10
-1.0
 20
0.1666666666666667
 30
0.0
 11
0.0
 21
0.0
 31
0.0
  0
LINE
  5
2F1
330
2EE
100
AcDbEntity
  8
0
  6
ByBlock
 62
     0
100
AcDbLine
 10
0.0
 20
0.0
 30
0.0
 11
-1.0
 21
-0.1666666666666667
 31
0.0
  0
LINE
  5
2F2
330
2EE
100
AcDbEntity
  8
0
  6
ByBlock
 62
     0
100
AcDbLine
 10
0.0
 20
0.0
 30
0.0
 11
-1.0
 21
0.0
 31
0.0
  0
ENDBLK
  5
2F3
330
2EE
100
AcDbEntity
  8
0
100
AcDbBlockEnd
  0
BLOCK
  5
2F8
330
2F7
100
AcDbEntity
  8
0
100
AcDbBlockBegin
  2
SUN
 70
     0
 10
0.0
 20
0.0
 30
0.0
  3
SUN
  1

  0
LINE
  5
2F9
330
2F7
100
AcDbEntity
  8
0
100
AcDbLine
 10
-0.0000000000000568
 20
0.0
 30
0.0
 11
-1.500000000000057
 21
0.0
 31
0.0
  0
LINE
  5
2FA
330
2F7
100
AcDbEntity
  8
0
100
AcDbLine
 10
-0.0000000000000568
 20
0.0000000000000284
 30
0.0
 11
-1.500000000000057
 21
0.401923788646684
 31
0.0
  0
LINE
  5
2FB
330
2F7
100
AcDbEntity
  8
0
100
AcDbLine
 10
-0.0000000000000568
 20
0.0000000000000284
 30
0.0
 11
-1.500000000000057
 21
-0.4019237886466556
 31
0.0
  0
ENDBLK
  5
2FC
330
2F7
100
AcDbEntity
  8
0
100
AcDbBlockEnd
  0
BLOCK
  5
75E
330
673
100
AcDbEntity
  8
0
100
AcDbBlockBegin
  2
A$C8394
 70
     0
 10
0.0
 20
0.0
 30
0.0
  3
A$C8394
  1

  0
ARC
  5
68B
330
673
100
AcDbEntity
  8
0
  6
Continuous
 62
     7
370
     5
100
AcDbCircle
 10
0.2000000000007276
 20
122.497935151041
 30
0.0
 40
0.2000000000000126
100
AcDbArc
 50
180.0
 51
240.0026882664557
1001
PE_URL
1000

  0
LINE
  5
68C
330
673
100
AcDbEntity
  8
0
  6
Continuous
 62
     7
370
     5
100
AcDbLine
 10
0.000000000003638
 20
153.1998696779447
 30
0.0
 11
0.000000000003638
 21
122.497935151041
 31
0.0
1001
PE_URL
1000

  0
LINE
  5
68D
330
673
100
AcDbEntity
  8
0
  6
Continuous
 62
     7
370
     5
100
AcDbLine
 10
0.1000081267375208
 20
122.3247253785648
 30
0.0
 11
0.8778255860452191
 21
121.8757009170622
 31
0.0
1001
PE_URL
1000

  0
ARC
  5
68E
330
673
100
AcDbEntity
  8
0
  6
Continuous
 62
     7
370
     5
100
AcDbCircle
 10
17.87766952966558
 20
163.404971075729
 30
0.0
 40
0.2000000000000126
100
AcDbArc
 50
60.00268826645569
 51
119.9973117335443
1001
PE_URL
1000

  0
LINE
  5
68F
330
673
100
AcDbEntity
  8
0
  6
Continuous
 62
     7
370
     5
100
AcDbLine
 10
17.77767765640237
 20
163.5781808482052
 30
0.0
 11
16.50488545026747
 21
162.8434135475645
 31
0.0
1001
PE_URL
1000

  0
LINE
  5
690
330
673
100
AcDbEntity
  8
0
  6
Continuous
 62
     7
370
     5
100
AcDbLine
 10
18.75547886223285
 20
163.1291563867026
 30
0.0
 11
17.97766140292879
 21
163.5781808482052
 31
0.0
1001
PE_URL
1000

  0
LINE
  5
691
330
673
100
AcDbEntity
  8
0
  6
Continuous
 62
     7
370
     5
100
AcDbLine
 10
7.147238932935579
 20
147.2486009018303
 30
0.0
 11
5.367685123557749
 21
148.4246183903178
 31
0.0
1001
PE_URL
1000

  0
LINE
  5
692
330
673
100
AcDbEntity
  8
0
  6
Continuous
 62
     7
370
     5
100
AcDbLine
 10
3.623393744841451
 20
151.7806855321778
 30
0.0
 11
2.562733573064179
 21
152.392991616045
 31
0.0
1001
PE_URL
1000

  0
LINE
  5
693
330
673
100
AcDbEntity
  8
0
  6
Continuous
 62
     7
370
     5
100
AcDbLine
 10
1.372800332876068
 20
154.1078467510615
 30
0.0
 11
0.1000081267375208
 21
153.3730794504208
 31
0.0
1001
PE_URL
1000

  0
ARC
  5
694
330
673
100
AcDbEntity
  8
0
  6
Continuous
 62
     7
370
     5
100
AcDbCircle
 10
0.2000000000007276
 20
153.1998696779447
 30
0.0
 40
0.2000000000000064
100
AcDbArc
 50
119.9973117335443
 51
180.0
1001
PE_URL
1000

  0
ARC
  5
695
330
673
100
AcDbEntity
  8
0
  6
Continuous
 62
     7
370
     5
100
AcDbCircle
 10
229.7268611731561
 20
10.40510139778326
 30
0.0
 40
0.1999999999999977
100
AcDbArc
 50
299.9973117335443
 51
0.0
1001
PE_URL
1000

  0
LINE
  5
696
330
673
100
AcDbEntity
  8
0
  6
Continuous
 62
     7
370
     5
100
AcDbLine
 10
229.9268611731568
 20
10.40510139778326
 30
0.0
 11
229.9268611731568
 21
41.10703592468781
 31
0.0
1001
PE_URL
1000

  0
LINE
  5
697
330
673
100
AcDbEntity
  8
0
  6
Continuous
 62
     7
370
     5
100
AcDbLine
 10
226.0791871168403
 20
8.068410135158956
 30
0.0
 11
229.8268530464193
 21
10.23189162530707
 31
0.0
1001
PE_URL
1000

  0
LINE
  5
698
330
673
100
AcDbEntity
  8
0
  6
Continuous
 62
     7
370
     5
100
AcDbLine
 10
211.1713823109239
 20
0.4758146890253556
 30
0.0
 11
211.9491997702316
 21
0.0267902275227243
 31
0.0
1001
PE_URL
1000

  0
LINE
  5
699
330
673
100
AcDbEntity
  8
0
  6
Continuous
 62
     7
370
     5
100
AcDbLine
 10
212.1491835167581
 20
0.0267902275227243
 30
0.0
 11
212.4129775108595
 21
0.1790752588403848
 31
0.0
1001
PE_URL
1000

  0
ARC
  5
69A
330
673
100
AcDbEntity
  8
0
  6
Continuous
 62
     7
370
     5
100
AcDbCircle
 10
212.0491916434949
 20
0.1999999999989086
 30
0.0
 40
0.2000000000000119
100
AcDbArc
 50
240.0026882664557
 51
299.9973117335443
1001
PE_URL
1000

  0
LINE
  5
69B
330
673
100
AcDbEntity
  8
0
  6
Continuous
 62
     7
370
     5
100
AcDbLine
 10
229.8268530464193
 20
41.28024569716399
 30
0.0
 11
229.0490355871152
 21
41.72927015866662
 31
0.0
1001
PE_URL
1000

  0
ARC
  5
69C
330
673
100
AcDbEntity
  8
0
  6
Continuous
 62
     7
370
     5
100
AcDbCircle
 10
229.7268611731561
 20
41.10703592468781
 30
0.0
 40
0.1999999999999915
100
AcDbArc
 50
0.0
 51
60.00268826645569
1001
PE_URL
1000

  0
LINE
  5
69D
330
673
100
AcDbEntity
  8
0
  6
Continuous
 62
     7
370
     5
100
AcDbLine
 10
14.44062309161745
 20
134.9073720738606
 30
0.0
 11
8.878053042299143
 21
138.1185754109465
 31
0.0
1001
PE_URL
1000

  0
LINE
  5
69E
330
673
100
AcDbEntity
  8
0
  6
Continuous
 62
     7
370
     5
100
AcDbLine
 10
9.310642078089586
 20
148.4975069538159
 30
0.0
 11
3.623393744845089
 21
151.7806855321778
 31
0.0
1001
PE_URL
1000

  0
SPLINE
  5
69F
330
673
100
AcDbEntity
  8
0
  6
Continuous
 62
     7
370
     5
100
AcDbSpline
210
0.0
220
0.0
230
1.0
 70
     8
 71
     3
 72
     9
 73
     5
 74
     0
 42
0.000000001
 43
0.00000001
 40
0.0
 40
0.0
 40
0.0
 40
0.0
 40
0.3739117899940256
 40
1.0
 40
1.0
 40
1.0
 40
1.0
 10
7.591299087336665
 20
147.4568512409642
 30
0.0
 10
7.508338717216247
 20
147.4646507118332
 30
0.0
 10
7.286467216130404
 20
147.4855098317585
 30
0.0
 10
7.080059221781994
 20
147.4196389278313
 30
0.0
 10
6.950829610064829
 20
147.3783979315012
 30
0.0
1001
PE_URL
1000

  0
LINE
  5
6A0
330
673
100
AcDbEntity
  8
0
  6
Continuous
 62
     7
370
     5
100
AcDbLine
 10
3.886924501148314
 20
135.4163898685183
 30
0.0
 11
3.74550314490989
 21
135.4980306797006
 31
0.0
1001
PE_URL
1000

  0
LINE
  5
6A1
330
673
100
AcDbEntity
  8
0
  6
Continuous
 62
     7
370
     5
100
AcDbLine
 10
1.745665679638478
 20
132.0338352301778
 30
0.0
 11
1.887087035876903
 21
131.9521944189955
 31
0.0
1001
PE_URL
1000

  0
LINE
  5
6A2
330
673
100
AcDbEntity
  8
0
  6
Continuous
 62
     7
370
     5
100
AcDbLine
 10
2.988867762582231
 20
134.2427545406135
 30
0.0
 11
3.360143972309743
 21
133.9084100262025
 31
0.0
1001
PE_URL
1000

  0
LINE
  5
6A3
330
673
100
AcDbEntity
  8
0
  6
Continuous
 62
     7
370
     5
100
AcDbLine
 10
2.929432175384136
 20
133.1625367914821
 30
0.0
 11
2.45425389724187
 21
133.3168485371298
 31
0.0
1001
PE_URL
1000

  0
LINE
  5
6A4
330
673
100
AcDbEntity
  8
0
  6
Continuous
 62
     7
370
     5
100
AcDbLine
 10
16.19058249379668
 20
147.4183853126906
 30
0.0
 11
16.04916113755826
 21
147.5000261238729
 31
0.0
1001
PE_URL
1000

  0
LINE
  5
6A5
330
673
100
AcDbEntity
  8
0
  6
Continuous
 62
     7
370
     5
100
AcDbLine
 10
14.04932367228685
 20
144.0358306743492
 30
0.0
 11
14.19074502852163
 21
143.9541898631669
 31
0.0
1001
PE_URL
1000

  0
LINE
  5
6A6
330
673
100
AcDbEntity
  8
0
  6
Continuous
 62
     7
370
     5
100
AcDbLine
 10
15.29252575522696
 20
146.2447499847849
 30
0.0
 11
15.66380196495811
 21
145.9104054703748
 31
0.0
1001
PE_URL
1000

  0
LINE
  5
6A7
330
673
100
AcDbEntity
  8
0
  6
Continuous
 62
     7
370
     5
100
AcDbLine
 10
15.23309016802887
 20
145.1645322356544
 30
0.0
 11
14.7579118898866
 21
145.3188439813021
 31
0.0
1001
PE_URL
1000

  0
ARC
  5
6A8
330
673
100
AcDbEntity
  8
0
  6
Continuous
 62
     7
370
     5
100
AcDbCircle
 10
17.87766952966558
 20
132.5117351430163
 30
0.0
 40
0.3074043815823183
100
AcDbArc
 50
62.609672236361
 51
117.390327763639
1001
PE_URL
1000

  0
ARC
  5
6A9
330
673
100
AcDbEntity
  8
0
  6
Continuous
 62
     7
370
     5
100
AcDbCircle
 10
17.71204766563096
 20
132.7986495304594
 30
0.0
 40
0.307360961514362
100
AcDbArc
 50
302.6054783396646
 51
357.3945215142353
1001
PE_URL
1000

  0
ARC
  5
6AA
330
673
100
AcDbEntity
  8
0
  6
Continuous
 62
     7
370
     5
100
AcDbCircle
 10
18.0432913937002
 20
132.7986495304594
 30
0.0
 40
0.3073609615143536
100
AcDbArc
 50
182.6054784857647
 51
237.3945216603354
1001
PE_URL
1000

  0
LINE
  5
6AB
330
673
100
AcDbEntity
  8
0
  6
Continuous
 62
     7
370
     5
100
AcDbLine
 10
17.73624817342716
 20
132.7846773600068
 30
0.0
 11
17.73624817342716
 21
163.4866118869113
 31
0.0
1001
PE_URL
1000

  0
ARC
  5
6AC
330
673
100
AcDbEntity
  8
0
  6
Continuous
 62
     7
370
     5
100
AcDbCircle
 10
17.87766952966558
 20
163.2136696699199
 30
0.0
 40
0.3074043815823688
100
AcDbArc
 50
62.609672236361
 51
117.390327763639
1001
PE_URL
1000

  0
LINE
  5
6AD
330
673
100
AcDbEntity
  8
0
  6
Continuous
 62
     7
370
     5
100
AcDbLine
 10
18.01909088590401
 20
163.4866118869113
 30
0.0
 11
18.01909088590401
 21
132.7846773600068
 31
0.0
1001
PE_URL
1000

  0
LINE
  5
6AE
330
673
100
AcDbEntity
  8
0
  6
Continuous
 62
     7
370
     5
100
AcDbLine
 10
13.98858224384821
 20
130.6211958698586
 30
0.0
 11
17.73624817342716
 21
132.7846773600068
 31
0.0
1001
PE_URL
1000

  0
LINE
  5
6AF
330
673
100
AcDbEntity
  8
0
  6
Continuous
 62
     7
370
     5
100
AcDbLine
 10
17.87766952966558
 20
132.5397283864477
 30
0.0
 11
14.13000360008664
 21
130.3762468962996
 31
0.0
1001
PE_URL
1000

  0
ARC
  5
6B0
330
673
100
AcDbEntity
  8
0
  6
Continuous
 62
     7
370
     5
100
AcDbCircle
 10
14.29562546412126
 20
130.6351680403104
 30
0.0
 40
0.3073609615144657
100
AcDbArc
 50
182.6054784855953
 51
237.3945216603354
1001
PE_URL
1000

  0
ARC
  5
6B1
330
673
100
AcDbEntity
  8
0
  6
Continuous
 62
     7
370
     5
100
AcDbCircle
 10
18.48986512493502
 20
132.3496250689568
 30
0.0
 40
0.3073609615145252
100
AcDbArc
 50
302.6054783396646
 51
357.3945215142353
1001
PE_URL
1000

  0
LINE
  5
6B2
330
673
100
AcDbEntity
  8
0
  6
Continuous
 62
     7
370
     5
100
AcDbLine
 10
18.65548698896964
 20
132.090703924945
 30
0.0
 11
17.87766952966558
 21
132.5397283864477
 31
0.0
1001
PE_URL
1000

  0
LINE
  5
6B3
330
673
100
AcDbEntity
  8
0
  6
Continuous
 62
     7
370
     5
100
AcDbLine
 10
18.01909088590401
 20
132.7846773600068
 30
0.0
 11
18.79690834520807
 21
132.3356528985041
 31
0.0
1001
PE_URL
1000

  0
LINE
  5
6B4
330
673
100
AcDbEntity
  8
0
  6
Continuous
 62
     7
370
     5
100
AcDbLine
 10
18.79690834520807
 20
132.3356528985041
 30
0.0
 11
18.79690834520807
 21
163.0375874254087
 31
0.0
1001
PE_URL
1000

  0
LINE
  5
6B5
330
673
100
AcDbEntity
  8
0
  6
Continuous
 62
     7
370
     5
100
AcDbLine
 10
18.79690834520807
 20
163.0375874254087
 30
0.0
 11
18.01909088590401
 21
163.4866118869113
 31
0.0
1001
PE_URL
1000

  0
LWPOLYLINE
  5
6B6
330
673
100
AcDbEntity
  8
0
  6
Continuous
 62
     7
370
     5
100
AcDbPolyline
 90
       17
 70
   128
 43
0.0
 10
16.60487732353067
 20
146.6659773221145
 10
16.48646166628532
 20
147.2850660274971
 10
16.1492424049211
 20
147.6731842818444
 10
15.64455811508014
 20
147.7712445992329
 10
15.04924240491891
 20
147.5643181852593
 10
14.45392669475768
 20
147.0839077106575
 10
13.94924240492037
 20
146.4031513152559
 10
13.61202314355614
 20
145.6256879891807
 10
13.49360748631079
 20
144.8698794761049
 10
13.61202314355614
 20
144.2507907707231
 10
13.94924240492037
 20
143.8626725163758
 10
14.45392669475768
 20
143.7646121989874
 10
15.04924240491891
 20
143.971538612961
 10
15.64455811508014
 20
144.4519490875628
 10
16.1492424049211
 20
145.1327054829644
 10
16.48646166628532
 20
145.9101688090395
 10
16.60487732353067
 20
146.6659773221145
1001
PE_URL
1000

  0
LWPOLYLINE
  5
6B7
330
673
100
AcDbEntity
  8
0
  6
Continuous
 62
     7
370
     5
100
AcDbPolyline
 90
       17
 70
   128
 43
0.0
 10
4.301219330885942
 20
134.6639818779431
 10
4.182803673636954
 20
135.2830705833248
 10
3.845584412272729
 20
135.6711888376722
 10
3.340900122435414
 20
135.7692491550606
 10
2.745584412274184
 20
135.562322741087
 10
2.150268702112953
 20
135.0819122664852
 10
1.645584412272001
 20
134.4011558710836
 10
1.308365150911413
 20
133.6236925450085
 10
1.189949493662425
 20
132.8678840319335
 10
1.308365150911413
 20
132.2487953265509
 10
1.645584412272001
 20
131.8606770722035
 10
2.150268702112953
 20
131.7626167548151
 10
2.745584412274184
 20
131.9695431687896
 10
3.340900122435414
 20
132.4499536433905
 10
3.845584412272729
 20
133.1307100387921
 10
4.182803673636954
 20
133.9081733648673
 10
4.301219330885942
 20
134.6639818779431
1001
PE_URL
1000

  0
LINE
  5
6B8
330
673
100
AcDbEntity
  8
0
  6
Continuous
 62
     7
370
     5
100
AcDbLine
 10
13.98858224384821
 20
131.4377366808912
 30
0.0
 11
14.79062261038416
 21
131.737436566711
 31
0.0
1001
PE_URL
1000

  0
LINE
  5
6B9
330
673
100
AcDbEntity
  8
0
  6
Continuous
 62
     7
370
     5
100
AcDbLine
 10
14.96456544427201
 20
131.8378516273215
 30
0.0
 11
14.79062261038416
 21
131.737436566711
 31
0.0
1001
PE_URL
1000

  0
SPLINE
  5
6BA
330
673
100
AcDbEntity
  8
0
  6
Continuous
 62
     7
370
     5
100
AcDbSpline
210
0.0
220
0.0
230
1.0
 70
     8
 71
     3
 72
    10
 73
     6
 74
     0
 42
0.000000001
 43
0.00000001
 40
0.0
 40
0.0
 40
0.0
 40
0.0
 40
0.279254394741646
 40
0.5593341290032229
 40
1.0
 40
1.0
 40
1.0
 40
1.0
 10
12.53982876201189
 20
141.0811901954239
 30
0.0
 10
12.89048350943995
 20
140.3371779278596
 30
0.0
 10
13.59282936836098
 20
138.8469544560667
 30
0.0
 10
14.37624370160484
 20
135.719104982355
 30
0.0
 10
14.74134282381419
 20
133.3104872308286
 30
0.0
 10
14.96456544427201
 20
131.8378516273215
 30
0.0
1001
PE_URL
1000

  0
ARC
  5
6BB
330
673
100
AcDbEntity
  8
0
  6
Continuous
 62
     7
370
     5
100
AcDbCircle
 10
12.17964048192516
 20
140.8459997993832
 30
0.0
 40
0.4301745221437912
100
AcDbArc
 50
33.14313696348879
 51
130.0365982969734
1001
PE_URL
1000

  0
LINE
  5
6BC
330
673
100
AcDbEntity
  8
0
  6
Continuous
 62
     7
370
     5
100
AcDbLine
 10
8.133179928459867
 20
138.999131755023
 30
0.0
 11
11.90291919288211
 21
141.1753559101398
 31
0.0
1001
PE_URL
1000

  0
ARC
  5
6BD
330
673
100
AcDbEntity
  8
0
  6
Continuous
 62
     7
370
     5
100
AcDbCircle
 10
8.984699359392835
 20
137.6841620698488
 30
0.0
 40
1.566598421479588
100
AcDbArc
 50
122.9254072924304
 51
167.2485115780732
1001
PE_URL
1000

  0
ELLIPSE
  5
6BE
330
673
100
AcDbEntity
  8
0
  6
Continuous
 62
     7
370
     5
100
AcDbEllipse
 10
-34.34908526568688
 20
118.6377505192922
 30
0.0
 11
39.87053690075393
 21
32.52861516048713
 31
0.0
210
0.0
220
0.0
230
1.0
 40
0.4458570691551023
 41
5.325138237299326
 42
5.763060566009284
1001
PE_URL
1000

  0
LINE
  5
6BF
330
673
100
AcDbEntity
  8
0
  6
Continuous
 62
     7
370
     5
100
AcDbLine
 10
0.0585786437659408
 20
122.5795759622233
 30
0.0
 11
0.4457678154103633
 21
122.8030955132672
 31
0.0
1001
PE_URL
1000

  0
LINE
  5
6C0
330
673
100
AcDbEntity
  8
0
  6
Continuous
 62
     7
370
     5
100
AcDbLine
 10
0.0585786437659408
 20
153.281510489127
 30
0.0
 11
0.0585786437659408
 21
122.5795759622233
 31
0.0
1001
PE_URL
1000

  0
LINE
  5
6C1
330
673
100
AcDbEntity
  8
0
  6
Continuous
 62
     7
370
     5
100
AcDbLine
 10
1.33137084990085
 20
154.0162777897676
 30
0.0
 11
0.0585786437659408
 21
153.281510489127
 31
0.0
1001
PE_URL
1000

  0
LINE
  5
6C2
330
673
100
AcDbEntity
  8
0
  6
Continuous
 62
     7
370
     5
100
AcDbLine
 10
1.33137084990085
 20
154.0162777897676
 30
0.0
 11
1.33137084990085
 21
151.7299635164873
 31
0.0
1001
PE_URL
1000

  0
LINE
  5
6C3
330
673
100
AcDbEntity
  8
0
  6
Continuous
 62
     7
370
     5
100
AcDbLine
 10
1.33137084990085
 20
151.7299635164873
 30
0.0
 11
2.462741699800972
 21
152.3830900059456
 31
0.0
1001
PE_URL
1000

  0
ARC
  5
6C4
330
673
100
AcDbEntity
  8
0
  6
Continuous
 62
     7
370
     5
100
AcDbCircle
 10
2.517948182550754
 20
152.3154080941313
 30
0.0
 40
0.0873418394857002
100
AcDbArc
 50
350.7859630095144
 51
129.2032852339938
1001
PE_URL
1000

  0
LINE
  5
6C5
330
673
100
AcDbEntity
  8
0
  6
Continuous
 62
     7
370
     5
100
AcDbLine
 10
2.604163056035759
 20
152.3014226547511
 30
0.0
 11
2.604163056035759
 21
146.8811478037824
 31
0.0
1001
PE_URL
1000

  0
LINE
  5
6C6
330
673
100
AcDbEntity
  8
0
  6
Continuous
 62
     7
370
     5
100
AcDbLine
 10
2.604163056035759
 20
146.8811478037824
 30
0.0
 11
5.264318287099741
 21
148.4168227309146
 31
0.0
1001
PE_URL
1000

  0
ELLIPSE
  5
6C7
330
673
100
AcDbEntity
  8
0
  6
Continuous
 62
     7
370
     5
100
AcDbEllipse
 10
5.264145934448607
 20
148.2533155279107
 30
0.0
 11
0.1001137647703985
 21
0.1734208491335494
 31
0.0
210
0.0
220
0.0
230
1.0
 40
0.5766787367376255
 41
5.498315064858291
 42
7.067893416475553
1001
PE_URL
1000

  0
LINE
  5
6C8
330
673
100
AcDbEntity
  8
0
  6
Continuous
 62
     7
370
     5
100
AcDbLine
 10
5.405653493264253
 20
148.3352051292632
 30
0.0
 11
5.405653493264253
 21
146.2432050279622
 31
0.0
1001
PE_URL
1000

  0
LINE
  5
6C9
330
673
100
AcDbEntity
  8
0
  6
Continuous
 62
     7
370
     5
100
AcDbLine
 10
5.405653493264253
 20
146.2432050279622
 30
0.0
 11
12.38917332392884
 21
150.2747052133091
 31
0.0
1001
PE_URL
1000

  0
LINE
  5
6CA
330
673
100
AcDbEntity
  8
0
  6
Continuous
 62
     7
370
     5
100
AcDbLine
 10
12.38917332392884
 20
150.2747052133091
 30
0.0
 11
12.38917332392884
 21
152.36670531461
 31
0.0
1001
PE_URL
1000

  0
ELLIPSE
  5
6CB
330
673
100
AcDbEntity
  8
0
  6
Continuous
 62
     7
370
     5
100
AcDbEllipse
 10
12.53068088274813
 20
152.4481968630043
 30
0.0
 11
0.09999184349459971
 21
0.1732097896632752
 31
0.0
210
0.0
220
0.0
230
1.0
 40
0.5780852101872573
 41
0.7859256885307404
 42
2.355504040156633
1001
PE_URL
1000

  0
LINE
  5
6CC
330
673
100
AcDbEntity
  8
0
  6
Continuous
 62
     7
370
     5
100
AcDbLine
 10
12.53050853009699
 20
152.6115050718727
 30
0.0
 11
15.19066376115734
 21
154.1471799990049
 31
0.0
1001
PE_URL
1000

  0
LINE
  5
6CD
330
673
100
AcDbEntity
  8
0
  6
Continuous
 62
     7
370
     5
100
AcDbLine
 10
15.19066376115734
 20
154.1471799990049
 30
0.0
 11
15.19066376115734
 21
159.5674548499728
 31
0.0
1001
PE_URL
1000

  0
ARC
  5
6CE
330
673
100
AcDbEntity
  8
0
  6
Continuous
 62
     7
370
     5
100
AcDbCircle
 10
15.49770698143038
 20
159.553482679521
 30
0.0
 40
0.3073609615144981
100
AcDbArc
 50
122.6054783396646
 51
177.3945215144046
1001
PE_URL
1000

  0
LINE
  5
6CF
330
673
100
AcDbEntity
  8
0
  6
Continuous
 62
     7
370
     5
100
AcDbLine
 10
15.33208511739576
 20
159.8124038235328
 30
0.0
 11
16.46345596729225
 21
160.4655303129903
 31
0.0
1001
PE_URL
1000

  0
LINE
  5
6D0
330
673
100
AcDbEntity
  8
0
  6
Continuous
 62
     7
370
     5
100
AcDbLine
 10
16.46345596729225
 20
160.4655303129903
 30
0.0
 11
16.46345596729225
 21
162.7518445862706
 31
0.0
1001
PE_URL
1000

  0
LINE
  5
6D1
330
673
100
AcDbEntity
  8
0
  6
Continuous
 62
     7
370
     5
100
AcDbLine
 10
17.73624817342716
 20
163.4866118869113
 30
0.0
 11
16.46345596729225
 21
162.7518445862706
 31
0.0
1001
PE_URL
1000

  0
LINE
  5
6D2
330
673
100
AcDbEntity
  8
0
  6
Continuous
 62
     7
370
     5
100
AcDbLine
 10
13.98858224384821
 20
130.6211958698586
 30
0.0
 11
13.98858224384821
 21
131.4377366808912
 31
0.0
1001
PE_URL
1000

  0
LINE
  5
6D3
330
673
100
AcDbEntity
  8
0
  6
Continuous
 62
     7
370
     5
100
AcDbLine
 10
18.79690834520807
 20
132.0090631137627
 30
0.0
 11
18.65548698896964
 21
132.090703924945
 31
0.0
1001
PE_URL
1000

  0
LINE
  5
6D4
330
673
100
AcDbEntity
  8
0
  6
Continuous
 62
     7
370
     5
100
AcDbLine
 10
18.79690834520807
 20
132.0090631137627
 30
0.0
 11
15.04924241562912
 21
129.8455816236146
 31
0.0
1001
PE_URL
1000

  0
LINE
  5
6D5
330
673
100
AcDbEntity
  8
0
  6
Continuous
 62
     7
370
     5
100
AcDbLine
 10
15.04924241562912
 20
129.8455816236146
 30
0.0
 11
14.13000360008664
 21
130.3762468962996
 31
0.0
1001
PE_URL
1000

  0
LINE
  5
6D6
330
673
100
AcDbEntity
  8
0
  6
Continuous
 62
     7
370
     5
100
AcDbLine
 10
18.79690834520807
 20
132.0090631137627
 30
0.0
 11
18.79690834520807
 21
132.3356528985041
 31
0.0
1001
PE_URL
1000

  0
LINE
  5
6D7
330
673
100
AcDbEntity
  8
0
  6
Continuous
 62
     7
370
     5
100
AcDbLine
 10
18.79690834520807
 20
163.0375874254087
 30
0.0
 11
18.79690834520807
 21
163.0376139654218
 31
0.0
1001
PE_URL
1000

  0
LINE
  5
6D8
330
673
100
AcDbEntity
  8
0
  6
Continuous
 62
     7
370
     5
100
AcDbLine
 10
1.33137084990085
 20
121.9264229327537
 30
0.0
 11
0.4121320343583648
 21
122.4570882054377
 31
0.0
1001
PE_URL
1000

  0
SPLINE
  5
6D9
330
673
100
AcDbEntity
  8
0
  6
Continuous
 62
     7
370
     5
100
AcDbSpline
210
0.0
220
0.0
230
1.0
 70
     8
 71
     3
 72
    12
 73
     8
 74
     0
 42
0.000000001
 43
0.00000001
 40
0.0
 40
0.0
 40
0.0
 40
0.0
 40
0.1212419228879756
 40
0.2416905704578005
 40
0.4249864672770192
 40
0.708486853243314
 40
0.9999999999999999
 40
0.9999999999999999
 40
0.9999999999999999
 40
0.9999999999999999
 10
0.4121320343583648
 20
122.4570882054377
 30
0.0
 10
0.40144880711523
 20
122.465560950528
 30
0.0
 10
0.3801522520516301
 20
122.4824510042763
 30
0.0
 10
0.3626596284848347
 20
122.5299110346523
 30
0.0
 10
0.3604202061032993
 20
122.6029140469718
 30
0.0
 10
0.3862612952652853
 20
122.7010063831658
 30
0.0
 10
0.4257488900257158
 20
122.7687511309532
 30
0.0
 10
0.4457678154103633
 20
122.8030955132672
 30
0.0
1001
PE_URL
1000

  0
LINE
  5
6DA
330
673
100
AcDbEntity
  8
0
  6
Continuous
 62
     7
370
     5
100
AcDbLine
 10
8.517398773674358
 20
137.4176399325834
 30
0.0
 11
7.456738601893449
 21
138.0299460164506
 31
0.0
1001
PE_URL
1000

  0
ELLIPSE
  5
6DB
330
673
100
AcDbEntity
  8
0
  6
Continuous
 62
     7
370
     5
100
AcDbEllipse
 10
-33.28842509390597
 20
118.025444435425
 30
0.0
 11
39.87053690075393
 21
32.52861516048713
 31
0.0
210
0.0
220
0.0
230
1.0
 40
0.4458570691551025
 41
5.317963906477237
 42
5.763060566009284
1001
PE_URL
1000

  0
LINE
  5
6DC
330
673
100
AcDbEntity
  8
0
  6
Continuous
 62
     7
370
     5
100
AcDbLine
 10
8.133179928459867
 20
138.999131755023
 30
0.0
 11
9.193840100240777
 21
138.3868256711557
 31
0.0
1001
PE_URL
1000

  0
LINE
  5
6DD
330
673
100
AcDbEntity
  8
0
  6
Continuous
 62
     7
370
     5
100
AcDbLine
 10
12.80228313267071
 20
140.4699354935383
 30
0.0
 11
9.193840100240777
 21
138.3868256711557
 31
0.0
1001
PE_URL
1000

  0
LINE
  5
6DE
330
673
100
AcDbEntity
  8
0
  6
Continuous
 62
     7
370
     5
100
AcDbLine
 10
0.4121320343583648
 20
122.4570882054377
 30
0.0
 11
0.2000000000007276
 21
122.3346269886642
 31
0.0
1001
PE_URL
1000

  0
ARC
  5
6DF
330
673
100
AcDbEntity
  8
0
  6
Continuous
 62
     7
370
     5
100
AcDbCircle
 10
0.3656218640389852
 20
122.5935481326751
 30
0.0
 40
0.3073609615144638
100
AcDbArc
 50
182.6054784855953
 51
237.3945216595814
1001
PE_URL
1000

  0
LINE
  5
6E0
330
673
100
AcDbEntity
  8
0
  6
Continuous
 62
     7
370
     5
100
AcDbLine
 10
0.9778174593084259
 20
121.8856025271616
 30
0.0
 11
1.119238815543213
 21
121.8039617159793
 31
0.0
1001
PE_URL
1000

  0
LINE
  5
6E1
330
673
100
AcDbEntity
  8
0
  6
Continuous
 62
     7
370
     5
100
AcDbLine
 10
0.2000000000007276
 20
122.3346269886642
 30
0.0
 11
0.9778174593084259
 21
121.8856025271616
 31
0.0
1001
PE_URL
1000

  0
LINE
  5
6E2
330
673
100
AcDbEntity
  8
0
  6
Continuous
 62
     7
370
     5
100
AcDbLine
 10
1.33137084990085
 20
121.9264229327537
 30
0.0
 11
1.119238815543213
 21
121.8039617159793
 31
0.0
1001
PE_URL
1000

  0
ARC
  5
6E3
330
673
100
AcDbEntity
  8
0
  6
Continuous
 62
     7
370
     5
100
AcDbCircle
 10
0.9192334483377635
 20
121.9673787929842
 30
0.0
 40
0.100595447180207
100
AcDbArc
 50
245.6928809544361
 51
305.6175774755379
1001
PE_URL
1000

  0
ARC
  5
6E4
330
673
100
AcDbEntity
  8
0
  6
Continuous
 62
     7
370
     5
100
AcDbCircle
 10
10.04535953117374
 20
137.0718559859815
 30
0.0
 40
1.566598421479649
100
AcDbArc
 50
122.9254072924304
 51
167.2485115780732
1001
PE_URL
1000

  0
ARC
  5
6E5
330
673
100
AcDbEntity
  8
0
  6
Continuous
 62
     7
370
     5
100
AcDbCircle
 10
16.55859307844003
 20
162.763957392006
 30
0.0
 40
0.0959051092491525
100
AcDbArc
 50
124.0563508189721
 51
187.2558295741616
1001
PE_URL
1000

  0
ARC
  5
6E6
330
673
100
AcDbEntity
  8
0
  6
Continuous
 62
     7
370
     5
100
AcDbCircle
 10
18.69890796465552
 20
163.0484047728423
 30
0.0
 40
0.098595586076416
100
AcDbArc
 50
353.7011525079352
 51
54.98666709921605
1001
PE_URL
1000

  0
LINE
  5
6E7
330
673
100
AcDbEntity
  8
0
  6
Continuous
 62
     7
370
     5
100
AcDbLine
 10
3.664823227816669
 20
151.6891165708839
 30
0.0
 11
2.604163056035759
 21
152.3014226547511
 31
0.0
1001
PE_URL
1000

  0
LINE
  5
6E8
330
673
100
AcDbEntity
  8
0
  6
Continuous
 62
     7
370
     5
100
AcDbLine
 10
3.664823227816669
 20
151.6891165708839
 30
0.0
 11
3.664823227816669
 21
147.4934538876496
 31
0.0
1001
PE_URL
1000

  0
ARC
  5
6E9
330
673
100
AcDbEntity
  8
0
  6
Continuous
 62
     7
370
     5
100
AcDbCircle
 10
3.56682284737326
 20
151.6999339183676
 30
0.0
 40
0.0985955859731772
100
AcDbArc
 50
353.7011524720834
 51
54.98666713448188
1001
PE_URL
1000

  0
ARC
  5
6EA
330
673
100
AcDbEntity
  8
0
  6
Continuous
 62
     7
370
     5
100
AcDbCircle
 10
1.417585723385855
 20
154.0302632291477
 30
0.0
 40
0.0873418394856966
100
AcDbArc
 50
50.79671476302562
 51
189.2140369904857
1001
PE_URL
1000

  0
LINE
  5
6EB
330
673
100
AcDbEntity
  8
0
  6
Continuous
 62
     7
370
     5
100
AcDbLine
 10
2.39203102168176
 20
153.5672798682772
 30
0.0
 11
1.472792206139275
 21
154.0979451409621
 31
0.0
1001
PE_URL
1000

  0
LINE
  5
6EC
330
673
100
AcDbEntity
  8
0
  6
Continuous
 62
     7
370
     5
100
AcDbLine
 10
2.39203102168176
 20
153.5672798682772
 30
0.0
 11
2.39203102168176
 21
152.3422696003545
 31
0.0
1001
PE_URL
1000

  0
LINE
  5
6ED
330
673
100
AcDbEntity
  8
0
  6
Continuous
 62
     7
370
     5
100
AcDbLine
 10
225.0599564280346
 20
8.60897701794238
 30
0.0
 11
225.9791952435771
 21
8.078311745257452
 31
0.0
1001
PE_URL
1000

  0
LINE
  5
6EE
330
673
100
AcDbEntity
  8
0
  6
Continuous
 62
     7
370
     5
100
AcDbLine
 10
228.8076223576136
 20
10.77245850809049
 30
0.0
 11
225.0599564280346
 21
8.60897701794238
 31
0.0
1001
PE_URL
1000

  0
LINE
  5
6EF
330
673
100
AcDbEntity
  8
0
  6
Continuous
 62
     7
370
     5
100
AcDbLine
 10
228.8076223576136
 20
10.77245850809049
 30
0.0
 11
228.949043713852
 21
10.6908176969082
 31
0.0
1001
PE_URL
1000

  0
LINE
  5
6F0
330
673
100
AcDbEntity
  8
0
  6
Continuous
 62
     7
370
     5
100
AcDbLine
 10
228.949043713852
 20
10.6908176969082
 30
0.0
 11
229.7268611731561
 21
10.24179323540648
 31
0.0
1001
PE_URL
1000

  0
LINE
  5
6F1
330
673
100
AcDbEntity
  8
0
  6
Continuous
 62
     7
370
     5
100
AcDbLine
 10
229.7268611731561
 20
10.24179323540648
 30
0.0
 11
225.9791952435771
 21
8.078311745257452
 31
0.0
1001
PE_URL
1000

  0
LINE
  5
6F2
330
673
100
AcDbEntity
  8
0
  6
Continuous
 62
     7
370
     5
100
AcDbLine
 10
228.949043713852
 20
10.6908176969082
 30
0.0
 11
228.949043713852
 21
10.85409931927279
 31
0.0
1001
PE_URL
1000

  0
ARC
  5
6F3
330
673
100
AcDbEntity
  8
0
  6
Continuous
 62
     7
370
     5
100
AcDbCircle
 10
229.0042501966054
 20
41.65168663675286
 30
0.0
 40
0.087341839485677
100
AcDbArc
 50
350.7859630089254
 51
129.2032852369744
1001
PE_URL
1000

  0
LINE
  5
6F4
330
673
100
AcDbEntity
  8
0
  6
Continuous
 62
     7
370
     5
100
AcDbLine
 10
229.0904650700868
 20
10.93576667046818
 30
0.0
 11
229.0904650700868
 21
41.63770119737273
 31
0.0
1001
PE_URL
1000

  0
ARC
  5
6F5
330
673
100
AcDbEntity
  8
0
  6
Continuous
 62
     7
370
     5
100
AcDbCircle
 10
228.7834218498137
 20
10.94973884091996
 30
0.0
 40
0.3073609615144978
100
AcDbArc
 50
302.6054783404186
 51
357.3945215144046
1001
PE_URL
1000

  0
ARC
  5
6F6
330
673
100
AcDbEntity
  8
0
  6
Continuous
 62
     7
370
     5
100
AcDbCircle
 10
229.5612393091214
 20
10.50071437941733
 30
0.0
 40
0.3073609615145143
100
AcDbArc
 50
302.6054783396646
 51
357.3945215144046
1001
PE_URL
1000

  0
LINE
  5
6F7
330
673
100
AcDbEntity
  8
0
  6
Continuous
 62
     7
370
     5
100
AcDbLine
 10
229.8682825293945
 20
10.48674220896555
 30
0.0
 11
229.0904650700868
 21
10.93576667046818
 31
0.0
1001
PE_URL
1000

  0
ELLIPSE
  5
6F8
330
673
100
AcDbEntity
  8
0
  6
Continuous
 62
     7
370
     5
100
AcDbEllipse
 10
176.7222889184995
 20
-3.21116017024724
 30
0.0
 11
39.87053690075359
 21
32.52861516048737
 31
0.0
210
0.0
220
0.0
230
1.0
 40
0.4458570691551014
 41
5.317963906477255
 42
5.662729421897066
1001
PE_URL
1000

  0
LINE
  5
6F9
330
673
100
AcDbEntity
  8
0
  6
Continuous
 62
     7
370
     5
100
AcDbLine
 10
211.34208486231
 20
0.6898183270814116
 30
0.0
 11
211.1299528279524
 21
0.5673571103070572
 31
0.0
1001
PE_URL
1000

  0
LINE
  5
6FA
330
673
100
AcDbEntity
  8
0
  6
Continuous
 62
     7
370
     5
100
AcDbLine
 10
229.8682825293945
 20
41.1886767358701
 30
0.0
 11
229.8682825293945
 21
10.48674220896555
 31
0.0
1001
PE_URL
1000

  0
LINE
  5
6FB
330
673
100
AcDbEntity
  8
0
  6
Continuous
 62
     7
370
     5
100
AcDbLine
 10
229.0904650700868
 20
41.63770119737273
 30
0.0
 11
229.8682825293945
 21
41.1886767358701
 31
0.0
1001
PE_URL
1000

  0
ARC
  5
6FC
330
673
100
AcDbEntity
  8
0
  6
Continuous
 62
     7
370
     5
100
AcDbCircle
 10
226.0377792545478
 20
8.160088011081825
 30
0.0
 40
0.1005954471804303
100
AcDbArc
 50
234.382422524462
 51
294.3071190455639
1001
PE_URL
1000

  0
SPLINE
  5
6FD
330
673
100
AcDbEntity
  8
0
  6
Continuous
 62
     7
370
     5
100
AcDbSpline
210
0.0
220
0.0
230
1.0
 70
     8
 71
     3
 72
    12
 73
     8
 74
     0
 42
0.000000001
 43
0.00000001
 40
0.0
 40
0.0
 40
0.0
 40
0.0
 40
0.1212419228879833
 40
0.2416905704578783
 40
0.4249864672770828
 40
0.708486853243328
 40
1.0
 40
1.0
 40
1.0
 40
1.0
 10
212.2613236778525
 20
0.1591530543964836
 30
0.0
 10
212.2742234650395
 20
0.1540116150399626
 30
0.0
 10
212.2999386372358
 20
0.1437623763158626
 30
0.0
 10
212.3533384034672
 20
0.1502971011832415
 30
0.0
 10
212.4244320181606
 20
0.1809658523088729
 30
0.0
 10
212.506932076496
 20
0.2463496618202043
 30
0.0
 10
212.5539603614707
 20
0.3097412618053568
 30
0.0
 10
212.5778021713777
 20
0.3418787398613858
 30
0.0
1001
PE_URL
1000

  0
LINE
  5
6FE
330
673
100
AcDbEntity
  8
0
  6
Continuous
 62
     7
370
     5
100
AcDbLine
 10
211.34208486231
 20
0.6898183270814116
 30
0.0
 11
212.2613236778525
 21
0.1591530543964836
 31
0.0
1001
PE_URL
1000

  0
ELLIPSE
  5
6FF
330
673
100
AcDbEntity
  8
0
  6
Continuous
 62
     7
370
     5
100
AcDbEllipse
 10
177.7829490902805
 20
-3.823466254113555
 30
0.0
 11
39.87053690075359
 21
32.52861516048736
 31
0.0
210
0.0
220
0.0
230
1.0
 40
0.4458570691551015
 41
5.325138237299344
 42
5.662729421897067
1001
PE_URL
1000

  0
LINE
  5
700
330
673
100
AcDbEntity
  8
0
  6
Continuous
 62
     7
370
     5
100
AcDbLine
 10
212.2613236778525
 20
0.1591530543964836
 30
0.0
 11
212.0491916434949
 21
0.0366918376221292
 31
0.0
1001
PE_URL
1000

  0
LINE
  5
701
330
673
100
AcDbEntity
  8
0
  6
Continuous
 62
     7
370
     5
100
AcDbLine
 10
212.0491916434949
 20
0.0366918376221292
 30
0.0
 11
211.2713741841872
 21
0.4857162991247606
 31
0.0
1001
PE_URL
1000

  0
LINE
  5
702
330
673
100
AcDbEntity
  8
0
  6
Continuous
 62
     7
370
     5
100
AcDbLine
 10
211.2713741841872
 20
0.4857162991247606
 30
0.0
 11
211.1299528279524
 21
0.5673571103070572
 31
0.0
1001
PE_URL
1000

  0
ARC
  5
703
330
673
100
AcDbEntity
  8
0
  6
Continuous
 62
     7
370
     5
100
AcDbCircle
 10
211.2161677014337
 20
0.5533982109391218
 30
0.0
 40
0.0873418394856956
100
AcDbArc
 50
170.7859630089254
 51
309.2032852369744
1001
PE_URL
1000

  0
LINE
  5
704
330
673
100
AcDbEntity
  8
0
  6
Continuous
 62
     7
370
     5
100
AcDbLine
 10
18.93832970144649
 20
163.1192547766041
 30
0.0
 11
18.79690834334178
 21
163.0376139643431
 31
0.0
1001
PE_URL
1000

  0
LINE
  5
705
330
673
100
AcDbEntity
  8
0
  6
Continuous
 62
     7
370
     5
100
AcDbLine
 10
18.93832970144649
 20
132.090703924945
 30
0.0
 11
18.93832970144649
 21
163.1192547766041
 31
0.0
1001
PE_URL
1000

  0
LINE
  5
706
330
673
100
AcDbEntity
  8
0
  6
Continuous
 62
     7
370
     5
100
AcDbLine
 10
15.04924240491891
 20
129.8455816174328
 30
0.0
 11
18.93832970144649
 21
132.090703924945
 31
0.0
1001
PE_URL
1000

  0
LINE
  5
707
330
673
100
AcDbEntity
  8
0
  6
Continuous
 62
     7
370
     5
100
AcDbLine
 10
15.04924240491891
 20
129.8455816174328
 30
0.0
 11
225.0599564173244
 21
8.608977011760544
 31
0.0
1001
PE_URL
1000

  0
LINE
  5
708
330
673
100
AcDbEntity
  8
0
  6
Continuous
 62
     7
370
     5
100
AcDbLine
 10
18.93832970144649
 20
132.090703924945
 30
0.0
 11
228.949043713852
 21
10.85409931927279
 31
0.0
1001
PE_URL
1000

  0
LINE
  5
709
330
673
100
AcDbEntity
  8
0
  6
Continuous
 62
     7
370
     5
100
AcDbLine
 10
225.0599564173244
 20
8.608977011760544
 30
0.0
 11
228.949043713852
 21
10.85409931927279
 31
0.0
1001
PE_URL
1000

  0
LINE
  5
70A
330
673
100
AcDbEntity
  8
0
  6
Continuous
 62
     7
370
     5
100
AcDbLine
 10
18.93832970144649
 20
163.1192547766041
 30
0.0
 11
228.949043713852
 21
41.88265017093181
 31
0.0
1001
PE_URL
1000

  0
LINE
  5
70B
330
673
100
AcDbEntity
  8
0
  6
Continuous
 62
     7
370
     5
100
AcDbLine
 10
228.949043713852
 20
10.85409931927279
 30
0.0
 11
228.949043713852
 21
41.88265017093181
 31
0.0
1001
PE_URL
1000

  0
LINE
  5
70C
330
673
100
AcDbEntity
  8
0
  6
Continuous
 62
     7
370
     5
100
AcDbLine
 10
9.454830852057057
 20
138.5374924251482
 30
0.0
 11
14.29825376780718
 21
135.7414438914511
 31
0.0
1001
PE_URL
1000

  0
LINE
  5
70D
330
673
100
AcDbEntity
  8
0
  6
Continuous
 62
     7
370
     5
100
AcDbLine
 10
0.9778174593084259
 20
121.722320904797
 30
0.0
 11
1.33137084990085
 21
121.9264229327528
 31
0.0
1001
PE_URL
1000

  0
LINE
  5
70E
330
673
100
AcDbEntity
  8
0
  6
Continuous
 62
     7
370
     5
100
AcDbLine
 10
0.9778174593084259
 20
121.722320904797
 30
0.0
 11
0.9778174593084259
 21
121.8856025271616
 31
0.0
1001
PE_URL
1000

  0
ARC
  5
70F
330
673
100
AcDbEntity
  8
0
  6
Continuous
 62
     7
370
     5
100
AcDbCircle
 10
3.569686116552475
 20
151.7012293765656
 30
0.0
 40
0.0959051093592745
100
AcDbArc
 50
352.7441704664235
 51
55.94364913895088
1001
PE_URL
1000

  0
LINE
  5
710
330
673
100
AcDbEntity
  8
0
  6
Continuous
 62
     7
370
     5
100
AcDbLine
 10
3.664823227816669
 20
151.6891165708839
 30
0.0
 11
3.664823227816669
 21
150.7909216778098
 31
0.0
1001
PE_URL
1000

  0
LINE
  5
711
330
673
100
AcDbEntity
  8
0
  6
Continuous
 62
     7
370
     5
100
AcDbLine
 10
1.33137084990085
 20
121.9264229327528
 30
0.0
 11
211.3420848623064
 21
0.6898183270805021
 31
0.0
1001
PE_URL
1000

  0
LINE
  5
712
330
673
100
AcDbEntity
  8
0
  6
Continuous
 62
     7
370
     5
100
AcDbLine
 10
0.9778174593084259
 20
121.722320904797
 30
0.0
 11
210.9885314717139
 21
0.4857162991247606
 31
0.0
1001
PE_URL
1000

  0
LINE
  5
713
330
673
100
AcDbEntity
  8
0
  6
Continuous
 62
     7
370
     5
100
AcDbLine
 10
210.9885314717139
 20
0.4857162991247606
 30
0.0
 11
211.3420848623064
 21
0.6898183270805021
 31
0.0
1001
PE_URL
1000

  0
LINE
  5
714
330
673
100
AcDbEntity
  8
0
  6
Continuous
 62
     7
370
     5
100
AcDbLine
 10
3.664823227816669
 20
149.1580789141517
 30
0.0
 11
5.106587006648624
 21
148.3257664009006
 31
0.0
1001
PE_URL
1000

  0
LINE
  5
715
330
673
100
AcDbEntity
  8
0
  6
Continuous
 62
     7
370
     5
100
AcDbLine
 10
2.39203102168176
 20
153.5672798682772
 30
0.0
 11
10.24236446224677
 21
149.0353788372649
 31
0.0
1001
PE_URL
1000

  0
LWPOLYLINE
  5
716
330
673
100
AcDbEntity
  8
0
  6
Continuous
 62
     7
370
     5
100
AcDbPolyline
 90
        3
 70
   128
 43
0.0
 10
2.818224755785195
 20
132.0134366869897
 10
2.345809668364382
 20
131.8630955981907
 10
1.887087035876903
 20
131.9521944189955
1001
PE_URL
1000

  0
ARC
  5
717
330
673
100
AcDbEntity
  8
0
  6
Continuous
 62
     7
370
     5
100
AcDbCircle
 10
3.397087021134212
 20
134.6547199198649
 30
0.0
 40
0.9055837164553628
100
AcDbArc
 50
355.2302046757539
 51
57.25452801235438
1001
PE_URL
1000

  0
LWPOLYLINE
  5
718
330
673
100
AcDbEntity
  8
0
  6
Continuous
 62
     7
370
     5
100
AcDbPolyline
 90
       17
 70
   128
 43
0.0
 10
2.745584412277822
 20
132.1328513311673
 10
2.204388312129595
 20
131.944736409373
 10
1.745584412277822
 20
132.0338821524538
 10
1.439021447400592
 20
132.3867169291325
 10
1.33137084990085
 20
132.9495248431158
 10
1.439021447400592
 20
133.6366234913676
 10
1.745584412277822
 20
134.3434083332531
 10
2.204388312129595
 20
134.9622777836184
 10
2.745584412277822
 20
135.3990145787102
 10
3.286780512422411
 20
135.5871295005045
 10
3.745584412277822
 20
135.4979837574247
 10
4.052147377151414
 20
135.145148980745
 10
4.159797974647518
 20
134.5823410667617
 10
4.052147377151414
 20
133.8952424185109
 10
3.745584412274184
 20
133.1884575766244
 10
3.286780512422411
 20
132.5695881262591
 10
2.745584412277822
 20
132.1328513311673
1001
PE_URL
1000

  0
LINE
  5
719
330
673
100
AcDbEntity
  8
0
  6
Continuous
 62
     7
370
     5
100
AcDbLine
 10
2.929432175384136
 20
134.77026090255
 30
0.0
 11
2.561736649167869
 21
134.5579947934766
 31
0.0
1001
PE_URL
1000

  0
LINE
  5
71A
330
673
100
AcDbEntity
  8
0
  6
Continuous
 62
     7
370
     5
100
AcDbLine
 10
2.561736649167869
 20
134.5579947934766
 30
0.0
 11
2.561736649167869
 21
134.1962822876903
 31
0.0
1001
PE_URL
1000

  0
ELLIPSE
  5
71B
330
673
100
AcDbEntity
  8
0
  6
Continuous
 62
     7
370
     5
100
AcDbEllipse
 10
2.276769837288157
 20
134.0366618289881
 30
0.0
 11
0.1999830001076503
 21
0.3464199758967367
 31
0.0
210
0.0
220
0.0
230
1.0
 40
0.5860215324410186
 41
3.934333415644928
 42
5.490277059486545
1001
PE_URL
1000

  0
LINE
  5
71C
330
673
100
AcDbEntity
  8
0
  6
Continuous
 62
     7
370
     5
100
AcDbLine
 10
2.281002203380922
 20
133.7100359655806
 30
0.0
 11
1.967766952970123
 21
133.5292091045267
 31
0.0
1001
PE_URL
1000

  0
LINE
  5
71D
330
673
100
AcDbEntity
  8
0
  6
Continuous
 62
     7
370
     5
100
AcDbLine
 10
1.967766952970123
 20
133.5292091045267
 30
0.0
 11
1.967766952970123
 21
133.1046078823465
 31
0.0
1001
PE_URL
1000

  0
LINE
  5
71E
330
673
100
AcDbEntity
  8
0
  6
Continuous
 62
     7
370
     5
100
AcDbLine
 10
1.967766952970123
 20
133.1046078823465
 30
0.0
 11
2.281002203380922
 21
133.2854347434004
 31
0.0
1001
PE_URL
1000

  0
ELLIPSE
  5
71F
330
673
100
AcDbEntity
  8
0
  6
Continuous
 62
     7
370
     5
100
AcDbEllipse
 10
2.276769837288157
 20
132.9539222941175
 30
0.0
 11
0.202977034475527
 21
0.3516029848151163
 31
0.0
210
0.0
220
0.0
230
1.0
 40
0.5688689412912328
 41
5.505134574340487
 42
7.06107821818198
1001
PE_URL
1000

  0
LINE
  5
720
330
673
100
AcDbEntity
  8
0
  6
Continuous
 62
     7
370
     5
100
AcDbLine
 10
2.561736649167869
 20
133.1233175131138
 30
0.0
 11
2.561736649167869
 21
132.7616050073275
 31
0.0
1001
PE_URL
1000

  0
LINE
  5
721
330
673
100
AcDbEntity
  8
0
  6
Continuous
 62
     7
370
     5
100
AcDbLine
 10
2.561736649167869
 20
132.7616050073275
 30
0.0
 11
2.929432175384136
 21
132.9738711164018
 31
0.0
1001
PE_URL
1000

  0
LINE
  5
722
330
673
100
AcDbEntity
  8
0
  6
Continuous
 62
     7
370
     5
100
AcDbLine
 10
2.929432175384136
 20
132.9738711164018
 30
0.0
 11
2.929432175384136
 21
133.3355836221872
 31
0.0
1001
PE_URL
1000

  0
ELLIPSE
  5
723
330
673
100
AcDbEntity
  8
0
  6
Continuous
 62
     7
370
     5
100
AcDbEllipse
 10
3.214398987260211
 20
133.4952040808894
 30
0.0
 11
0.1999830001076504
 21
0.3464199758967084
 31
0.0
210
0.0
220
0.0
230
1.0
 40
0.5860215324410546
 41
0.7927407620423486
 42
2.348684405899588
1001
PE_URL
1000

  0
LINE
  5
724
330
673
100
AcDbEntity
  8
0
  6
Continuous
 62
     7
370
     5
100
AcDbLine
 10
3.210166621171084
 20
133.821829944297
 30
0.0
 11
3.523401871581882
 21
134.0026568053509
 31
0.0
1001
PE_URL
1000

  0
LINE
  5
725
330
673
100
AcDbEntity
  8
0
  6
Continuous
 62
     7
370
     5
100
AcDbLine
 10
3.523401871581882
 20
134.0026568053509
 30
0.0
 11
3.523401871581882
 21
134.4272580275319
 31
0.0
1001
PE_URL
1000

  0
LINE
  5
726
330
673
100
AcDbEntity
  8
0
  6
Continuous
 62
     7
370
     5
100
AcDbLine
 10
3.523401871581882
 20
134.4272580275319
 30
0.0
 11
3.210166621171084
 21
134.246431166478
 31
0.0
1001
PE_URL
1000

  0
ELLIPSE
  5
727
330
673
100
AcDbEntity
  8
0
  6
Continuous
 62
     7
370
     5
100
AcDbEllipse
 10
3.214398987260211
 20
134.5779436157609
 30
0.0
 11
0.2029770344755271
 21
0.3516029848150879
 31
0.0
210
0.0
220
0.0
230
1.0
 40
0.5688689412912673
 41
2.363541920756294
 42
3.919485564604977
1001
PE_URL
1000

  0
LINE
  5
728
330
673
100
AcDbEntity
  8
0
  6
Continuous
 62
     7
370
     5
100
AcDbLine
 10
2.929432175384136
 20
134.4085483967647
 30
0.0
 11
2.929432175384136
 21
134.77026090255
 31
0.0
1001
PE_URL
1000

  0
LINE
  5
729
330
673
100
AcDbEntity
  8
0
  6
Continuous
 62
     7
370
     5
100
AcDbLine
 10
2.936070397478034
 20
134.3418888380356
 30
0.0
 11
2.561736649167869
 21
134.5579947934766
 31
0.0
1001
PE_URL
1000

  0
LINE
  5
72A
330
673
100
AcDbEntity
  8
0
  6
Continuous
 62
     7
370
     5
100
AcDbLine
 10
2.342185590208828
 20
133.3130541420096
 30
0.0
 11
1.967766952970123
 21
133.5292091045267
 31
0.0
1001
PE_URL
1000

  0
LWPOLYLINE
  5
72B
330
673
100
AcDbEntity
  8
0
  6
Continuous
 62
     7
370
     5
100
AcDbPolyline
 90
        3
 70
   128
 43
0.0
 10
15.12188986337787
 20
144.0154358384871
 10
14.64946766101275
 20
143.865091042363
 10
14.19074502852163
 20
143.9541898631669
1001
PE_URL
1000

  0
ARC
  5
72C
330
673
100
AcDbEntity
  8
0
  6
Continuous
 62
     7
370
     5
100
AcDbCircle
 10
15.70074333183948
 20
146.656713397083
 30
0.0
 40
0.9055862806003095
100
AcDbArc
 50
355.2298147687725
 51
57.25450582313303
1001
PE_URL
1000

  0
LWPOLYLINE
  5
72D
330
673
100
AcDbEntity
  8
0
  6
Continuous
 62
     7
370
     5
100
AcDbPolyline
 90
       17
 70
   128
 43
0.0
 10
15.04924240492255
 20
144.1348467753396
 10
14.50804630477433
 20
143.9467318535453
 10
14.04924240492255
 20
144.0358775966251
 10
13.74267944004532
 20
144.3887123733048
 10
13.63502884254922
 20
144.9515202872881
 10
13.74267944004532
 20
145.6386189355389
 10
14.04924240492255
 20
146.3454037774254
 10
14.50804630477433
 20
146.9642732277907
 10
15.04924240492255
 20
147.4010100228825
 10
15.59043850506714
 20
147.5891249446768
 10
16.04924240492255
 20
147.4999792015969
 10
16.35580536979614
 20
147.1471444249173
 10
16.46345596729589
 20
146.584336510934
 10
16.35580536979614
 20
145.8972378626831
 10
16.04924240492255
 20
145.1904530207967
 10
15.59043850506714
 20
144.5715835704314
 10
15.04924240492255
 20
144.1348467753396
1001
PE_URL
1000

  0
LINE
  5
72E
330
673
100
AcDbEntity
  8
0
  6
Continuous
 62
     7
370
     5
100
AcDbLine
 10
15.23309016802887
 20
146.7722563467223
 30
0.0
 11
14.8653946418126
 21
146.5599902376489
 31
0.0
1001
PE_URL
1000

  0
LINE
  5
72F
330
673
100
AcDbEntity
  8
0
  6
Continuous
 62
     7
370
     5
100
AcDbLine
 10
14.8653946418126
 20
146.5599902376489
 30
0.0
 11
14.8653946418126
 21
146.1982777318626
 31
0.0
1001
PE_URL
1000

  0
ELLIPSE
  5
730
330
673
100
AcDbEntity
  8
0
  6
Continuous
 62
     7
370
     5
100
AcDbEllipse
 10
14.58042782993653
 20
146.0386572731604
 30
0.0
 11
0.1999830001076504
 21
0.3464199758967084
 31
0.0
210
0.0
220
0.0
230
1.0
 40
0.5860215324410469
 41
3.934333415632147
 42
5.490277059485945
1001
PE_URL
1000

  0
LINE
  5
731
330
673
100
AcDbEntity
  8
0
  6
Continuous
 62
     7
370
     5
100
AcDbLine
 10
14.58466019602565
 20
145.7120314097529
 30
0.0
 11
14.27142494561485
 21
145.531204548699
 31
0.0
1001
PE_URL
1000

  0
LINE
  5
732
330
673
100
AcDbEntity
  8
0
  6
Continuous
 62
     7
370
     5
100
AcDbLine
 10
14.27142494561485
 20
145.531204548699
 30
0.0
 11
14.27142494561485
 21
145.1066033265179
 31
0.0
1001
PE_URL
1000

  0
LINE
  5
733
330
673
100
AcDbEntity
  8
0
  6
Continuous
 62
     7
370
     5
100
AcDbLine
 10
14.27142494561485
 20
145.1066033265179
 30
0.0
 11
14.58466019602565
 21
145.2874301875727
 31
0.0
1001
PE_URL
1000

  0
ELLIPSE
  5
734
330
673
100
AcDbEntity
  8
0
  6
Continuous
 62
     7
370
     5
100
AcDbEllipse
 10
14.58042782993653
 20
144.9559177382889
 30
0.0
 11
0.2029770344755306
 21
0.3516029848150879
 31
0.0
210
0.0
220
0.0
230
1.0
 40
0.5688689412912649
 41
5.505134574343329
 42
7.061078218194782
1001
PE_URL
1000

  0
LINE
  5
735
330
673
100
AcDbEntity
  8
0
  6
Continuous
 62
     7
370
     5
100
AcDbLine
 10
14.8653946418126
 20
145.1253129572851
 30
0.0
 11
14.8653946418126
 21
144.7636004514998
 31
0.0
1001
PE_URL
1000

  0
LINE
  5
736
330
673
100
AcDbEntity
  8
0
  6
Continuous
 62
     7
370
     5
100
AcDbLine
 10
14.8653946418126
 20
144.7636004514998
 30
0.0
 11
15.23309016802887
 21
144.9758665605732
 31
0.0
1001
PE_URL
1000

  0
LINE
  5
737
330
673
100
AcDbEntity
  8
0
  6
Continuous
 62
     7
370
     5
100
AcDbLine
 10
15.23309016802887
 20
144.9758665605732
 30
0.0
 11
15.23309016802887
 21
145.3375790663595
 31
0.0
1001
PE_URL
1000

  0
ELLIPSE
  5
738
330
673
100
AcDbEntity
  8
0
  6
Continuous
 62
     7
370
     5
100
AcDbEllipse
 10
15.51805697990858
 20
145.4971995250617
 30
0.0
 11
0.1999830001076504
 21
0.3464199758967084
 31
0.0
210
0.0
220
0.0
230
1.0
 40
0.5860215324410826
 41
0.7927407620551209
 42
2.348684405896848
1001
PE_URL
1000

  0
LINE
  5
739
330
673
100
AcDbEntity
  8
0
  6
Continuous
 62
     7
370
     5
100
AcDbLine
 10
15.51382461381581
 20
145.8238253884692
 30
0.0
 11
15.82705986422661
 21
146.0046522495231
 31
0.0
1001
PE_URL
1000

  0
LINE
  5
73A
330
673
100
AcDbEntity
  8
0
  6
Continuous
 62
     7
370
     5
100
AcDbLine
 10
15.82705986422661
 20
146.0046522495231
 30
0.0
 11
15.82705986422661
 21
146.4292534717042
 31
0.0
1001
PE_URL
1000

  0
LINE
  5
73B
330
673
100
AcDbEntity
  8
0
  6
Continuous
 62
     7
370
     5
100
AcDbLine
 10
15.82705986422661
 20
146.4292534717042
 30
0.0
 11
15.51382461381581
 21
146.2484266106494
 31
0.0
1001
PE_URL
1000

  0
ELLIPSE
  5
73C
330
673
100
AcDbEntity
  8
0
  6
Continuous
 62
     7
370
     5
100
AcDbEllipse
 10
15.51805697990858
 20
146.5799390599332
 30
0.0
 11
0.2029770344755306
 21
0.3516029848150595
 31
0.0
210
0.0
220
0.0
230
1.0
 40
0.5688689412912994
 41
2.363541920733215
 42
3.919485564592219
1001
PE_URL
1000

  0
LINE
  5
73D
330
673
100
AcDbEntity
  8
0
  6
Continuous
 62
     7
370
     5
100
AcDbLine
 10
15.23309016802887
 20
146.410543840937
 30
0.0
 11
15.23309016802887
 21
146.7722563467223
 31
0.0
1001
PE_URL
1000

  0
LINE
  5
73E
330
673
100
AcDbEntity
  8
0
  6
Continuous
 62
     7
370
     5
100
AcDbLine
 10
15.2397283901264
 20
146.3438842822079
 30
0.0
 11
14.8653946418126
 21
146.5599902376489
 31
0.0
1001
PE_URL
1000

  0
LINE
  5
73F
330
673
100
AcDbEntity
  8
0
  6
Continuous
 62
     7
370
     5
100
AcDbLine
 10
14.6458435828572
 20
145.3150495861819
 30
0.0
 11
14.27142494561485
 21
145.531204548699
 31
0.0
1001
PE_URL
1000

  0
LINE
  5
740
330
673
100
AcDbEntity
  8
0
  6
Continuous
 62
     7
370
     5
100
AcDbLine
 10
12.69597042056193
 20
140.7175371813464
 30
0.0
 11
11.90291919288211
 21
141.1753559101398
 31
0.0
1001
PE_URL
1000

  0
ARC
  5
741
330
673
100
AcDbEntity
  8
0
  6
Continuous
 62
     7
370
     5
100
AcDbCircle
 10
0.1414159890337032
 20
122.4164032544877
 30
0.0
 40
0.1005954471804208
100
AcDbArc
 50
245.6928809523345
 51
305.6175774729485
1001
PE_URL
1000

  0
ARC
  5
742
330
673
100
AcDbEntity
  8
0
  6
Continuous
 62
     7
370
     5
100
AcDbCircle
 10
0.1000914124997507
 20
122.4879538756613
 30
0.0
 40
0.1005878556987697
100
AcDbArc
 50
114.3746582925649
 51
174.305200748979
1001
PE_URL
1000

  0
ARC
  5
743
330
673
100
AcDbEntity
  8
0
  6
Continuous
 62
     7
370
     5
100
AcDbCircle
 10
0.1000914124997507
 20
153.189888402565
 30
0.0
 40
0.1005878556988135
100
AcDbArc
 50
114.3746582925649
 51
174.305200748979
1001
PE_URL
1000

  0
ARC
  5
744
330
673
100
AcDbEntity
  8
0
  6
Continuous
 62
     7
370
     5
100
AcDbCircle
 10
17.83138528469499
 20
163.498724692593
 30
0.0
 40
0.0959051093593635
100
AcDbArc
 50
124.0563508610491
 51
187.2558295335765
1001
PE_URL
1000

  0
ARC
  5
745
330
673
100
AcDbEntity
  8
0
  6
Continuous
 62
     7
370
     5
100
AcDbCircle
 10
17.92109050546787
 20
163.4974292343977
 30
0.0
 40
0.0985955859652507
100
AcDbArc
 50
353.7011524698116
 51
54.98666713673186
1001
PE_URL
1000

  0
LINE
  5
746
330
673
100
AcDbEntity
  8
0
  6
Continuous
 62
     7
370
     5
100
AcDbLine
 10
7.095288414046081
 20
147.2186105056408
 30
0.0
 11
5.405653493264253
 21
148.3352051292632
 31
0.0
1001
PE_URL
1000

  0
ARC
  5
747
330
673
100
AcDbEntity
  8
0
  6
Continuous
 62
     7
370
     5
100
AcDbCircle
 10
0.1537157550374104
 20
153.293623294805
 30
0.0
 40
0.0959051093672933
100
AcDbArc
 50
124.0563508628247
 51
187.2558295308715
1001
PE_URL
1000

  0
ARC
  5
748
330
673
100
AcDbEntity
  8
0
  6
Continuous
 62
     7
370
     5
100
AcDbCircle
 10
229.8267697606607
 20
10.39512012240357
 30
0.0
 40
0.100587855698831
100
AcDbArc
 50
5.694799251020994
 51
65.62534170743511
1001
PE_URL
1000

  0
ARC
  5
749
330
673
100
AcDbEntity
  8
0
  6
Continuous
 62
     7
370
     5
100
AcDbCircle
 10
229.7854451841267
 20
10.32356950122994
 30
0.0
 40
0.100595447180408
100
AcDbArc
 50
234.382422524462
 51
294.3071190455639
1001
PE_URL
1000

  0
ARC
  5
74A
330
673
100
AcDbEntity
  8
0
  6
Continuous
 62
     7
370
     5
100
AcDbCircle
 10
229.8267697606607
 20
41.09705464930812
 30
0.0
 40
0.10058785569881
100
AcDbArc
 50
5.694799251020994
 51
65.62534170743511
1001
PE_URL
1000

  0
ARC
  5
74B
330
673
100
AcDbEntity
  8
0
  6
Continuous
 62
     7
370
     5
100
AcDbCircle
 10
211.9906076325242
 20
0.1184681034465029
 30
0.0
 40
0.1005954471804416
100
AcDbArc
 50
245.6928809544361
 51
305.6175774755379
1001
PE_URL
1000

  0
ARC
  5
74C
330
673
100
AcDbEntity
  8
0
  6
Continuous
 62
     7
370
     5
100
AcDbCircle
 10
212.1077756544619
 20
0.1184681034455934
 30
0.0
 40
0.1005954471803004
100
AcDbArc
 50
234.3824225267498
 51
294.3071190476655
1001
PE_URL
1000

  0
ARC
  5
74D
330
673
100
AcDbEntity
  8
0
  6
Continuous
 62
     7
370
     5
100
AcDbCircle
 10
229.7702821489438
 20
41.19949408334924
 30
0.0
 40
0.0985955859812574
100
AcDbArc
 50
353.701152475174
 51
54.98666713283841
1001
PE_URL
1000

  0
LINE
  5
74E
330
673
100
AcDbEntity
  8
0
  6
Continuous
 62
     7
370
     5
100
AcDbLine
 10
14.47029196382937
 20
134.7335567496757
 30
0.0
 11
8.792708949131338
 21
138.011155658407
 31
0.0
1001
PE_URL
1000

  0
LINE
  5
74F
330
673
100
AcDbEntity
  8
0
  6
Continuous
 62
     7
370
     5
100
AcDbLine
 10
8.852448780522536
 20
138.0882735505056
 30
0.0
 11
14.44915954417593
 21
134.8573611985512
 31
0.0
1001
PE_URL
1000

  0
LINE
  5
750
330
673
100
AcDbEntity
  8
0
  6
Continuous
 62
     7
370
     5
100
AcDbLine
 10
14.44128802576233
 20
134.9034765518891
 30
0.0
 11
8.87602700259231
 21
138.1162333551129
 31
0.0
1001
PE_URL
1000

  0
LINE
  5
751
330
673
100
AcDbEntity
  8
0
  6
Continuous
 62
     7
370
     5
100
AcDbLine
 10
14.34891287682331
 20
135.4446570977725
 30
0.0
 11
9.223107651527243
 21
138.4037214688778
 31
0.0
1001
PE_URL
1000

  0
LINE
  5
752
330
673
100
AcDbEntity
  8
0
  6
Continuous
 62
     7
370
     5
100
AcDbLine
 10
9.454830852057057
 20
138.5374924251482
 30
0.0
 11
14.29825376780718
 21
135.7414438914511
 31
0.0
1001
PE_URL
1000

  0
LINE
  5
753
330
673
100
AcDbEntity
  8
0
  6
Continuous
 62
     7
370
     5
100
AcDbLine
 10
3.664823227816669
 20
150.7909216778098
 30
0.0
 11
8.474103292741347
 21
148.0145833923507
 31
0.0
1001
PE_URL
1000

  0
LINE
  5
754
330
673
100
AcDbEntity
  8
0
  6
Continuous
 62
     7
370
     5
100
AcDbLine
 10
8.19123759345166
 20
147.85128849998
 30
0.0
 11
3.664823227816669
 21
150.4643318930684
 31
0.0
1001
PE_URL
1000

  0
LINE
  5
755
330
673
100
AcDbEntity
  8
0
  6
Continuous
 62
     7
370
     5
100
AcDbLine
 10
9.252047179532383
 20
148.4636808388877
 30
0.0
 11
3.664823227816669
 21
151.6891165708839
 31
0.0
1001
PE_URL
1000

  0
LINE
  5
756
330
673
100
AcDbEntity
  8
0
  6
Continuous
 62
     7
370
     5
100
AcDbLine
 10
3.210166621171084
 20
134.246431166478
 30
0.0
 11
3.49748343776082
 21
133.9876944119897
 31
0.0
1001
PE_URL
1000

  0
LINE
  5
757
330
673
100
AcDbEntity
  8
0
  6
Continuous
 62
     7
370
     5
100
AcDbLine
 10
2.929432175384136
 20
133.003910248246
 30
0.0
 11
2.561736649167869
 21
133.1233175131138
 31
0.0
1001
PE_URL
1000

  0
LINE
  5
758
330
673
100
AcDbEntity
  8
0
  6
Continuous
 62
     7
370
     5
100
AcDbLine
 10
2.92943219083827
 20
133.3356919941707
 30
0.0
 11
2.281002203380922
 21
133.7100359655806
 31
0.0
1001
PE_URL
1000

  0
LINE
  5
759
330
673
100
AcDbEntity
  8
0
  6
Continuous
 62
     7
370
     5
100
AcDbLine
 10
2.561736649167869
 20
134.1962822876903
 30
0.0
 11
3.210260490290239
 21
133.8218841337866
 31
0.0
1001
PE_URL
1000

  0
LINE
  5
75A
330
673
100
AcDbEntity
  8
0
  6
Continuous
 62
     7
370
     5
100
AcDbLine
 10
15.51382461381581
 20
146.2484266106494
 30
0.0
 11
15.80114143040555
 21
145.9896898561619
 31
0.0
1001
PE_URL
1000

  0
LINE
  5
75B
330
673
100
AcDbEntity
  8
0
  6
Continuous
 62
     7
370
     5
100
AcDbLine
 10
15.23309016802887
 20
145.0059056924183
 30
0.0
 11
14.8653946418126
 21
145.1253129572851
 31
0.0
1001
PE_URL
1000

  0
LINE
  5
75C
330
673
100
AcDbEntity
  8
0
  6
Continuous
 62
     7
370
     5
100
AcDbLine
 10
15.233090183483
 20
145.337687438343
 30
0.0
 11
14.58466019602565
 21
145.7120314097529
 31
0.0
1001
PE_URL
1000

  0
LINE
  5
75D
330
673
100
AcDbEntity
  8
0
  6
Continuous
 62
     7
370
     5
100
AcDbLine
 10
14.8653946418126
 20
146.1982777318626
 30
0.0
 11
15.51391848293497
 21
145.8238795779589
 31
0.0
1001
PE_URL
1000

  0
ENDBLK
  5
75F
330
673
100
AcDbEntity
  8
0
100
AcDbBlockEnd
  0
BLOCK
  5
679
330
678
100
AcDbEntity
  8
0
100
AcDbBlockBegin
  2
_OPEN30
 70
     0
 10
0.0
 20
0.0
 30
0.0
  3
_OPEN30
  1

  0
LINE
  5
67A
330
678
100
AcDbEntity
  8
0
  6
ByBlock
 62
     0
100
AcDbLine
 10
-1.0
 20
0.26794919
 30
0.0
 11
0.0
 21
0.0
 31
0.0
  0
LINE
  5
67B
330
678
100
AcDbEntity
  8
0
  6
ByBlock
 62
     0
100
AcDbLine
 10
0.0
 20
0.0
 30
0.0
 11
-1.0
 21
-0.26794919
 31
0.0
  0
LINE
  5
67C
330
678
100
AcDbEntity
  8
0
  6
ByBlock
 62
     0
100
AcDbLine
 10
0.0
 20
0.0
 30
0.0
 11
-1.0
 21
0.0
 31
0.0
  0
ENDBLK
  5
67D
330
678
100
AcDbEntity
  8
0
100
AcDbBlockEnd
  0
ENDSEC
  0
SECTION
  2
ENTITIES
  0
MTEXT
  5
30D
330
1F
100
AcDbEntity
  8
寸法線
100
AcDbMText
 10
275.8978525037037
 20
247.495226903704
 30
0.0
 40
11.66666666666667
 41
273.3522079092452
 71
     1
 72
     5
  1
{MPP-10/0300/COS90/J}
 73
     1
 44
1.0
1001
ACAD
1000
ACAD_MTEXT_DEFINED_HEIGHT_BEGIN
1070
    46
1040
11.66666666666667
1000
ACAD_MTEXT_DEFINED_HEIGHT_END
  0
INSERT
  5
760
330
1F
100
AcDbEntity
  8
0
100
AcDbBlockReference
  2
A$C8394
 10
245.740242708241
 20
277.5390344441522
 30
0.0
  0
ENDSEC
  0
SECTION
  2
OBJECTS
  0
DICTIONARY
  5
C
330
0
100
AcDbDictionary
281
     1
  3
ACAD_DETAILVIEWSTYLE
350
313
  3
ACAD_GROUP
350
D
  3
ACAD_LAYOUT
350
1A
  3
ACAD_MLINESTYLE
350
17
  3
ACAD_PLOTSETTINGS
350
19
  3
ACAD_PLOTSTYLENAME
350
E
  3
ACAD_SCALELIST
350
47
  3
ACAD_SECTIONVIEWSTYLE
350
314
  3
AcDbVariableDictionary
350
30E
  3
APPDATA
350
2E6
  3
DWGPROPS
350
761
  0
DICTIONARY
  5
308
330
2
100
AcDbDictionary
280
     1
281
     1
  3
ACAD_LAYERSTATES
360
309
  0
DICTIONARY
  5
2E9
330
2E8
100
AcDbDictionary
280
     1
281
     1
  3
ADSK_XREC_LAYER_RECONCILED
360
2EA
  0
DICTIONARY
  5
313
102
{ACAD_REACTORS
330
C
102
}
330
C
100
AcDbDictionary
281
     1
  0
DICTIONARY
  5
D
102
{ACAD_REACTORS
330
C
102
}
330
C
100
AcDbDictionary
281
     1
  0
DICTIONARY
  5
1A
102
{ACAD_REACTORS
330
C
102
}
330
C
100
AcDbDictionary
281
     1
  3
Layout1
350
1E
  3
Layout2
350
26
  3
Model
350
22
  0
DICTIONARY
  5
17
102
{ACAD_REACTORS
330
C
102
}
330
C
100
AcDbDictionary
281
     1
  3
Standard
350
18
  0
DICTIONARY
  5
19
102
{ACAD_REACTORS
330
C
102
}
330
C
100
AcDbDictionary
281
     1
  0
ACDBDICTIONARYWDFLT
  5
E
102
{ACAD_REACTORS
330
C
102
}
330
C
100
AcDbDictionary
281
     1
  3
Normal
350
F
100
AcDbDictionaryWithDefault
340
F
  0
DICTIONARY
  5
47
102
{ACAD_REACTORS
330
C
102
}
330
C
100
AcDbDictionary
281
     1
  3
A0
350
48
  3
A1
350
49
  3
A2
350
4A
  3
A3
350
4B
  3
A4
350
4C
  3
A5
350
4D
  3
A6
350
4E
  3
A7
350
4F
  3
A8
350
50
  3
A9
350
51
  3
B0
350
52
  3
B1
350
53
  3
B2
350
54
  3
B3
350
55
  3
B4
350
56
  3
B5
350
57
  3
B6
350
58
  3
B7
350
59
  3
B8
350
5A
  3
B9
350
5B
  3
C0
350
5C
  3
C1
350
5D
  3
C2
350
5E
  3
C3
350
5F
  3
C4
350
60
  3
C5
350
61
  3
C6
350
62
  3
C7
350
63
  3
C8
350
64
  3
C9
350
65
  3
D0
350
66
  3
D1
350
67
  3
D2
350
68
  0
DICTIONARY
  5
314
102
{ACAD_REACTORS
330
C
102
}
330
C
100
AcDbDictionary
281
     1
  0
DICTIONARY
  5
30E
102
{ACAD_REACTORS
330
C
102
}
330
C
100
AcDbDictionary
281
     1
  0
DICTIONARY
  5
2E6
102
{ACAD_REACTORS
330
C
102
}
330
C
100
AcDbDictionary
281
     1
  0
XRECORD
  5
761
102
{ACAD_REACTORS
330
C
102
}
330
C
100
AcDbXrecord
280
     1
  1
DWGPROPS COOKIE
  2

  3

  4

  6

  7

  8
ModuleX
  9

300
=
301
=
302
=
303
=
304
=
305
=
306
=
307
=
308
=
309
=
 40
0.0
 41
2458682.164137454
 42
2459611.330369688
  1

 90
        0
  0
DICTIONARY
  5
309
102
{ACAD_REACTORS
330
308
102
}
330
308
100
AcDbDictionary
281
     1
  0
XRECORD
  5
2EA
102
{ACAD_REACTORS
330
2E9
102
}
330
2E9
100
AcDbXrecord
280
     1
290
     1
  0
LAYOUT
  5
1E
102
{ACAD_REACTORS
330
1A
102
}
330
1A
100
AcDbPlotSettings
  1

  2
none_device
  4

  6

 40
0.0
 41
0.0
 42
0.0
 43
0.0
 44
0.0
 45
0.0
 46
0.0
 47
0.0
 48
0.0
 49
0.0
140
0.0
141
0.0
142
1.0
143
1.0
 70
   688
 72
     1
 73
     0
 74
     5
  7

 75
    16
147
1.0
148
0.0
149
0.0
100
AcDbLayout
  1
Layout1
 70
     1
 71
     1
 10
0.0
 20
0.0
 11
420.0
 21
297.0
 12
0.0
 22
0.0
 32
0.0
 14
1.000000000000000E+20
 24
1.000000000000000E+20
 34
1.000000000000000E+20
 15
-1.000000000000000E+20
 25
-1.000000000000000E+20
 35
-1.000000000000000E+20
146
0.0
 13
0.0
 23
0.0
 33
0.0
 16
1.0
 26
0.0
 36
0.0
 17
0.0
 27
1.0
 37
0.0
 76
     0
330
1B
  0
LAYOUT
  5
26
102
{ACAD_REACTORS
330
1A
102
}
330
1A
100
AcDbPlotSettings
  1

  2
none_device
  4

  6

 40
0.0
 41
0.0
 42
0.0
 43
0.0
 44
0.0
 45
0.0
 46
0.0
 47
0.0
 48
0.0
 49
0.0
140
0.0
141
0.0
142
1.0
143
1.0
 70
   688
 72
     1
 73
     0
 74
     5
  7

 75
    16
147
1.0
148
0.0
149
0.0
100
AcDbLayout
  1
Layout2
 70
     1
 71
     2
 10
0.0
 20
0.0
 11
0.0
 21
0.0
 12
0.0
 22
0.0
 32
0.0
 14
0.0
 24
0.0
 34
0.0
 15
0.0
 25
0.0
 35
0.0
146
0.0
 13
0.0
 23
0.0
 33
0.0
 16
1.0
 26
0.0
 36
0.0
 17
0.0
 27
1.0
 37
0.0
 76
     0
330
23
  0
LAYOUT
  5
22
102
{ACAD_REACTORS
330
1A
102
}
330
1A
100
AcDbPlotSettings
  1

  2
none_device
  4
Letter_(8.50_x_11.00_Inches)
  6

 40
6.35
 41
6.35
 42
6.35000508
 43
6.35000508
 44
215.9
 45
279.4
 46
0.0
 47
0.0
 48
0.0
 49
0.0
140
0.0
141
0.0
142
1.0
143
1.0
 70
  1712
 72
     1
 73
     0
 74
     0
  7

 75
     0
147
1.0
148
0.0
149
0.0
100
AcDbLayout
  1
Model
 70
     1
 71
     0
 10
0.0
 20
0.0
 11
1189.0
 21
841.0
 12
0.0
 22
0.0
 32
0.0
 14
245.7402427082417
 24
235.8285602370374
 34
0.0
 15
480.0645191703703
 25
441.1440055198811
 35
0.0
146
0.0
 13
0.0
 23
0.0
 33
0.0
 16
1.0
 26
0.0
 36
0.0
 17
0.0
 27
1.0
 37
0.0
 76
     0
330
1F
331
29
  0
MLINESTYLE
  5
18
102
{ACAD_REACTORS
330
17
102
}
330
17
100
AcDbMlineStyle
  2
Standard
 70
     0
  3

 62
   256
 51
90.0
 52
90.0
 71
     2
 49
0.5
 62
   256
  6
BYLAYER
 49
-0.5
 62
   256
  6
BYLAYER
  0
ACDBPLACEHOLDER
  5
F
102
{ACAD_REACTORS
330
E
102
}
330
E
  0
SCALE
  5
48
102
{ACAD_REACTORS
330
47
102
}
330
47
100
AcDbScale
 70
     0
300
1:1
140
1.0
141
1.0
290
     1
  0
SCALE
  5
49
102
{ACAD_REACTORS
330
47
102
}
330
47
100
AcDbScale
 70
     0
300
1:2
140
1.0
141
2.0
290
     0
  0
SCALE
  5
4A
102
{ACAD_REACTORS
330
47
102
}
330
47
100
AcDbScale
 70
     0
300
1:4
140
1.0
141
4.0
290
     0
  0
SCALE
  5
4B
102
{ACAD_REACTORS
330
47
102
}
330
47
100
AcDbScale
 70
     0
300
1:5
140
1.0
141
5.0
290
     0
  0
SCALE
  5
4C
102
{ACAD_REACTORS
330
47
102
}
330
47
100
AcDbScale
 70
     0
300
1:8
140
1.0
141
8.0
290
     0
  0
SCALE
  5
4D
102
{ACAD_REACTORS
330
47
102
}
330
47
100
AcDbScale
 70
     0
300
1:10
140
1.0
141
10.0
290
     0
  0
SCALE
  5
4E
102
{ACAD_REACTORS
330
47
102
}
330
47
100
AcDbScale
 70
     0
300
1:16
140
1.0
141
16.0
290
     0
  0
SCALE
  5
4F
102
{ACAD_REACTORS
330
47
102
}
330
47
100
AcDbScale
 70
     0
300
1:20
140
1.0
141
20.0
290
     0
  0
SCALE
  5
50
102
{ACAD_REACTORS
330
47
102
}
330
47
100
AcDbScale
 70
     0
300
1:30
140
1.0
141
30.0
290
     0
  0
SCALE
  5
51
102
{ACAD_REACTORS
330
47
102
}
330
47
100
AcDbScale
 70
     0
300
1:40
140
1.0
141
40.0
290
     0
  0
SCALE
  5
52
102
{ACAD_REACTORS
330
47
102
}
330
47
100
AcDbScale
 70
     0
300
1:50
140
1.0
141
50.0
290
     0
  0
SCALE
  5
53
102
{ACAD_REACTORS
330
47
102
}
330
47
100
AcDbScale
 70
     0
300
1:100
140
1.0
141
100.0
290
     0
  0
SCALE
  5
54
102
{ACAD_REACTORS
330
47
102
}
330
47
100
AcDbScale
 70
     0
300
2:1
140
2.0
141
1.0
290
     0
  0
SCALE
  5
55
102
{ACAD_REACTORS
330
47
102
}
330
47
100
AcDbScale
 70
     0
300
4:1
140
4.0
141
1.0
290
     0
  0
SCALE
  5
56
102
{ACAD_REACTORS
330
47
102
}
330
47
100
AcDbScale
 70
     0
300
8:1
140
8.0
141
1.0
290
     0
  0
SCALE
  5
57
102
{ACAD_REACTORS
330
47
102
}
330
47
100
AcDbScale
 70
     0
300
10:1
140
10.0
141
1.0
290
     0
  0
SCALE
  5
58
102
{ACAD_REACTORS
330
47
102
}
330
47
100
AcDbScale
 70
     0
300
100:1
140
100.0
141
1.0
290
     0
  0
SCALE
  5
59
102
{ACAD_REACTORS
330
47
102
}
330
47
100
AcDbScale
 70
     0
300
1/128" = 1'-0"
140
0.0078125
141
12.0
290
     0
  0
SCALE
  5
5A
102
{ACAD_REACTORS
330
47
102
}
330
47
100
AcDbScale
 70
     0
300
1/64" = 1'-0"
140
0.015625
141
12.0
290
     0
  0
SCALE
  5
5B
102
{ACAD_REACTORS
330
47
102
}
330
47
100
AcDbScale
 70
     0
300
1/32" = 1'-0"
140
0.03125
141
12.0
290
     0
  0
SCALE
  5
5C
102
{ACAD_REACTORS
330
47
102
}
330
47
100
AcDbScale
 70
     0
300
1/16" = 1'-0"
140
0.0625
141
12.0
290
     0
  0
SCALE
  5
5D
102
{ACAD_REACTORS
330
47
102
}
330
47
100
AcDbScale
 70
     0
300
3/32" = 1'-0"
140
0.09375
141
12.0
290
     0
  0
SCALE
  5
5E
102
{ACAD_REACTORS
330
47
102
}
330
47
100
AcDbScale
 70
     0
300
1/8" = 1'-0"
140
0.125
141
12.0
290
     0
  0
SCALE
  5
5F
102
{ACAD_REACTORS
330
47
102
}
330
47
100
AcDbScale
 70
     0
300
3/16" = 1'-0"
140
0.1875
141
12.0
290
     0
  0
SCALE
  5
60
102
{ACAD_REACTORS
330
47
102
}
330
47
100
AcDbScale
 70
     0
300
1/4" = 1'-0"
140
0.25
141
12.0
290
     0
  0
SCALE
  5
61
102
{ACAD_REACTORS
330
47
102
}
330
47
100
AcDbScale
 70
     0
300
3/8" = 1'-0"
140
0.375
141
12.0
290
     0
  0
SCALE
  5
62
102
{ACAD_REACTORS
330
47
102
}
330
47
100
AcDbScale
 70
     0
300
1/2" = 1'-0"
140
0.5
141
12.0
290
     0
  0
SCALE
  5
63
102
{ACAD_REACTORS
330
47
102
}
330
47
100
AcDbScale
 70
     0
300
3/4" = 1'-0"
140
0.75
141
12.0
290
     0
  0
SCALE
  5
64
102
{ACAD_REACTORS
330
47
102
}
330
47
100
AcDbScale
 70
     0
300
1" = 1'-0"
140
1.0
141
12.0
290
     0
  0
SCALE
  5
65
102
{ACAD_REACTORS
330
47
102
}
330
47
100
AcDbScale
 70
     0
300
1-1/2" = 1'-0"
140
1.5
141
12.0
290
     0
  0
SCALE
  5
66
102
{ACAD_REACTORS
330
47
102
}
330
47
100
AcDbScale
 70
     0
300
3" = 1'-0"
140
3.0
141
12.0
290
     0
  0
SCALE
  5
67
102
{ACAD_REACTORS
330
47
102
}
330
47
100
AcDbScale
 70
     0
300
6" = 1'-0"
140
6.0
141
12.0
290
     0
  0
SCALE
  5
68
102
{ACAD_REACTORS
330
47
102
}
330
47
100
AcDbScale
 70
     0
300
1'-0" = 1'-0"
140
12.0
141
12.0
290
     0
  0
ENDSEC
  0
EOF
