  0
SECTION
  2
HEADER
  9
$ACADVER
  1
AC1015
  9
$ACADMAINTVER
 70
     6
  9
$DWGCODEPAGE
  3
ANSI_932
  9
$INSBASE
 10
0.0
 20
0.0
 30
0.0
  9
$EXTMIN
 10
-844.0623403053619
 20
-2049.693189472254
 30
0.0
  9
$EXTMAX
 10
-790.9790069720286
 20
-1971.875553770067
 30
0.0
  9
$LIMMIN
 10
0.0
 20
0.0
  9
$LIMMAX
 10
420.0
 20
297.0
  9
$ORTHOMODE
 70
     1
  9
$REGENMODE
 70
     1
  9
$FILLMODE
 70
     1
  9
$QTEXTMODE
 70
     0
  9
$MIRRTEXT
 70
     1
  9
$LTSCALE
 40
5.0
  9
$ATTMODE
 70
     0
  9
$TEXTSIZE
 40
3.0
  9
$TRACEWID
 40
1.0
  9
$TEXTSTYLE
  7
STANDARD
  9
$CLAYER
  8
0
  9
$CELTYPE
  6
BYLAYER
  9
$CECOLOR
 62
   256
  9
$CELTSCALE
 40
1.0
  9
$DISPSILH
 70
     0
  9
$DIMSCALE
 40
1.0
  9
$DIMASZ
 40
2.5
  9
$DIMEXO
 40
1.5
  9
$DIMDLI
 40
7.0
  9
$DIMRND
 40
0.0
  9
$DIMDLE
 40
0.0
  9
$DIMEXE
 40
1.0
  9
$DIMTP
 40
0.0
  9
$DIMTM
 40
0.0
  9
$DIMTXT
 40
3.0
  9
$DIMCEN
 40
0.0
  9
$DIMTSZ
 40
0.0
  9
$DIMTOL
 70
     0
  9
$DIMLIM
 70
     0
  9
$DIMTIH
 70
     0
  9
$DIMTOH
 70
     0
  9
$DIMSE1
 70
     0
  9
$DIMSE2
 70
     0
  9
$DIMTAD
 70
     3
  9
$DIMZIN
 70
     8
  9
$DIMBLK
  1
OPEN30
  9
$DIMASO
 70
     1
  9
$DIMSHO
 70
     0
  9
$DIMPOST
  1

  9
$DIMAPOST
  1

  9
$DIMALT
 70
     0
  9
$DIMALTD
 70
     0
  9
$DIMALTF
 40
25.4
  9
$DIMLFAC
 40
1.0
  9
$DIMTOFL
 70
     1
  9
$DIMTVP
 40
0.0
  9
$DIMTIX
 70
     0
  9
$DIMSOXD
 70
     0
  9
$DIMSAH
 70
     0
  9
$DIMBLK1
  1

  9
$DIMBLK2
  1

  9
$DIMSTYLE
  2
STANDARD
  9
$DIMCLRD
 70
     8
  9
$DIMCLRE
 70
     8
  9
$DIMCLRT
 70
   256
  9
$DIMTFAC
 40
0.6
  9
$DIMGAP
 40
1.0
  9
$DIMJUST
 70
     0
  9
$DIMSD1
 70
     0
  9
$DIMSD2
 70
     0
  9
$DIMTOLJ
 70
     1
  9
$DIMTZIN
 70
     0
  9
$DIMALTZ
 70
     0
  9
$DIMALTTZ
 70
     0
  9
$DIMUPT
 70
     0
  9
$DIMDEC
 70
     3
  9
$DIMTDEC
 70
     3
  9
$DIMALTU
 70
     2
  9
$DIMALTTD
 70
     0
  9
$DIMTXSTY
  7
STANDARD
  9
$DIMAUNIT
 70
     0
  9
$DIMADEC
 70
     3
  9
$DIMALTRND
 40
0.0
  9
$DIMAZIN
 70
     2
  9
$DIMDSEP
 70
    46
  9
$DIMATFIT
 70
     0
  9
$DIMFRAC
 70
     0
  9
$DIMLDRBLK
  1
OPEN30
  9
$DIMLUNIT
 70
     2
  9
$DIMLWD
 70
    -2
  9
$DIMLWE
 70
    -1
  9
$DIMTMOVE
 70
     0
  9
$LUNITS
 70
     2
  9
$LUPREC
 70
     2
  9
$SKETCHINC
 40
0.1
  9
$FILLETRAD
 40
0.3
  9
$AUNITS
 70
     0
  9
$AUPREC
 70
     1
  9
$MENU
  1
FM
  9
$ELEVATION
 40
0.0
  9
$PELEVATION
 40
0.0
  9
$THICKNESS
 40
0.0
  9
$LIMCHECK
 70
     0
  9
$CHAMFERA
 40
0.0
  9
$CHAMFERB
 40
0.0
  9
$CHAMFERC
 40
0.0
  9
$CHAMFERD
 40
0.0
  9
$SKPOLY
 70
     0
  9
$TDCREATE
 40
2448636.619629607
  9
$TDUCREATE
 40
2448636.244629607
  9
$TDUPDATE
 40
2457907.817725834
  9
$TDUUPDATE
 40
2457907.442725834
  9
$TDINDWG
 40
101.1079460185
  9
$TDUSRTIMER
 40
2457907.442257535
  9
$USRTIMER
 70
     1
  9
$ANGBASE
 50
0.0
  9
$ANGDIR
 70
     0
  9
$PDMODE
 70
     3
  9
$PDSIZE
 40
0.0
  9
$PLINEWID
 40
0.0
  9
$SPLFRAME
 70
     0
  9
$SPLINETYPE
 70
     6
  9
$SPLINESEGS
 70
     8
  9
$HANDSEED
  5
385F64
  9
$SURFTAB1
 70
     6
  9
$SURFTAB2
 70
     6
  9
$SURFTYPE
 70
     6
  9
$SURFU
 70
     6
  9
$SURFV
 70
     6
  9
$UCSBASE
  2

  9
$UCSNAME
  2

  9
$UCSORG
 10
0.0
 20
0.0
 30
0.0
  9
$UCSXDIR
 10
1.0
 20
0.0
 30
0.0
  9
$UCSYDIR
 10
0.0
 20
1.0
 30
0.0
  9
$UCSORTHOREF
  2

  9
$UCSORTHOVIEW
 70
     0
  9
$UCSORGTOP
 10
0.0
 20
0.0
 30
0.0
  9
$UCSORGBOTTOM
 10
0.0
 20
0.0
 30
0.0
  9
$UCSORGLEFT
 10
0.0
 20
0.0
 30
0.0
  9
$UCSORGRIGHT
 10
0.0
 20
0.0
 30
0.0
  9
$UCSORGFRONT
 10
0.0
 20
0.0
 30
0.0
  9
$UCSORGBACK
 10
0.0
 20
0.0
 30
0.0
  9
$PUCSBASE
  2

  9
$PUCSNAME
  2

  9
$PUCSORG
 10
0.0
 20
0.0
 30
0.0
  9
$PUCSXDIR
 10
1.0
 20
0.0
 30
0.0
  9
$PUCSYDIR
 10
0.0
 20
1.0
 30
0.0
  9
$PUCSORTHOREF
  2

  9
$PUCSORTHOVIEW
 70
     0
  9
$PUCSORGTOP
 10
0.0
 20
0.0
 30
0.0
  9
$PUCSORGBOTTOM
 10
0.0
 20
0.0
 30
0.0
  9
$PUCSORGLEFT
 10
0.0
 20
0.0
 30
0.0
  9
$PUCSORGRIGHT
 10
0.0
 20
0.0
 30
0.0
  9
$PUCSORGFRONT
 10
0.0
 20
0.0
 30
0.0
  9
$PUCSORGBACK
 10
0.0
 20
0.0
 30
0.0
  9
$USERI1
 70
     0
  9
$USERI2
 70
     0
  9
$USERI3
 70
     0
  9
$USERI4
 70
     0
  9
$USERI5
 70
     0
  9
$USERR1
 40
0.0
  9
$USERR2
 40
0.0
  9
$USERR3
 40
0.0
  9
$USERR4
 40
0.0
  9
$USERR5
 40
0.0
  9
$WORLDVIEW
 70
     0
  9
$SHADEDGE
 70
     3
  9
$SHADEDIF
 70
    70
  9
$TILEMODE
 70
     1
  9
$MAXACTVP
 70
    16
  9
$PINSBASE
 10
0.0
 20
0.0
 30
0.0
  9
$PLIMCHECK
 70
     0
  9
$PEXTMIN
 10
1.000000000000000E+20
 20
1.000000000000000E+20
 30
1.000000000000000E+20
  9
$PEXTMAX
 10
-1.000000000000000E+20
 20
-1.000000000000000E+20
 30
-1.000000000000000E+20
  9
$PLIMMIN
 10
0.0
 20
0.0
  9
$PLIMMAX
 10
0.0
 20
0.0
  9
$UNITMODE
 70
     0
  9
$VISRETAIN
 70
     0
  9
$PLINEGEN
 70
     0
  9
$PSLTSCALE
 70
     0
  9
$TREEDEPTH
 70
  3020
  9
$CMLSTYLE
  2
STANDARD
  9
$CMLJUST
 70
     0
  9
$CMLSCALE
 40
1.0
  9
$PROXYGRAPHICS
 70
     1
  9
$MEASUREMENT
 70
     0
  9
$CELWEIGHT
370
    -1
  9
$ENDCAPS
280
     0
  9
$JOINSTYLE
280
     0
  9
$LWDISPLAY
290
     1
  9
$INSUNITS
 70
     0
  9
$HYPERLINKBASE
  1

  9
$STYLESHEET
  1
spax form.ctb
  9
$XEDIT
290
     1
  9
$CEPSNTYPE
380
     0
  9
$PSTYLEMODE
290
     1
  9
$FINGERPRINTGUID
  2
{E5B35D22-A717-11D3-9160-00E0294F7E09}
  9
$VERSIONGUID
  2
{82F1CA26-AC3C-4BCE-B3AD-B918D6C3B7D0}
  9
$EXTNAMES
290
     1
  9
$PSVPSCALE
 40
0.0
  9
$OLESTARTUP
290
     0
  0
ENDSEC
  0
SECTION
  2
CLASSES
  0
CLASS
  1
LWPOLYLINE
  2
AcDbPolyline
  3
ObjectDBX Classes
 90
        0
280
     0
281
     1
  0
CLASS
  1
ACDBDICTIONARYWDFLT
  2
AcDbDictionaryWithDefault
  3
ObjectDBX Classes
 90
        0
280
     0
281
     0
  0
CLASS
  1
ACDBPLACEHOLDER
  2
AcDbPlaceHolder
  3
ObjectDBX Classes
 90
        0
280
     0
281
     0
  0
CLASS
  1
LAYOUT
  2
AcDbLayout
  3
ObjectDBX Classes
 90
        0
280
     0
281
     0
  0
CLASS
  1
DICTIONARYVAR
  2
AcDbDictionaryVar
  3
ObjectDBX Classes
 90
        0
280
     0
281
     0
  0
CLASS
  1
MATERIAL
  2
AcDbMaterial
  3
ObjectDBX Classes
 90
     1153
280
     0
281
     0
  0
CLASS
  1
SORTENTSTABLE
  2
AcDbSortentsTable
  3
ObjectDBX Classes
 90
        0
280
     0
281
     0
  0
CLASS
  1
VISUALSTYLE
  2
AcDbVisualStyle
  3
ObjectDBX Classes
 90
     4095
280
     0
281
     0
  0
CLASS
  1
TABLESTYLE
  2
AcDbTableStyle
  3
ObjectDBX Classes
 90
     4095
280
     0
281
     0
  0
CLASS
  1
SCALE
  2
AcDbScale
  3
ObjectDBX Classes
 90
     1153
280
     0
281
     0
  0
CLASS
  1
MLEADERSTYLE
  2
AcDbMLeaderStyle
  3
ACDB_MLEADERSTYLE_CLASS
 90
     4095
280
     0
281
     0
  0
CLASS
  1
CELLSTYLEMAP
  2
AcDbCellStyleMap
  3
ObjectDBX Classes
 90
     1152
280
     0
281
     0
  0
CLASS
  1
MULTILEADER
  2
AcDbMLeader
  3
ACDB_MLEADER_CLASS
 90
     1025
280
     0
281
     1
  0
CLASS
  1
DIMASSOC
  2
AcDbDimAssoc
  3
"AcDbDimAssoc|Product Desc:     AcDim ARX App For Dimension|Company:          Autodesk, Inc.|WEB Address:      www.autodesk.com"
 90
        0
280
     0
281
     0
  0
CLASS
  1
LARGE_RADIAL_DIMENSION
  2
AcDbRadialDimensionLarge
  3
ObjectDBX Classes
 90
     1025
280
     0
281
     1
  0
CLASS
  1
RASTERVARIABLES
  2
AcDbRasterVariables
  3
ISM
 90
        0
280
     0
281
     0
  0
CLASS
  1
AEC_VARS_DWG_SETUP
  2
AecDbVarsDwgSetup
  3
AecBase60
 90
      129
280
     0
281
     0
  0
CLASS
  1
AEC_DISP_REP_2D_SECTION
  2
AecDbDispRep2dSection
  3
AecBase60
 90
      129
280
     0
281
     0
  0
CLASS
  1
AEC_DISP_PROPS_2D_SECTION
  2
AecDbDispProps2dSection
  3
AecBase60
 90
      129
280
     0
281
     0
  0
CLASS
  1
AEC_DISP_REP_CLIP_VOLUME_MODEL
  2
AecDbDispRepClipVolModel
  3
AecBase60
 90
      129
280
     0
281
     0
  0
CLASS
  1
AEC_DISP_PROPS_CLIP_VOLUME
  2
AecDbDispPropsClipVol
  3
AecBase60
 90
      129
280
     0
281
     0
  0
CLASS
  1
AEC_DISP_REP_CLIP_VOLUME_PLAN
  2
AecDbDispRepClipVolPlan
  3
AecBase60
 90
      129
280
     0
281
     0
  0
CLASS
  1
AEC_DISP_REP_CLIP_VOLUME_RESULT
  2
AecDbDispRepClipVolResult
  3
AecBase60
 90
      129
280
     0
281
     0
  0
CLASS
  1
AEC_DISP_REP_CLIP_VOLUME_RESULT_SUBDIV
  2
AecDbDispRepClipVolResSubDiv
  3
AecBase60
 90
      129
280
     0
281
     0
  0
CLASS
  1
AEC_DISP_PROPS_CLIP_VOLUME_RESULT
  2
AecDbDispPropsClipVolResSubDiv
  3
AecBase60
 90
      129
280
     0
281
     0
  0
CLASS
  1
AEC_DISP_REP_DISPLAYTHEME
  2
AecDbDispRepDisplayTheme
  3
AecBase60
 90
      129
280
     0
281
     0
  0
CLASS
  1
AEC_DISP_PROPS_DISPLAYTHEME
  2
AecDbDispPropsDisplayTheme
  3
AecBase60
 90
      129
280
     0
281
     0
  0
CLASS
  1
AEC_DISP_REP_ENT_REF
  2
AecDbDispRepEntRef
  3
AecBase60
 90
      129
280
     0
281
     0
  0
CLASS
  1
AEC_DISP_PROPS_ENT_REF
  2
AecDbDispPropsEntRef
  3
AecBase60
 90
      129
280
     0
281
     0
  0
CLASS
  1
AEC_DISP_REP_LAYOUT_CURVE
  2
AecDbDispRepLayoutCurve
  3
AecBase60
 90
      129
280
     0
281
     0
  0
CLASS
  1
AEC_DISP_PROPS_LAYOUT_CURVE
  2
AecDbDispPropsLayoutCurve
  3
AecBase60
 90
      129
280
     0
281
     0
  0
CLASS
  1
AEC_DISP_REP_LAYOUT_GRID2D
  2
AecDbDispRepLayoutGrid2d
  3
AecBase60
 90
      129
280
     0
281
     0
  0
CLASS
  1
AEC_DISP_PROPS_LAYOUT_GRID2D
  2
AecDbDispPropsLayoutGrid2d
  3
AecBase60
 90
      129
280
     0
281
     0
  0
CLASS
  1
AEC_DISP_REP_LAYOUT_GRID3D
  2
AecDbDispRepLayoutGrid3d
  3
AecBase60
 90
      129
280
     0
281
     0
  0
CLASS
  1
AEC_DISP_PROPS_LAYOUT_GRID3D
  2
AecDbDispPropsLayoutGrid3d
  3
AecBase60
 90
      129
280
     0
281
     0
  0
CLASS
  1
AEC_DISP_REP_MASKBLOCK_REF
  2
AecDbDispRepMaskBlockRef
  3
AecBase60
 90
      129
280
     0
281
     0
  0
CLASS
  1
AEC_DISP_PROPS_MASKBLOCK
  2
AecDbDispPropsMaskBlock
  3
AecBase60
 90
      129
280
     0
281
     0
  0
CLASS
  1
AEC_DISP_REP_MASKBLOCK_REF_RCP
  2
AecDbDispRepMaskBlockRefRcp
  3
AecArchBase60
 90
      129
280
     0
281
     0
  0
CLASS
  1
AEC_DISP_REP_MASS_ELEM_MODEL
  2
AecDbDispRepMassElemModel
  3
AecBase60
 90
      129
280
     0
281
     0
  0
CLASS
  1
AEC_DISP_PROPS_MASS_ELEM_MODEL
  2
AecDbDispPropsMassElem
  3
AecBase60
 90
      129
280
     0
281
     0
  0
CLASS
  1
AEC_DISP_REP_MASS_ELEM_SCHEM
  2
AecDbDispRepMassElemSchem
  3
AecBase60
 90
      129
280
     0
281
     0
  0
CLASS
  1
AEC_DISPREPAECDBDISPREPMASSELEMPLAN50
  2
AecDbDispRepMassElemPlan50
  3
AecArchDACHBase60
 90
      129
280
     0
281
     0
  0
CLASS
  1
AEC_DISPROPSMASSELEMPLANCOMMON
  2
AecDbDispPropsMassElemPlanCommon
  3
AecArchDACHBase60
 90
      129
280
     0
281
     0
  0
CLASS
  1
AEC_DISPREPAECDBDISPREPMASSELEMPLAN100
  2
AecDbDispRepMassElemPlan100
  3
AecArchDACHBase60
 90
      129
280
     0
281
     0
  0
CLASS
  1
AEC_DISP_REP_MASS_ELEM_RCP
  2
AecDbDispRepMassElemRcp
  3
AecArchBase60
 90
      129
280
     0
281
     0
  0
CLASS
  1
AEC_DISP_REP_MASS_GROUP_MODEL
  2
AecDbDispRepMassGroupModel
  3
AecBase60
 90
      129
280
     0
281
     0
  0
CLASS
  1
AEC_DISP_PROPS_MASS_GROUP
  2
AecDbDispPropsMassGroup
  3
AecBase60
 90
      129
280
     0
281
     0
  0
CLASS
  1
AEC_DISP_REP_MASS_GROUP_PLAN
  2
AecDbDispRepMassGroupPlan
  3
AecBase60
 90
      129
280
     0
281
     0
  0
CLASS
  1
AEC_DISPREPAECDBDISPREPMASSGROUPPLAN50
  2
AecDbDispRepMassGroupPlan50
  3
AecArchDACHBase60
 90
      129
280
     0
281
     0
  0
CLASS
  1
AEC_DISPROPSMASSGROUPPLANCOMMON
  2
AecDbDispPropsMassGroupPlanCommon
  3
AecArchDACHBase60
 90
      129
280
     0
281
     0
  0
CLASS
  1
AEC_DISPREPAECDBDISPREPMASSGROUPPLAN100
  2
AecDbDispRepMassGroupPlan100
  3
AecArchDACHBase60
 90
      129
280
     0
281
     0
  0
CLASS
  1
AEC_DISP_REP_MASS_GROUP_RCP
  2
AecDbDispRepMassGroupRcp
  3
AecArchBase60
 90
      129
280
     0
281
     0
  0
CLASS
  1
AEC_DISP_REP_MVBLOCK_REF
  2
AecDbDispRepMvBlockRef
  3
AecBase60
 90
      129
280
     0
281
     0
  0
CLASS
  1
AEC_DISP_REP_MVBLOCK_REF_MODEL
  2
AecDbDispRepMvBlockRefModel
  3
AecBase60
 90
      129
280
     0
281
     0
  0
CLASS
  1
AEC_AECDBDISPREPMVBLOCKREFPLAN100
  2
AecDbDispRepMvBlockRefPlan100
  3
AecBase60
 90
      129
280
     0
281
     0
  0
CLASS
  1
AEC_AECDBDISPREPMVBLOCKREFPLAN50
  2
AecDbDispRepMvBlockRefPlan50
  3
AecBase60
 90
      129
280
     0
281
     0
  0
CLASS
  1
AEC_DISP_REP_POLYGON_MODEL
  2
AecDbDispRepPolygonModel
  3
AecBase60
 90
      129
280
     0
281
     0
  0
CLASS
  1
AEC_DISP_PROPS_POLYGON_MODEL
  2
AecDbDispPropsPolygonModel
  3
AecBase60
 90
      129
280
     0
281
     0
  0
CLASS
  1
AEC_DISP_REP_POLYGON_TRUECOLOUR
  2
AecDbDispRepPolygonTrueColour
  3
AecBase60
 90
      129
280
     0
281
     0
  0
CLASS
  1
AEC_DISP_PROPS_POLYGON_TRUECOLOUR
  2
AecDbDispPropsPolygonTrueColour
  3
AecBase60
 90
      129
280
     0
281
     0
  0
CLASS
  1
AEC_DISP_REP_SLICE
  2
AecDbDispRepSlice
  3
AecBase60
 90
      129
280
     0
281
     0
  0
CLASS
  1
AEC_DISP_PROPS_SLICE
  2
AecDbDispPropsSlice
  3
AecBase60
 90
      129
280
     0
281
     0
  0
CLASS
  1
AEC_DISP_REP_ANCHOR
  2
AecDbDispRepAnchor
  3
AecBase60
 90
      129
280
     0
281
     0
  0
CLASS
  1
AEC_DISP_REP_ANCHOR_ENT_TO_NODE
  2
AecDbDispRepAnchorEntToNode
  3
AecBase60
 90
      129
280
     0
281
     0
  0
CLASS
  1
AEC_DISP_PROPS_ENT
  2
AecDbDispPropsEnt
  3
AecBase60
 90
      129
280
     0
281
     0
  0
CLASS
  1
AEC_DISP_REP_MATERIAL
  2
AecDbDispRepMaterial
  3
AecBase60
 90
      129
280
     0
281
     0
  0
CLASS
  1
AEC_DISP_PROPS_MATERIAL
  2
AecDbDispPropsMaterial
  3
AecBase60
 90
      129
280
     0
281
     0
  0
CLASS
  1
AEC_DISP_REP_EDITINPLACEPROFILE
  2
AecDbDispRepEditInPlaceProfile
  3
AecBase60
 90
      129
280
     0
281
     0
  0
CLASS
  1
AEC_DISP_PROPS_EDITINPLACEPROFILE_MODEL
  2
AecDbDispPropsEditInPlaceProfile
  3
AecBase60
 90
      129
280
     0
281
     0
  0
CLASS
  1
SUN
  2
AcDbSun
  3
SCENEOE
 90
     1153
280
     0
281
     0
  0
ENDSEC
  0
SECTION
  2
TABLES
  0
TABLE
  2
VPORT
  5
8
102
{ACAD_XDICTIONARY
360
37C82F
102
}
330
0
100
AcDbSymbolTable
 70
     1
  0
VPORT
  5
3523F0
330
8
100
AcDbSymbolTableRecord
100
AcDbViewportTableRecord
  2
*Active
 70
     0
 10
0.0
 20
0.0
 11
1.0
 21
1.0
 12
-807.4086068429725
 22
-2019.765476687582
 13
0.0
 23
0.0
 14
1.0
 24
1.0
 15
20.0
 25
20.0
 16
0.0
 26
0.0
 36
1.0
 17
0.0
 27
0.0
 37
0.0
 40
122.5303451268374
 41
2.05036855036855
 42
50.0
 43
0.0
 44
0.0
 50
0.0
 51
0.0
 71
    16
 72
   100
 73
     1
 74
     0
 75
     0
 76
     0
 77
     0
 78
     0
281
     0
 65
     1
110
0.0
120
0.0
130
0.0
111
1.0
121
0.0
131
0.0
112
0.0
122
1.0
132
0.0
 79
     0
146
0.0
  0
ENDTAB
  0
TABLE
  2
LTYPE
  5
5
330
0
100
AcDbSymbolTable
 70
     1
  0
LTYPE
  5
12
330
5
100
AcDbSymbolTableRecord
100
AcDbLinetypeTableRecord
  2
BYBLOCK
 70
     0
  3

 72
    65
 73
     0
 40
0.0
  0
LTYPE
  5
13
330
5
100
AcDbSymbolTableRecord
100
AcDbLinetypeTableRecord
  2
BYLAYER
 70
     0
  3

 72
    65
 73
     0
 40
0.0
  0
LTYPE
  5
14
330
5
100
AcDbSymbolTableRecord
100
AcDbLinetypeTableRecord
  2
CONTINUOUS
 70
     0
  3
Solid line
 72
    65
 73
     0
 40
0.0
  0
ENDTAB
  0
TABLE
  2
LAYER
  5
2
102
{ACAD_XDICTIONARY
360
559E
102
}
330
0
100
AcDbSymbolTable
 70
     5
  0
LAYER
  5
F
102
{ACAD_XDICTIONARY
360
CD7F
102
}
330
2
100
AcDbSymbolTableRecord
100
AcDbLayerTableRecord
  2
0
 70
     0
 62
     7
  6
CONTINUOUS
370
    -3
390
352
  0
LAYER
  5
36
330
2
100
AcDbSymbolTableRecord
100
AcDbLayerTableRecord
  2
DEFPOINTS
 70
     0
 62
     7
  6
CONTINUOUS
290
     0
370
    -3
390
352
  0
LAYER
  5
2F4
102
{ACAD_XDICTIONARY
360
CD8D
102
}
330
2
100
AcDbSymbolTableRecord
100
AcDbLayerTableRecord
  2
文字
 70
     0
 62
     7
  6
CONTINUOUS
370
    -3
390
352
  0
LAYER
  5
306B15
330
2
100
AcDbSymbolTableRecord
100
AcDbLayerTableRecord
  2
C-SUNPO
 70
     0
 62
     7
  6
CONTINUOUS
370
    -3
390
352
  0
LAYER
  5
31D3CB
330
2
100
AcDbSymbolTableRecord
100
AcDbLayerTableRecord
  2
姿図
 70
     0
 62
     8
  6
CONTINUOUS
370
    -3
390
352
  0
ENDTAB
  0
TABLE
  2
STYLE
  5
3
330
0
100
AcDbSymbolTable
 70
     1
  0
STYLE
  5
10
330
3
100
AcDbSymbolTableRecord
100
AcDbTextStyleTableRecord
  2
STANDARD
 70
     0
 40
0.0
 41
1.0
 50
0.0
 71
     0
 42
3.0
  3
MONOTXT
  4
BIGFONT
  0
ENDTAB
  0
TABLE
  2
VIEW
  5
6
330
0
100
AcDbSymbolTable
 70
     0
  0
ENDTAB
  0
TABLE
  2
UCS
  5
7
330
0
100
AcDbSymbolTable
 70
     0
  0
ENDTAB
  0
TABLE
  2
APPID
  5
9
330
0
100
AcDbSymbolTable
 70
    25
  0
APPID
  5
11
330
9
100
AcDbSymbolTableRecord
100
AcDbRegAppTableRecord
  2
ACAD
 70
     0
  0
APPID
  5
C058
330
9
100
AcDbSymbolTableRecord
100
AcDbRegAppTableRecord
  2
AcAecLayerStandard
 70
     0
  0
APPID
  5
CD77
330
9
100
AcDbSymbolTableRecord
100
AcDbRegAppTableRecord
  2
ACAD_MLEADERVER
 70
     0
  0
APPID
  5
D036
330
9
100
AcDbSymbolTableRecord
100
AcDbRegAppTableRecord
  2
ACAD_PSEXT
 70
     0
  0
APPID
  5
D28E
330
9
100
AcDbSymbolTableRecord
100
AcDbRegAppTableRecord
  2
ACAD_DSTYLE_DIMJAG
 70
     0
  0
APPID
  5
D28F
330
9
100
AcDbSymbolTableRecord
100
AcDbRegAppTableRecord
  2
ACAD_DSTYLE_DIMTALN
 70
     0
  0
APPID
  5
10E35
330
9
100
AcDbSymbolTableRecord
100
AcDbRegAppTableRecord
  2
ACAD_EXEMPT_FROM_CAD_STANDARDS
 70
     0
  0
APPID
  5
36B90
330
9
100
AcDbSymbolTableRecord
100
AcDbRegAppTableRecord
  2
ACAD_DSTYLE_DIMRADIAL_EXTENSION
 70
     0
  0
APPID
  5
4CBB9
330
9
100
AcDbSymbolTableRecord
100
AcDbRegAppTableRecord
  2
WACOM_STRING
 70
     0
  0
APPID
  5
4CBBA
330
9
100
AcDbSymbolTableRecord
100
AcDbRegAppTableRecord
  2
WACOM_DRSYM_ARROW
 70
     0
  0
APPID
  5
83B4C
330
9
100
AcDbSymbolTableRecord
100
AcDbRegAppTableRecord
  2
ACAD_DSTYLE_DIMRADIAL_EXTE
 70
     0
  0
APPID
  5
83B4D
330
9
100
AcDbSymbolTableRecord
100
AcDbRegAppTableRecord
  2
ACAD_DSTYLE_DIMBREAK
 70
     0
  0
APPID
  5
83B4E
330
9
100
AcDbSymbolTableRecord
100
AcDbRegAppTableRecord
  2
ACAD_DSTYLE_DIMARC_LENGTH_
 70
     0
  0
APPID
  5
8B472
330
9
100
AcDbSymbolTableRecord
100
AcDbRegAppTableRecord
  2
LAYER_SCALE
 70
     0
  0
APPID
  5
8B473
330
9
100
AcDbSymbolTableRecord
100
AcDbRegAppTableRecord
  2
KCAD_DIM_EXT
 70
     0
  0
APPID
  5
16ECBA
330
9
100
AcDbSymbolTableRecord
100
AcDbRegAppTableRecord
  2
GENIUS_GENDTOL_13
 70
     0
  0
APPID
  5
23CCFB
330
9
100
AcDbSymbolTableRecord
100
AcDbRegAppTableRecord
  2
AcadAnnotative
 70
     0
  0
APPID
  5
31A28D
330
9
100
AcDbSymbolTableRecord
100
AcDbRegAppTableRecord
  2
ACAD_DSTYLE_DIMFLIPARROW_WHICH_SYMBOL
 70
     0
  0
APPID
  5
35C75E
330
9
100
AcDbSymbolTableRecord
100
AcDbRegAppTableRecord
  2
AcadStringInfo
 70
     0
  0
APPID
  5
35C75F
330
9
100
AcDbSymbolTableRecord
100
AcDbRegAppTableRecord
  2
RAK
 70
     0
  0
APPID
  5
37B343
330
9
100
AcDbSymbolTableRecord
100
AcDbRegAppTableRecord
  2
AECBASE
 70
     0
  0
APPID
  5
37B344
330
9
100
AcDbSymbolTableRecord
100
AcDbRegAppTableRecord
  2
AEC_2DSECTION_XDATA
 70
     0
  0
APPID
  5
37B345
330
9
100
AcDbSymbolTableRecord
100
AcDbRegAppTableRecord
  2
AEC_MASSGROUP_XDADA
 70
     0
  0
APPID
  5
37C782
330
9
100
AcDbSymbolTableRecord
100
AcDbRegAppTableRecord
  2
ACAD_SPLINE_DATA
 70
     0
  0
APPID
  5
37C783
330
9
100
AcDbSymbolTableRecord
100
AcDbRegAppTableRecord
  2
ACAD_SPLINE_DATA2
 70
     0
  0
ENDTAB
  0
TABLE
  2
DIMSTYLE
  5
A
330
0
100
AcDbSymbolTable
 70
     1
100
AcDbDimStyleTable
  0
DIMSTYLE
105
1CC
330
A
100
AcDbSymbolTableRecord
100
AcDbDimStyleTableRecord
  2
STANDARD
 70
     0
 41
2.5
 42
1.5
 43
7.0
 44
1.0
 73
     0
 74
     0
 77
     3
 78
     8
 79
     2
140
3.0
141
0.0
146
0.6
147
1.0
171
     0
172
     1
176
     8
177
     8
271
     3
178
   256
179
     3
271
     3
272
     3
274
     0
289
     0
340
10
341
265D
342
265D
372
    -1
1001
ACAD_DSTYLE_DIMJAG
1070
   388
1040
1.5
1001
ACAD_DSTYLE_DIMTALN
1070
   392
1070
     0
  0
ENDTAB
  0
TABLE
  2
BLOCK_RECORD
  5
1
330
0
100
AcDbSymbolTable
 70
     1
  0
BLOCK_RECORD
  5
18
102
{ACAD_XDICTIONARY
360
D25F
102
}
330
1
100
AcDbSymbolTableRecord
100
AcDbBlockTableRecord
  2
*MODEL_SPACE
340
355
  0
BLOCK_RECORD
  5
15
330
1
100
AcDbSymbolTableRecord
100
AcDbBlockTableRecord
  2
*PAPER_SPACE
340
356
  0
BLOCK_RECORD
  5
265D
330
1
100
AcDbSymbolTableRecord
100
AcDbBlockTableRecord
  2
_OPEN30
340
0
  0
ENDTAB
  0
ENDSEC
  0
SECTION
  2
BLOCKS
  0
BLOCK
  5
39
330
18
100
AcDbEntity
  8
0
100
AcDbBlockBegin
  2
*MODEL_SPACE
 70
     0
 10
0.0
 20
0.0
 30
0.0
  3
*MODEL_SPACE
  1
*MODEL_SPACE
  0
ENDBLK
  5
3A
330
18
100
AcDbEntity
  8
0
100
AcDbBlockEnd
  0
BLOCK
  5
37
330
15
100
AcDbEntity
 67
     1
  8
0
100
AcDbBlockBegin
  2
*PAPER_SPACE
 70
     0
 10
0.0
 20
0.0
 30
0.0
  3
*PAPER_SPACE
  1
*PAPER_SPACE
  0
ENDBLK
  5
38
330
15
100
AcDbEntity
 67
     1
  8
0
100
AcDbBlockEnd
  0
BLOCK
  5
265E
330
265D
100
AcDbEntity
  8
0
100
AcDbBlockBegin
  2
_OPEN30
 70
     0
 10
0.0
 20
0.0
 30
0.0
  3
_OPEN30
  1
_OPEN30
  0
LINE
  5
265F
330
265D
100
AcDbEntity
  8
0
  6
ByBlock
 62
     0
100
AcDbLine
 10
-1.0
 20
0.26794919
 30
0.0
 11
0.0
 21
0.0
 31
0.0
  0
LINE
  5
2660
330
265D
100
AcDbEntity
  8
0
  6
ByBlock
 62
     0
100
AcDbLine
 10
0.0
 20
0.0
 30
0.0
 11
-1.0
 21
-0.26794919
 31
0.0
  0
LINE
  5
2661
330
265D
100
AcDbEntity
  8
0
  6
ByBlock
 62
     0
100
AcDbLine
 10
0.0
 20
0.0
 30
0.0
 11
-1.0
 21
0.0
 31
0.0
  0
ENDBLK
  5
2662
330
265D
100
AcDbEntity
  8
0
100
AcDbBlockEnd
  0
ENDSEC
  0
SECTION
  2
ENTITIES
  0
MTEXT
  5
8182F
330
18
100
AcDbEntity
  8
0
100
AcDbMText
 10
5598.734167156057
 20
-2635.335630549191
 30
0.0
 40
3.0
 41
0.0
 71
     7
 72
     1
  1
\A1;
 73
     1
 44
1.0
  0
MTEXT
  5
3073B9
330
18
100
AcDbEntity
  8
C-SUNPO
 62
     7
100
AcDbMText
 10
8897.245354628267
 20
-2466.345110988795
 30
0.0
 40
2.0
 41
0.0
 71
     5
 72
     1
  1
\A1;\P\P 
 11
0.9999986675605709
 21
0.0016324451239504
 31
0.0
 73
     1
 44
1.0
  0
LINE
  5
38591F
330
18
100
AcDbEntity
  8
姿図
100
AcDbLine
 10
-807.7822395104604
 20
-1996.232066400587
 30
0.0
 11
-807.7823344643466
 21
-1996.188090602863
 31
0.0
  0
LINE
  5
385920
330
18
100
AcDbEntity
  8
姿図
100
AcDbLine
 10
-808.2169551521284
 20
-1995.437102837594
 30
0.0
 11
-808.2550372632859
 21
-1995.415111336976
 31
0.0
  0
LINE
  5
385921
330
18
100
AcDbEntity
  8
姿図
100
AcDbLine
 10
-808.5906794086486
 20
-1995.381978707104
 30
0.0
 11
-808.6099059448316
 21
-1995.393105702573
 31
0.0
  0
LINE
  5
385922
330
18
100
AcDbEntity
  8
姿図
100
AcDbLine
 10
-807.9399579155124
 20
-1996.550722366509
 30
0.0
 11
-807.9207313793299
 21
-1996.53959537104
 31
0.0
  0
LINE
  5
385923
330
18
100
AcDbEntity
  8
姿図
100
AcDbLine
 10
-824.3884024829053
 20
-1972.298119179902
 30
0.0
 11
-824.8565466271065
 21
-1990.54497328885
 31
0.0
  0
LINE
  5
385924
330
18
100
AcDbEntity
  8
姿図
100
AcDbLine
 10
-817.1529087777926
 20
-1981.933860026245
 30
0.0
 11
-817.4001250690008
 21
-1972.298107392665
 31
0.0
  0
LINE
  5
385925
330
18
100
AcDbEntity
  8
姿図
100
AcDbLine
 10
-829.9938414678955
 20
-1973.637599852572
 30
0.0
 11
-830.4643723420294
 21
-1991.977468557511
 31
0.0
  0
LINE
  5
385926
330
18
100
AcDbEntity
  8
姿図
100
AcDbLine
 10
-804.5442628456298
 20
-2001.458283056412
 30
0.0
 11
-804.5442628456298
 21
-2000.905117786572
 31
0.0
  0
LINE
  5
385927
330
18
100
AcDbEntity
  8
姿図
100
AcDbLine
 10
-811.324154551332
 20
-1991.977468557511
 30
0.0
 11
-811.7946844376492
 21
-1973.637627039152
 31
0.0
  0
LINE
  5
385928
330
18
100
AcDbEntity
  8
姿図
100
AcDbLine
 10
-834.2840598923253
 20
-1976.113636991928
 30
0.0
 11
-834.731502360646
 21
-1993.553559525655
 31
0.0
  0
LINE
  5
385929
330
18
100
AcDbEntity
  8
姿図
100
AcDbLine
 10
-807.0570245327154
 20
-1993.553559525655
 30
0.0
 11
-807.5044648607663
 21
-1976.113694501981
 31
0.0
  0
SPLINE
  5
38592A
330
18
100
AcDbEntity
  8
姿図
100
AcDbSpline
210
0.0
220
0.0
230
1.0
 70
     8
 71
     3
 72
    13
 73
     9
 74
     0
 42
0.000000001
 43
0.0000000001
 40
0.0
 40
0.0
 40
0.0
 40
0.0
 40
0.3000100184822316
 40
0.5352579870860588
 40
0.7055122192687074
 40
0.8236991903298171
 40
0.9307919391949775
 40
1.0
 40
1.0
 40
1.0
 40
1.0
 10
-816.9249861943081
 20
-1982.238887343633
 30
0.0
 10
-816.9720943166534
 20
-1982.206009690861
 30
0.0
 10
-817.0561415057095
 20
-1982.147351562267
 30
0.0
 10
-817.1224943841844
 20
-1982.033992083279
 30
0.0
 10
-817.1476200969264
 20
-1981.954481004437
 30
0.0
 10
-817.1533741946404
 20
-1981.916320801756
 30
0.0
 10
-817.1536866149967
 20
-1981.906723374166
 30
0.0
 10
-817.153446784037
 20
-1981.914668808209
 30
0.0
 10
-817.153352636791
 20
-1981.91778784143
 30
0.0
  0
SPLINE
  5
38592B
330
18
100
AcDbEntity
  8
姿図
100
AcDbSpline
210
0.0
220
0.0
230
1.0
 70
     8
 71
     3
 72
     9
 73
     5
 74
     0
 42
0.000000001
 43
0.0000000001
 40
0.0
 40
0.0
 40
0.0
 40
0.0
 40
0.6114224759694623
 40
0.9999999999999998
 40
0.9999999999999998
 40
0.9999999999999998
 40
0.9999999999999998
 10
-815.9319639672703
 20
-1982.445015659778
 30
0.0
 10
-816.1017256485111
 20
-1982.412206306548
 30
0.0
 10
-816.3793760259714
 20
-1982.358545614443
 30
0.0
 10
-816.6609468589131
 20
-1982.312483539095
 30
0.0
 10
-816.7703589560169
 20
-1982.294584851904
 30
0.0
  0
SPLINE
  5
38592C
330
18
100
AcDbEntity
  8
姿図
100
AcDbSpline
210
0.0
220
0.0
230
1.0
 70
     8
 71
     3
 72
    11
 73
     7
 74
     0
 42
0.000000001
 43
0.0000000001
 40
0.0
 40
0.0
 40
0.0
 40
0.0
 40
0.2069794823769013
 40
0.5213502317573836
 40
0.8683920482436736
 40
1.0
 40
1.0
 40
1.0
 40
1.0
 10
-814.1900692919016
 20
-1982.862339459265
 30
0.0
 10
-814.3083424697905
 20
-1982.831099685087
 30
0.0
 10
-814.6062548425288
 20
-1982.752411385551
 30
0.0
 10
-815.1042880522
 20
-1982.653390720961
 30
0.0
 10
-815.5676144024897
 20
-1982.519263660706
 30
0.0
 10
-815.8539535525503
 20
-1982.463961792755
 30
0.0
 10
-815.9326844149617
 20
-1982.448756174676
 30
0.0
  0
SPLINE
  5
38592D
330
18
100
AcDbEntity
  8
姿図
100
AcDbSpline
210
0.0
220
0.0
230
1.0
 70
     8
 71
     3
 72
     9
 73
     5
 74
     0
 42
0.000000001
 43
0.0000000001
 40
0.0
 40
0.0
 40
0.0
 40
0.0
 40
0.5235079593407801
 40
1.0
 40
1.0
 40
1.0
 40
1.0
 10
-813.4081800561185
 20
-1983.099111512194
 30
0.0
 10
-813.5429959023204
 20
-1983.05582752168
 30
0.0
 10
-813.8005198688542
 20
-1982.973146848461
 30
0.0
 10
-814.0642753446346
 20
-1982.89759256154
 30
0.0
 10
-814.1899527295235
 20
-1982.861591545185
 30
0.0
  0
SPLINE
  5
38592E
330
18
100
AcDbEntity
  8
姿図
100
AcDbSpline
210
0.0
220
0.0
230
1.0
 70
     8
 71
     3
 72
    10
 73
     6
 74
     0
 42
0.000000001
 43
0.0000000001
 40
0.0
 40
0.0
 40
0.0
 40
0.0
 40
0.3089718877656101
 40
0.7117420049099071
 40
1.0
 40
1.0
 40
1.0
 40
1.0
 10
-813.2444132078735
 20
-1983.100650744325
 30
0.0
 10
-813.2464155925163
 20
-1983.101843304451
 30
0.0
 10
-813.2510282492557
 20
-1983.104590464203
 30
0.0
 10
-813.327232289564
 20
-1983.121138997428
 30
0.0
 10
-813.3833609904749
 20
-1983.10113581807
 30
0.0
 10
-813.4067747221383
 20
-1983.092791618644
 30
0.0
  0
SPLINE
  5
38592F
330
18
100
AcDbEntity
  8
姿図
100
AcDbSpline
210
0.0
220
0.0
230
1.0
 70
     8
 71
     3
 72
     9
 73
     5
 74
     0
 42
0.000000001
 43
0.0000000001
 40
0.0
 40
0.0
 40
0.0
 40
0.0
 40
0.4925972537976699
 40
1.0
 40
1.0
 40
1.0
 40
1.0
 10
-811.4417057338233
 20
-1983.853606177878
 30
0.0
 10
-811.4602436581517
 20
-1983.845789184477
 30
0.0
 10
-811.4978766822607
 20
-1983.829920250292
 30
0.0
 10
-811.5220952746149
 20
-1983.799020778662
 30
0.0
 10
-811.5343838548847
 20
-1983.783342301901
 30
0.0
  0
SPLINE
  5
385930
330
18
100
AcDbEntity
  8
姿図
100
AcDbSpline
210
0.0
220
0.0
230
1.0
 70
     8
 71
     3
 72
    12
 73
     8
 74
     0
 42
0.000000001
 43
0.0000000001
 40
0.0
 40
0.0
 40
0.0
 40
0.0
 40
0.1251255042564114
 40
0.4025326710255651
 40
0.6799838826296395
 40
0.9429436396447258
 40
0.9999999999999998
 40
0.9999999999999998
 40
0.9999999999999998
 40
0.9999999999999998
 10
-808.8229958422502
 20
-1985.371235796909
 30
0.0
 10
-808.9198993261133
 20
-1985.300821965726
 30
0.0
 10
-809.2316408725155
 20
-1985.074298462691
 30
0.0
 10
-809.7962232257859
 20
-1984.711476184807
 30
0.0
 10
-810.5191364944767
 20
-1984.301899800086
 30
0.0
 10
-811.0775304087455
 20
-1984.022732615464
 30
0.0
 10
-811.3876794960216
 20
-1983.881754471717
 30
0.0
 10
-811.4429766424054
 20
-1983.856619175914
 30
0.0
  0
LINE
  5
385931
330
18
100
AcDbEntity
  8
姿図
100
AcDbLine
 10
-836.6059105143635
 20
-1979.349270258138
 30
0.0
 11
-837.060098124807
 21
-1997.052142808011
 31
0.0
  0
LINE
  5
385932
330
18
100
AcDbEntity
  8
姿図
100
AcDbLine
 10
-804.7284287685542
 20
-1997.052142808011
 30
0.0
 11
-805.1826163789979
 21
-1979.349288509247
 31
0.0
  0
SPLINE
  5
385933
330
18
100
AcDbEntity
  8
姿図
100
AcDbSpline
210
0.0
220
0.0
230
1.0
 70
     8
 71
     3
 72
     9
 73
     5
 74
     0
 42
0.000000001
 43
0.0000000001
 40
0.0
 40
0.0
 40
0.0
 40
0.0
 40
0.7269773467263252
 40
1.0
 40
1.0
 40
1.0
 40
1.0
 10
-808.8131983463327
 20
-1985.372894201683
 30
0.0
 10
-808.8178824650977
 20
-1985.371351104699
 30
0.0
 10
-808.824325745326
 20
-1985.369228484248
 30
0.0
 10
-808.8221958815639
 20
-1985.370943093762
 30
0.0
 10
-808.8216143805084
 20
-1985.371411221001
 30
0.0
  0
LINE
  5
385934
330
18
100
AcDbEntity
  8
姿図
100
AcDbLine
 10
-808.8216720031533
 20
-1985.370652923243
 30
0.0
 11
-808.824419944749
 21
-1985.368845157109
 31
0.0
  0
SPLINE
  5
385935
330
18
100
AcDbEntity
  8
姿図
100
AcDbSpline
210
0.0
220
0.0
230
1.0
 70
     8
 71
     3
 72
     9
 73
     5
 74
     0
 42
0.000000001
 43
0.0000000001
 40
0.0
 40
0.0
 40
0.0
 40
0.0
 40
0.4082916927900648
 40
0.9999999999999998
 40
0.9999999999999998
 40
0.9999999999999998
 40
0.9999999999999998
 10
-820.4089889134657
 20
-1986.035808072059
 30
0.0
 10
-820.5410458535245
 20
-1986.032222936907
 30
0.0
 10
-820.8644835878462
 20
-1986.023442118645
 30
0.0
 10
-821.1880695047611
 20
-1986.031211100787
 30
0.0
 10
-821.3795379798956
 20
-1986.035808072059
 30
0.0
  0
SPLINE
  5
385936
330
18
100
AcDbEntity
  8
姿図
100
AcDbSpline
210
0.0
220
0.0
230
1.0
 70
     8
 71
     3
 72
    13
 73
     9
 74
     0
 42
0.000000001
 43
0.0000000001
 40
0.0
 40
0.0
 40
0.0
 40
0.0
 40
0.1139209166753623
 40
0.2573742801641392
 40
0.4351242949774614
 40
0.6786836026945915
 40
0.943236157147939
 40
1.0
 40
1.0
 40
1.0
 40
1.0
 10
-820.0481592066516
 20
-1985.834091514994
 30
0.0
 10
-820.0482937875113
 20
-1985.834527440886
 30
0.0
 10
-820.0485978374873
 20
-1985.835512300523
 30
0.0
 10
-820.0729958949086
 20
-1985.873517217197
 30
0.0
 10
-820.1353815582589
 20
-1985.939713114191
 30
0.0
 10
-820.2510163475963
 20
-1986.00716782453
 30
0.0
 10
-820.3663618794012
 20
-1986.042549261753
 30
0.0
 10
-820.4316346257932
 20
-1986.031671460292
 30
0.0
 10
-820.4431657270688
 20
-1986.029749784903
 30
0.0
  0
SPLINE
  5
385937
330
18
100
AcDbEntity
  8
姿図
100
AcDbSpline
210
0.0
220
0.0
230
1.0
 70
     8
 71
     3
 72
    14
 73
    10
 74
     0
 42
0.000000001
 43
0.0000000001
 40
0.0
 40
0.0
 40
0.0
 40
0.0
 40
0.0282594667811839
 40
0.2889200476739018
 40
0.5033489005909152
 40
0.6882917153301022
 40
0.8366286778898686
 40
0.9710805206694898
 40
0.9999999999999998
 40
0.9999999999999998
 40
0.9999999999999998
 40
0.9999999999999998
 10
-821.345431301283
 20
-1986.031896245244
 30
0.0
 10
-821.3511512565982
 20
-1986.032994398003
 30
0.0
 10
-821.4096311201865
 20
-1986.04422172758
 30
0.0
 10
-821.5143600934556
 20
-1986.014215026116
 30
0.0
 10
-821.6301386587247
 20
-1985.956890302903
 30
0.0
 10
-821.7014493959027
 20
-1985.890387589522
 30
0.0
 10
-821.7337496426171
 20
-1985.846905596283
 30
0.0
 10
-821.7427361940535
 20
-1985.829382855843
 30
0.0
 10
-821.7412422767537
 20
-1985.832657303231
 30
0.0
 10
-821.7409778281963
 20
-1985.833236935643
 30
0.0
  0
SPLINE
  5
385938
330
18
100
AcDbEntity
  8
姿図
100
AcDbSpline
210
0.0
220
0.0
230
1.0
 70
     8
 71
     3
 72
    11
 73
     7
 74
     0
 42
0.000000001
 43
0.0000000001
 40
0.0
 40
0.0
 40
0.0
 40
0.0
 40
0.1680010871378086
 40
0.4780877915649031
 40
0.7892615394883613
 40
1.0
 40
1.0
 40
1.0
 40
1.0
 10
-806.0071190420758
 20
-1988.609664333893
 30
0.0
 10
-806.0590617649809
 20
-1988.504466137359
 30
0.0
 10
-806.2068773660858
 20
-1988.205099184953
 30
0.0
 10
-806.5020312916731
 20
-1987.722970534829
 30
0.0
 10
-806.8572182891921
 20
-1987.226940658994
 30
0.0
 10
-807.1227959324104
 20
-1986.930149950589
 30
0.0
 10
-807.2300312543161
 20
-1986.810311372429
 30
0.0
  0
SPLINE
  5
385939
330
18
100
AcDbEntity
  8
姿図
100
AcDbSpline
210
0.0
220
0.0
230
1.0
 70
     8
 71
     3
 72
    16
 73
    12
 74
     0
 42
0.000000001
 43
0.0000000001
 40
0.0
 40
0.0
 40
0.0
 40
0.0
 40
0.1044080613560461
 40
0.2159266307735912
 40
0.3202440078030173
 40
0.4245931860903538
 40
0.5401530574139112
 40
0.6796245268262346
 40
0.8017180763093898
 40
0.9202260599369623
 40
1.0
 40
1.0
 40
1.0
 40
1.0
 10
-817.405099714214
 20
-1972.297857225215
 30
0.0
 10
-817.4083077571312
 20
-1972.253534139321
 30
0.0
 10
-817.4149423204926
 20
-1972.161869429926
 30
0.0
 10
-817.4858878875065
 20
-1972.042279283883
 30
0.0
 10
-817.5848870652899
 20
-1971.949248637578
 30
0.0
 10
-817.7092540973399
 20
-1971.888475652356
 30
0.0
 10
-817.8606913097292
 20
-1971.863260726708
 30
0.0
 10
-818.0218890014934
 20
-1971.888837022178
 30
0.0
 10
-818.1625341311237
 20
-1971.968203853666
 30
0.0
 10
-818.2588545358147
 20
-1972.069212570186
 30
0.0
 10
-818.2845050786349
 20
-1972.149332924733
 30
0.0
 10
-818.2948249546353
 20
-1972.181567413095
 30
0.0
  0
SPLINE
  5
38593A
330
18
100
AcDbEntity
  8
姿図
100
AcDbSpline
210
0.0
220
0.0
230
1.0
 70
     8
 71
     3
 72
    16
 73
    12
 74
     0
 42
0.000000001
 43
0.0000000001
 40
0.0
 40
0.0
 40
0.0
 40
0.0
 40
0.0662773941203867
 40
0.1722339067769784
 40
0.2750797719473846
 40
0.3842515192200395
 40
0.5114758294460309
 40
0.6399488703753804
 40
0.7600741074085495
 40
0.8794085481241966
 40
1.0
 40
1.0
 40
1.0
 40
1.0
 10
-823.494026601169
 20
-1972.182114533086
 30
0.0
 10
-823.5016698445006
 20
-1972.155076926316
 30
0.0
 10
-823.5215322074827
 20
-1972.08481476973
 30
0.0
 10
-823.5993111471884
 20
-1971.994129017398
 30
0.0
 10
-823.7090332182138
 20
-1971.916336054912
 30
0.0
 10
-823.8469756554578
 20
-1971.871134367242
 30
0.0
 10
-824.0035995939133
 20
-1971.868683657963
 30
0.0
 10
-824.1573101155346
 20
-1971.918382405518
 30
0.0
 10
-824.2814530736096
 20
-1972.01444100191
 30
0.0
 10
-824.36779791781
 20
-1972.144673620173
 30
0.0
 10
-824.3814542494874
 20
-1972.245835867034
 30
0.0
 10
-824.3883181892083
 20
-1972.296681993278
 30
0.0
  0
LWPOLYLINE
  5
38593B
330
18
100
AcDbEntity
  8
姿図
100
AcDbPolyline
 90
        3
 70
   128
 43
0.0
 10
-821.6049259902057
 20
-1978.0115559426
 10
-822.4678127431126
 20
-1975.338953360105
 10
-823.4877928188561
 20
-1972.179781551084
  0
SPLINE
  5
38593C
330
18
100
AcDbEntity
  8
姿図
100
AcDbSpline
210
0.0
220
0.0
230
1.0
 70
     8
 71
     3
 72
    10
 73
     6
 74
     0
 42
0.000000001
 43
0.0000000001
 40
0.0
 40
0.0
 40
0.0
 40
0.0
 40
0.2834608759897035
 40
0.9516188853684541
 40
1.0
 40
1.0
 40
1.0
 40
1.0
 10
-818.3007340745053
 20
-1972.179784592935
 30
0.0
 10
-818.4786568306199
 20
-1972.731441257768
 30
0.0
 10
-819.0759690849645
 20
-1974.583431937825
 30
0.0
 10
-819.7030974030052
 20
-1976.507269413571
 30
0.0
 10
-820.1533059655858
 20
-1977.920063021766
 30
0.0
 10
-820.1837042946435
 20
-1978.015455621023
 30
0.0
  0
SPLINE
  5
38593D
330
18
100
AcDbEntity
  8
姿図
100
AcDbSpline
210
0.0
220
0.0
230
1.0
 70
     8
 71
     3
 72
    15
 73
    11
 74
     0
 42
0.000000001
 43
0.0000000001
 40
0.0
 40
0.0
 40
0.0
 40
0.0
 40
0.124235432830364
 40
0.2602525256801908
 40
0.3851570185504449
 40
0.5103399492278134
 40
0.6472997844287006
 40
0.8117218110992647
 40
0.9597607030046077
 40
1.0
 40
1.0
 40
1.0
 40
1.0
 10
-811.8003836464577
 20
-1973.638063433248
 30
0.0
 10
-811.8030973866252
 20
-1973.594328709782
 30
0.0
 10
-811.8087822199822
 20
-1973.50271175331
 30
0.0
 10
-811.8794306441358
 20
-1973.383294462555
 30
0.0
 10
-811.9781157892558
 20
-1973.290160580677
 30
0.0
 10
-812.1008084460763
 20
-1973.229920904161
 30
0.0
 10
-812.2501538101714
 20
-1973.203892351116
 30
0.0
 10
-812.4064172557692
 20
-1973.229890026852
 30
0.0
 10
-812.5236700497453
 20
-1973.281816658774
 30
0.0
 10
-812.5664916926908
 20
-1973.331811313692
 30
0.0
 10
-812.5756436439514
 20
-1973.342496299453
 30
0.0
  0
SPLINE
  5
38593E
330
18
100
AcDbEntity
  8
姿図
100
AcDbSpline
210
0.0
220
0.0
230
1.0
 70
     8
 71
     3
 72
    15
 73
    11
 74
     0
 42
0.000000001
 43
0.0000000001
 40
0.0
 40
0.0
 40
0.0
 40
0.0
 40
0.1024094560439736
 40
0.2326004309286464
 40
0.3837599896700302
 40
0.5395222011557399
 40
0.6834180982974485
 40
0.8268854143457925
 40
0.9729750099446869
 40
1.0
 40
1.0
 40
1.0
 40
1.0
 10
-829.2118773226744
 20
-1973.339687498056
 30
0.0
 10
-829.2391216765977
 20
-1973.316390599671
 30
0.0
 10
-829.30100120128
 20
-1973.263476847239
 30
0.0
 10
-829.4295810694075
 20
-1973.217325531433
 30
0.0
 10
-829.584042358933
 20
-1973.206155339238
 30
0.0
 10
-829.7388144001242
 20
-1973.247163380747
 30
0.0
 10
-829.8698283109775
 20
-1973.335369354749
 30
0.0
 10
-829.9564948482821
 20
-1973.459614184484
 30
0.0
 10
-829.9982771473633
 20
-1973.568748367909
 30
0.0
 10
-829.9905537559334
 20
-1973.628759507516
 30
0.0
 10
-829.9893480540813
 20
-1973.63812787151
 30
0.0
  0
LWPOLYLINE
  5
38593F
330
18
100
AcDbEntity
  8
姿図
100
AcDbPolyline
 90
        3
 70
   128
 43
0.0
 10
-824.527574587093
 20
-1977.722629456957
 10
-826.3157345660074
 20
-1976.04821613433
 10
-829.2095577642813
 20
-1973.338464636029
  0
LWPOLYLINE
  5
385940
330
18
100
AcDbEntity
  8
姿図
100
AcDbPolyline
 90
        3
 70
   128
 43
0.0
 10
-812.5789691290801
 20
-1973.33846767788
 10
-814.0932100717591
 20
-1974.756390578414
 10
-817.2609523885867
 20
-1977.722629029266
  0
SPLINE
  5
385941
330
18
100
AcDbEntity
  8
姿図
100
AcDbSpline
210
0.0
220
0.0
230
1.0
 70
     8
 71
     3
 72
    11
 73
     7
 74
     0
 42
0.000000001
 43
0.0000000001
 40
0.0
 40
0.0
 40
0.0
 40
0.0
 40
0.0426764592194911
 40
0.3540600329386578
 40
0.7460634748282682
 40
0.9999999999999998
 40
0.9999999999999998
 40
0.9999999999999998
 40
0.9999999999999998
 10
-820.4033748215351
 20
-1982.678100597479
 30
0.0
 10
-820.4048683772111
 20
-1982.680207156045
 30
0.0
 10
-820.4172594795091
 20
-1982.697683961962
 30
0.0
 10
-820.4813221348135
 20
-1982.759235034366
 30
0.0
 10
-820.5839663649886
 20
-1982.820016527861
 30
0.0
 10
-820.6679168387218
 20
-1982.828731057004
 30
0.0
 10
-820.7009200474931
 20
-1982.832156974833
 30
0.0
  0
SPLINE
  5
385942
330
18
100
AcDbEntity
  8
姿図
100
AcDbSpline
210
0.0
220
0.0
230
1.0
 70
     8
 71
     3
 72
    11
 73
     7
 74
     0
 42
0.000000001
 43
0.0000000001
 40
0.0
 40
0.0
 40
0.0
 40
0.0
 40
0.3460097760903404
 40
0.6761245061101289
 40
0.9599529714339261
 40
1.0
 40
1.0
 40
1.0
 40
1.0
 10
-821.0876973957382
 20
-1982.836264647343
 30
0.0
 10
-821.132217374628
 20
-1982.828100647278
 30
0.0
 10
-821.219212167316
 20
-1982.812147686141
 30
0.0
 10
-821.3180127094037
 20
-1982.749822518639
 30
0.0
 10
-821.3726207049093
 20
-1982.695848572899
 30
0.0
 10
-821.3839297149133
 20
-1982.679899076788
 30
0.0
 10
-821.3853280678458
 20
-1982.677926930273
 30
0.0
  0
LINE
  5
385943
330
18
100
AcDbEntity
  8
姿図
100
AcDbLine
 10
-821.4736168251256
 20
-1982.447846716323
 30
0.0
 11
-821.5843446633339
 21
-1978.132013664474
 31
0.0
  0
LINE
  5
385944
330
18
100
AcDbEntity
  8
姿図
100
AcDbLine
 10
-820.204181406847
 20
-1978.131977257297
 30
0.0
 11
-820.3149935387518
 21
-1982.451094748498
 31
0.0
  0
SPLINE
  5
385945
330
18
100
AcDbEntity
  8
姿図
100
AcDbSpline
210
0.0
220
0.0
230
1.0
 70
     8
 71
     3
 72
    10
 73
     6
 74
     0
 42
0.000000001
 43
0.0000000001
 40
0.0
 40
0.0
 40
0.0
 40
0.0
 40
0.2111974304531619
 40
0.6824002701617019
 40
1.0
 40
1.0
 40
1.0
 40
1.0
 10
-821.3781028467765
 20
-1982.675000689081
 30
0.0
 10
-821.3924563328518
 20
-1982.660611403807
 30
0.0
 10
-821.4388338988783
 20
-1982.61411816695
 30
0.0
 10
-821.4674979175898
 20
-1982.521671506582
 30
0.0
 10
-821.4706178088481
 20
-1982.469994796946
 30
0.0
 10
-821.471873987085
 20
-1982.449187931383
 30
0.0
  0
SPLINE
  5
385946
330
18
100
AcDbEntity
  8
姿図
100
AcDbSpline
210
0.0
220
0.0
230
1.0
 70
     8
 71
     3
 72
    10
 73
     6
 74
     0
 42
0.000000001
 43
0.0000000001
 40
0.0
 40
0.0
 40
0.0
 40
0.0
 40
0.1656534526124224
 40
0.6462220020826556
 40
0.9999999999999998
 40
0.9999999999999998
 40
0.9999999999999998
 40
0.9999999999999998
 10
-820.3166114179721
 20
-1982.452144281853
 30
0.0
 10
-820.3166444359185
 20
-1982.461746249597
 30
0.0
 10
-820.3167732404967
 20
-1982.499203982723
 30
0.0
 10
-820.339139229096
 20
-1982.591345995757
 30
0.0
 10
-820.389917737577
 20
-1982.652408582793
 30
0.0
 10
-820.4114487418392
 20
-1982.678300222012
 30
0.0
  0
LINE
  5
385947
330
18
100
AcDbEntity
  8
姿図
100
AcDbLine
 10
-830.0870509520564
 20
-1977.270621566652
 30
0.0
 11
-833.6304921698255
 21
-1975.7306307207
 31
0.0
  0
LWPOLYLINE
  5
385948
330
18
100
AcDbEntity
  8
姿図
100
AcDbPolyline
 90
        3
 70
   128
 43
0.0
 10
-808.1580347235357
 20
-1975.730633762552
 10
-810.4222656645761
 20
-1976.714675881947
 10
-811.701475941305
 20
-1977.270621566652
  0
SPLINE
  5
385949
330
18
100
AcDbEntity
  8
姿図
100
AcDbSpline
210
0.0
220
0.0
230
1.0
 70
     8
 71
     3
 72
    14
 73
    10
 74
     0
 42
0.000000001
 43
0.0000000001
 40
0.0
 40
0.0
 40
0.0
 40
0.0
 40
0.0175217472432157
 40
0.177462006911189
 40
0.377179567277405
 40
0.5493284449715891
 40
0.7175376273012424
 40
0.8868934658752289
 40
1.0
 40
1.0
 40
1.0
 40
1.0
 10
-833.6309320775567
 20
-1975.732807031774
 30
0.0
 10
-833.6353630248764
 20
-1975.730101943346
 30
0.0
 10
-833.6802401020841
 20
-1975.70270453745
 30
0.0
 10
-833.7954812748039
 20
-1975.685744641763
 30
0.0
 10
-833.9541517983262
 20
-1975.696075395867
 30
0.0
 10
-834.1026252750571
 20
-1975.765470244433
 30
0.0
 10
-834.2108164796991
 20
-1975.872864239022
 30
0.0
 10
-834.2751382405221
 20
-1975.995666118753
 30
0.0
 10
-834.2770688430483
 20
-1976.080014815424
 30
0.0
 10
-834.2778419150809
 20
-1976.113790601725
 30
0.0
  0
SPLINE
  5
38594A
330
18
100
AcDbEntity
  8
姿図
100
AcDbSpline
210
0.0
220
0.0
230
1.0
 70
     8
 71
     3
 72
    14
 73
    10
 74
     0
 42
0.000000001
 43
0.0000000001
 40
0.0
 40
0.0
 40
0.0
 40
0.0
 40
0.1186996675348058
 40
0.2817104770756842
 40
0.4290296271870446
 40
0.5739593143889853
 40
0.7285730033522703
 40
0.9117669428510541
 40
0.9999999999999998
 40
0.9999999999999998
 40
0.9999999999999998
 40
0.9999999999999998
 10
-807.5103310106078
 20
-1976.115014687439
 30
0.0
 10
-807.5113902333097
 20
-1976.079542672755
 30
0.0
 10
-807.5139040915109
 20
-1975.995356774118
 30
0.0
 10
-807.5750378412513
 20
-1975.878707889532
 30
0.0
 10
-807.6689532710888
 20
-1975.780580553468
 30
0.0
 10
-807.7866665090478
 20
-1975.715175001937
 30
0.0
 10
-807.9272329314376
 20
-1975.684989719478
 30
0.0
 10
-808.0587250770914
 20
-1975.689019565277
 30
0.0
 10
-808.1311455447716
 20
-1975.724929966784
 30
0.0
 10
-808.154687341802
 20
-1975.736603398489
 30
0.0
  0
LINE
  5
38594B
330
18
100
AcDbEntity
  8
姿図
100
AcDbLine
 10
-834.3632503633189
 20
-1979.200241542986
 30
0.0
 11
-836.0718375038344
 21
-1978.933026824036
 31
0.0
  0
LINE
  5
38594C
330
18
100
AcDbEntity
  8
姿図
100
AcDbLine
 10
-805.7166893895269
 20
-1978.933026824036
 30
0.0
 11
-807.425276530043
 21
-1979.200244584837
 31
0.0
  0
LINE
  5
38594D
330
18
100
AcDbEntity
  8
姿図
100
AcDbLine
 10
-821.5890025486387
 20
-1978.132043333526
 30
0.0
 11
-821.60717705997
 21
-1978.012993229704
 31
0.0
  0
SPLINE
  5
38594E
330
18
100
AcDbEntity
  8
姿図
100
AcDbSpline
210
0.0
220
0.0
230
1.0
 70
     8
 71
     3
 72
     9
 73
     5
 74
     0
 42
0.000000001
 43
0.0000000001
 40
0.0
 40
0.0
 40
0.0
 40
0.0
 40
0.7605563028351043
 40
1.0
 40
1.0
 40
1.0
 40
1.0
 10
-820.1953348491988
 20
-1978.085899238992
 30
0.0
 10
-820.1999024180604
 20
-1978.097813452416
 30
0.0
 10
-820.2059079811515
 20
-1978.113478582505
 30
0.0
 10
-820.202845541803
 20
-1978.129536424145
 30
0.0
 10
-820.2021122600027
 20
-1978.133381373116
 30
0.0
  0
SPLINE
  5
38594F
330
18
100
AcDbEntity
  8
姿図
100
AcDbSpline
210
0.0
220
0.0
230
1.0
 70
     8
 71
     3
 72
    13
 73
     9
 74
     0
 42
0.000000001
 43
0.0000000001
 40
0.0
 40
0.0
 40
0.0
 40
0.0
 40
0.0177612826366331
 40
0.2458002192084114
 40
0.4461917506838911
 40
0.6389652514528193
 40
0.8356094152651529
 40
1.0
 40
1.0
 40
1.0
 40
1.0
 10
-836.0714937436014
 20
-1978.934525587762
 30
0.0
 10
-836.075874850726
 20
-1978.933373790114
 30
0.0
 10
-836.1365054433244
 20
-1978.917433943873
 30
0.0
 10
-836.25477671733
 20
-1978.930827984585
 30
0.0
 10
-836.4035282141335
 20
-1978.987806919866
 30
0.0
 10
-836.5177103799014
 20
-1979.089035853376
 30
0.0
 10
-836.5917033253285
 20
-1979.214555289196
 30
0.0
 10
-836.598733266975
 20
-1979.30714165137
 30
0.0
 10
-836.6019342226245
 20
-1979.349299161907
 30
0.0
  0
SPLINE
  5
385950
330
18
100
AcDbEntity
  8
姿図
100
AcDbSpline
210
0.0
220
0.0
230
1.0
 70
     8
 71
     3
 72
    13
 73
     9
 74
     0
 42
0.000000001
 43
0.0000000001
 40
0.0
 40
0.0
 40
0.0
 40
0.0
 40
0.1920841622551685
 40
0.377179656062242
 40
0.5443959473731951
 40
0.7113582543574895
 40
0.8951859059435644
 40
1.0
 40
1.0
 40
1.0
 40
1.0
 10
-805.185515291922
 20
-1979.34936151319
 30
0.0
 10
-805.1906234749022
 20
-1979.300131603395
 30
0.0
 10
-805.2006539879695
 20
-1979.203462933649
 30
0.0
 10
-805.2774998501955
 20
-1979.083205022183
 30
0.0
 10
-805.3780143282047
 20
-1978.995144800067
 30
0.0
 10
-805.4992576079394
 20
-1978.94192719457
 30
0.0
 10
-805.6167213979419
 20
-1978.918081566036
 30
0.0
 10
-805.6888556122022
 20
-1978.935153843882
 30
0.0
 10
-805.7150496137019
 20
-1978.94135327748
 30
0.0
  0
LINE
  5
385951
330
18
100
AcDbEntity
  8
姿図
100
AcDbLine
 10
-801.9942639239761
 20
-2015.317062588899
 30
0.0
 11
-801.9942639239761
 21
-2014.582175918354
 31
0.0
  0
LINE
  5
385952
330
18
100
AcDbEntity
  8
姿図
100
AcDbLine
 10
-839.7942629693853
 20
-2014.582175918354
 30
0.0
 11
-839.7942629693853
 21
-2015.317062588899
 31
0.0
  0
SPLINE
  5
385953
330
18
100
AcDbEntity
  8
姿図
100
AcDbSpline
210
0.0
220
0.0
230
1.0
 70
     8
 71
     3
 72
    49
 73
    45
 74
     0
 42
0.000000001
 43
0.0000000001
 40
0.0
 40
0.0
 40
0.0
 40
0.0
 40
0.0068000756816429
 40
0.0315321763294778
 40
0.0562112946600153
 40
0.0808492536175754
 40
0.1054577488257795
 40
0.1300469829052179
 40
0.1546250879329697
 40
0.1791981713940663
 40
0.2037701699400467
 40
0.2283435036042261
 40
0.2529202656076053
 40
0.2775016663518035
 40
0.3020882255318523
 40
0.3266800368402503
 40
0.3512768910057998
 40
0.3758783254084505
 40
0.4004837965607947
 40
0.4250926335958121
 40
0.4497041355270122
 40
0.4743175461527548
 40
0.4989321238732819
 40
0.523547101965167
 40
0.548161591667443
 40
0.5727746720553597
 40
0.5973855757129289
 40
0.6219934933234177
 40
0.6465977127384078
 40
0.6711974586616883
 40
0.6957920578901452
 40
0.720380884491016
 40
0.7449634546177558
 40
0.7695394968517271
 40
0.7941090465848132
 40
0.8186726043103822
 40
0.8432313361100566
 40
0.8677873361783799
 40
0.8923430858353103
 40
0.9169025657542066
 40
0.9414720312019136
 40
0.966059814562546
 40
0.9906764503800983
 40
0.9999999999999998
 40
0.9999999999999998
 40
0.9999999999999998
 40
0.9999999999999998
 10
-837.4142277997972
 20
-2012.045302055023
 30
0.0
 10
-837.3855995839986
 20
-2011.99169433503
 30
0.0
 10
-837.252849598437
 20
-2011.743113560553
 30
0.0
 10
-836.9524722235514
 20
-2011.310517528034
 30
0.0
 10
-836.513176549111
 20
-2010.751049233372
 30
0.0
 10
-836.0095052714523
 20
-2010.208874444155
 30
0.0
 10
-835.4495174291677
 20
-2009.684981335926
 30
0.0
 10
-834.8335790494219
 20
-2009.181576007852
 30
0.0
 10
-834.1643756910416
 20
-2008.700496248087
 30
0.0
 10
-833.4442471106933
 20
-2008.243625416954
 30
0.0
 10
-832.6759104620014
 20
-2007.812756385756
 30
0.0
 10
-831.8622366035679
 20
-2007.409611079519
 30
0.0
 10
-831.0063148749399
 20
-2007.035796340325
 30
0.0
 10
-830.1113858404048
 20
-2006.692820703476
 30
0.0
 10
-829.180874582949
 20
-2006.382060968348
 30
0.0
 10
-828.2183458501895
 20
-2006.104775203536
 30
0.0
 10
-827.2275018311346
 20
-2005.862084755731
 30
0.0
 10
-826.212161709427
 20
-2005.654969792229
 30
0.0
 10
-825.1762429281498
 20
-2005.48426977324
 30
0.0
 10
-824.1237477423856
 20
-2005.350673693339
 30
0.0
 10
-823.0587447228216
 20
-2005.254721233403
 30
0.0
 10
-821.9853517965875
 20
-2005.196801240892
 30
0.0
 10
-820.9077209465858
 20
-2005.177149437325
 30
0.0
 10
-819.8300226289848
 20
-2005.195844236594
 30
0.0
 10
-818.7564306970079
 20
-2005.252815082888
 30
0.0
 10
-817.691102725389
 20
-2005.347830099272
 30
0.0
 10
-816.6381643305822
 20
-2005.480510025611
 30
0.0
 10
-815.601688598992
 20
-2005.650316577731
 30
0.0
 10
-814.5856863862
 20
-2005.856565908214
 30
0.0
 10
-813.5940872605461
 20
-2006.098422749666
 30
0.0
 10
-812.630723617647
 20
-2006.374905013225
 30
0.0
 10
-811.6993163329262
 20
-2006.684889222508
 30
0.0
 10
-810.8034578212178
 20
-2007.027113381488
 30
0.0
 10
-809.9465919548647
 20
-2007.400178370247
 30
0.0
 10
-809.1319992197032
 20
-2007.802557871689
 30
0.0
 10
-808.3627902902772
 20
-2008.232610245146
 30
0.0
 10
-807.6418590812808
 20
-2008.688575135664
 30
0.0
 10
-806.9719399136619
 20
-2009.168601662952
 30
0.0
 10
-806.3554162917103
 20
-2009.670728305576
 30
0.0
 10
-805.7948971718005
 20
-2010.192999733577
 30
0.0
 10
-805.2909951429027
 20
-2010.733151330509
 30
0.0
 10
-804.8506203382876
 20
-2011.28994445321
 30
0.0
 10
-804.5378705134922
 20
-2011.740296314769
 30
0.0
 10
-804.3944263857082
 20
-2012.007786882413
 30
0.0
 10
-804.3550215201825
 20
-2012.081267965329
 30
0.0
  0
SPLINE
  5
385954
330
18
100
AcDbEntity
  8
姿図
100
AcDbSpline
210
0.0
220
0.0
230
1.0
 70
     8
 71
     3
 72
     9
 73
     5
 74
     0
 42
0.000000001
 43
0.0000000001
 40
0.0
 40
0.0
 40
0.0
 40
0.0
 40
0.1654292741188162
 40
1.0
 40
1.0
 40
1.0
 40
1.0
 10
-833.0613713794228
 20
-2005.749089145069
 30
0.0
 10
-833.0923667793827
 20
-2005.764667962919
 30
0.0
 10
-833.2797302319832
 20
-2005.858840036953
 30
0.0
 10
-833.4551068825822
 20
-2005.960619189493
 30
0.0
 10
-833.6014711011758
 20
-2006.045561090708
 30
0.0
  0
LINE
  5
385955
330
18
100
AcDbEntity
  8
姿図
100
AcDbLine
 10
-806.9678948140994
 20
-2006.828727418451
 30
0.0
 11
-807.1462055354855
 21
-2006.707479443189
 31
0.0
  0
SPLINE
  5
385956
330
18
100
AcDbEntity
  8
姿図
100
AcDbSpline
210
0.0
220
0.0
230
1.0
 70
     8
 71
     3
 72
    11
 73
     7
 74
     0
 42
0.000000001
 43
0.0000000001
 40
0.0
 40
0.0
 40
0.0
 40
0.0
 40
0.1019850591851609
 40
0.4705960321986349
 40
0.8403068682033961
 40
1.0
 40
1.0
 40
1.0
 40
1.0
 10
-836.3547021263483
 20
-2005.106410003652
 30
0.0
 10
-836.4198677818468
 20
-2005.267726254809
 30
0.0
 10
-836.7205657385692
 20
-2006.012097914048
 30
0.0
 10
-837.1959006823612
 20
-2007.375096008937
 30
0.0
 10
-837.6801974806503
 20
-2008.842648133914
 30
0.0
 10
-837.924714263584
 20
-2009.724623384206
 30
0.0
 10
-837.9984720236661
 20
-2009.99066859439
 30
0.0
  0
SPLINE
  5
385957
330
18
100
AcDbEntity
  8
姿図
100
AcDbSpline
210
0.0
220
0.0
230
1.0
 70
     8
 71
     3
 72
    11
 73
     7
 74
     0
 42
0.000000001
 43
0.0000000001
 40
0.0
 40
0.0
 40
0.0
 40
0.0
 40
0.1613322428054235
 40
0.5201447613497129
 40
0.8769114217287627
 40
1.0
 40
1.0
 40
1.0
 40
1.0
 10
-803.7898645503323
 20
-2009.990036288467
 30
0.0
 10
-803.8646174830109
 20
-2009.721092751652
 30
0.0
 10
-804.1056253909906
 20
-2008.854002768024
 30
0.0
 10
-804.5775819385539
 20
-2007.419073010176
 30
0.0
 10
-805.0522023890511
 20
-2006.057567197133
 30
0.0
 10
-805.3576219450578
 20
-2005.297023581928
 30
0.0
 10
-805.4359656952083
 20
-2005.1019350953
 30
0.0
  0
SPLINE
  5
385958
330
18
100
AcDbEntity
  8
姿図
100
AcDbSpline
210
0.0
220
0.0
230
1.0
 70
     8
 71
     3
 72
     9
 73
     5
 74
     0
 42
0.000000001
 43
0.0000000001
 40
0.0
 40
0.0
 40
0.0
 40
0.0
 40
0.5091977342585179
 40
1.0
 40
1.0
 40
1.0
 40
1.0
 10
-838.4516968420394
 20
-2008.374514924854
 30
0.0
 10
-838.3688851880474
 20
-2008.576525636753
 30
0.0
 10
-838.2062535649657
 20
-2008.973249145732
 30
0.0
 10
-837.9829228899598
 20
-2009.358479107424
 30
0.0
 10
-837.873311688657
 20
-2009.547550845454
 30
0.0
  0
SPLINE
  5
385959
330
18
100
AcDbEntity
  8
姿図
100
AcDbSpline
210
0.0
220
0.0
230
1.0
 70
     8
 71
     3
 72
    10
 73
     6
 74
     0
 42
0.000000001
 43
0.0000000001
 40
0.0
 40
0.0
 40
0.0
 40
0.0
 40
0.3466606544410867
 40
0.8840150629160813
 40
1.0
 40
1.0
 40
1.0
 40
1.0
 10
-803.9171072030757
 20
-2009.540624496246
 30
0.0
 10
-803.83894460785
 20
-2009.410214253604
 30
0.0
 10
-803.639623136979
 20
-2009.077656700914
 30
0.0
 10
-803.4536402024459
 20
-2008.692404832682
 30
0.0
 10
-803.3639318116657
 20
-2008.436150730554
 30
0.0
 10
-803.348006210167
 20
-2008.390658879934
 30
0.0
  0
LINE
  5
38595A
330
18
100
AcDbEntity
  8
姿図
100
AcDbLine
 10
-802.894263775811
 20
-2006.05599378747
 30
0.0
 11
-802.894263775811
 21
-2005.80436194001
 31
0.0
  0
LINE
  5
38595B
330
18
100
AcDbEntity
  8
姿図
100
AcDbLine
 10
-838.8942631175504
 20
-2005.80436194001
 30
0.0
 11
-838.8942631175504
 21
-2006.05599378747
 31
0.0
  0
LINE
  5
38595C
330
18
100
AcDbEntity
  8
姿図
100
AcDbLine
 10
-810.712538089624
 20
-1991.757937025665
 30
0.0
 11
-811.1436934351731
 21
-1992.126947368096
 31
0.0
  0
LINE
  5
38595D
330
18
100
AcDbEntity
  8
姿図
100
AcDbLine
 10
-830.644742249774
 20
-1992.12702549296
 30
0.0
 11
-831.0760154747899
 21
-1991.757914405571
 31
0.0
  0
LINE
  5
38595E
330
18
100
AcDbEntity
  8
姿図
100
AcDbLine
 10
-802.8956342069323
 20
-2005.676128815434
 30
0.0
 11
-803.0178106767758
 21
-1999.961213924603
 31
0.0
  0
LINE
  5
38595F
330
18
100
AcDbEntity
  8
姿図
100
AcDbLine
 10
-838.8511343791778
 20
-2003.722842568373
 30
0.0
 11
-838.8928926864291
 21
-2005.676128815434
 31
0.0
  0
LINE
  5
385960
330
18
100
AcDbEntity
  8
姿図
100
AcDbLine
 10
-838.7707162165862
 20
-1999.961213924603
 30
0.0
 11
-838.8269236488868
 21
-2002.590360442274
 31
0.0
  0
LINE
  5
385961
330
18
100
AcDbEntity
  8
姿図
100
AcDbLine
 10
-803.2848748409097
 20
-1998.378515163406
 30
0.0
 11
-804.0387113977416
 21
-1998.463105572235
 31
0.0
  0
LINE
  5
385962
330
18
100
AcDbEntity
  8
姿図
100
AcDbLine
 10
-837.7498694962696
 20
-1998.46309948952
 30
0.0
 11
-838.503629003394
 21
-1998.378517824594
 31
0.0
  0
LWPOLYLINE
  5
385963
330
18
100
AcDbEntity
  8
姿図
100
AcDbPolyline
 90
       19
 70
   128
 43
0.0
 10
-808.2175693207691
 20
-1995.436747525122
 10
-808.3664289825273
 20
-1995.38129959402
 10
-808.497333976206
 20
-1995.393084091382
 10
-808.5944951801642
 20
-1995.470680433928
 10
-808.6461936405367
 20
-1995.604728216833
 10
-808.6461936405367
 20
-1995.779059771864
 10
-808.5944951801642
 20
-1995.972649060542
 10
-808.497333976206
 20
-1996.162144776034
 10
-808.3664289825273
 20
-1996.324691833703
 10
-808.2175693207691
 20
-1996.440684778351
 10
-808.0687096538653
 20
-1996.496132712422
 10
-807.9378046601869
 20
-1996.48434821506
 10
-807.8406434768085
 20
-1996.406752621098
 10
-807.7889463335246
 20
-1996.272704838069
 10
-807.7889463335246
 20
-1996.098373283038
 10
-807.8406434768085
 20
-1995.904783994483
 10
-807.9378046601869
 20
-1995.715287530408
 10
-808.0687096538653
 20
-1995.552740472739
 10
-808.2175693207691
 20
-1995.436747525122
  0
LWPOLYLINE
  5
385964
330
18
100
AcDbEntity
  8
姿図
100
AcDbPolyline
 90
       15
 70
   128
 43
0.0
 10
-808.2557053798408
 20
-1995.414724881036
 10
-808.4176417766157
 20
-1995.354407019048
 10
-808.5600443708871
 20
-1995.367226400507
 10
-808.6657401470329
 20
-1995.451638144926
 10
-808.7219807535129
 20
-1995.597460884917
 10
-808.7219807535129
 20
-1995.787106641652
 10
-808.6657401470329
 20
-1995.997699930899
 10
-808.5600443708871
 20
-1996.203841285173
 10
-808.4176417766157
 20
-1996.380666899986
 10
-808.2557053798408
 20
-1996.506848452981
 10
-808.0937703078725
 20
-1996.567167070853
 10
-807.9513663965126
 20
-1996.554347689517
 10
-807.8456705997869
 20
-1996.469935956978
 10
-807.7894313103957
 20
-1996.324113216864
 10
-807.7822395104604
 20
-1996.232066400587
  0
LINE
  5
385965
330
18
100
AcDbEntity
  8
姿図
100
AcDbLine
 10
-807.9110013842246
 20
-1996.115253057626
 30
0.0
 11
-808.0642853563555
 21
-1995.720781937922
 31
0.0
  0
LINE
  5
385966
330
18
100
AcDbEntity
  8
姿図
100
AcDbLine
 10
-808.0642853563555
 20
-1995.720781937922
 30
0.0
 11
-808.3708532903274
 21
-1995.544245033517
 31
0.0
  0
LINE
  5
385967
330
18
100
AcDbEntity
  8
姿図
100
AcDbLine
 10
-808.3708532903274
 20
-1995.544245033517
 30
0.0
 11
-808.5241372521685
 21
-1995.762179248816
 31
0.0
  0
LINE
  5
385968
330
18
100
AcDbEntity
  8
姿図
100
AcDbLine
 10
-808.5241372521685
 20
-1995.762179248816
 30
0.0
 11
-808.3708532903274
 21
-1996.156650362581
 31
0.0
  0
LINE
  5
385969
330
18
100
AcDbEntity
  8
姿図
100
AcDbLine
 10
-808.3708532903274
 20
-1996.156650362581
 30
0.0
 11
-808.0642853563555
 21
-1996.333187266986
 31
0.0
  0
LINE
  5
38596A
330
18
100
AcDbEntity
  8
姿図
100
AcDbLine
 10
-808.0642853563555
 20
-1996.333187266986
 30
0.0
 11
-807.9110013842246
 21
-1996.115253057626
 31
0.0
  0
LINE
  5
38596B
330
18
100
AcDbEntity
  8
姿図
100
AcDbLine
 10
-808.1762082058912
 20
-1996.268736432733
 30
0.0
 11
-807.9110013842246
 21
-1996.115253057626
 31
0.0
  0
LINE
  5
38596C
330
18
100
AcDbEntity
  8
姿図
100
AcDbLine
 10
-808.4528440674949
 20
-1995.945652857523
 30
0.0
 11
-808.0642853563555
 21
-1995.720781937922
 31
0.0
  0
ARC
  5
38596D
330
18
100
AcDbEntity
  8
姿図
100
AcDbCircle
 10
-661.8073607457245
 20
-2003.083925369297
 30
0.0
 40
177.0377835999399
100
AcDbArc
 50
179.8671057208371
 51
180.1336273607761
  0
ELLIPSE
  5
38596E
330
18
100
AcDbEntity
  8
姿図
100
AcDbEllipse
 10
-820.8942634466806
 20
-2098.13873451913
 30
0.0
 11
-1.137000000000000E-13
 21
774.2849797427465
 31
0.0
210
0.0
220
0.0
230
1.0
 40
0.0211162561947569
 41
1.443323073887967
 42
1.445400422389491
  0
ARC
  5
38596F
330
18
100
AcDbEntity
  8
姿図
100
AcDbCircle
 10
-820.2548667227519
 20
-2015.280636060384
 30
0.0
 40
23.76903833349018
100
AcDbArc
 50
67.73775879734124
 51
83.47152900190319
  0
ARC
  5
385970
330
18
100
AcDbEntity
  8
姿図
100
AcDbCircle
 10
-821.5988839946913
 20
-2015.02560722913
 30
0.0
 40
23.50826638674696
100
AcDbArc
 50
96.44391459859784
 51
112.3698188776859
  0
ARC
  5
385971
330
18
100
AcDbEntity
  8
姿図
100
AcDbCircle
 10
-830.4881626675602
 20
-2001.285495299835
 30
0.0
 40
6.809355268528461
100
AcDbArc
 50
140.7240115542232
 51
166.5805886870007
  0
ARC
  5
385972
330
18
100
AcDbEntity
  8
姿図
100
AcDbCircle
 10
-820.299913327106
 20
-2016.18025025348
 30
0.0
 40
25.04873964153734
100
AcDbArc
 50
68.78412115679626
 51
83.73178008803724
  0
ARC
  5
385973
330
18
100
AcDbEntity
  8
姿図
100
AcDbCircle
 10
-821.5698001370218
 20
-2015.849382461086
 30
0.0
 40
24.7110317230693
100
AcDbArc
 50
96.16293697024183
 51
111.2937340214809
  0
ARC
  5
385974
330
18
100
AcDbEntity
  8
姿図
100
AcDbCircle
 10
-830.3239847624009
 20
-2001.571429233479
 30
0.0
 40
7.68213063525972
100
AcDbArc
 50
134.7626451068602
 51
163.6718236284392
  0
LINE
  5
385975
330
18
100
AcDbEntity
  8
姿図
100
AcDbLine
 10
-837.6800664126011
 20
-1999.705197437027
 30
0.0
 11
-837.1116042078655
 21
-1999.705197437027
 31
0.0
  0
ARC
  5
385976
330
18
100
AcDbEntity
  8
姿図
100
AcDbCircle
 10
-820.2894547168383
 20
-2015.294736961634
 30
0.0
 40
24.97915389084587
100
AcDbArc
 50
68.370990207828
 51
83.78637628761706
  0
ARC
  5
385977
330
18
100
AcDbEntity
  8
姿図
100
AcDbCircle
 10
-821.5836907593052
 20
-2014.953300950923
 30
0.0
 40
24.63061359569546
100
AcDbArc
 50
96.10286699358898
 51
111.7387859096513
  0
ARC
  5
385978
330
18
100
AcDbEntity
  8
姿図
100
AcDbCircle
 10
-830.320370279287
 20
-2000.753074503695
 30
0.0
 40
7.684147558668605
100
AcDbArc
 50
134.5138654737462
 51
163.9772787145777
  0
ARC
  5
385979
330
18
100
AcDbEntity
  8
姿図
100
AcDbCircle
 10
-810.9735138710279
 20
-2001.086880188931
 30
0.0
 40
6.431819829449084
100
AcDbArc
 50
1.61938696537815
 51
40.12126951620946
  0
ARC
  5
38597A
330
18
100
AcDbEntity
  8
姿図
100
AcDbCircle
 10
-811.5416195130556
 20
-2001.610322276394
 30
0.0
 40
7.764373660271217
100
AcDbArc
 50
15.74124480815618
 51
45.1673039261158
  0
ARC
  5
38597B
330
18
100
AcDbEntity
  8
姿図
100
AcDbCircle
 10
-811.5719619768569
 20
-2000.815607530496
 30
0.0
 40
7.801830082347036
100
AcDbArc
 50
16.40214797291985
 51
45.3731585768224
  0
LWPOLYLINE
  5
38597C
330
18
100
AcDbEntity
  8
姿図
100
AcDbPolyline
 90
        3
 70
   128
 43
0.0
 10
-816.7677260950741
 20
-1982.295051325419
 10
-816.8571419512787
 20
-1982.271426306574
 10
-816.9266565924527
 20
-1982.239275233865
  0
SPLINE
  5
38597D
330
18
100
AcDbEntity
  8
姿図
100
AcDbSpline
210
0.0
220
0.0
230
1.0
 70
    11
 71
     3
 72
    26
 73
    22
 74
     0
 42
0.000000001
 43
0.0000000001
 40
0.0
 40
0.0
 40
0.0
 40
0.0
 40
0.0536417905150589
 40
0.1072853769728336
 40
0.1608936350238475
 40
0.2145323355944589
 40
0.2682365440751673
 40
0.3219387132141624
 40
0.3755743921066066
 40
0.4291832114281764
 40
0.4828457874992355
 40
0.5365598933650305
 40
0.590242022385204
 40
0.643858942032977
 40
0.6974791469105375
 40
0.7511661360221021
 40
0.8048790571128212
 40
0.8585365627602797
 40
0.9121438071383229
 40
0.9657844690966694
 40
1.0
 40
1.0
 40
1.0
 40
1.0
 10
-806.356636929876
 20
-1989.729735224157
 30
0.0
 10
-806.3853904624503
 20
-1989.717091158089
 30
0.0
 10
-806.4428984902738
 20
-1989.691802602626
 30
0.0
 10
-806.5502825207355
 20
-1989.545299592245
 30
0.0
 10
-806.6590320881937
 20
-1989.337164283266
 30
0.0
 10
-806.7577464915443
 20
-1989.082303416702
 30
0.0
 10
-806.8325480586896
 20
-1988.810799641448
 30
0.0
 10
-806.8728848021027
 20
-1988.552172889636
 30
0.0
 10
-806.872962354012
 20
-1988.335605139021
 30
0.0
 10
-806.8332060464726
 20
-1988.185419464548
 30
0.0
 10
-806.7597886205062
 20
-1988.118845466539
 30
0.0
 10
-806.6632504703571
 20
-1988.144140219948
 30
0.0
 10
-806.5564672897654
 20
-1988.259070711986
 30
0.0
 10
-806.4522330682676
 20
-1988.450677964744
 30
0.0
 10
-806.3613575152622
 20
-1988.697114348587
 30
0.0
 10
-806.2919515031913
 20
-1988.970352875398
 30
0.0
 10
-806.2495812309588
 20
-1989.238882134582
 30
0.0
 10
-806.2373708954369
 20
-1989.47223354365
 30
0.0
 10
-806.2568914745934
 20
-1989.642407301005
 30
0.0
 10
-806.2998808508536
 20
-1989.725647412651
 30
0.0
 10
-806.340728746426
 20
-1989.728589449881
 30
0.0
 10
-806.356636929876
 20
-1989.729735224157
 30
0.0
1001
ACAD_SPLINE_DATA
1070
   100
1070
     1
1070
   101
1070
     0
1070
   102
1070
    15
1001
ACAD_SPLINE_DATA2
1070
   103
1070
     1
1070
   104
1070
    15
  0
LWPOLYLINE
  5
38597E
330
18
100
AcDbEntity
  8
姿図
100
AcDbPolyline
 90
        3
 70
   128
 43
0.0
 10
-808.822437972734
 20
-1985.370592966843
 10
-808.8199666198315
 20
-1985.371616584635
 10
-808.8135525609599
 20
-1985.374136024919
  0
LWPOLYLINE
  5
38597F
330
18
100
AcDbEntity
  8
姿図
100
AcDbPolyline
 90
        3
 70
   128
 43
0.0
 10
-821.6049515088052
 20
-1978.011476758428
 10
-821.6015122601124
 20
-1978.023127759087
 10
-821.5933497655724
 20
-1978.082577186093
  0
LWPOLYLINE
  5
385980
330
18
100
AcDbEntity
  8
姿図
100
AcDbPolyline
 90
        3
 70
   128
 43
0.0
 10
-820.195177127789
 20
-1978.082577186093
 10
-820.187014633249
 20
-1978.023127759087
 10
-820.1847163129158
 20
-1978.015105161581
  0
SPLINE
  5
385981
330
18
100
AcDbEntity
  8
姿図
100
AcDbSpline
210
0.0
220
0.0
230
1.0
 70
     8
 71
     3
 72
    13
 73
     9
 74
     0
 42
0.000000001
 43
0.0000000001
 40
0.0
 40
0.0
 40
0.0
 40
0.0
 40
0.2238130163444242
 40
0.4469771555802939
 40
0.6860271947913956
 40
0.9396248808851121
 40
0.9944616785140887
 40
1.0
 40
1.0
 40
1.0
 40
1.0
 10
-820.7381439465343
 20
-1982.841916827233
 30
0.0
 10
-820.6837996806094
 20
-1982.83454182703
 30
0.0
 10
-820.575268703269
 20
-1982.819813208172
 30
0.0
 10
-820.4285974749192
 20
-1982.738770140826
 30
0.0
 10
-820.3087952545402
 20
-1982.625388292273
 30
0.0
 10
-820.2520798486894
 20
-1982.520871298001
 30
0.0
 10
-820.234365185037
 20
-1982.459441261297
 30
0.0
 10
-820.2315437719712
 20
-1982.447564352542
 30
0.0
 10
-820.2312849585259
 20
-1982.446474861707
 30
0.0
  0
SPLINE
  5
385982
330
18
100
AcDbEntity
  8
姿図
100
AcDbSpline
210
0.0
220
0.0
230
1.0
 70
     8
 71
     3
 72
    13
 73
     9
 74
     0
 42
0.000000001
 43
0.0000000001
 40
0.0
 40
0.0
 40
0.0
 40
0.0
 40
0.2238130163444242
 40
0.4469771555802939
 40
0.6860271947913956
 40
0.9396248808851121
 40
0.9944616785140887
 40
1.0
 40
1.0
 40
1.0
 40
1.0
 10
-821.0503829468271
 20
-1982.841916827233
 30
0.0
 10
-821.1047272127521
 20
-1982.83454182703
 30
0.0
 10
-821.2132581900923
 20
-1982.819813208172
 30
0.0
 10
-821.3599294184422
 20
-1982.738770140826
 30
0.0
 10
-821.4797316388212
 20
-1982.625388292273
 30
0.0
 10
-821.536447044672
 20
-1982.520871298001
 30
0.0
 10
-821.5541617083244
 20
-1982.459441261297
 30
0.0
 10
-821.5569831213901
 20
-1982.447564352542
 30
0.0
 10
-821.5572419348355
 20
-1982.446474861707
 30
0.0
  0
LINE
  5
385983
330
18
100
AcDbEntity
  8
姿図
100
AcDbLine
 10
-820.7381439465343
 20
-1982.841916827233
 30
0.0
 11
-820.7653378834475
 21
-1982.84229331927
 31
0.0
  0
LINE
  5
385984
330
18
100
AcDbEntity
  8
姿図
100
AcDbLine
 10
-821.023189009914
 20
-1982.84229331927
 30
0.0
 11
-821.0503829468271
 21
-1982.841916827233
 31
0.0
  0
ARC
  5
385985
330
18
100
AcDbEntity
  8
姿図
100
AcDbCircle
 10
-820.8942634466806
 20
-1993.160255333974
 30
0.0
 40
10.31876746214107
100
AcDbArc
 50
89.28411189842664
 51
90.71588810157337
  0
SPLINE
  5
385986
330
18
100
AcDbEntity
  8
姿図
100
AcDbSpline
210
0.0
220
0.0
230
1.0
 70
     8
 71
     3
 72
     9
 73
     5
 74
     0
 42
0.000000001
 43
0.0000000001
 40
0.0
 40
0.0
 40
0.0
 40
0.0
 40
0.4053832402045946
 40
0.9999999999999998
 40
0.9999999999999998
 40
0.9999999999999998
 40
0.9999999999999998
 10
-821.5888983339706
 20
-1978.131879381903
 30
0.0
 10
-821.5874649268616
 20
-1978.125182058459
 30
0.0
 10
-821.5839289960031
 20
-1978.108661090695
 30
0.0
 10
-821.5898368541211
 20
-1978.092303615182
 30
0.0
 10
-821.5933497655724
 20
-1978.082577186093
 30
0.0
  0
ARC
  5
385987
330
18
100
AcDbEntity
  8
姿図
100
AcDbCircle
 10
-820.2440108220454
 20
-2019.107261974298
 30
0.0
 40
24.00621241138843
100
AcDbArc
 50
68.29754937206319
 51
83.29380492570715
  0
ARC
  5
385988
330
18
100
AcDbEntity
  8
姿図
100
AcDbCircle
 10
-821.5703713228535
 20
-2019.000964854597
 30
0.0
 40
23.89777671965788
100
AcDbArc
 50
96.61925626715723
 51
111.7732416039256
  0
LWPOLYLINE
  5
385989
330
18
100
AcDbEntity
  8
姿図
100
AcDbPolyline
 90
       37
 70
   128
 43
0.0
 10
-809.0191951020151
 20
-2006.094028581603
 10
-809.9621266227778
 20
-2005.68186014469
 10
-810.9478686402795
 20
-2005.304545756544
 10
-811.9725619190667
 20
-2004.963563611815
 10
-813.0321939474534
 20
-2004.660249246493
 10
-814.1226149072216
 20
-2004.395790880826
 10
-815.2395551250538
 20
-2004.171223906861
 10
-816.3786382434228
 20
-2003.987426326411
 10
-817.5354072330973
 20
-2003.845119701476
 10
-818.7053286736858
 20
-2003.744860600427
 10
-819.8838217295906
 20
-2003.687042118684
 10
-821.0662726379878
 20
-2003.671890077022
 10
-822.2480498553531
 20
-2003.699464162074
 10
-823.4245257894299
 20
-2003.769656025491
 10
-824.59109194575
 20
-2003.882191184783
 10
-825.7431819766962
 20
-2004.036628643154
 10
-826.8762815596655
 20
-2004.232364311025
 10
-827.9859557266691
 20
-2004.468630815956
 10
-829.0678577546813
 20
-2004.744503395264
 10
-830.1177518854283
 20
-2005.05890084646
 10
-831.1315245206401
 20
-2005.410593510803
 10
-832.1052071064755
 20
-2005.798202798092
 10
-833.0349873287778
 20
-2006.220210690904
 10
-833.9172219135335
 20
-2006.674965613467
 10
-834.7484566301627
 20
-2007.160686375918
 10
-835.5254374456148
 20
-2007.675470134103
 10
-836.2451194970395
 20
-2008.21730213143
 10
-836.904686560007
 20
-2008.784059334236
 10
-837.501555740639
 20
-2009.373522264569
 10
-838.0333870656631
 20
-2009.983383577766
 10
-838.498100851522
 20
-2010.611253527395
 10
-838.8938745762906
 20
-2011.254674886906
 10
-839.2191606603756
 20
-2011.911127131504
 10
-839.4726831737916
 20
-2012.578038983747
 10
-839.6534510070546
 20
-2013.252799818631
 10
-839.7607555662743
 20
-2013.932765936395
 10
-839.7942629693853
 20
-2014.582175918354
  0
LWPOLYLINE
  5
38598A
330
18
100
AcDbEntity
  8
姿図
100
AcDbPolyline
 90
       12
 70
   128
 43
0.0
 10
-801.9942639239761
 20
-2014.582175918354
 10
-802.0212932247623
 20
-2013.998860331299
 10
-802.1214486248032
 20
-2013.318530771348
 10
-802.2951212995376
 20
-2012.643149499591
 10
-802.5416303139436
 20
-2011.975360976129
 10
-802.860011558862
 20
-2011.317782288851
 10
-803.2490151168163
 20
-2010.672986425962
 10
-803.7071200792656
 20
-2010.043499804888
 10
-804.2325329002423
 20
-2009.431787255568
 10
-804.8231952988867
 20
-2008.840244417067
 10
-805.4767938083424
 20
-2008.271187663077
 10
-806.1907678429257
 20
-2007.726844882803
  0
LINE
  5
38598B
330
18
100
AcDbEntity
  8
姿図
100
AcDbLine
 10
-809.0191951020151
 20
-2006.828915252147
 30
0.0
 11
-809.0191951020151
 21
-2006.094028581603
 31
0.0
  0
LWPOLYLINE
  5
38598C
330
18
100
AcDbEntity
  8
姿図
100
AcDbPolyline
 90
       98
 70
   128
 43
0.0
 10
-809.0191951020151
 20
-2006.828915252147
 10
-809.9621266227778
 20
-2006.416746815234
 10
-810.9478686402795
 20
-2006.039432427088
 10
-811.9725619190667
 20
-2005.69845028236
 10
-813.0321939474534
 20
-2005.395135917037
 10
-814.1226149072216
 20
-2005.13067755137
 10
-815.2395551250538
 20
-2004.906110577405
 10
-816.3786382434228
 20
-2004.722312996956
 10
-817.5354072330973
 20
-2004.58000637202
 10
-818.7053286736858
 20
-2004.479747270972
 10
-819.8838217295906
 20
-2004.421928789229
 10
-821.0662726379878
 20
-2004.406776747566
 10
-822.2480498553531
 20
-2004.434350832618
 10
-823.4245257894299
 20
-2004.504542696035
 10
-824.59109194575
 20
-2004.617077855328
 10
-825.7431819766962
 20
-2004.771515313698
 10
-826.8762815596655
 20
-2004.96725098157
 10
-827.9859557266691
 20
-2005.2035174865
 10
-829.0678577546813
 20
-2005.479390065809
 10
-830.1177518854283
 20
-2005.793787517005
 10
-831.1315245206401
 20
-2006.145480181348
 10
-832.1052071064755
 20
-2006.533089468637
 10
-833.0349873287778
 20
-2006.955097361449
 10
-833.9172219135335
 20
-2007.409852284012
 10
-834.7484566301627
 20
-2007.895573046463
 10
-835.5254374456148
 20
-2008.410356804648
 10
-836.2451194970395
 20
-2008.952188801975
 10
-836.904686560007
 20
-2009.51894600478
 10
-837.501555740639
 20
-2010.108408935113
 10
-838.0333870656631
 20
-2010.718270248311
 10
-838.498100851522
 20
-2011.34614019794
 10
-838.8938745762906
 20
-2011.98956155745
 10
-839.2191606603756
 20
-2012.646013802048
 10
-839.4726831737916
 20
-2013.312925654291
 10
-839.6534510070546
 20
-2013.987686489176
 10
-839.7607555662743
 20
-2014.66765260694
 10
-839.7941767000547
 20
-2015.350162820018
 10
-839.7535833580376
 20
-2016.032542634904
 10
-839.6391335909065
 20
-2016.712120979623
 10
-839.4512785016486
 20
-2017.386236286438
 10
-839.1907503917563
 20
-2018.052247896944
 10
-838.8585713223065
 20
-2018.707548607665
 10
-838.456040930886
 20
-2019.349570942856
 10
-837.9847374194078
 20
-2019.975802551368
 10
-837.4465060295832
 20
-2020.583789818264
 10
-836.8434534452934
 20
-2021.171151741013
 10
-836.177941701052
 20
-2021.735588008091
 10
-835.4525769044322
 20
-2022.274888550746
 10
-834.6702004280313
 20
-2022.786941669122
 10
-833.833875573946
 20
-2023.269741730697
 10
-832.9468774486503
 20
-2023.721398056748
 10
-832.012680286015
 20
-2024.140142240617
 10
-831.0349420538269
 20
-2024.524333992816
 10
-830.0174911182658
 20
-2024.872468839467
 10
-828.9643121675135
 20
-2025.183183207072
 10
-827.8795296658227
 20
-2025.455260932911
 10
-826.767393859448
 20
-2025.687636781619
 10
-825.6322567397715
 20
-2025.879399676624
 10
-824.4785657871267
 20
-2026.029799353118
 10
-823.3108372997499
 20
-2026.1382457878
 10
-822.1336455277933
 20
-2026.204316232016
 10
-820.9516009413572
 20
-2026.227750269554
 10
-819.7693304741553
 20
-2026.208456659699
 10
-818.5914669868004
 20
-2026.146511056211
 10
-817.4226202908485
 20
-2026.042156007327
 10
-816.2673699048092
 20
-2025.895800575595
 10
-815.1302380538172
 20
-2025.708016916341
 10
-814.0156788036538
 20
-2025.479541608266
 10
-812.928058304406
 20
-2025.211268050052
 10
-811.8716330585012
 20
-2024.904248361214
 10
-810.850542676717
 20
-2024.559683117512
 10
-809.8687840303078
 20
-2024.178923156765
 10
-808.9302017844302
 20
-2023.763459551869
 10
-808.0384735397288
 20
-2023.314918074582
 10
-807.1970893351426
 20
-2022.835056486814
 10
-806.4093453505702
 20
-2022.325753301857
 10
-805.6783270316673
 20
-2021.789002604581
 10
-805.0068953015715
 20
-2021.226907612307
 10
-804.397679728504
 20
-2020.641669127151
 10
-803.8530683594857
 20
-2020.03557814648
 10
-803.3751912567291
 20
-2019.411009400028
 10
-802.9659213208137
 20
-2018.770408138998
 10
-802.6268604612555
 20
-2018.11628367318
 10
-802.3593379501445
 20
-2017.451196255099
 10
-802.1644002147027
 20
-2016.777751947721
 10
-802.0428111665605
 20
-2016.098586847414
 10
-801.995046274852
 20
-2015.416361381406
 10
-802.0212932247623
 20
-2014.733747001844
 10
-802.1214486248032
 20
-2014.053417441892
 10
-802.2951212995376
 20
-2013.378036170135
 10
-802.5416303139436
 20
-2012.710247646674
 10
-802.860011558862
 20
-2012.052668959396
 10
-803.2490151168163
 20
-2011.407873096507
 10
-803.7071200792656
 20
-2010.778386475433
 10
-804.2325329002423
 20
-2010.166673926113
 10
-804.8231952988867
 20
-2009.575131087612
 10
-805.4767938083424
 20
-2009.006074333622
 10
-806.1907678429257
 20
-2008.461731553347
  0
LINE
  5
38598D
330
18
100
AcDbEntity
  8
姿図
100
AcDbLine
 10
-806.1907678429257
 20
-2008.461731553347
 30
0.0
 11
-806.1907678429257
 21
-2007.726844882803
 31
0.0
  0
LINE
  5
38598E
330
18
100
AcDbEntity
  8
姿図
100
AcDbLine
 10
-809.4037785092314
 20
-2007.050930527405
 30
0.0
 11
-809.0191951020151
 21
-2006.828915252147
 31
0.0
  0
LINE
  5
38598F
330
18
100
AcDbEntity
  8
姿図
100
AcDbLine
 10
-806.5753512501423
 20
-2008.683746828606
 30
0.0
 11
-809.4037785092314
 21
-2007.050930527405
 31
0.0
  0
LINE
  5
385990
330
18
100
AcDbEntity
  8
姿図
100
AcDbLine
 10
-806.5753512501423
 20
-2008.683746828606
 30
0.0
 11
-806.1907678429257
 21
-2008.461731553347
 31
0.0
  0
ARC
  5
385991
330
18
100
AcDbEntity
  8
姿図
100
AcDbCircle
 10
-809.7054132208985
 20
-2015.16843190919
 30
0.0
 40
6.192143333022766
100
AcDbArc
 50
353.0796901214955
 51
30.3913716589169
  0
ARC
  5
385992
330
18
100
AcDbEntity
  8
姿図
100
AcDbCircle
 10
-832.1612474841353
 20
-2015.150126879952
 30
0.0
 40
6.116400351322275
100
AcDbArc
 50
148.994618170149
 51
187.7847005895142
  0
SPLINE
  5
385993
330
18
100
AcDbEntity
  8
姿図
100
AcDbSpline
210
0.0
220
0.0
230
1.0
 70
     8
 71
     3
 72
    12
 73
     8
 74
     0
 42
0.000000001
 43
0.0000000001
 40
0.0
 40
0.0
 40
0.0
 40
0.0
 40
0.1634938279978552
 40
0.3530509822427975
 40
0.6638348036995096
 40
0.9745823238102406
 40
1.0
 40
1.0
 40
1.0
 40
1.0
 10
-806.822838861687
 20
-2008.047916433635
 30
0.0
 10
-806.8206852389307
 20
-2008.050851590691
 30
0.0
 10
-806.8160346742033
 20
-2008.057189812105
 30
0.0
 10
-806.8039808025096
 20
-2008.064425713019
 30
0.0
 10
-806.7857529575112
 20
-2008.066391411832
 30
0.0
 10
-806.7690759661072
 20
-2008.060599974741
 30
0.0
 10
-806.7604425861482
 20
-2008.055704428151
 30
0.0
 10
-806.7597898104931
 20
-2008.055334272586
 30
0.0
  0
SPLINE
  5
385994
330
18
100
AcDbEntity
  8
姿図
100
AcDbSpline
210
0.0
220
0.0
230
1.0
 70
     8
 71
     3
 72
    13
 73
     9
 74
     0
 42
0.000000001
 43
0.0000000001
 40
0.0
 40
0.0
 40
0.0
 40
0.0
 40
0.018699903893298
 40
0.0488448002760099
 40
0.1024143069034873
 40
0.2467165519164329
 40
0.7442543572122056
 40
1.0
 40
1.0
 40
1.0
 40
1.0
 10
-806.8972763700122
 20
-2007.967105747394
 30
0.0
 10
-806.897242681433
 20
-2007.967731979107
 30
0.0
 10
-806.89715468569
 20
-2007.969367718152
 30
0.0
 10
-806.8960619597774
 20
-2007.973138245712
 30
0.0
 10
-806.8919249737527
 20
-2007.981293117017
 30
0.0
 10
-806.8748072934013
 20
-2008.002746676814
 30
0.0
 10
-806.8504394761212
 20
-2008.024802712117
 30
0.0
 10
-806.829834434901
 20
-2008.042058095535
 30
0.0
 10
-806.822838861687
 20
-2008.047916433635
 30
0.0
  0
LINE
  5
385995
330
18
100
AcDbEntity
  8
姿図
100
AcDbLine
 10
-806.8972763700122
 20
-2007.967105747394
 30
0.0
 11
-806.7801702812905
 21
-2008.051611996165
 31
0.0
  0
ARC
  5
385996
330
18
100
AcDbEntity
  8
姿図
100
AcDbCircle
 10
-827.6418305315001
 20
-2016.98764244718
 30
0.0
 40
12.42955523598221
100
AcDbArc
 50
118.7604695119273
 51
141.0256358570091
  0
ARC
  5
385997
330
18
100
AcDbEntity
  8
姿図
100
AcDbCircle
 10
-813.5217867811116
 20
-2016.386012811267
 30
0.0
 40
11.56556586689782
100
AcDbArc
 50
38.60443476947367
 51
55.05577504935668
  0
LINE
  5
385998
330
18
100
AcDbEntity
  8
姿図
100
AcDbLine
 10
-809.5768286124517
 20
-2005.358730129366
 30
0.0
 11
-809.5768286124517
 21
-2005.843831356351
 31
0.0
  0
LINE
  5
385999
330
18
100
AcDbEntity
  8
姿図
100
AcDbLine
 10
-806.8972763700122
 20
-2007.967105747394
 30
0.0
 11
-806.8972763700122
 21
-2006.905602712817
 31
0.0
  0
ARC
  5
38599A
330
18
100
AcDbEntity
  8
姿図
100
AcDbCircle
 10
-815.3050481140398
 20
-2003.199323561908
 30
0.0
 40
9.67771236280638
100
AcDbArc
 50
298.5451715875234
 51
324.367429350645
  0
LWPOLYLINE
  5
38599B
330
18
100
AcDbEntity
  8
姿図
100
AcDbPolyline
 90
       29
 70
   128
 43
0.0
 10
-834.3474406853156
 20
-2008.840058812615
 10
-834.1630653452376
 20
-2009.099418152821
 10
-833.7166129985844
 20
-2009.64355117449
 10
-833.2033104818375
 20
-2010.167668263964
 10
-832.6258347784209
 20
-2010.669037141953
 10
-831.9871955190546
 20
-2011.145043714404
 10
-831.2907237864957
 20
-2011.593206899127
 10
-830.5400486548924
 20
-2012.011189127969
 10
-829.739085500616
 20
-2012.396812218909
 10
-828.8920094135292
 20
-2012.748065122007
 10
-828.0032365931029
 20
-2013.063116940217
 10
-827.0774013816753
 20
-2013.34032486543
 10
-826.1193300873101
 20
-2013.578243967838
 10
-825.1340171115552
 20
-2013.775633373697
 10
-824.1266004186627
 20
-2013.931464343929
 10
-823.1023315718102
 20
-2014.04492464607
 10
-822.0665516962307
 20
-2014.115422546057
 10
-821.0246598690728
 20
-2014.142589849582
 10
-819.9820871068933
 20
-2014.126285513702
 10
-818.9442710116955
 20
-2014.066595076592
 10
-817.9166208680671
 20
-2013.963828756685
 10
-816.9044949233976
 20
-2013.818522783278
 10
-815.9131700948291
 20
-2013.631434834488
 10
-814.9478139811167
 20
-2013.403540045471
 10
-814.0134595086619
 20
-2013.136027016648
 10
-813.1149789190075
 20
-2012.830289640047
 10
-812.2570557806933
 20
-2012.48792234719
 10
-811.4441628457006
 20
-2012.110710367244
 10
-810.680539082709
 20
-2011.70061950996
  0
SPLINE
  5
38599C
330
18
100
AcDbEntity
  8
姿図
100
AcDbSpline
210
0.0
220
0.0
230
1.0
 70
     8
 71
     3
 72
    14
 73
    10
 74
     0
 42
0.000000001
 43
0.0000000001
 40
0.0
 40
0.0
 40
0.0
 40
0.0
 40
0.0018473005807665
 40
0.004394963385329
 40
0.0089391694039042
 40
0.0237734677267061
 40
0.093097895958022
 40
0.3683823471634517
 40
1.0
 40
1.0
 40
1.0
 40
1.0
 10
-806.8972763700122
 20
-2006.905602712817
 30
0.0
 10
-806.8973628033636
 20
-2006.904589194355
 30
0.0
 10
-806.8975684393159
 20
-2006.902177904836
 30
0.0
 10
-806.8996897384067
 20
-2006.896846382864
 30
0.0
 10
-806.9071213360894
 20
-2006.884901789464
 30
0.0
 10
-806.9445309483908
 20
-2006.845196578183
 30
0.0
 10
-807.1048784939065
 20
-2006.723037271103
 30
0.0
 10
-807.5444240996329
 20
-2006.447336262652
 30
0.0
 10
-807.9527036442096
 20
-2006.213422791285
 30
0.0
 10
-808.237052491232
 20
-2006.050512288495
 30
0.0
  0
LWPOLYLINE
  5
38599D
330
18
100
AcDbEntity
  8
姿図
100
AcDbPolyline
 90
       25
 70
   128
 43
0.0
 10
-832.9994819427893
 20
-2005.745181051886
 10
-832.486286316047
 20
-2005.483469340675
 10
-831.5790954051399
 20
-2005.066814949385
 10
-830.627088976421
 20
-2004.68493377329
 10
-829.634260690741
 20
-2004.33942722953
 10
-828.6047722201184
 20
-2004.031745855412
 10
-827.5429436165259
 20
-2003.763179186397
 10
-826.4532286164703
 20
-2003.534853665164
 10
-825.3401968602928
 20
-2003.347726939069
 10
-824.2085177578273
 20
-2003.202584628697
 10
-823.0629367807983
 20
-2003.100035005493
 10
-821.9082606455694
 20
-2003.040508041333
 10
-820.7493309713637
 20
-2003.024253127509
 10
-819.5910091337392
 20
-2003.051339454897
 10
-818.4381532155303
 20
-2003.121652592433
 10
-817.2955995676048
 20
-2003.234898288805
 10
-816.1681397598018
 20
-2003.390600571609
 10
-815.0605028002336
 20
-2003.588106689552
 10
-813.9773357082212
 20
-2003.826589203386
 10
-812.9231798066912
 20
-2004.105046746245
 10
-811.902457222014
 20
-2004.422311817129
 10
-810.9194493166732
 20
-2004.777053347041
 10
-809.9782792378336
 20
-2005.167783732133
 10
-809.082894795183
 20
-2005.592864156075
 10
-808.237052491232
 20
-2006.050512288495
  0
SPLINE
  5
38599E
330
18
100
AcDbEntity
  8
姿図
100
AcDbSpline
210
0.0
220
0.0
230
1.0
 70
     8
 71
     3
 72
    15
 73
    11
 74
     0
 42
0.000000001
 43
0.0000000001
 40
0.0
 40
0.0
 40
0.0
 40
0.0
 40
0.1047236281252952
 40
0.523623026181217
 40
0.8913884032653642
 40
0.9836367446746332
 40
0.992296713095348
 40
0.9966514535076872
 40
0.9987282965914319
 40
1.0
 40
1.0
 40
1.0
 40
1.0
 10
-808.237052491232
 20
-2006.050512288495
 30
0.0
 10
-808.2841797335049
 20
-2006.023327835124
 30
0.0
 10
-808.5198181434439
 20
-2005.88740430006
 30
0.0
 10
-808.9226430812523
 20
-2005.652511874586
 30
0.0
 10
-809.3135574796797
 20
-2005.446581621977
 30
0.0
 10
-809.5284044498848
 20
-2005.348534595105
 30
0.0
 10
-809.5704414982769
 20
-2005.350517748075
 30
0.0
 10
-809.575244128182
 20
-2005.353494951386
 30
0.0
 10
-809.5766824533761
 20
-2005.356408091586
 30
0.0
 10
-809.5767883828107
 20
-2005.358090998707
 30
0.0
 10
-809.5768286124517
 20
-2005.358730129366
 30
0.0
  0
ARC
  5
38599F
330
18
100
AcDbEntity
  8
姿図
100
AcDbCircle
 10
-811.5266277333949
 20
-2007.507858568017
 30
0.0
 40
6.555594896992464
100
AcDbArc
 50
21.48264535816831
 51
31.25336546379433
  0
LWPOLYLINE
  5
3859A0
330
18
100
AcDbEntity
  8
姿図
100
AcDbPolyline
 90
        3
 70
   128
 43
0.0
 10
-835.9573791756247
 20
-2004.262121597564
 10
-836.1865085419204
 20
-2004.701201959038
 10
-836.3622747296458
 20
-2005.107602937198
  0
ARC
  5
3859A1
330
18
100
AcDbEntity
  8
姿図
100
AcDbCircle
 10
-809.0703813748113
 20
-2006.056313367514
 30
0.0
 40
6.173761779588279
100
AcDbArc
 50
338.3619274957441
 51
21.30460265015774
  0
ARC
  5
3859A2
330
18
100
AcDbEntity
  8
姿図
100
AcDbCircle
 10
-832.728401463135
 20
-2006.057336760262
 30
0.0
 40
6.163725317648186
100
AcDbArc
 50
160.0318849691348
 51
201.4953721602935
  0
ARC
  5
3859A3
330
18
100
AcDbEntity
  8
姿図
100
AcDbCircle
 10
-811.5547096005229
 20
-2006.899016429389
 30
0.0
 40
8.880022449122142
100
AcDbArc
 50
20.27653205074177
 51
51.04363554373239
  0
ARC
  5
3859A4
330
18
100
AcDbEntity
  8
姿図
100
AcDbCircle
 10
-809.089944063006
 20
-2005.818825949662
 30
0.0
 40
6.195697170513726
100
AcDbArc
 50
0.1337585485295345
 51
18.80521366982217
  0
ARC
  5
3859A5
330
18
100
AcDbEntity
  8
姿図
100
AcDbCircle
 10
-832.698582830355
 20
-2005.818825949662
 30
0.0
 40
6.195697170513897
100
AcDbArc
 50
161.1947863301778
 51
179.8662414514704
  0
ARC
  5
3859A6
330
18
100
AcDbEntity
  8
姿図
100
AcDbCircle
 10
-830.2338172928385
 20
-2006.899016429388
 30
0.0
 40
8.88002244912197
100
AcDbArc
 50
128.9563644562675
 51
159.7234679492582
  0
ARC
  5
3859A7
330
18
100
AcDbEntity
  8
姿図
100
AcDbCircle
 10
-825.0594356940109
 20
-2013.019330443611
 30
0.0
 40
16.89352596729011
100
AcDbArc
 50
110.4423009570261
 51
129.5523225102831
  0
ARC
  5
3859A8
330
18
100
AcDbEntity
  8
姿図
100
AcDbCircle
 10
-821.5261997062318
 20
-2021.982652728046
 30
0.0
 40
26.52702126236156
100
AcDbArc
 50
96.0647165506583
 51
110.8314385387718
  0
ARC
  5
3859A9
330
18
100
AcDbEntity
  8
姿図
100
AcDbCircle
 10
-820.8942634466803
 20
-2026.370646606978
 30
0.0
 40
30.95766020142724
100
AcDbArc
 50
83.63027309817186
 51
96.36972690181551
  0
ARC
  5
3859AA
330
18
100
AcDbEntity
  8
姿図
100
AcDbCircle
 10
-820.2623271871303
 20
-2021.982652728047
 30
0.0
 40
26.52702126236224
100
AcDbArc
 50
69.16856146122825
 51
83.93528344934154
  0
ARC
  5
3859AB
330
18
100
AcDbEntity
  8
姿図
100
AcDbCircle
 10
-816.7290911993495
 20
-2013.019330443611
 30
0.0
 40
16.89352596728949
100
AcDbArc
 50
50.4476774897169
 51
69.55769904298928
  0
LINE
  5
3859AC
330
18
100
AcDbEntity
  8
姿図
100
AcDbLine
 10
-806.5753512501423
 20
-2008.438784620933
 30
0.0
 11
-809.1916119323723
 21
-2006.92844947747
 31
0.0
  0
LINE
  5
3859AD
330
18
100
AcDbEntity
  8
姿図
100
AcDbLine
 10
-806.5753512501423
 20
-2008.438784620933
 30
0.0
 11
-806.5753512501423
 21
-2008.683746828606
 31
0.0
  0
LINE
  5
3859AE
330
18
100
AcDbEntity
  8
姿図
100
AcDbLine
 10
-806.822838861687
 20
-2008.086654627193
 30
0.0
 11
-809.0191960075134
 21
-2006.818724635556
 31
0.0
  0
LINE
  5
3859AF
330
18
100
AcDbEntity
  8
姿図
100
AcDbLine
 10
-806.822838861687
 20
-2008.086654627193
 30
0.0
 11
-806.5753512501423
 21
-2008.438784620933
 31
0.0
  0
LINE
  5
3859B0
330
18
100
AcDbEntity
  8
姿図
100
AcDbLine
 10
-806.822838861687
 20
-2008.047916433635
 30
0.0
 11
-806.822838861687
 21
-2008.086654627193
 31
0.0
  0
LINE
  5
3859B1
330
18
100
AcDbEntity
  8
姿図
100
AcDbLine
 10
-824.1955556262764
 20
-1990.341528201868
 30
0.0
 11
-824.3288252783573
 21
-1995.604098048984
 31
0.0
  0
SPLINE
  5
3859B2
330
18
100
AcDbEntity
  8
姿図
100
AcDbSpline
210
0.0
220
0.0
230
1.0
 70
     8
 71
     3
 72
    12
 73
     8
 74
     0
 42
0.000000001
 43
0.0000000001
 40
0.0
 40
0.0
 40
0.0
 40
0.0
 40
0.2172165932993738
 40
0.4344357144902299
 40
0.6516013977699675
 40
0.8687336033484916
 40
1.0
 40
1.0
 40
1.0
 40
1.0
 10
-823.7012402647838
 20
-1989.895939153045
 30
0.0
 10
-823.7567919360836
 20
-1989.905589085874
 30
0.0
 10
-823.8678959251746
 20
-1989.924889063836
 30
0.0
 10
-824.0158674186513
 20
-1990.009325887235
 30
0.0
 10
-824.127603475213
 20
-1990.123381457708
 30
0.0
 10
-824.1856344332886
 20
-1990.240773050935
 30
0.0
 10
-824.192840566272
 20
-1990.313955279854
 30
0.0
 10
-824.1955556262764
 20
-1990.341528201868
 30
0.0
  0
ARC
  5
3859B3
330
18
100
AcDbEntity
  8
姿図
100
AcDbCircle
 10
-820.8942634466806
 20
-2020.587147222541
 30
0.0
 40
30.81930193275719
100
AcDbArc
 50
84.77434265107229
 51
95.22565734892748
  0
SPLINE
  5
3859B4
330
18
100
AcDbEntity
  8
姿図
100
AcDbSpline
210
0.0
220
0.0
230
1.0
 70
     8
 71
     3
 72
    12
 73
     8
 74
     0
 42
0.000000001
 43
0.0000000001
 40
0.0
 40
0.0
 40
0.0
 40
0.0
 40
0.2171118260759143
 40
0.4342227265569778
 40
0.6513434810669132
 40
0.8684825537252221
 40
0.9999999999999998
 40
0.9999999999999998
 40
0.9999999999999998
 40
0.9999999999999998
 10
-817.592971267085
 20
-1990.341528201868
 30
0.0
 10
-817.5995552025241
 20
-1990.295564929125
 30
0.0
 10
-817.612723045334
 20
-1990.203638579589
 30
0.0
 10
-817.700571436825
 20
-1990.074660035682
 30
0.0
 10
-817.8278174054922
 20
-1989.972160318104
 30
0.0
 10
-817.9649064683703
 20
-1989.913367275271
 30
0.0
 10
-818.0537672641152
 20
-1989.900712635771
 30
0.0
 10
-818.0872866285775
 20
-1989.895939153045
 30
0.0
  0
LINE
  5
3859B5
330
18
100
AcDbEntity
  8
姿図
100
AcDbLine
 10
-817.592971267085
 20
-1990.341528201868
 30
0.0
 11
-817.4597016150041
 21
-1995.604098048984
 31
0.0
  0
LINE
  5
3859B6
330
18
100
AcDbEntity
  8
姿図
100
AcDbLine
 10
-806.1907678429257
 20
-2007.726844882803
 30
0.0
 11
-806.7597898104931
 21
-2008.055334272586
 31
0.0
  0
LINE
  5
3859B7
330
18
100
AcDbEntity
  8
姿図
100
AcDbLine
 10
-810.7983360669381
 20
-1991.966264282235
 30
0.0
 11
-810.8287917747988
 21
-1997.189684638725
 31
0.0
  0
SPLINE
  5
3859B8
330
18
100
AcDbEntity
  8
姿図
100
AcDbSpline
210
0.0
220
0.0
230
1.0
 70
     8
 71
     3
 72
    12
 73
     8
 74
     0
 42
0.000000001
 43
0.0000000001
 40
0.0
 40
0.0
 40
0.0
 40
0.0
 40
0.2172166841263113
 40
0.4344361034464053
 40
0.6516012906636868
 40
0.8687334696162456
 40
1.0
 40
1.0
 40
1.0
 40
1.0
 10
-810.3943628045009
 20
-1991.735474698584
 30
0.0
 10
-810.4399332431549
 20
-1991.720944130747
 30
0.0
 10
-810.5310746942858
 20
-1991.691882812103
 30
0.0
 10
-810.6528522058869
 20
-1991.711817874169
 30
0.0
 10
-810.7445812852784
 20
-1991.777219844594
 30
0.0
 10
-810.7915536199625
 20
-1991.869502353564
 30
0.0
 10
-810.7964799635394
 20
-1991.939784142341
 30
0.0
 10
-810.7983360669381
 20
-1991.966264282235
 30
0.0
  0
ARC
  5
3859B9
330
18
100
AcDbEntity
  8
姿図
100
AcDbCircle
 10
-816.7321624737123
 20
-2007.298077365253
 30
0.0
 40
16.8036396773928
100
AcDbArc
 50
52.16376510412352
 51
67.8416114285702
  0
SPLINE
  5
3859BA
330
18
100
AcDbEntity
  8
姿図
100
AcDbSpline
210
0.0
220
0.0
230
1.0
 70
     8
 71
     3
 72
    12
 73
     8
 74
     0
 42
0.000000001
 43
0.0000000001
 40
0.0
 40
0.0
 40
0.0
 40
0.0
 40
0.2171118990373068
 40
0.434222290113913
 40
0.6513429929542829
 40
0.8684823579378733
 40
0.9999999999999998
 40
0.9999999999999998
 40
0.9999999999999998
 40
0.9999999999999998
 10
-806.1296035461133
 20
-1994.661466197522
 30
0.0
 10
-806.1340864130752
 20
-1994.612856306525
 30
0.0
 10
-806.1430521158635
 20
-1994.515636862152
 30
0.0
 10
-806.1955290039863
 20
-1994.353104823917
 30
0.0
 10
-806.2708481006175
 20
-1994.202167136661
 30
0.0
 10
-806.3519763812401
 20
-1994.091193613689
 30
0.0
 10
-806.4047801190799
 20
-1994.044664548442
 30
0.0
 10
-806.4246983279572
 20
-1994.027113221995
 30
0.0
  0
LINE
  5
3859BB
330
18
100
AcDbEntity
  8
姿図
100
AcDbLine
 10
-806.1296035461133
 20
-1994.661466197522
 30
0.0
 11
-805.971587767056
 21
-1999.993688827487
 31
0.0
  0
SPLINE
  5
3859BC
330
18
100
AcDbEntity
  8
姿図
100
AcDbSpline
210
0.0
220
0.0
230
1.0
 70
    11
 71
     3
 72
    26
 73
    22
 74
     0
 42
0.000000001
 43
0.0000000001
 40
0.0
 40
0.0
 40
0.0
 40
0.0
 40
0.0481943771680199
 40
0.1009959339697879
 40
0.1530637873939078
 40
0.2051103915531592
 40
0.2578965113840239
 40
0.3117891220694406
 40
0.3666353423007307
 40
0.4218986238649152
 40
0.4769176645245041
 40
0.5311380496621726
 40
0.5843146471143069
 40
0.6366540353645945
 40
0.6887504306223305
 40
0.7412957407428288
 40
0.7947573696454536
 40
0.8492062887905397
 40
0.9043323846778935
 40
0.9595621300733466
 40
1.0
 40
1.0
 40
1.0
 40
1.0
 10
-807.9087439553896
 20
-1996.615769137289
 30
0.0
 10
-807.9522071869277
 20
-1996.621401054229
 30
0.0
 10
-808.0432885520263
 20
-1996.633203275667
 30
0.0
 10
-808.2113668437559
 20
-1996.564838023743
 30
0.0
 10
-808.384391942729
 20
-1996.43359249338
 30
0.0
 10
-808.5413773303153
 20
-1996.250677735407
 30
0.0
 10
-808.6650615561238
 20
-1996.03530914032
 30
0.0
 10
-808.740822742043
 20
-1995.807843477016
 30
0.0
 10
-808.7572629341348
 20
-1995.59308754893
 30
0.0
 10
-808.7101862952181
 20
-1995.417233248344
 30
0.0
 10
-808.6050604989413
 20
-1995.30317160768
 30
0.0
 10
-808.4564836963059
 20
-1995.265345074146
 30
0.0
 10
-808.2845408614712
 20
-1995.306958092725
 30
0.0
 10
-808.1099738651142
 20
-1995.420815406466
 30
0.0
 10
-807.9509127460593
 20
-1995.592755268977
 30
0.0
 10
-807.8222906787322
 20
-1995.804518226035
 30
0.0
 10
-807.7366332776719
 20
-1996.034216342425
 30
0.0
 10
-807.7034348624211
 20
-1996.257161786714
 30
0.0
 10
-807.7287375644045
 20
-1996.445227411015
 30
0.0
 10
-807.8016129550592
 20
-1996.569211645177
 30
0.0
 10
-807.8769146029681
 20
-1996.601936588169
 30
0.0
 10
-807.9087439553896
 20
-1996.615769137289
 30
0.0
1001
ACAD_SPLINE_DATA
1070
   100
1070
     1
1070
   101
1070
     0
1070
   102
1070
    15
1001
ACAD_SPLINE_DATA2
1070
   103
1070
     1
1070
   104
1070
    15
  0
LINE
  5
3859BD
330
18
100
AcDbEntity
  8
姿図
100
AcDbLine
 10
-835.6589233472481
 20
-1994.661466197522
 30
0.0
 11
-835.8169391263054
 21
-1999.993688827487
 31
0.0
  0
SPLINE
  5
3859BE
330
18
100
AcDbEntity
  8
姿図
100
AcDbSpline
210
0.0
220
0.0
230
1.0
 70
     8
 71
     3
 72
    12
 73
     8
 74
     0
 42
0.000000001
 43
0.0000000001
 40
0.0
 40
0.0
 40
0.0
 40
0.0
 40
0.2172166841263113
 40
0.4344361034464053
 40
0.6516012906636868
 40
0.8687334696162456
 40
1.0
 40
1.0
 40
1.0
 40
1.0
 10
-835.3638285654042
 20
-1994.027113221995
 30
0.0
 10
-835.3968201099187
 20
-1994.057935521678
 30
0.0
 10
-835.4628036143763
 20
-1994.119580509158
 30
0.0
 10
-835.5502892238909
 20
-1994.260320599637
 30
0.0
 10
-835.6165786527112
 20
-1994.416944713134
 30
0.0
 10
-835.6516738182117
 20
-1994.556603781522
 30
0.0
 10
-835.6569394208664
 20
-1994.632769255622
 30
0.0
 10
-835.6589233472481
 20
-1994.661466197522
 30
0.0
  0
ARC
  5
3859BF
330
18
100
AcDbEntity
  8
姿図
100
AcDbCircle
 10
-825.0563644196494
 20
-2007.298077365252
 30
0.0
 40
16.80363967739209
100
AcDbArc
 50
112.1583885714299
 51
127.8362348958764
  0
SPLINE
  5
3859C0
330
18
100
AcDbEntity
  8
姿図
100
AcDbSpline
210
0.0
220
0.0
230
1.0
 70
     8
 71
     3
 72
    12
 73
     8
 74
     0
 42
0.000000001
 43
0.0000000001
 40
0.0
 40
0.0
 40
0.0
 40
0.0
 40
0.2171118990373068
 40
0.434222290113913
 40
0.6513429929542829
 40
0.8684823579378733
 40
0.9999999999999998
 40
0.9999999999999998
 40
0.9999999999999998
 40
0.9999999999999998
 10
-830.9901908264233
 20
-1991.966264282235
 30
0.0
 10
-830.9950193549839
 20
-1991.923029745455
 30
0.0
 10
-831.0046763785676
 20
-1991.836560972183
 30
0.0
 10
-831.0764347408948
 20
-1991.745748417441
 30
0.0
 10
-831.181068769326
 20
-1991.698695458035
 30
0.0
 10
-831.2938137682476
 20
-1991.699642597046
 30
0.0
 10
-831.3666785946315
 20
-1991.72566044972
 30
0.0
 10
-831.3941640888605
 20
-1991.735474698584
 30
0.0
  0
LINE
  5
3859C1
330
18
100
AcDbEntity
  8
姿図
100
AcDbLine
 10
-830.9901908264233
 20
-1991.966264282235
 30
0.0
 11
-830.9597351185625
 21
-1997.189684638725
 31
0.0
  0
LINE
  5
3859C2
330
18
100
AcDbEntity
  8
姿図
100
AcDbLine
 10
-811.3731603055294
 20
-1997.005852170905
 30
0.0
 11
-811.2353578916009
 21
-1992.340295810391
 31
0.0
  0
LINE
  5
3859C3
330
18
100
AcDbEntity
  8
姿図
100
AcDbLine
 10
-830.5531690017611
 20
-1992.340295810391
 30
0.0
 11
-830.4155850599727
 21
-1996.998460380515
 31
0.0
  0
SPLINE
  5
3859C4
330
18
100
AcDbEntity
  8
姿図
100
AcDbSpline
210
0.0
220
0.0
230
1.0
 70
     8
 71
     3
 72
     9
 73
     5
 74
     0
 42
0.000000001
 43
0.0000000001
 40
0.0
 40
0.0
 40
0.0
 40
0.0
 40
0.5174981895247153
 40
1.0
 40
1.0
 40
1.0
 40
1.0
 10
-811.2353578916009
 20
-1992.340295810391
 30
0.0
 10
-811.2300105129607
 20
-1992.29542071753
 30
0.0
 10
-811.2196773779883
 20
-1992.208705258868
 30
0.0
 10
-811.1675514178214
 20
-1992.154391514657
 30
0.0
 10
-811.1424005476678
 20
-1992.128185034741
 30
0.0
  0
SPLINE
  5
3859C5
330
18
100
AcDbEntity
  8
姿図
100
AcDbSpline
210
0.0
220
0.0
230
1.0
 70
     8
 71
     3
 72
    10
 73
     6
 74
     0
 42
0.000000001
 43
0.0000000001
 40
0.0
 40
0.0
 40
0.0
 40
0.0
 40
0.1676268101923965
 40
0.6846153562057827
 40
1.0
 40
1.0
 40
1.0
 40
1.0
 10
-830.64858732652
 20
-1992.131899341415
 30
0.0
 10
-830.6381351879371
 20
-1992.138589246709
 30
0.0
 10
-830.5954469415254
 20
-1992.165911915981
 30
0.0
 10
-830.5632338073191
 20
-1992.242116828303
 30
0.0
 10
-830.555934641884
 20
-1992.313317869237
 30
0.0
 10
-830.5531690017611
 20
-1992.340295810391
 30
0.0
  0
LINE
  5
3859C6
330
18
100
AcDbEntity
  8
姿図
100
AcDbLine
 10
-804.1669477941477
 20
-2002.022948436719
 30
0.0
 11
-804.0823386543065
 21
-1998.670011602911
 31
0.0
  0
LINE
  5
3859C7
330
18
100
AcDbEntity
  8
姿図
100
AcDbLine
 10
-803.3151731566327
 20
-1998.58392560667
 30
0.0
 11
-803.2249736324633
 21
-2003.821631598185
 31
0.0
  0
LINE
  5
3859C8
330
18
100
AcDbEntity
  8
姿図
100
AcDbLine
 10
-838.4733537367287
 20
-1998.58392560667
 30
0.0
 11
-838.5635532608981
 21
-2003.821631598185
 31
0.0
  0
LINE
  5
3859C9
330
18
100
AcDbEntity
  8
姿図
100
AcDbLine
 10
-837.7061882390549
 20
-1998.670011602911
 30
0.0
 11
-837.6217904920007
 21
-2002.014582190812
 31
0.0
  0
SPLINE
  5
3859CA
330
18
100
AcDbEntity
  8
姿図
100
AcDbSpline
210
0.0
220
0.0
230
1.0
 70
     8
 71
     3
 72
    12
 73
     8
 74
     0
 42
0.000000001
 43
0.0000000001
 40
0.0
 40
0.0
 40
0.0
 40
0.0
 40
0.2172165932993738
 40
0.4344357144902299
 40
0.6516013977699675
 40
0.8687336033484916
 40
1.0
 40
1.0
 40
1.0
 40
1.0
 10
-803.2381840352936
 20
-1998.468143615645
 30
0.0
 10
-803.2470789147774
 20
-1998.440589346621
 30
0.0
 10
-803.2648687772597
 20
-1998.385480487906
 30
0.0
 10
-803.2891151307875
 20
-1998.370498064427
 30
0.0
 10
-803.3071059970948
 20
-1998.409663876402
 30
0.0
 10
-803.3155055811812
 20
-1998.488705933931
 30
0.0
 10
-803.315264128817
 20
-1998.55786753831
 30
0.0
 10
-803.3151731566327
 20
-1998.58392560667
 30
0.0
  0
ARC
  5
3859CB
330
18
100
AcDbEntity
  8
姿図
100
AcDbCircle
 10
-809.1156587393724
 20
-2000.098442274627
 30
0.0
 40
6.099391987285721
100
AcDbArc
 50
1.289188952552247
 51
15.50299320689334
  0
ARC
  5
3859CC
330
18
100
AcDbEntity
  8
姿図
100
AcDbCircle
 10
-832.6728681539934
 20
-2000.098442274627
 30
0.0
 40
6.099391987281223
100
AcDbArc
 50
164.4970067931066
 51
178.7108110474477
  0
SPLINE
  5
3859CD
330
18
100
AcDbEntity
  8
姿図
100
AcDbSpline
210
0.0
220
0.0
230
1.0
 70
     8
 71
     3
 72
    12
 73
     8
 74
     0
 42
0.000000001
 43
0.0000000001
 40
0.0
 40
0.0
 40
0.0
 40
0.0
 40
0.2171118260759143
 40
0.4342227265569778
 40
0.6513434810669132
 40
0.8684825537252221
 40
0.9999999999999998
 40
0.9999999999999998
 40
0.9999999999999998
 40
0.9999999999999998
 10
-838.4733537367287
 20
-1998.58392560667
 30
0.0
 10
-838.473597634702
 20
-1998.541903958256
 30
0.0
 10
-838.4740854296087
 20
-1998.457860840575
 30
0.0
 10
-838.4877217959164
 20
-1998.387468200309
 30
0.0
 10
-838.5084495077217
 20
-1998.370391870179
 30
0.0
 10
-838.5308053937633
 20
-1998.403644437112
 30
0.0
 10
-838.5449916362231
 20
-1998.450477586535
 30
0.0
 10
-838.5503428580678
 20
-1998.468143615645
 30
0.0
  0
SPLINE
  5
3859CE
330
18
100
AcDbEntity
  8
姿図
100
AcDbSpline
210
0.0
220
0.0
230
1.0
 70
     8
 71
     3
 72
    16
 73
    12
 74
     0
 42
0.000000001
 43
0.0000000001
 40
0.0
 40
0.0
 40
0.0
 40
0.0
 40
0.0542030948344587
 40
0.1758879522207244
 40
0.2987410372872252
 40
0.4237848359370155
 40
0.5511053189450428
 40
0.6799138810098189
 40
0.8088365247418384
 40
0.9363090263386588
 40
1.0
 40
1.0
 40
1.0
 40
1.0
 10
-838.827165334721
 20
-2002.655769492491
 30
0.0
 10
-838.8271706929735
 20
-2002.636436542213
 30
0.0
 10
-838.8271880803944
 20
-2002.573701507521
 30
0.0
 10
-838.8254578817349
 20
-2002.546541744555
 30
0.0
 10
-838.8235444743905
 20
-2002.579708985467
 30
0.0
 10
-838.8232255178419
 20
-2002.696628668781
 30
0.0
 10
-838.8261251340627
 20
-2002.881616027586
 30
0.0
 10
-838.8325709099872
 20
-2003.117694164823
 30
0.0
 10
-838.8409167175186
 20
-2003.373506692235
 30
0.0
 10
-838.848117715278
 20
-2003.588131244608
 30
0.0
 10
-838.8501004019508
 20
-2003.689182692788
 30
0.0
 10
-838.8507609844419
 20
-2003.7228505528
 30
0.0
  0
SPLINE
  5
3859CF
330
18
100
AcDbEntity
  8
姿図
100
AcDbSpline
210
0.0
220
0.0
230
1.0
 70
     8
 71
     3
 72
    10
 73
     6
 74
     0
 42
0.000000001
 43
0.0000000001
 40
0.0
 40
0.0
 40
0.0
 40
0.0
 40
0.3629741361170056
 40
0.7259558713628442
 40
1.0
 40
1.0
 40
1.0
 40
1.0
 10
-804.0823386543065
 20
-1998.670011602911
 30
0.0
 10
-804.0801476494499
 20
-1998.628132188614
 30
0.0
 10
-804.0757655938669
 20
-1998.544372483244
 30
0.0
 10
-804.0589744969647
 20
-1998.474401933537
 30
0.0
 10
-804.0443496358653
 20
-1998.470136471831
 30
0.0
 10
-804.0380581215899
 20
-1998.468301499654
 30
0.0
  0
SPLINE
  5
3859D0
330
18
100
AcDbEntity
  8
姿図
100
AcDbSpline
210
0.0
220
0.0
230
1.0
 70
     8
 71
     3
 72
    11
 73
     7
 74
     0
 42
0.000000001
 43
0.0000000001
 40
0.0
 40
0.0
 40
0.0
 40
0.0
 40
0.0534556697484074
 40
0.4160208225118029
 40
0.7787312171706428
 40
0.9999999999999998
 40
0.9999999999999998
 40
0.9999999999999998
 40
0.9999999999999998
 10
-837.750200085612
 20
-1998.466634721951
 30
0.0
 10
-837.7489002921393
 20
-1998.46563699784
 30
0.0
 10
-837.7387845990387
 20
-1998.457872171261
 30
0.0
 10
-837.7234489453027
 20
-1998.498095170262
 30
0.0
 10
-837.7100920607636
 20
-1998.573469181654
 30
0.0
 10
-837.7072609445075
 20
-1998.643483346901
 30
0.0
 10
-837.7061882390549
 20
-1998.670011602911
 30
0.0
  0
ARC
  5
3859D1
330
18
100
AcDbEntity
  8
姿図
100
AcDbCircle
 10
-824.0281545359239
 20
-1991.494046419662
 30
0.0
 40
1.140277659677562
100
AcDbArc
 50
98.73072096877492
 51
120.503413281248
  0
ARC
  5
3859D2
330
18
100
AcDbEntity
  8
姿図
100
AcDbCircle
 10
-817.7781936017691
 20
-1991.544076015037
 30
0.0
 40
1.192471249523925
100
AcDbArc
 50
59.97898127443235
 51
80.77549574442692
  0
ARC
  5
3859D3
330
18
100
AcDbEntity
  8
姿図
100
AcDbCircle
 10
-820.8942634466806
 20
-2000.513084409305
 30
0.0
 40
14.4520060034242
100
AcDbArc
 50
88.06907907318615
 51
91.9309209268138
  0
SPLINE
  5
3859D4
330
18
100
AcDbEntity
  8
姿図
100
AcDbSpline
210
0.0
220
0.0
230
1.0
 70
     8
 71
     3
 72
     9
 73
     5
 74
     0
 42
0.000000001
 43
0.0000000001
 40
0.0
 40
0.0
 40
0.0
 40
0.0
 40
0.3810585527304433
 40
1.0
 40
1.0
 40
1.0
 40
1.0
 10
-819.4844125098653
 20
-1989.811622587062
 30
0.0
 10
-819.6024143448676
 20
-1989.335463784655
 30
0.0
 10
-819.9120828568502
 20
-1988.085895184251
 30
0.0
 10
-820.2179782732383
 20
-1986.840259891332
 30
0.0
 10
-820.4073096249704
 20
-1986.069284580363
 30
0.0
  0
SPLINE
  5
3859D5
330
18
100
AcDbEntity
  8
姿図
100
AcDbSpline
210
0.0
220
0.0
230
1.0
 70
     8
 71
     3
 72
     9
 73
     5
 74
     0
 42
0.000000001
 43
0.0000000001
 40
0.0
 40
0.0
 40
0.0
 40
0.0
 40
0.6174677945270555
 40
1.0
 40
1.0
 40
1.0
 40
1.0
 10
-821.381217268391
 20
-1986.069284580363
 30
0.0
 10
-821.5705497195612
 20
-1986.840261140786
 30
0.0
 10
-821.8771769685417
 20
-1988.088871298688
 30
0.0
 10
-822.1875866934588
 20
-1989.341423729648
 30
0.0
 10
-822.3063284101318
 20
-1989.820565373533
 30
0.0
  0
SPLINE
  5
3859D6
330
18
100
AcDbEntity
  8
姿図
100
AcDbSpline
210
0.0
220
0.0
230
1.0
 70
     8
 71
     3
 72
    16
 73
    12
 74
     0
 42
0.000000001
 43
0.0000000001
 40
0.0
 40
0.0
 40
0.0
 40
0.0
 40
0.1152625142665593
 40
0.2305905936511087
 40
0.345923802275805
 40
0.4611778300292228
 40
0.5763296423287131
 40
0.6914025025971025
 40
0.8064530619237839
 40
0.9215425176424279
 40
1.0
 40
1.0
 40
1.0
 40
1.0
 10
-823.4762169234951
 20
-1972.250802604493
 30
0.0
 10
-823.4913448251987
 20
-1972.221739954273
 30
0.0
 10
-823.521609233855
 20
-1972.16359812204
 30
0.0
 10
-823.6266436086362
 20
-1972.09367819029
 30
0.0
 10
-823.7620766293716
 20
-1972.046979783664
 30
0.0
 10
-823.9171985659808
 20
-1972.029325952027
 30
0.0
 10
-824.0730033114218
 20
-1972.042506086224
 30
0.0
 10
-824.2129511534722
 20
-1972.084996415635
 30
0.0
 10
-824.3188064489382
 20
-1972.152040979993
 30
0.0
 10
-824.3805654088346
 20
-1972.226991596613
 30
0.0
 10
-824.382108765099
 20
-1972.277848909259
 30
0.0
 10
-824.3827343903248
 20
-1972.298464769935
 30
0.0
  0
LINE
  5
3859D7
330
18
100
AcDbEntity
  8
姿図
100
AcDbLine
 10
-823.032332241879
 20
-1989.842006170826
 30
0.0
 11
-823.4762169234951
 21
-1972.250802604493
 31
0.0
  0
LINE
  5
3859D8
330
18
100
AcDbEntity
  8
姿図
100
AcDbLine
 10
-818.7561946514824
 20
-1989.842006170826
 30
0.0
 11
-818.3123099698663
 21
-1972.250802604493
 31
0.0
  0
SPLINE
  5
3859D9
330
18
100
AcDbEntity
  8
姿図
100
AcDbSpline
210
0.0
220
0.0
230
1.0
 70
     8
 71
     3
 72
    17
 73
    13
 74
     0
 42
0.000000001
 43
0.0000000001
 40
0.0
 40
0.0
 40
0.0
 40
0.0
 40
0.0431395051595914
 40
0.1584672323143437
 40
0.2738005064736421
 40
0.3890542233254551
 40
0.5042057610465273
 40
0.6192781471190917
 40
0.734328480186008
 40
0.8494174591389176
 40
0.9645819535097458
 40
1.0
 40
1.0
 40
1.0
 40
1.0
 10
-817.4062607281811
 20
-1972.298116153869
 30
0.0
 10
-817.4049551232242
 20
-1972.286833708417
 30
0.0
 10
-817.4001591571295
 20
-1972.245389146224
 30
0.0
 10
-817.4462807627824
 20
-1972.176086003254
 30
0.0
 10
-817.5389357795989
 20
-1972.10289647695
 30
0.0
 10
-817.6712399314274
 20
-1972.052322719392
 30
0.0
 10
-817.8239240014299
 20
-1972.030042115081
 30
0.0
 10
-817.9808533019494
 20
-1972.03850244776
 30
0.0
 10
-818.1242771623129
 20
-1972.076720476203
 30
0.0
 10
-818.2375657768433
 20
-1972.140390583678
 30
0.0
 10
-818.2934438981996
 20
-1972.203503159133
 30
0.0
 10
-818.3087175113
 20
-1972.241795891242
 30
0.0
 10
-818.3123099698663
 20
-1972.250802604493
 30
0.0
  0
SPLINE
  5
3859DA
330
18
100
AcDbEntity
  8
姿図
100
AcDbSpline
210
0.0
220
0.0
230
1.0
 70
     8
 71
     3
 72
     9
 73
     5
 74
     0
 42
0.000000001
 43
0.0000000001
 40
0.0
 40
0.0
 40
0.0
 40
0.0
 40
0.4338688719176272
 40
0.9999999999999998
 40
0.9999999999999998
 40
0.9999999999999998
 40
0.9999999999999998
 10
-817.148914705352
 20
-1982.234205982603
 30
0.0
 10
-817.1497303990541
 20
-1982.185159324811
 30
0.0
 10
-817.1516104456646
 20
-1982.072114437367
 30
0.0
 10
-817.1529171297938
 20
-1981.983856185491
 30
0.0
 10
-817.153656884354
 20
-1981.933890441794
 30
0.0
  0
SPLINE
  5
3859DB
330
18
100
AcDbEntity
  8
姿図
100
AcDbSpline
210
0.0
220
0.0
230
1.0
 70
     8
 71
     3
 72
     9
 73
     5
 74
     0
 42
0.000000001
 43
0.0000000001
 40
0.0
 40
0.0
 40
0.0
 40
0.0
 40
0.2544624062473402
 40
1.0
 40
1.0
 40
1.0
 40
1.0
 10
-816.9804484834976
 20
-1990.55958341756
 30
0.0
 10
-816.9927325927238
 20
-1989.854435696022
 30
0.0
 10
-817.0410073434313
 20
-1987.083308393027
 30
0.0
 10
-817.1028263281996
 20
-1984.305308980251
 30
0.0
 10
-817.148914705352
 20
-1982.234205982603
 30
0.0
  0
SPLINE
  5
3859DC
330
18
100
AcDbEntity
  8
姿図
100
AcDbSpline
210
0.0
220
0.0
230
1.0
 70
     8
 71
     3
 72
     9
 73
     5
 74
     0
 42
0.000000001
 43
0.0000000001
 40
0.0
 40
0.0
 40
0.0
 40
0.0
 40
0.5422858593425994
 40
1.0
 40
1.0
 40
1.0
 40
1.0
 10
-814.1063409553398
 20
-1983.069375385989
 30
0.0
 10
-814.418540761354
 20
-1982.995551333025
 30
0.0
 10
-814.994251524663
 20
-1982.859416392951
 30
0.0
 10
-815.5928612201396
 20
-1982.714658780601
 30
0.0
 10
-815.8668533424938
 20
-1982.648401174462
 30
0.0
  0
ARC
  5
3859DD
330
18
100
AcDbEntity
  8
姿図
100
AcDbCircle
 10
-819.8481229739563
 20
-2003.449361704973
 30
0.0
 40
21.17337722497945
100
AcDbArc
 50
71.8603719752204
 51
74.26554474305206
  0
SPLINE
  5
3859DE
330
18
100
AcDbEntity
  8
姿図
100
AcDbSpline
210
0.0
220
0.0
230
1.0
 70
     8
 71
     3
 72
     9
 73
     5
 74
     0
 42
0.000000001
 43
0.0000000001
 40
0.0
 40
0.0
 40
0.0
 40
0.0
 40
0.2350743563875008
 40
1.0
 40
1.0
 40
1.0
 40
1.0
 10
-813.1230092107379
 20
-1991.378269801253
 30
0.0
 10
-813.1355696847318
 20
-1990.746784228156
 30
0.0
 10
-813.1890016038369
 20
-1988.060461556464
 30
0.0
 10
-813.2270394814058
 20
-1985.379230453762
 30
0.0
 10
-813.2561356293876
 20
-1983.328288026853
 30
0.0
  0
SPLINE
  5
3859DF
330
18
100
AcDbEntity
  8
姿図
100
AcDbSpline
210
0.0
220
0.0
230
1.0
 70
     8
 71
     3
 72
     9
 73
     5
 74
     0
 42
0.000000001
 43
0.0000000001
 40
0.0
 40
0.0
 40
0.0
 40
0.0
 40
0.7583336163701726
 40
1.0
 40
1.0
 40
1.0
 40
1.0
 10
-816.7851748903576
 20
-1982.484422788411
 30
0.0
 10
-816.7444024973811
 20
-1984.538683821697
 30
0.0
 10
-816.690636724513
 20
-1987.247598458924
 30
0.0
 10
-816.6540793964028
 20
-1989.953822276318
 30
0.0
 10
-816.6452447191231
 20
-1990.60782559956
 30
0.0
  0
ARC
  5
3859E0
330
18
100
AcDbEntity
  8
姿図
100
AcDbCircle
 10
-820.6288884928653
 20
-2006.663625966832
 30
0.0
 40
24.48281030848898
100
AcDbArc
 50
78.78417684425953
 51
80.96739945700097
  0
SPLINE
  5
3859E1
330
18
100
AcDbEntity
  8
姿図
100
AcDbSpline
210
0.0
220
0.0
230
1.0
 70
     8
 71
     3
 72
     9
 73
     5
 74
     0
 42
0.000000001
 43
0.0000000001
 40
0.0
 40
0.0
 40
0.0
 40
0.0
 40
0.5304038721807434
 40
0.9999999999999998
 40
0.9999999999999998
 40
0.9999999999999998
 40
0.9999999999999998
 10
-824.7620308375958
 20
-1986.861018029547
 30
0.0
 10
-825.307182052747
 20
-1987.619244522732
 30
0.0
 10
-826.3349860408853
 20
-1989.048771215414
 30
0.0
 10
-827.3648587009519
 20
-1990.483006782985
 30
0.0
 10
-827.8484829142662
 20
-1991.156518251896
 30
0.0
  0
LINE
  5
3859E2
330
18
100
AcDbEntity
  8
姿図
100
AcDbLine
 10
-825.1085182682064
 20
-1990.597700017164
 30
0.0
 11
-824.8376809733144
 21
-1989.809642123647
 31
0.0
  0
ARC
  5
3859E3
330
18
100
AcDbEntity
  8
姿図
100
AcDbCircle
 10
-816.7771394407255
 20
-1982.083249237743
 30
0.0
 40
0.4012540170601206
100
AcDbArc
 50
202.0992676421527
 51
268.8525270554489
  0
ARC
  5
3859E4
330
18
100
AcDbEntity
  8
姿図
100
AcDbCircle
 10
-829.6223234142676
 20
-1992.826520147465
 30
0.0
 40
1.136922090453281
100
AcDbArc
 50
93.6294186725163
 51
126.5884490141842
  0
ARC
  5
3859E5
330
18
100
AcDbEntity
  8
姿図
100
AcDbCircle
 10
-812.1667491904826
 20
-1992.828010653748
 30
0.0
 40
1.138444241495933
100
AcDbArc
 50
53.43421190721421
 51
86.34792040607024
  0
SPLINE
  5
3859E6
330
18
100
AcDbEntity
  8
姿図
100
AcDbSpline
210
0.0
220
0.0
230
1.0
 70
     8
 71
     3
 72
     9
 73
     5
 74
     0
 42
0.000000001
 43
0.0000000001
 40
0.0
 40
0.0
 40
0.0
 40
0.0
 40
0.4465982664059212
 40
1.0
 40
1.0
 40
1.0
 40
1.0
 10
-822.9470487524613
 20
-1989.855186880483
 30
0.0
 10
-822.7907422996485
 20
-1989.230854449375
 30
0.0
 10
-822.4407488837078
 20
-1987.832881196741
 30
0.0
 10
-822.0899289045251
 20
-1986.439300297593
 30
0.0
 10
-821.8957845198655
 20
-1985.668090212102
 30
0.0
  0
ARC
  5
3859E7
330
18
100
AcDbEntity
  8
姿図
100
AcDbCircle
 10
-821.3963609019378
 20
-1985.558121445883
 30
0.0
 40
0.5113874066576228
100
AcDbArc
 50
192.417876125138
 51
271.6969388370801
  0
ARC
  5
3859E8
330
18
100
AcDbEntity
  8
姿図
100
AcDbCircle
 10
-820.3921659914236
 20
-1985.558121445883
 30
0.0
 40
0.5113874066575659
100
AcDbArc
 50
268.3030611629193
 51
347.5821238748754
  0
SPLINE
  5
3859E9
330
18
100
AcDbEntity
  8
姿図
100
AcDbSpline
210
0.0
220
0.0
230
1.0
 70
     8
 71
     3
 72
     9
 73
     5
 74
     0
 42
0.000000001
 43
0.0000000001
 40
0.0
 40
0.0
 40
0.0
 40
0.0
 40
0.5555054666284728
 40
1.0
 40
1.0
 40
1.0
 40
1.0
 10
-819.8927423734957
 20
-1985.668090212102
 30
0.0
 10
-819.698597606717
 20
-1986.439298570312
 30
0.0
 10
-819.3491055162845
 20
-1987.827598784333
 30
0.0
 10
-819.0004374553286
 20
-1989.22027493882
 30
0.0
 10
-818.8454564082728
 20
-1989.839311876247
 30
0.0
  0
SPLINE
  5
3859EA
330
18
100
AcDbEntity
  8
姿図
100
AcDbSpline
210
0.0
220
0.0
230
1.0
 70
     8
 71
     3
 72
    10
 73
     6
 74
     0
 42
0.000000001
 43
0.0000000001
 40
0.0
 40
0.0
 40
0.0
 40
0.0
 40
0.3176394310891118
 40
0.6587695294712013
 40
1.0
 40
1.0
 40
1.0
 40
1.0
 10
-821.741071012244
 20
-1985.780469416051
 30
0.0
 10
-821.7612562899113
 20
-1985.729151022819
 30
0.0
 10
-821.8031196247784
 20
-1985.622719042235
 30
0.0
 10
-821.8590715668183
 20
-1985.577617764387
 30
0.0
 10
-821.8835456688402
 20
-1985.637929772322
 30
0.0
 10
-821.8957845198655
 20
-1985.668090212102
 30
0.0
  0
LWPOLYLINE
  5
3859EB
330
18
100
AcDbEntity
  8
姿図
100
AcDbPolyline
 90
        3
 70
   128
 43
0.0
 10
-821.5933497655724
 20
-1978.082577186093
 10
-822.7596681445216
 20
-1974.470159722418
 10
-823.4762169234951
 20
-1972.250802604493
  0
LINE
  5
3859EC
330
18
100
AcDbEntity
  8
姿図
100
AcDbLine
 10
-821.4835715485442
 20
-1982.433096845487
 30
0.0
 11
-821.5933497655724
 21
-1978.082577186093
 31
0.0
  0
SPLINE
  5
3859ED
330
18
100
AcDbEntity
  8
姿図
100
AcDbSpline
210
0.0
220
0.0
230
1.0
 70
     8
 71
     3
 72
     9
 73
     5
 74
     0
 42
0.000000001
 43
0.0000000001
 40
0.0
 40
0.0
 40
0.0
 40
0.0
 40
0.3390504983793583
 40
1.0
 40
1.0
 40
1.0
 40
1.0
 10
-821.5572419348355
 20
-1982.446474861707
 30
0.0
 10
-821.5506041024386
 20
-1982.432864276772
 30
0.0
 10
-821.5310263922487
 20
-1982.392721038524
 30
0.0
 10
-821.5024554792512
 20
-1982.417029909398
 30
0.0
 10
-821.4835715485442
 20
-1982.433096845487
 30
0.0
  0
LINE
  5
3859EE
330
18
100
AcDbEntity
  8
姿図
100
AcDbLine
 10
-821.5364118427761
 20
-1983.425862443669
 30
0.0
 11
-821.5572419348355
 21
-1982.446474861707
 31
0.0
  0
LINE
  5
3859EF
330
18
100
AcDbEntity
  8
姿図
100
AcDbLine
 10
-821.4812893625522
 20
-1986.014201083447
 30
0.0
 11
-821.5364118427761
 21
-1983.425862443669
 31
0.0
  0
LINE
  5
3859F0
330
18
100
AcDbEntity
  8
姿図
100
AcDbLine
 10
-821.741071012244
 20
-1985.780469416051
 30
0.0
 11
-821.7066916962048
 21
-1985.880245701642
 31
0.0
  0
LINE
  5
3859F1
330
18
100
AcDbEntity
  8
姿図
100
AcDbLine
 10
-818.3123099698663
 20
-1972.250802604493
 30
0.0
 11
-820.195177127789
 21
-1978.082577186093
 31
0.0
  0
SPLINE
  5
3859F2
330
18
100
AcDbEntity
  8
姿図
100
AcDbSpline
210
0.0
220
0.0
230
1.0
 70
     8
 71
     3
 72
    10
 73
     6
 74
     0
 42
0.000000001
 43
0.0000000001
 40
0.0
 40
0.0
 40
0.0
 40
0.0
 40
0.3077106712700486
 40
0.6539064662645327
 40
1.0
 40
1.0
 40
1.0
 40
1.0
 10
-819.8927423734957
 20
-1985.668090212102
 30
0.0
 10
-819.9036030726539
 20
-1985.640047016486
 30
0.0
 10
-819.9266828097925
 20
-1985.580453285557
 30
0.0
 10
-819.9814662893368
 20
-1985.614710523282
 30
0.0
 10
-820.02546151677
 20
-1985.725221893176
 30
0.0
 10
-820.0474558811173
 20
-1985.780469416051
 30
0.0
  0
LINE
  5
3859F3
330
18
100
AcDbEntity
  8
姿図
100
AcDbLine
 10
-820.081570132992
 20
-1985.87947642835
 30
0.0
 11
-820.0474558811173
 21
-1985.780469416051
 31
0.0
  0
LINE
  5
3859F4
330
18
100
AcDbEntity
  8
姿図
100
AcDbLine
 10
-820.2521150505853
 20
-1983.425862443669
 30
0.0
 11
-820.3072088841235
 21
-1986.012837760231
 31
0.0
  0
LINE
  5
3859F5
330
18
100
AcDbEntity
  8
姿図
100
AcDbLine
 10
-820.2312849585259
 20
-1982.446474861707
 30
0.0
 11
-820.2521150505853
 21
-1983.425862443669
 31
0.0
  0
SPLINE
  5
3859F6
330
18
100
AcDbEntity
  8
姿図
100
AcDbSpline
210
0.0
220
0.0
230
1.0
 70
     8
 71
     3
 72
     9
 73
     5
 74
     0
 42
0.000000001
 43
0.0000000001
 40
0.0
 40
0.0
 40
0.0
 40
0.0
 40
0.6609495016206419
 40
1.0
 40
1.0
 40
1.0
 40
1.0
 10
-820.3049553448172
 20
-1982.433096845487
 30
0.0
 10
-820.2860714141102
 20
-1982.417029909398
 30
0.0
 10
-820.2575005011126
 20
-1982.392721038524
 30
0.0
 10
-820.2379227909228
 20
-1982.432864276772
 30
0.0
 10
-820.2312849585259
 20
-1982.446474861707
 30
0.0
  0
LINE
  5
3859F7
330
18
100
AcDbEntity
  8
姿図
100
AcDbLine
 10
-820.3049553448172
 20
-1982.433096845487
 30
0.0
 11
-820.195177127789
 21
-1978.082577186093
 31
0.0
  0
SPLINE
  5
3859F8
330
18
100
AcDbEntity
  8
姿図
100
AcDbSpline
210
0.0
220
0.0
230
1.0
 70
     8
 71
     3
 72
    15
 73
    11
 74
     0
 42
0.000000001
 43
0.0000000001
 40
0.0
 40
0.0
 40
0.0
 40
0.0
 40
0.1331092998839099
 40
0.2662951864486016
 40
0.3994868027398696
 40
0.5325866550148339
 40
0.6655684989429052
 40
0.7984593631049752
 40
0.9313244588478639
 40
1.0
 40
1.0
 40
1.0
 40
1.0
 10
-829.1504469738807
 20
-1973.49534185041
 30
0.0
 10
-829.1835027424831
 20
-1973.471812245337
 30
0.0
 10
-829.2496332988821
 20
-1973.424739497035
 30
0.0
 10
-829.3925124141952
 20
-1973.383288373671
 30
0.0
 10
-829.5482617552352
 20
-1973.370021412571
 30
0.0
 10
-829.7028859137453
 20
-1973.387953622214
 30
0.0
 10
-829.8387333579512
 20
-1973.434560943926
 30
0.0
 10
-829.9375288312611
 20
-1973.504697919725
 30
0.0
 10
-829.9903633694652
 20
-1973.576480982299
 30
0.0
 10
-829.9880937684846
 20
-1973.62220761954
 30
0.0
 10
-829.9873203955412
 20
-1973.637789100308
 30
0.0
  0
LINE
  5
3859F9
330
18
100
AcDbEntity
  8
姿図
100
AcDbLine
 10
-828.767268077463
 20
-1991.311846671538
 30
0.0
 11
-829.1504469738807
 21
-1973.49534185041
 31
0.0
  0
LINE
  5
3859FA
330
18
100
AcDbEntity
  8
姿図
100
AcDbLine
 10
-828.8120267134926
 20
-1991.406399003984
 30
0.0
 11
-828.767268077463
 21
-1991.311846671538
 31
0.0
  0
LINE
  5
3859FB
330
18
100
AcDbEntity
  8
姿図
100
AcDbLine
 10
-828.767268077463
 20
-1991.311846671538
 30
0.0
 11
-828.7241087167712
 21
-1991.377584064129
 31
0.0
  0
LINE
  5
3859FC
330
18
100
AcDbEntity
  8
姿図
100
AcDbLine
 10
-812.8380161723743
 20
-1982.791704007619
 30
0.0
 11
-812.6380799194807
 21
-1973.49534185041
 31
0.0
  0
SPLINE
  5
3859FD
330
18
100
AcDbEntity
  8
姿図
100
AcDbSpline
210
0.0
220
0.0
230
1.0
 70
     8
 71
     3
 72
    16
 73
    12
 74
     0
 42
0.000000001
 43
0.0000000001
 40
0.0
 40
0.0
 40
0.0
 40
0.0
 40
0.0282065836189953
 40
0.1613920180087301
 40
0.2944858771242498
 40
0.427461616466572
 40
0.5603462194245871
 40
0.6932052429505862
 40
0.8261093137997773
 40
0.959100076542089
 40
1.0
 40
1.0
 40
1.0
 40
1.0
 10
-811.7990584902712
 20
-1973.637494752471
 30
0.0
 10
-811.797873341674
 20
-1973.631147502062
 30
0.0
 10
-811.791092175747
 20
-1973.594829897411
 30
0.0
 10
-811.8302811579296
 20
-1973.529191475486
 30
0.0
 10
-811.9149991486802
 20
-1973.453456882051
 30
0.0
 10
-812.0424448294643
 20
-1973.399073221367
 30
0.0
 10
-812.1925751695853
 20
-1973.372256599724
 30
0.0
 10
-812.3501661249788
 20
-1973.375913113532
 30
0.0
 10
-812.496552618597
 20
-1973.409764651345
 30
0.0
 10
-812.5895954509351
 20
-1973.455776663279
 30
0.0
 10
-812.6288476208456
 20
-1973.487807940395
 30
0.0
 10
-812.6380799194807
 20
-1973.49534185041
 30
0.0
  0
SPLINE
  5
3859FE
330
18
100
AcDbEntity
  8
姿図
100
AcDbSpline
210
0.0
220
0.0
230
1.0
 70
     8
 71
     3
 72
    10
 73
     6
 74
     0
 42
0.000000001
 43
0.0000000001
 40
0.0
 40
0.0
 40
0.0
 40
0.0
 40
0.1365657558122078
 40
0.6828302857966136
 40
1.0
 40
1.0
 40
1.0
 40
1.0
 10
-812.6994269623942
 20
-1983.298169395789
 30
0.0
 10
-812.6990387143687
 20
-1983.672776126388
 30
0.0
 10
-812.697097469957
 20
-1985.545813912434
 30
0.0
 10
-812.6857593808439
 20
-1988.288683244485
 30
0.0
 10
-812.6656242606751
 20
-1990.657556388496
 30
0.0
 10
-812.6582279240665
 20
-1991.527726668546
 30
0.0
  0
SPLINE
  5
3859FF
330
18
100
AcDbEntity
  8
姿図
100
AcDbSpline
210
0.0
220
0.0
230
1.0
 70
     8
 71
     3
 72
    10
 73
     6
 74
     0
 42
0.000000001
 43
0.0000000001
 40
0.0
 40
0.0
 40
0.0
 40
0.0
 40
0.210258335744285
 40
0.5888154072403227
 40
1.0
 40
1.0
 40
1.0
 40
1.0
 10
-812.8380161723743
 20
-1982.791704007619
 30
0.0
 10
-812.8213944578465
 20
-1982.815641533493
 30
0.0
 10
-812.7748463789139
 20
-1982.882677087616
 30
0.0
 10
-812.714418051199
 20
-1983.0539459484
 30
0.0
 10
-812.7045597544447
 20
-1983.214549841157
 30
0.0
 10
-812.6994269623942
 20
-1983.298169395789
 30
0.0
  0
ARC
  5
385A00
330
18
100
AcDbEntity
  8
姿図
100
AcDbCircle
 10
-813.0166259233201
 20
-1982.59522991815
 30
0.0
 40
0.7711932896721672
100
AcDbArc
 50
251.9063992059436
 51
294.2871086385869
  0
SPLINE
  5
385A01
330
18
100
AcDbEntity
  8
姿図
100
AcDbSpline
210
0.0
220
0.0
230
1.0
 70
     8
 71
     3
 72
     9
 73
     5
 74
     0
 42
0.000000001
 43
0.0000000001
 40
0.0
 40
0.0
 40
0.0
 40
0.0
 40
0.484478425353631
 40
1.0
 40
1.0
 40
1.0
 40
1.0
 10
-828.767268077463
 20
-1991.311846671538
 30
0.0
 10
-828.1805655843792
 20
-1990.496491530351
 30
0.0
 10
-826.9695674008062
 20
-1988.813537040495
 30
0.0
 10
-825.756158158887
 20
-1987.134918127873
 30
0.0
 10
-825.1306195158026
 20
-1986.269553862807
 30
0.0
  0
ARC
  5
385A02
330
18
100
AcDbEntity
  8
姿図
100
AcDbCircle
 10
-824.6364199339513
 20
-1985.992289511695
 30
0.0
 40
0.5666645807700589
100
AcDbArc
 50
209.2940463998121
 51
258.0281112798563
  0
SPLINE
  5
385A03
330
18
100
AcDbEntity
  8
姿図
100
AcDbSpline
210
0.0
220
0.0
230
1.0
 70
     8
 71
     3
 72
    10
 73
     6
 74
     0
 42
0.000000001
 43
0.0000000001
 40
0.0
 40
0.0
 40
0.0
 40
0.0
 40
0.2072747380585287
 40
0.6035789579792107
 40
1.0
 40
1.0
 40
1.0
 40
1.0
 10
-824.7466982750884
 20
-1986.263409988375
 30
0.0
 10
-824.7790785622992
 20
-1986.240514017977
 30
0.0
 10
-824.8733691651809
 20
-1986.17384151324
 30
0.0
 10
-825.0151284777029
 20
-1986.163094724697
 30
0.0
 10
-825.0921187211442
 20
-1986.234063997244
 30
0.0
 10
-825.1306195158026
 20
-1986.269553862807
 30
0.0
  0
LWPOLYLINE
  5
385A04
330
18
100
AcDbEntity
  8
姿図
100
AcDbPolyline
 90
        3
 70
   128
 43
0.0
 10
-824.5301182152548
 20
-1977.821770415654
 10
-827.1174994982221
 20
-1975.398975770519
 10
-829.1504469738807
 20
-1973.49534185041
  0
ARC
  5
385A05
330
18
100
AcDbEntity
  8
姿図
100
AcDbCircle
 10
-811.2420141021058
 20
-1983.685799315446
 30
0.0
 40
0.3914141829228708
100
AcDbArc
 50
222.6096461289723
 51
247.5072804387002
  0
SPLINE
  5
385A06
330
18
100
AcDbEntity
  8
姿図
100
AcDbSpline
210
0.0
220
0.0
230
1.0
 70
     8
 71
     3
 72
     9
 73
     5
 74
     0
 42
0.000000001
 43
0.0000000001
 40
0.0
 40
0.0
 40
0.0
 40
0.0
 40
0.7719583742226099
 40
1.0
 40
1.0
 40
1.0
 40
1.0
 10
-811.3917558737558
 20
-1984.047437898033
 30
0.0
 10
-811.3226694675276
 20
-1986.114329854393
 30
0.0
 10
-811.2331744785041
 20
-1988.791795408725
 30
0.0
 10
-811.157511533287
 20
-1991.463088991527
 30
0.0
 10
-811.1402572322486
 20
-1992.072255123078
 30
0.0
  0
LINE
  5
385A07
330
18
100
AcDbEntity
  8
姿図
100
AcDbLine
 10
-830.4468843633475
 20
-1991.295825555014
 30
0.0
 11
-830.9601878679117
 21
-1991.857045803426
 31
0.0
  0
SPLINE
  5
385A08
330
18
100
AcDbEntity
  8
姿図
100
AcDbSpline
210
0.0
220
0.0
230
1.0
 70
     8
 71
     3
 72
     9
 73
     5
 74
     0
 42
0.000000001
 43
0.0000000001
 40
0.0
 40
0.0
 40
0.0
 40
0.0
 40
0.1242544421988908
 40
1.0
 40
1.0
 40
1.0
 40
1.0
 10
-808.4752567654842
 20
-1992.674775859082
 30
0.0
 10
-808.4849200530706
 20
-1992.381478721885
 30
0.0
 10
-808.562690210948
 20
-1990.021022773534
 30
0.0
 10
-808.6309596327422
 20
-1987.667651760121
 30
0.0
 10
-808.6907462756126
 20
-1985.606697549266
 30
0.0
  0
ARC
  5
385A09
330
18
100
AcDbEntity
  8
姿図
100
AcDbCircle
 10
-817.276182354703
 20
-1997.359694226094
 30
0.0
 40
14.55481513292664
100
AcDbArc
 50
53.85227847648844
 51
66.15309805622763
  0
SPLINE
  5
385A0A
330
18
100
AcDbEntity
  8
姿図
100
AcDbSpline
210
0.0
220
0.0
230
1.0
 70
     8
 71
     3
 72
     9
 73
     5
 74
     0
 42
0.000000001
 43
0.0000000001
 40
0.0
 40
0.0
 40
0.0
 40
0.0
 40
0.8584804091683913
 40
1.0
 40
1.0
 40
1.0
 40
1.0
 10
-831.6860465729128
 20
-1991.865368285648
 30
0.0
 10
-831.3257884973399
 20
-1991.471282742353
 30
0.0
 10
-830.9061422576287
 20
-1991.012232612513
 30
0.0
 10
-830.4856905246317
 20
-1990.554006829803
 30
0.0
 10
-830.4261883674135
 20
-1990.489158904525
 30
0.0
  0
LINE
  5
385A0B
330
18
100
AcDbEntity
  8
姿図
100
AcDbLine
 10
-833.3257174422588
 20
-1992.671491705834
 30
0.0
 11
-833.5677478601024
 21
-1975.898688664119
 31
0.0
  0
LWPOLYLINE
  5
385A0C
330
18
100
AcDbEntity
  8
姿図
100
AcDbPolyline
 90
        3
 70
   128
 43
0.0
 10
-830.0906232267397
 20
-1977.409857456982
 10
-830.527900155081
 20
-1977.219815142812
 10
-833.5677478601024
 20
-1975.898688664119
  0
SPLINE
  5
385A0D
330
18
100
AcDbEntity
  8
姿図
100
AcDbSpline
210
0.0
220
0.0
230
1.0
 70
     8
 71
     3
 72
    14
 73
    10
 74
     0
 42
0.000000001
 43
0.0000000001
 40
0.0
 40
0.0
 40
0.0
 40
0.0
 40
0.1574959415070536
 40
0.3150822588245704
 40
0.4726755604989964
 40
0.6301605046050331
 40
0.7875056820381112
 40
0.9447430212246763
 40
1.0
 40
1.0
 40
1.0
 40
1.0
 10
-833.5677478601024
 20
-1975.898688664119
 30
0.0
 10
-833.6136938940535
 20
-1975.884231142264
 30
0.0
 10
-833.7056123271441
 20
-1975.855307802402
 30
0.0
 10
-833.8646591714141
 20
-1975.848522103216
 30
0.0
 10
-834.0167302312512
 20
-1975.870620340938
 30
0.0
 10
-834.1483732140837
 20
-1975.921356346249
 30
0.0
 10
-834.2396427571013
 20
-1975.99429681513
 30
0.0
 10
-834.2845543851499
 20
-1976.062586764052
 30
0.0
 10
-834.2794397791521
 20
-1976.103085485107
 30
0.0
 10
-834.2781097780598
 20
-1976.113616764208
 30
0.0
  0
ARC
  5
385A0E
330
18
100
AcDbEntity
  8
姿図
100
AcDbCircle
 10
-808.311170280692
 20
-1985.013837761261
 30
0.0
 40
0.7039606978761676
100
AcDbArc
 50
237.3707666635279
 51
282.3816402071381
  0
SPLINE
  5
385A0F
330
18
100
AcDbEntity
  8
姿図
100
AcDbSpline
210
0.0
220
0.0
230
1.0
 70
     8
 71
     3
 72
    10
 73
     6
 74
     0
 42
0.000000001
 43
0.0000000001
 40
0.0
 40
0.0
 40
0.0
 40
0.0
 40
0.1555004995512623
 40
0.7775042263031767
 40
1.0
 40
1.0
 40
1.0
 40
1.0
 10
-808.160225371842
 20
-1985.701425063824
 30
0.0
 10
-808.1550089112825
 20
-1986.076676684475
 30
0.0
 10
-808.1289265504982
 20
-1987.952938959036
 30
0.0
 10
-808.0889502741742
 20
-1990.367448616218
 30
0.0
 10
-808.0471415636448
 20
-1992.408987641999
 30
0.0
 10
-808.0361264459433
 20
-1992.94686102716
 30
0.0
  0
LINE
  5
385A10
330
18
100
AcDbEntity
  8
姿図
100
AcDbLine
 10
-808.3543721953292
 20
-1985.156751770214
 30
0.0
 11
-808.220779033259
 21
-1975.898688664119
 31
0.0
  0
SPLINE
  5
385A11
330
18
100
AcDbEntity
  8
姿図
100
AcDbSpline
210
0.0
220
0.0
230
1.0
 70
     8
 71
     3
 72
    15
 73
    11
 74
     0
 42
0.000000001
 43
0.0000000001
 40
0.0
 40
0.0
 40
0.0
 40
0.0
 40
0.0079565018473758
 40
0.1654017426483526
 40
0.3227073901118797
 40
0.4799054166357799
 40
0.637072961420642
 40
0.7942936329718105
 40
0.9516166154678494
 40
1.0
 40
1.0
 40
1.0
 40
1.0
 10
-807.5057187295097
 20
-1976.113616190493
 30
0.0
 10
-807.5053435491922
 20
-1976.112116074769
 30
0.0
 10
-807.4975442072819
 20
-1976.080931295365
 30
0.0
 10
-807.5309863222896
 20
-1976.019197767103
 30
0.0
 10
-807.6071786526453
 20
-1975.941234697133
 30
0.0
 10
-807.729425092757
 20
-1975.883194058489
 30
0.0
 10
-807.8767158118857
 20
-1975.851827058679
 30
0.0
 10
-808.0340435699665
 20
-1975.850806547032
 30
0.0
 10
-808.1500560943259
 20
-1975.872812198544
 30
0.0
 10
-808.2073120786549
 20
-1975.893761306851
 30
0.0
 10
-808.220779033259
 20
-1975.898688664119
 30
0.0
  0
SPLINE
  5
385A12
330
18
100
AcDbEntity
  8
姿図
100
AcDbSpline
210
0.0
220
0.0
230
1.0
 70
     8
 71
     3
 72
    10
 73
     6
 74
     0
 42
0.000000001
 43
0.0000000001
 40
0.0
 40
0.0
 40
0.0
 40
0.0
 40
0.2102582184100758
 40
0.5888153694158401
 40
1.0
 40
1.0
 40
1.0
 40
1.0
 10
-808.3543721953292
 20
-1985.156751770214
 30
0.0
 10
-808.3297033577892
 20
-1985.185430712522
 30
0.0
 10
-808.2606197766607
 20
-1985.265744348474
 30
0.0
 10
-808.181912110852
 20
-1985.452989936925
 30
0.0
 10
-808.1676506842322
 20
-1985.616363477333
 30
0.0
 10
-808.160225371842
 20
-1985.701425063824
 30
0.0
  0
SPLINE
  5
385A13
330
18
100
AcDbEntity
  8
姿図
100
AcDbSpline
210
0.0
220
0.0
230
1.0
 70
     8
 71
     3
 72
    10
 73
     6
 74
     0
 42
0.000000001
 43
0.0000000001
 40
0.0
 40
0.0
 40
0.0
 40
0.0
 40
0.3921402866524369
 40
0.7842884188463268
 40
1.0
 40
1.0
 40
1.0
 40
1.0
 10
-816.7677260950741
 20
-1982.295051325419
 30
0.0
 10
-816.766307071829
 20
-1982.303603625912
 30
0.0
 10
-816.763468996949
 20
-1982.320708398004
 30
0.0
 10
-816.7850724217283
 20
-1982.394390031332
 30
0.0
 10
-816.7851480515519
 20
-1982.460841213246
 30
0.0
 10
-816.7851748903576
 20
-1982.484422788411
 30
0.0
  0
SPLINE
  5
385A14
330
18
100
AcDbEntity
  8
姿図
100
AcDbSpline
210
0.0
220
0.0
230
1.0
 70
     8
 71
     3
 72
     9
 73
     5
 74
     0
 42
0.000000001
 43
0.0000000001
 40
0.0
 40
0.0
 40
0.0
 40
0.0
 40
0.1074867769855476
 40
1.0
 40
1.0
 40
1.0
 40
1.0
 10
-805.7038454667154
 20
-1995.711634509522
 30
0.0
 10
-805.7141293732852
 20
-1995.460565417674
 30
0.0
 10
-805.8098053890557
 20
-1993.124751665613
 30
0.0
 10
-805.9014432897588
 20
-1990.797423360388
 30
0.0
 10
-805.9832313278658
 20
-1988.720252073679
 30
0.0
  0
ARC
  5
385A15
330
18
100
AcDbEntity
  8
姿図
100
AcDbCircle
 10
-812.6975102767218
 20
-1992.007607124802
 30
0.0
 40
7.475844101852471
100
AcDbArc
 50
26.08667347383529
 51
42.97078561774958
  0
LWPOLYLINE
  5
385A16
330
18
100
AcDbEntity
  8
姿図
100
AcDbPolyline
 90
        6
 70
   128
 43
0.0
 10
-815.8668533424938
 20
-1982.648401174462
 10
-815.8709198548304
 20
-1982.57763937255
 10
-815.8808049371678
 20
-1982.520024575531
 10
-815.8961460607534
 20
-1982.47767496188
 10
-815.9163785236724
 20
-1982.452147162918
 10
-815.9318971250032
 20
-1982.44502841573
  0
LWPOLYLINE
  5
385A17
330
18
100
AcDbEntity
  8
姿図
100
AcDbPolyline
 90
        6
 70
   128
 43
0.0
 10
-814.1063409553398
 20
-1983.069375385989
 10
-814.1118309116309
 20
-1982.998273142154
 10
-814.1251779624463
 20
-1982.939830715801
 10
-814.1458911628561
 20
-1982.896196318811
 10
-814.1732095646807
 20
-1982.868974483877
 10
-814.1897252023964
 20
-1982.861656798659
  0
LINE
  5
385A18
330
18
100
AcDbEntity
  8
姿図
100
AcDbLine
 10
-835.9720311323827
 20
-1995.555455197687
 30
0.0
 11
-836.0556254551374
 21
-1979.094954656375
 31
0.0
  0
LINE
  5
385A19
330
18
100
AcDbEntity
  8
姿図
100
AcDbLine
 10
-834.3673237903726
 20
-1979.358998431429
 30
0.0
 11
-836.0556254551374
 21
-1979.094954656375
 31
0.0
  0
SPLINE
  5
385A1A
330
18
100
AcDbEntity
  8
姿図
100
AcDbSpline
210
0.0
220
0.0
230
1.0
 70
     8
 71
     3
 72
    10
 73
     6
 74
     0
 42
0.000000001
 43
0.0000000001
 40
0.0
 40
0.0
 40
0.0
 40
0.0
 40
0.3795985198926506
 40
0.7640172487835182
 40
1.0
 40
1.0
 40
1.0
 40
1.0
 10
-813.2561356293876
 20
-1983.328288026853
 30
0.0
 10
-813.2627834252843
 20
-1983.286421378371
 30
0.0
 10
-813.276163431964
 20
-1983.202156451315
 30
0.0
 10
-813.3485483601543
 20
-1983.125764617255
 30
0.0
 10
-813.3914504225854
 20
-1983.106002607475
 30
0.0
 10
-813.4077691243456
 20
-1983.098485711421
 30
0.0
  0
ARC
  5
385A1B
330
18
100
AcDbEntity
  8
姿図
100
AcDbCircle
 10
-813.2859234254837
 20
-1982.642315178146
 30
0.0
 40
0.4721630330294706
100
AcDbArc
 50
255.0451066077262
 51
341.5551034283736
  0
ARC
  5
385A1C
330
18
100
AcDbEntity
  8
姿図
100
AcDbCircle
 10
-813.4575007307876
 20
-1982.921922632781
 30
0.0
 40
0.2730634823841107
100
AcDbArc
 50
312.1198075967175
 51
1.643188900707942
  0
SPLINE
  5
385A1D
330
18
100
AcDbEntity
  8
姿図
100
AcDbSpline
210
0.0
220
0.0
230
1.0
 70
     8
 71
     3
 72
    10
 73
     6
 74
     0
 42
0.000000001
 43
0.0000000001
 40
0.0
 40
0.0
 40
0.0
 40
0.0
 40
0.2805593208852333
 40
0.7742966598953998
 40
1.0
 40
1.0
 40
1.0
 40
1.0
 10
-813.1845495364641
 20
-1982.914092503196
 30
0.0
 10
-813.1493008580591
 20
-1982.886567116555
 30
0.0
 10
-813.0520204188687
 20
-1982.810601666999
 30
0.0
 10
-812.9318612757352
 20
-1982.772203453957
 30
0.0
 10
-812.8604266758001
 20
-1982.787047214573
 30
0.0
 10
-812.8380161723743
 20
-1982.791704007619
 30
0.0
  0
LINE
  5
385A1E
330
18
100
AcDbEntity
  8
姿図
100
AcDbLine
 10
-812.6380799194807
 20
-1973.49534185041
 30
0.0
 11
-817.2584086781065
 21
-1977.821770415654
 31
0.0
  0
LINE
  5
385A1F
330
18
100
AcDbEntity
  8
姿図
100
AcDbLine
 10
-813.4046039948039
 20
-1983.104213540515
 30
0.0
 11
-813.1845495364641
 21
-1982.914092503196
 31
0.0
  0
SPLINE
  5
385A20
330
18
100
AcDbEntity
  8
姿図
100
AcDbSpline
210
0.0
220
0.0
230
1.0
 70
     8
 71
     3
 72
    10
 73
     6
 74
     0
 42
0.000000001
 43
0.0000000001
 40
0.0
 40
0.0
 40
0.0
 40
0.0
 40
0.3921405304900189
 40
0.7842883865948206
 40
1.0
 40
1.0
 40
1.0
 40
1.0
 10
-811.451021339797
 20
-1983.853264654726
 30
0.0
 10
-811.4340399991329
 20
-1983.863929804936
 30
0.0
 10
-811.4000770005741
 20
-1983.885260304593
 30
0.0
 10
-811.396100395601
 20
-1983.956918257921
 30
0.0
 10
-811.3928938008102
 20
-1984.023728787772
 30
0.0
 10
-811.3917558737558
 20
-1984.047437898033
 30
0.0
  0
SPLINE
  5
385A21
330
18
100
AcDbEntity
  8
姿図
100
AcDbSpline
210
0.0
220
0.0
230
1.0
 70
     8
 71
     3
 72
    10
 73
     6
 74
     0
 42
0.000000001
 43
0.0000000001
 40
0.0
 40
0.0
 40
0.0
 40
0.0
 40
0.474535331034126
 40
0.9550960122382306
 40
1.0
 40
1.0
 40
1.0
 40
1.0
 10
-808.6907462756126
 20
-1985.606697549266
 30
0.0
 10
-808.6988269394201
 20
-1985.563610028978
 30
0.0
 10
-808.7150908702042
 20
-1985.476887890261
 30
0.0
 10
-808.7803311393471
 20
-1985.396644967937
 30
0.0
 10
-808.8198410892919
 20
-1985.373546382592
 30
0.0
 10
-808.8232174424774
 20
-1985.371572475201
 30
0.0
  0
ARC
  5
385A22
330
18
100
AcDbEntity
  8
姿図
100
AcDbCircle
 10
-805.587828733056
 20
-1988.441676692906
 30
0.0
 40
0.483681149886078
100
AcDbArc
 50
215.1660757905394
 51
273.3380555791561
  0
SPLINE
  5
385A23
330
18
100
AcDbEntity
  8
姿図
100
AcDbSpline
210
0.0
220
0.0
230
1.0
 70
     8
 71
     3
 72
    10
 73
     6
 74
     0
 42
0.000000001
 43
0.0000000001
 40
0.0
 40
0.0
 40
0.0
 40
0.0
 40
0.1567787897094792
 40
0.7838956889507896
 40
1.0
 40
1.0
 40
1.0
 40
1.0
 10
-805.5596653784986
 20
-1988.924537211291
 30
0.0
 10
-805.5504210746317
 20
-1989.301449461475
 30
0.0
 10
-805.5041994526737
 20
-1991.186014896502
 30
0.0
 10
-805.4402459856424
 20
-1993.592719762151
 30
0.0
 10
-805.3805948169438
 20
-1995.626144301028
 30
0.0
 10
-805.3653071622242
 20
-1996.147278973262
 30
0.0
  0
SPLINE
  5
385A24
330
18
100
AcDbEntity
  8
姿図
100
AcDbSpline
210
0.0
220
0.0
230
1.0
 70
     8
 71
     3
 72
    13
 73
     9
 74
     0
 42
0.000000001
 43
0.0000000001
 40
0.0
 40
0.0
 40
0.0
 40
0.0
 40
0.1928047009574218
 40
0.3857190512110095
 40
0.5786426802113848
 40
0.7714332297983344
 40
0.9640528593376712
 40
1.0
 40
1.0
 40
1.0
 40
1.0
 10
-836.0556254551374
 20
-1979.094954656375
 30
0.0
 10
-836.1074915746158
 20
-1979.091727796436
 30
0.0
 10
-836.2112533101754
 20
-1979.085272241419
 30
0.0
 10
-836.3618871062386
 20
-1979.114063916346
 30
0.0
 10
-836.4885264279509
 20
-1979.168100133326
 30
0.0
 10
-836.5719279930845
 20
-1979.243777910405
 30
0.0
 10
-836.610024591193
 20
-1979.308302334914
 30
0.0
 10
-836.6030467826708
 20
-1979.343580897841
 30
0.0
 10
-836.6019493691483
 20
-1979.349129226072
 30
0.0
  0
LINE
  5
385A25
330
18
100
AcDbEntity
  8
姿図
100
AcDbLine
 10
-805.7798135147949
 20
-1988.332290627899
 30
0.0
 11
-805.7329014382244
 21
-1979.094954656375
 31
0.0
  0
SPLINE
  5
385A26
330
18
100
AcDbEntity
  8
姿図
100
AcDbSpline
210
0.0
220
0.0
230
1.0
 70
     8
 71
     3
 72
    13
 73
     9
 74
     0
 42
0.000000001
 43
0.0000000001
 40
0.0
 40
0.0
 40
0.0
 40
0.0
 40
0.1711432364615819
 40
0.3635187593164698
 40
0.5558570000936272
 40
0.7482602667485067
 40
0.9407886432508533
 40
1.0
 40
1.0
 40
1.0
 40
1.0
 10
-805.1851800927675
 20
-1979.34954817204
 30
0.0
 10
-805.1888302285014
 20
-1979.322906067758
 30
0.0
 10
-805.1965833412783
 20
-1979.26631659981
 30
0.0
 10
-805.2707740883843
 20
-1979.189105385708
 30
0.0
 10
-805.3849952035589
 20
-1979.127509053831
 30
0.0
 10
-805.5294062380012
 20
-1979.091894810041
 30
0.0
 10
-805.6507056605042
 20
-1979.086636840913
 30
0.0
 10
-805.7172497049636
 20
-1979.093370776612
 30
0.0
 10
-805.7329014382244
 20
-1979.094954656375
 30
0.0
  0
SPLINE
  5
385A27
330
18
100
AcDbEntity
  8
姿図
100
AcDbSpline
210
0.0
220
0.0
230
1.0
 70
     8
 71
     3
 72
    10
 73
     6
 74
     0
 42
0.000000001
 43
0.0000000001
 40
0.0
 40
0.0
 40
0.0
 40
0.0
 40
0.2102585381265754
 40
0.5888154981571954
 40
1.0
 40
1.0
 40
1.0
 40
1.0
 10
-805.7798135147949
 20
-1988.332290627899
 30
0.0
 10
-805.7508528669595
 20
-1988.367127752063
 30
0.0
 10
-805.6697504373786
 20
-1988.464686875236
 30
0.0
 10
-805.584746603362
 20
-1988.67073157445
 30
0.0
 10
-805.5682529278255
 20
-1988.83763681318
 30
0.0
 10
-805.5596653784986
 20
-1988.924537211291
 30
0.0
  0
LINE
  5
385A28
330
18
100
AcDbEntity
  8
姿図
100
AcDbLine
 10
-809.0154856854374
 20
-1985.233148861932
 30
0.0
 11
-808.8762089549913
 21
-1985.179425472642
 31
0.0
  0
ARC
  5
385A29
330
18
100
AcDbEntity
  8
姿図
100
AcDbCircle
 10
-809.2284700386699
 20
-1985.18817180659
 30
0.0
 40
0.3523696488516012
100
AcDbArc
 50
338.4306003762146
 51
1.422311754918315
  0
LINE
  5
385A2A
330
18
100
AcDbEntity
  8
姿図
100
AcDbLine
 10
-808.220779033259
 20
-1975.898688664119
 30
0.0
 11
-811.6979036666218
 21
-1977.40985441513
 31
0.0
  0
SPLINE
  5
385A2B
330
18
100
AcDbEntity
  8
姿図
100
AcDbSpline
210
0.0
220
0.0
230
1.0
 70
     8
 71
     3
 72
    10
 73
     6
 74
     0
 42
0.000000001
 43
0.0000000001
 40
0.0
 40
0.0
 40
0.0
 40
0.0
 40
0.2805598112893741
 40
0.7742971879473992
 40
1.0
 40
1.0
 40
1.0
 40
1.0
 10
-808.8762089549913
 20
-1985.179425472642
 30
0.0
 10
-808.8234022893429
 20
-1985.162011438799
 30
0.0
 10
-808.6776649061857
 20
-1985.113951677947
 30
0.0
 10
-808.4966466515133
 20
-1985.110137356364
 30
0.0
 10
-808.3883477364043
 20
-1985.145620116824
 30
0.0
 10
-808.3543721953292
 20
-1985.156751770214
 30
0.0
  0
ARC
  5
385A2C
330
18
100
AcDbEntity
  8
姿図
100
AcDbCircle
 10
-808.7258851624983
 20
-1984.965660658438
 30
0.0
 40
0.4177770910124516
100
AcDbArc
 50
257.8868761986291
 51
332.7805589013283
  0
LINE
  5
385A2D
330
18
100
AcDbEntity
  8
姿図
100
AcDbLine
 10
-821.381217268391
 20
-1986.069284580363
 30
0.0
 11
-821.348723036006
 21
-1986.035025551358
 31
0.0
  0
SPLINE
  5
385A2E
330
18
100
AcDbEntity
  8
姿図
100
AcDbSpline
210
0.0
220
0.0
230
1.0
 70
     8
 71
     3
 72
     9
 73
     5
 74
     0
 42
0.000000001
 43
0.0000000001
 40
0.0
 40
0.0
 40
0.0
 40
0.0
 40
0.8217607878759253
 40
1.0
 40
1.0
 40
1.0
 40
1.0
 10
-820.4073096249704
 20
-1986.069284580363
 30
0.0
 10
-820.4152331165941
 20
-1986.051603543316
 30
0.0
 10
-820.4248752067751
 20
-1986.030087504455
 30
0.0
 10
-820.4416689634965
 20
-1986.037741182227
 30
0.0
 10
-820.444662269463
 20
-1986.039105367722
 30
0.0
  0
LWPOLYLINE
  5
385A2F
330
18
100
AcDbEntity
  8
姿図
100
AcDbPolyline
 90
        3
 70
   128
 43
0.0
 10
-820.0657150154174
 20
-1985.880510361251
 10
-820.0586050396372
 20
-1985.85761250078
 10
-820.0474558811173
 20
-1985.780469416051
  0
LWPOLYLINE
  5
385A30
330
18
100
AcDbEntity
  8
姿図
100
AcDbPolyline
 90
        3
 70
   128
 43
0.0
 10
-821.741071012244
 20
-1985.780469416051
 10
-821.7299218537242
 20
-1985.85761250078
 10
-821.7233992996447
 20
-1985.878825924948
  0
LINE
  5
385A31
330
18
100
AcDbEntity
  8
姿図
100
AcDbLine
 10
-805.9832313278658
 20
-1988.720252073679
 30
0.0
 11
-806.0185154840592
 21
-1988.586149309351
 31
0.0
  0
LWPOLYLINE
  5
385A32
330
18
100
AcDbEntity
  8
姿図
100
AcDbPolyline
 90
        3
 70
   128
 43
0.0
 10
-818.3123099698663
 20
-1972.250802604493
 10
-818.3041519205016
 20
-1972.191367341278
 10
-818.3007637090076
 20
-1972.179874708962
  0
LWPOLYLINE
  5
385A33
330
18
100
AcDbEntity
  8
姿図
100
AcDbPolyline
 90
        3
 70
   128
 43
0.0
 10
-823.4876532074205
 20
-1972.180216541296
 10
-823.4843749728597
 20
-1972.191367341278
 10
-823.4762169234951
 20
-1972.250802604493
  0
LINE
  5
385A34
330
18
100
AcDbEntity
  8
姿図
100
AcDbLine
 10
-805.7329014382244
 20
-1979.094954656375
 30
0.0
 11
-807.4212031029887
 21
-1979.358998431429
 31
0.0
  0
SPLINE
  5
385A35
330
18
100
AcDbEntity
  8
姿図
100
AcDbSpline
210
0.0
220
0.0
230
1.0
 70
     8
 71
     3
 72
    10
 73
     6
 74
     0
 42
0.000000001
 43
0.0000000001
 40
0.0
 40
0.0
 40
0.0
 40
0.0
 40
0.0046501797963431
 40
0.6877388748146143
 40
1.0
 40
1.0
 40
1.0
 40
1.0
 10
-806.2135585866217
 20
-1988.217360969564
 30
0.0
 10
-806.2128150261864
 20
-1988.21733301964
 30
0.0
 10
-806.1028460702646
 20
-1988.2131993625
 30
0.0
 10
-805.9490231933322
 20
-1988.251130390243
 30
0.0
 10
-805.82022125595
 20
-1988.312909337752
 30
0.0
 10
-805.7798135147949
 20
-1988.332290627899
 30
0.0
  0
LWPOLYLINE
  5
385A36
330
18
100
AcDbEntity
  8
姿図
100
AcDbPolyline
 90
        4
 70
   128
 43
0.0
 10
-820.8006088687501
 20
-1986.027903792002
 10
-820.7999993858084
 20
-1985.996905536922
 10
-820.7381587637859
 20
-1982.842668736801
 10
-820.7381439465343
 20
-1982.841916827233
  0
SPLINE
  5
385A37
330
18
100
AcDbEntity
  8
姿図
100
AcDbSpline
210
0.0
220
0.0
230
1.0
 70
     8
 71
     3
 72
    10
 73
     6
 74
     0
 42
0.000000001
 43
0.0000000001
 40
0.0
 40
0.0
 40
0.0
 40
0.0
 40
0.0002358618273581
 40
0.2523916796327421
 40
1.0
 40
1.0
 40
1.0
 40
1.0
 10
-821.0503829468271
 20
-1982.841916827233
 30
0.0
 10
-821.050378007726
 20
-1982.842167463744
 30
0.0
 10
-821.045092761004
 20
-1983.110369278167
 30
0.0
 10
-821.0243835225101
 20
-1984.173167737315
 30
0.0
 10
-821.0034788023239
 20
-1985.235762050227
 30
0.0
 10
-820.9878465725322
 20
-1986.0303538136
 30
0.0
  0
ARC
  5
385A38
330
18
100
AcDbEntity
  8
姿図
100
AcDbCircle
 10
-812.4371881809603
 20
-1973.481458753477
 30
0.0
 40
0.2013708791913209
100
AcDbArc
 50
134.808751116488
 51
183.9532744543749
  0
ARC
  5
385A39
330
18
100
AcDbEntity
  8
姿図
100
AcDbCircle
 10
-829.3512639112723
 20
-1973.481447001692
 30
0.0
 40
0.2012970669540483
100
AcDbArc
 50
356.0419207046804
 51
45.34450748519501
  0
ARC
  5
385A3A
330
18
100
AcDbEntity
  8
姿図
100
AcDbCircle
 10
-806.0535079565857
 20
-1988.165898602971
 30
0.0
 40
0.3203044698823665
100
AcDbArc
 50
258.7510906658272
 51
328.7025684111227
  0
ARC
  5
385A3B
330
18
100
AcDbEntity
  8
姿図
100
AcDbCircle
 10
-820.7666604677006
 20
-1982.390710197794
 30
0.0
 40
0.4636466848790502
100
AcDbArc
 50
321.6187184177845
 51
354.7546876789204
  0
ARC
  5
385A3C
330
18
100
AcDbEntity
  8
姿図
100
AcDbCircle
 10
-821.0206046526501
 20
-1982.390208248263
 30
0.0
 40
0.4649492213846238
100
AcDbArc
 50
185.2926938527945
 51
218.303016607714
  0
SPLINE
  5
385A3D
330
18
100
AcDbEntity
  8
姿図
100
AcDbSpline
210
0.0
220
0.0
230
1.0
 70
     8
 71
     3
 72
     9
 73
     5
 74
     0
 42
0.000000001
 43
0.0000000001
 40
0.0
 40
0.0
 40
0.0
 40
0.0
 40
0.8767036370899667
 40
1.0
 40
1.0
 40
1.0
 40
1.0
 10
-821.4835715485442
 20
-1982.433096845487
 30
0.0
 10
-821.4788688602903
 20
-1982.433312822576
 30
0.0
 10
-821.4735048033217
 20
-1982.433559173886
 30
0.0
 10
-821.4739175924897
 20
-1982.446284227382
 30
0.0
 10
-821.4739684878928
 20
-1982.447853180196
 30
0.0
  0
LINE
  5
385A3E
330
18
100
AcDbEntity
  8
姿図
100
AcDbLine
 10
-820.195177127789
 20
-1978.082577186093
 30
0.0
 11
-820.1975315890413
 21
-1978.132198439778
 31
0.0
  0
SPLINE
  5
385A3F
330
18
100
AcDbEntity
  8
姿図
100
AcDbSpline
210
0.0
220
0.0
230
1.0
 70
     8
 71
     3
 72
    10
 73
     6
 74
     0
 42
0.000000001
 43
0.0000000001
 40
0.0
 40
0.0
 40
0.0
 40
0.0
 40
0.5216719062848904
 40
0.8559430880906228
 40
1.0
 40
1.0
 40
1.0
 40
1.0
 10
-820.3127480666163
 20
-1982.451168032624
 30
0.0
 10
-820.3129580833893
 20
-1982.444562368335
 30
0.0
 10
-820.3133026723989
 20
-1982.433723999194
 30
0.0
 10
-820.308363508845
 20
-1982.432695090574
 30
0.0
 10
-820.3057441967024
 20
-1982.433003855502
 30
0.0
 10
-820.3049553448172
 20
-1982.433096845487
 30
0.0
  0
ARC
  5
385A40
330
18
100
AcDbEntity
  8
姿図
100
AcDbCircle
 10
-833.7272561171781
 20
-1975.862482085619
 30
0.0
 40
0.1635658900932988
100
AcDbArc
 50
347.2112069070371
 51
53.69537814903694
  0
LWPOLYLINE
  5
385A41
330
18
100
AcDbEntity
  8
姿図
100
AcDbPolyline
 90
        6
 70
   128
 43
0.0
 10
-808.220779033259
 20
-1975.898688664119
 10
-808.2189698468596
 20
-1975.841636779497
 10
-808.2089138722226
 20
-1975.794162837044
 10
-808.190986479718
 20
-1975.758037270994
 10
-808.1658585615633
 20
-1975.73461962004
 10
-808.1580785167457
 20
-1975.730653351176
  0
ARC
  5
385A42
330
18
100
AcDbEntity
  8
姿図
100
AcDbCircle
 10
-836.303368097665
 20
-1979.037969531441
 30
0.0
 40
0.2542119615411487
100
AcDbArc
 50
347.0462872197198
 51
24.38155673019705
  0
ARC
  5
385A43
330
18
100
AcDbEntity
  8
姿図
100
AcDbCircle
 10
-805.520004878922
 20
-1979.034468313162
 30
0.0
 40
0.2213222597892853
100
AcDbArc
 50
152.7207705249869
 51
195.86045354568
  0
LWPOLYLINE
  5
385A44
330
18
100
AcDbEntity
  8
姿図
100
AcDbPolyline
 90
       97
 70
   128
 43
0.0
 10
-808.4257571029055
 20
-2022.514978089221
 10
-809.2679325487178
 20
-2022.970332990777
 10
-810.1598934654257
 20
-2023.392915462498
 10
-811.0978205418359
 20
-2023.780916039401
 10
-812.0776975619497
 20
-2024.1326731425
 10
-813.0953289387061
 20
-2024.446680159463
 10
-814.146356753823
 20
-2024.721592240145
 10
-815.2262788677726
 20
-2024.956233709896
 10
-816.3304729566529
 20
-2025.149598259647
 10
-817.4542100123522
 20
-2025.300858260064
 10
-818.5926780501503
 20
-2025.409366282229
 10
-819.7410012065105
 20
-2025.474657758827
 10
-820.8942634466806
 20
-2025.496452504825
 10
-822.0475256868507
 20
-2025.474657758827
 10
-823.1958488432109
 20
-2025.409366282229
 10
-824.3343168810092
 20
-2025.300858260064
 10
-825.4580539367086
 20
-2025.149598259647
 10
-826.5622480255888
 20
-2024.956233709896
 10
-827.6421701395383
 20
-2024.721592240145
 10
-828.6931979546553
 20
-2024.446680159463
 10
-829.7108293314117
 20
-2024.1326731425
 10
-830.6907063515254
 20
-2023.780916039401
 10
-831.6286334279357
 20
-2023.392915462498
 10
-832.5205943446437
 20
-2022.970332990777
 10
-833.3627697904557
 20
-2022.514978089221
 10
-834.151553081739
 20
-2022.028800552933
 10
-834.8835667083475
 20
-2021.513882476058
 10
-835.5556762453783
 20
-2020.972428700013
 10
-836.1650034417403
 20
-2020.406757736947
 10
-836.7089384855486
 20
-2019.819291647713
 10
-837.1851517756057
 20
-2019.212546204986
 10
-837.5916067630219
 20
-2018.589120438593
 10
-837.9265602804835
 20
-2017.951682759325
 10
-838.188578676597
 20
-2017.302963165454
 10
-838.3765404500655
 20
-2016.645739556631
 10
-838.4896408595004
 20
-2015.982826708961
 10
-838.5273945575981
 20
-2015.317062588899
 10
-838.4896408595004
 20
-2014.651298468836
 10
-838.3765404500655
 20
-2013.988385621166
 10
-838.188578676597
 20
-2013.331162012343
 10
-837.9265602804835
 20
-2012.682442418473
 10
-837.5916067630219
 20
-2012.045004739205
 10
-837.1851517756057
 20
-2011.421578972813
 10
-836.7089384855486
 20
-2010.814833530085
 10
-836.1650034417403
 20
-2010.227367440851
 10
-835.5556762453783
 20
-2009.661696477785
 10
-834.8835667083481
 20
-2009.12024270174
 10
-834.151553081739
 20
-2008.605324624864
 10
-833.3627697904557
 20
-2008.119147088577
 10
-832.5205943446437
 20
-2007.66379218702
 10
-831.6286334279357
 20
-2007.2412097153
 10
-830.6907063515254
 20
-2006.853209138397
 10
-829.7108293314117
 20
-2006.501452035298
 10
-828.6931979546553
 20
-2006.187445018335
 10
-827.6421701395383
 20
-2005.912532937653
 10
-826.5622480255888
 20
-2005.677891467902
 10
-825.4580539367086
 20
-2005.484526918151
 10
-824.3343168810092
 20
-2005.333266917734
 10
-823.1958488432109
 20
-2005.224758895569
 10
-822.0475256868507
 20
-2005.15946741897
 10
-820.8942634466806
 20
-2005.137672672973
 10
-819.7410012065105
 20
-2005.15946741897
 10
-818.5926780501503
 20
-2005.224758895569
 10
-817.4542100123522
 20
-2005.333266917734
 10
-816.3304729566529
 20
-2005.484526918151
 10
-815.2262788677726
 20
-2005.677891467901
 10
-814.146356753823
 20
-2005.912532937653
 10
-813.0953289387061
 20
-2006.187445018335
 10
-812.0776975619497
 20
-2006.501452035298
 10
-811.0978205418359
 20
-2006.853209138397
 10
-810.1598934654257
 20
-2007.2412097153
 10
-809.2679325487178
 20
-2007.66379218702
 10
-808.4257571029055
 20
-2008.119147088577
 10
-807.6369738116223
 20
-2008.605324624864
 10
-806.9049601850137
 20
-2009.12024270174
 10
-806.2328506479829
 20
-2009.661696477785
 10
-805.623523451621
 20
-2010.227367440851
 10
-805.0795884078128
 20
-2010.814833530085
 10
-804.6033751177557
 20
-2011.421578972813
 10
-804.1969201303395
 20
-2012.045004739205
 10
-803.861966612878
 20
-2012.682442418473
 10
-803.5999482167643
 20
-2013.331162012343
 10
-803.4119864432959
 20
-2013.988385621166
 10
-803.2988860338614
 20
-2014.651298468836
 10
-803.2611323357633
 20
-2015.317062588899
 10
-803.2988860338614
 20
-2015.982826708961
 10
-803.4119864432959
 20
-2016.645739556631
 10
-803.5999482167643
 20
-2017.302963165454
 10
-803.861966612878
 20
-2017.951682759325
 10
-804.1969201303395
 20
-2018.589120438592
 10
-804.6033751177557
 20
-2019.212546204986
 10
-805.0795884078128
 20
-2019.819291647713
 10
-805.623523451621
 20
-2020.406757736947
 10
-806.2328506479829
 20
-2020.972428700013
 10
-806.9049601850134
 20
-2021.513882476058
 10
-807.6369738116223
 20
-2022.028800552933
 10
-808.4257571029055
 20
-2022.514978089221
  0
LWPOLYLINE
  5
385A45
330
18
100
AcDbEntity
  8
姿図
100
AcDbPolyline
 90
       12
 70
   128
 43
0.0
 10
-808.5999882233828
 20
-2022.244775451481
 10
-807.8222274854379
 20
-2021.765391451838
 10
-807.1004420428543
 20
-2021.257669036057
 10
-806.437725984686
 20
-2020.723780636094
 10
-805.8369129456318
 20
-2020.166014445566
 10
-805.3005784932624
 20
-2019.586757549719
 10
-804.8310184783691
 20
-2018.988491030747
 10
-804.4302447544236
 20
-2018.373776091598
 10
-804.0999711835079
 20
-2017.745245977369
 10
-803.8416136363139
 20
-2017.105591528858
 10
-803.6562787968877
 20
-2016.457551678326
 10
-803.558381545965
 20
-2015.914515446104
  0
LWPOLYLINE
  5
385A46
330
18
100
AcDbEntity
  8
姿図
100
AcDbPolyline
 90
       36
 70
   128
 43
0.0
 10
-838.2212793626859
 20
-2015.978599503887
 10
-838.1322480964737
 20
-2016.457551678326
 10
-837.9469132570475
 20
-2017.105591528858
 10
-837.6885557098535
 20
-2017.745245977369
 10
-837.3582821389382
 20
-2018.373776091598
 10
-836.957508414992
 20
-2018.988491030747
 10
-836.487948400099
 20
-2019.586757549719
 10
-835.9516139477296
 20
-2020.166014445566
 10
-835.3508009086754
 20
-2020.723780636094
 10
-834.6880848505072
 20
-2021.257669036057
 10
-833.9662994079235
 20
-2021.765391451838
 10
-833.1885386699786
 20
-2022.244775451481
 10
-832.3581312498882
 20
-2022.69376716844
 10
-831.4786349343552
 20
-2023.110445035205
 10
-830.5538128936536
 20
-2023.493022872187
 10
-829.5876288248581
 20
-2023.839864856894
 10
-828.584217728935
 20
-2024.149484145815
 10
-827.5478774319795
 20
-2024.4205553725
 10
-826.4830445483411
 20
-2024.65191711866
 10
-825.3942804865555
 20
-2024.842579992776
 10
-824.286246424649
 20
-2024.991726630096
 10
-823.1636868465303
 20
-2025.098718155518
 10
-822.0314097856517
 20
-2025.163097224951
 10
-820.8942634466806
 20
-2025.184587074888
 10
-819.7571171077097
 20
-2025.163097224951
 10
-818.6248400468311
 20
-2025.098718155518
 10
-817.5022804687125
 20
-2024.991726630096
 10
-816.3942464068059
 20
-2024.842579992776
 10
-815.3054823450201
 20
-2024.65191711866
 10
-814.2406494613818
 20
-2024.4205553725
 10
-813.2043091644263
 20
-2024.149484145815
 10
-812.2008980685032
 20
-2023.839864856894
 10
-811.2347139997078
 20
-2023.493022872187
 10
-810.3098919590062
 20
-2023.110445035205
 10
-809.4303956434732
 20
-2022.69376716844
 10
-808.5999882233828
 20
-2022.244775451481
  0
LWPOLYLINE
  5
385A47
330
18
100
AcDbEntity
  8
姿図
100
AcDbPolyline
 90
       24
 70
   128
 43
0.0
 10
-809.5768286124517
 20
-2005.358730129366
 10
-810.5039902148359
 20
-2004.953826972114
 10
-811.4744968051453
 20
-2004.584320888457
 10
-812.4842974291572
 20
-2004.251752088219
 10
-813.529180694743
 20
-2003.957508570802
 10
-814.6047876958036
 20
-2003.702817143672
 10
-815.7066317686076
 20
-2003.488741141348
 10
-816.830115284671
 20
-2003.316172251749
 10
-817.9705530290929
 20
-2003.185831466621
 10
-819.1231870178023
 20
-2003.098262048396
 10
-820.2832092173466
 20
-2003.053829340112
 10
-821.4457806426818
 20
-2003.052718864557
 10
-822.6060511135056
 20
-2003.094934803599
 10
-823.7591809862296
 20
-2003.180301899028
 10
-824.9003595932226
 20
-2003.308463171539
 10
-826.0248263162365
 20
-2003.478884482772
 10
-827.1278910012862
 20
-2003.690854915477
 10
-828.2049517393478
 20
-2003.943490195042
 10
-829.2515165983349
 20
-2004.235736111022
 10
-830.2632187696134
 20
-2004.56637345934
 10
-831.2358371475237
 20
-2004.934023839882
 10
-832.1653155918056
 20
-2005.337153173057
 10
-833.0477777860069
 20
-2005.774078756702
 10
-833.6222981430554
 20
-2006.091411423955
  0
LWPOLYLINE
  5
385A48
330
18
100
AcDbEntity
  8
姿図
100
AcDbPolyline
 90
       38
 70
   128
 43
0.0
 10
-805.9223716078886
 20
-2004.106662053083
 10
-806.2188055399893
 20
-2003.654745643468
 10
-806.6680448469996
 20
-2003.078514898054
 10
-807.1850790062011
 20
-2002.521549439856
 10
-807.7674430855005
 20
-2001.986503233217
 10
-808.4123624722492
 20
-2001.475926171037
 10
-809.1167635334331
 20
-2000.992251077725
 10
-809.8772907789898
 20
-2000.537783801025
 10
-810.6903182216982
 20
-2000.114689050699
 10
-811.5519725908761
 20
-1999.724983840595
 10
-812.4581467913813
 20
-1999.370524396565
 10
-813.4045234877376
 20
-1999.05300090536
 10
-814.3865914854294
 20
-1998.773925776901
 10
-815.3996719903633
 20
-1998.534629129757
 10
-816.4389358956622
 20
-1998.336251092716
 10
-817.4994322637154
 20
-1998.179737527874
 10
-818.5761064361512
 20
-1998.065834138003
 10
-819.6638276927092
 20
-1997.995084185537
 10
-820.7574126295657
 20
-1997.967823360278
 10
-821.8516495254853
 20
-1997.984183200927
 10
-822.9413240250536
 20
-1998.044084632194
 10
-824.0212428462809
 20
-1998.147242526842
 10
-825.08626143947
 20
-1998.29316570568
 10
-826.1313020971929
 20
-1998.481158268158
 10
-827.1513862229694
 20
-1998.710324534576
 10
-828.1416530997853
 20
-1998.979572277524
 10
-829.0973819513355
 20
-1999.287618614508
 10
-830.0140191069839
 20
-1999.632995805544
 10
-830.8871966879623
 20
-2000.014057478432
 10
-831.7127542981834
 20
-2000.428987348897
 10
-832.4867560640768
 20
-2000.87580905748
 10
-833.2055135601707
 20
-2001.352393321479
 10
-833.8656032605236
 20
-2001.856468009447
 10
-834.4638789275887
 20
-2002.385631375843
 10
-834.9974886520563
 20
-2002.937361897929
 10
-835.4638899582168
 20
-2003.5090307976
 10
-835.8608605876288
 20
-2004.097912828704
 10
-835.9573791756247
 20
-2004.262121597564
  0
LWPOLYLINE
  5
385A49
330
18
100
AcDbEntity
  8
姿図
100
AcDbPolyline
 90
       37
 70
   128
 43
0.0
 10
-832.3525071974717
 20
-1999.99079030676
 10
-831.5438571001077
 20
-1999.55480742505
 10
-830.6855540639308
 20
-1999.151697813176
 10
-829.7815996523258
 20
-1998.783341172462
 10
-828.8362071507368
 20
-1998.451455822217
 10
-827.853786502461
 20
-1998.157587722331
 10
-826.8389173906435
 20
-1997.903107859613
 10
-825.7963311283019
 20
-1997.689202553463
 10
-824.7308897495386
 20
-1997.516868988878
 10
-823.6475596677601
 20
-1997.386910654421
 10
-822.5513925778878
 20
-1997.299933920684
 10
-821.4474994438473
 20
-1997.256343668349
 10
-820.3410274495141
 20
-1997.256343668349
 10
-819.2371343154736
 20
-1997.299933920684
 10
-818.1409672256013
 20
-1997.386910654421
 10
-817.0576371438228
 20
-1997.516868988878
 10
-815.9921957650594
 20
-1997.689202553463
 10
-814.9496095027179
 20
-1997.903107859613
 10
-813.9347403909004
 20
-1998.157587722331
 10
-812.9523197426246
 20
-1998.451455822217
 10
-812.0069272410356
 20
-1998.783341172462
 10
-811.1029728294307
 20
-1999.151697813176
 10
-810.2446697932537
 20
-1999.55480742505
 10
-809.4360196958897
 20
-1999.99079030676
 10
-808.6807933631914
 20
-2000.457614071345
 10
-807.982511374098
 20
-2000.953101867375
 10
-807.3444298196118
 20
-2001.474943641481
 10
-806.7695252385911
 20
-2002.020707115746
 10
-806.2604756022764
 20
-2002.587846484095
 10
-805.8196557868004
 20
-2003.173717951722
 10
-805.4491207802998
 20
-2003.775590189761
 10
-805.1505979450197
 20
-2004.390656405669
 10
-804.9254791147777
 20
-2005.016049550012
 10
-804.7748146680632
 20
-2005.648853341388
 10
-804.6993059547776
 20
-2006.286117283125
 10
-804.6993059547776
 20
-2006.92486996922
 10
-804.7045176760139
 20
-2007.003302009851
  0
LWPOLYLINE
  5
385A4A
330
18
100
AcDbEntity
  8
姿図
100
AcDbPolyline
 90
       14
 70
   128
 43
0.0
 10
-837.085187353472
 20
-2006.986977905151
 10
-837.0892209385838
 20
-2006.92486996922
 10
-837.0892209385838
 20
-2006.286117283125
 10
-837.013712225298
 20
-2005.648853341388
 10
-836.863047778584
 20
-2005.016049550012
 10
-836.6379289483415
 20
-2004.390656405669
 10
-836.3394061130616
 20
-2003.775590189761
 10
-835.968871106561
 20
-2003.173717951722
 10
-835.5280512910848
 20
-2002.587846484095
 10
-835.0190016547702
 20
-2002.020707115746
 10
-834.4440970737496
 20
-2001.474943641481
 10
-833.8060155192634
 20
-2000.953101867375
 10
-833.1077335301701
 20
-2000.457614071345
 10
-832.3525071974717
 20
-1999.99079030676
  0
LWPOLYLINE
  5
385A4B
330
18
100
AcDbEntity
  8
姿図
100
AcDbPolyline
 90
       60
 70
   128
 43
0.0
 10
-803.9303037764712
 20
-2009.393310529557
 10
-803.7117190248373
 20
-2008.968505538528
 10
-803.443290356483
 20
-2008.320738649807
 10
-803.2480575931017
 20
-2007.664299330976
 10
-803.1268386469728
 20
-2007.001941530999
 10
-803.0801425730006
 20
-2006.336442389184
 10
-803.108164958904
 20
-2005.670595011967
 10
-803.2107885837612
 20
-2005.007190604937
 10
-803.3875827594634
 20
-2004.349012009948
 10
-803.6378059648946
 20
-2003.698820779353
 10
-803.9604091386536
 20
-2003.059343109731
 10
-804.354039301049
 20
-2002.433261668231
 10
-804.8170438346378
 20
-2001.823201716391
 10
-805.3474813502099
 20
-2001.231722556306
 10
-805.9431287661436
 20
-2000.661305840428
 10
-806.6014865767582
 20
-2000.114343406122
 10
-807.3197916116168
 20
-1999.593128389209
 10
-808.0950338078292
 20
-1999.099848582878
 10
-808.9239600584242
 20
-1998.636572050636
 10
-809.803094874181
 20
-1998.205242801879
 10
-810.7287484919602
 20
-1997.807668507664
 10
-811.6970413849061
 20
-1997.445518516694
 10
-812.7039095102238
 20
-1997.120310181095
 10
-813.7451312683451
 20
-1996.833408500003
 10
-814.8163388628208
 20
-1996.586016520283
 10
-815.9130387152
 20
-1996.379171915001
 10
-817.0306322091843
 20
-1996.213742611472
 10
-818.1644311664209
 20
-1996.090421658974
 10
-819.3096802370178
 20
-1996.009727228743
 10
-820.4615753387892
 20
-1995.971997291598
 10
-821.615285389225
 20
-1995.977389998116
 10
-822.7659707447351
 20
-1996.025882918288
 10
-823.9088055911661
 20
-1996.117273041517
 10
-825.038996383043
 20
-1996.251176016288
 10
-826.1518029169987
 20
-1996.427031472531
 10
-827.2425580881044
 20
-1996.644100740613
 10
-828.3066846827578
 20
-1996.90147426464
 10
-829.339722049734
 20
-1997.198071792544
 10
-830.3373369661704
 20
-1997.532649409225
 10
-831.2953440524461
 20
-1997.90380371841
 10
-832.209725116928
 20
-1998.309978448106
 10
-833.0766443436518
 20
-1998.749470176903
 10
-833.8924671431605
 20
-1999.220434654299
 10
-834.6537716358724
 20
-1999.720896471258
 10
-835.3573631400614
 20
-2000.248757423947
 10
-836.0002909235818
 20
-2000.801803142945
 10
-836.5798591521725
 20
-2001.377713975597
 10
-837.0936368087818
 20
-2001.974073753677
 10
-837.5394691357806
 20
-2002.588380960874
 10
-837.9154848789484
 20
-2003.218060518047
 10
-838.2201084705503
 20
-2003.860470056028
 10
-838.4520603586079
 20
-2004.512915312492
 10
-838.6103698485149
 20
-2005.172659826279
 10
-838.694371151775
 20
-2005.836936342492
 10
-838.7037126056211
 20
-2006.502958977918
 10
-838.6383553559263
 20
-2007.167933865782
 10
-838.4985733572065
 20
-2007.829072081515
 10
-838.2849520555291
 20
-2008.483600287503
 10
-837.9983890470585
 20
-2009.128773278687
 10
-837.8482435334163
 20
-2009.411221842557
  0
LWPOLYLINE
  5
385A4C
330
18
100
AcDbEntity
  8
姿図
100
AcDbPolyline
 90
       35
 70
   128
 43
0.0
 10
-833.6221849601297
 20
-1998.708321097366
 10
-832.7805533897626
 20
-1998.252650607477
 10
-831.8900792196
 20
-1997.829045336828
 10
-830.9544196765664
 20
-1997.439247032681
 10
-829.9774219776777
 20
-1997.084856209274
 10
-828.9630987992578
 20
-1996.767330151923
 10
-827.9156188926773
 20
-1996.487972937582
 10
-826.8392871633849
 20
-1996.247933058768
 10
-825.7385254084802
 20
-1996.048196865644
 10
-824.6178578287326
 20
-1995.889584003982
 10
-823.4818896258867
 20
-1995.772747985413
 10
-822.3352879048707
 20
-1995.69816744353
 10
-821.1827645516386
 20
-1995.666149935581
 10
-820.0290564768366
 20
-1995.676825859758
 10
-818.8789025667437
 20
-1995.730152637058
 10
-817.7370311709282
 20
-1995.825909769085
 10
-816.6081331019205
 20
-1995.963705300925
 10
-815.496847805778
 20
-1996.142971639289
 10
-814.4077413008481
 20
-1996.362972965814
 10
-813.3452903726952
 20
-1996.622805237067
 10
-812.3138585372299
 20
-1996.921400176325
 10
-811.3176858332662
 20
-1997.257531166205
 10
-810.3608661027383
 20
-1997.629817240445
 10
-809.4473287984074
 20
-1998.036727503376
 10
-808.5808312459629
 20
-1998.47659167963
 10
-807.7649313144293
 20
-1998.947600684396
 10
-807.0029816538944
 20
-1999.447819073975
 10
-806.298116030719
 20
-1999.975192934297
 10
-805.6532277601982
 20
-2000.527553207411
 10
-805.0709687187481
 20
-2001.102631468524
 10
-804.5537310692933
 20
-2001.698064392993
 10
-804.1036396056898
 20
-2002.311404258509
 10
-803.722544838004
 20
-2002.940132060958
 10
-803.412012785076
 20
-2003.581663407042
 10
-803.3185218554559
 20
-2003.81322474227
  0
ARC
  5
385A4D
330
18
100
AcDbEntity
  8
姿図
100
AcDbCircle
 10
-828.94816866396
 20
-2007.985814788598
 30
0.0
 40
10.38837415227738
100
AcDbArc
 50
116.7390392205569
 51
157.153829781396
  0
LINE
  5
385A4E
330
18
100
AcDbEntity
  8
姿図
100
AcDbLine
 10
-810.7983360669381
 20
-1991.966264282235
 30
0.0
 11
-811.2353578916009
 21
-1992.340295810391
 31
0.0
  0
LINE
  5
385A4F
330
18
100
AcDbEntity
  8
姿図
100
AcDbLine
 10
-830.5531690017611
 20
-1992.340295810391
 30
0.0
 11
-830.9901908264233
 21
-1991.966264282235
 31
0.0
  0
LINE
  5
385A50
330
18
100
AcDbEntity
  8
姿図
100
AcDbLine
 10
-803.3151731566327
 20
-1998.58392560667
 30
0.0
 11
-804.0823386543065
 21
-1998.670011602911
 31
0.0
  0
LINE
  5
385A51
330
18
100
AcDbEntity
  8
姿図
100
AcDbLine
 10
-837.7061882390549
 20
-1998.670011602911
 30
0.0
 11
-838.4733537367287
 21
-1998.58392560667
 31
0.0
  0
TEXT
  5
385CA0
330
18
100
AcDbEntity
  8
文字
100
AcDbText
 10
-844.0623403053619
 20
-2049.693189472254
 30
0.0
 40
6.5
  1
MSP-080F/FLF
 41
0.7
100
AcDbText
  0
ENDSEC
  0
SECTION
  2
OBJECTS
  0
DICTIONARY
  5
C
330
0
100
AcDbDictionary
281
     1
  3
ACAD_DETAILVIEWSTYLE
350
385F61
  3
ACAD_GROUP
350
D
  3
ACAD_IMAGE_VARS
350
2F1759
  3
ACAD_LAYOUT
350
353
  3
ACAD_MLINESTYLE
350
E
  3
ACAD_PLOTSETTINGS
350
354
  3
ACAD_PLOTSTYLENAME
350
351
  3
ACAD_SCALELIST
350
CD53
  3
ACAD_SECTIONVIEWSTYLE
350
385F62
  3
AcadDim
350
5182D
  3
AcDbVariableDictionary
350
E0D
  3
AEC_DISP_REPS
350
37B348
  3
AEC_DISPLAY_PROPS_DEFAULTS
350
37B34A
  3
AEC_VARS
350
37B346
  3
APPDATA
350
2F1758
  3
DWGPROPS
350
385F63
  0
DICTIONARY
  5
37C82F
330
8
100
AcDbDictionary
280
     1
281
     1
  0
DICTIONARY
  5
559E
330
2
100
AcDbDictionary
280
     1
281
     1
  3
ACAD_LAYERFILTERS
360
29A509
  3
ACAD_LAYERSTATES
360
559F
  3
ACLYDICTIONARY
360
29A508
  0
DICTIONARY
  5
CD7F
330
F
100
AcDbDictionary
280
     1
281
     1
  3
ADSK_XREC_LAYER_RECONCILED
360
CD80
  0
DICTIONARY
  5
CD8D
330
2F4
100
AcDbDictionary
280
     1
281
     1
  3
ADSK_XREC_LAYER_RECONCILED
360
CD8E
  0
DICTIONARY
  5
D25F
330
18
100
AcDbDictionary
280
     1
281
     1
  3
ACAD_SORTENTS
360
D260
  0
DICTIONARY
  5
385F61
102
{ACAD_REACTORS
330
C
102
}
330
C
100
AcDbDictionary
281
     1
  0
DICTIONARY
  5
D
102
{ACAD_REACTORS
330
C
102
}
330
C
100
AcDbDictionary
281
     1
  3
*A1
350
2F2740
  3
*A10
350
2F2743
  3
*A11
350
2F274A
  3
*A12
350
2F2744
  3
*A13
350
2F2746
  3
*A14
350
2F2749
  3
*A15
350
2F2758
  3
*A16
350
2F274B
  3
*A17
350
2F273F
  3
*A18
350
2F2745
  3
*A19
350
2F2739
  3
*A2
350
2F274C
  3
*A20
350
2F2756
  3
*A21
350
2F2748
  3
*A22
350
2F273B
  3
*A23
350
2F2757
  3
*A24
350
2F2754
  3
*A25
350
2F274E
  3
*A26
350
2F2752
  3
*A27
350
2F2750
  3
*A28
350
2F273C
  3
*A29
350
2F273A
  3
*A3
350
2F275A
  3
*A30
350
2F2753
  3
*A31
350
2F274F
  3
*A32
350
2F274D
  3
*A33
350
2F2747
  3
*A34
350
2F273D
  3
*A4
350
2F2759
  3
*A5
350
2F273E
  3
*A6
350
2F2741
  3
*A7
350
2F2751
  3
*A8
350
2F2742
  3
*A9
350
2F2755
  0
RASTERVARIABLES
  5
2F1759
102
{ACAD_REACTORS
330
C
102
}
330
C
100
AcDbRasterVariables
 90
        0
 70
     1
 71
     1
 72
     0
  0
DICTIONARY
  5
353
102
{ACAD_REACTORS
330
C
102
}
330
C
100
AcDbDictionary
281
     1
  3
Model
350
355
  3
ﾚｲｱｳﾄ1
350
356
  0
DICTIONARY
  5
E
102
{ACAD_REACTORS
330
C
102
}
330
C
100
AcDbDictionary
281
     1
  3
STANDARD
350
1B
  0
DICTIONARY
  5
354
102
{ACAD_REACTORS
330
C
102
}
330
C
100
AcDbDictionary
281
     1
  0
ACDBDICTIONARYWDFLT
  5
351
102
{ACAD_REACTORS
330
C
102
}
330
C
100
AcDbDictionary
281
     1
  3
Normal
350
352
100
AcDbDictionaryWithDefault
340
352
  0
DICTIONARY
  5
CD53
102
{ACAD_REACTORS
330
C
102
}
330
C
100
AcDbDictionary
281
     1
  3
A0
350
CD54
  3
A1
350
35DF8
  3
A2
350
35DF9
  3
A3
350
35DFA
  3
A4
350
35DFB
  3
A5
350
35DFC
  3
A6
350
35DFD
  3
A7
350
35DFE
  3
A8
350
35DFF
  3
A9
350
35E00
  3
B0
350
35E01
  3
B1
350
35E02
  3
B2
350
35E03
  3
B3
350
35E04
  3
B4
350
35E05
  3
B5
350
35E06
  3
B6
350
35E07
  3
B7
350
35E08
  3
B8
350
35E09
  3
B9
350
35E0A
  3
C0
350
35E0B
  3
C1
350
35E0C
  3
C2
350
35E0D
  3
C3
350
35E0E
  3
C4
350
35E0F
  3
C5
350
35E10
  3
C6
350
35E11
  3
C7
350
35E12
  3
C8
350
35E13
  3
C9
350
35E14
  3
D0
350
35E15
  3
D1
350
35E16
  3
D2
350
35E17
  0
DICTIONARY
  5
385F62
102
{ACAD_REACTORS
330
C
102
}
330
C
100
AcDbDictionary
281
     1
  0
XRECORD
  5
5182D
102
{ACAD_REACTORS
330
C
102
}
330
C
100
AcDbXrecord
280
     1
 90
   990106
  3
OPEN30
 60
     0
 61
     0
 62
     4
 63
     4
 64
     1
 65
     0
 66
     0
 67
     3
 68
     1
 69
     0
 70
     0
 71
     0
 72
     0
 40
0.0
170
     0
340
0
  0
DICTIONARY
  5
E0D
102
{ACAD_REACTORS
330
C
102
}
330
C
100
AcDbDictionary
281
     1
  3
DIMASSOC
350
E0E
  3
INDEXCTL
350
D04A
  3
PROJECTNAME
350
E0F
  3
SORTENTS
350
D049
  0
DICTIONARY
  5
37B348
102
{ACAD_REACTORS
330
C
102
}
330
C
100
AcDbDictionary
281
     1
  0
DICTIONARY
  5
37B34A
102
{ACAD_REACTORS
330
C
102
}
330
C
100
AcDbDictionary
281
     1
  0
DICTIONARY
  5
37B346
102
{ACAD_REACTORS
330
C
102
}
330
C
100
AcDbDictionary
281
     1
  0
DICTIONARY
  5
2F1758
102
{ACAD_REACTORS
330
C
102
}
330
C
100
AcDbDictionary
281
     1
  0
XRECORD
  5
385F63
102
{ACAD_REACTORS
330
C
102
}
330
C
100
AcDbXrecord
280
     1
  1
DWGPROPS COOKIE
  2

  3

  4

  6

  7

  8
ModuleX
  9

300
=
301
=
302
=
303
=
304
=
305
=
306
=
307
=
308
=
309
=
 40
0.0
 41
2448636.244629607
 42
2457907.442725834
  1

 90
        0
  0
DICTIONARY
  5
29A509
102
{ACAD_REACTORS
330
559E
102
}
330
559E
100
AcDbDictionary
281
     1
  0
DICTIONARY
  5
559F
102
{ACAD_REACTORS
330
559E
102
}
330
559E
100
AcDbDictionary
281
     1
  0
DICTIONARY
  5
29A508
102
{ACAD_REACTORS
330
559E
102
}
330
559E
100
AcDbDictionary
281
     1
1001
ACAD
1000
<All
  0
XRECORD
  5
CD80
102
{ACAD_REACTORS
330
CD7F
102
}
330
CD7F
100
AcDbXrecord
280
     1
290
     1
  0
XRECORD
  5
CD8E
102
{ACAD_REACTORS
330
CD8D
102
}
330
CD8D
100
AcDbXrecord
280
     1
290
     1
  0
SORTENTSTABLE
  5
D260
102
{ACAD_REACTORS
330
D25F
102
}
330
D25F
100
AcDbSortentsTable
330
18
331
8182F
  5
2FEC53
331
3073B9
  5
307455
  0
GROUP
  5
2F2740
102
{ACAD_REACTORS
330
D
102
}
330
D
100
AcDbGroup
300

 70
     0
 71
     1
  0
GROUP
  5
2F2743
102
{ACAD_REACTORS
330
D
102
}
330
D
100
AcDbGroup
300

 70
     0
 71
     1
  0
GROUP
  5
2F274A
102
{ACAD_REACTORS
330
D
102
}
330
D
100
AcDbGroup
300

 70
     0
 71
     1
  0
GROUP
  5
2F2744
102
{ACAD_REACTORS
330
D
102
}
330
D
100
AcDbGroup
300

 70
     0
 71
     1
  0
GROUP
  5
2F2746
102
{ACAD_REACTORS
330
D
102
}
330
D
100
AcDbGroup
300

 70
     0
 71
     1
  0
GROUP
  5
2F2749
102
{ACAD_REACTORS
330
D
102
}
330
D
100
AcDbGroup
300

 70
     0
 71
     1
  0
GROUP
  5
2F2758
102
{ACAD_REACTORS
330
D
102
}
330
D
100
AcDbGroup
300

 70
     0
 71
     1
  0
GROUP
  5
2F274B
102
{ACAD_REACTORS
330
D
102
}
330
D
100
AcDbGroup
300

 70
     0
 71
     1
  0
GROUP
  5
2F273F
102
{ACAD_REACTORS
330
D
102
}
330
D
100
AcDbGroup
300

 70
     0
 71
     1
  0
GROUP
  5
2F2745
102
{ACAD_REACTORS
330
D
102
}
330
D
100
AcDbGroup
300

 70
     0
 71
     1
  0
GROUP
  5
2F2739
102
{ACAD_REACTORS
330
D
102
}
330
D
100
AcDbGroup
300

 70
     0
 71
     1
  0
GROUP
  5
2F274C
102
{ACAD_REACTORS
330
D
102
}
330
D
100
AcDbGroup
300

 70
     0
 71
     1
  0
GROUP
  5
2F2756
102
{ACAD_REACTORS
330
D
102
}
330
D
100
AcDbGroup
300

 70
     0
 71
     1
  0
GROUP
  5
2F2748
102
{ACAD_REACTORS
330
D
102
}
330
D
100
AcDbGroup
300

 70
     0
 71
     1
  0
GROUP
  5
2F273B
102
{ACAD_REACTORS
330
D
102
}
330
D
100
AcDbGroup
300

 70
     0
 71
     1
  0
GROUP
  5
2F2757
102
{ACAD_REACTORS
330
D
102
}
330
D
100
AcDbGroup
300

 70
     0
 71
     1
  0
GROUP
  5
2F2754
102
{ACAD_REACTORS
330
D
102
}
330
D
100
AcDbGroup
300

 70
     0
 71
     1
  0
GROUP
  5
2F274E
102
{ACAD_REACTORS
330
D
102
}
330
D
100
AcDbGroup
300

 70
     0
 71
     1
  0
GROUP
  5
2F2752
102
{ACAD_REACTORS
330
D
102
}
330
D
100
AcDbGroup
300

 70
     0
 71
     1
  0
GROUP
  5
2F2750
102
{ACAD_REACTORS
330
D
102
}
330
D
100
AcDbGroup
300

 70
     0
 71
     1
  0
GROUP
  5
2F273C
102
{ACAD_REACTORS
330
D
102
}
330
D
100
AcDbGroup
300

 70
     0
 71
     1
  0
GROUP
  5
2F273A
102
{ACAD_REACTORS
330
D
102
}
330
D
100
AcDbGroup
300

 70
     0
 71
     1
  0
GROUP
  5
2F275A
102
{ACAD_REACTORS
330
D
102
}
330
D
100
AcDbGroup
300

 70
     0
 71
     1
  0
GROUP
  5
2F2753
102
{ACAD_REACTORS
330
D
102
}
330
D
100
AcDbGroup
300

 70
     0
 71
     1
  0
GROUP
  5
2F274F
102
{ACAD_REACTORS
330
D
102
}
330
D
100
AcDbGroup
300

 70
     0
 71
     1
  0
GROUP
  5
2F274D
102
{ACAD_REACTORS
330
D
102
}
330
D
100
AcDbGroup
300

 70
     0
 71
     1
  0
GROUP
  5
2F2747
102
{ACAD_REACTORS
330
D
102
}
330
D
100
AcDbGroup
300

 70
     0
 71
     1
  0
GROUP
  5
2F273D
102
{ACAD_REACTORS
330
D
102
}
330
D
100
AcDbGroup
300

 70
     0
 71
     1
  0
GROUP
  5
2F2759
102
{ACAD_REACTORS
330
D
102
}
330
D
100
AcDbGroup
300

 70
     0
 71
     1
  0
GROUP
  5
2F273E
102
{ACAD_REACTORS
330
D
102
}
330
D
100
AcDbGroup
300

 70
     0
 71
     1
  0
GROUP
  5
2F2741
102
{ACAD_REACTORS
330
D
102
}
330
D
100
AcDbGroup
300

 70
     0
 71
     1
  0
GROUP
  5
2F2751
102
{ACAD_REACTORS
330
D
102
}
330
D
100
AcDbGroup
300

 70
     0
 71
     1
  0
GROUP
  5
2F2742
102
{ACAD_REACTORS
330
D
102
}
330
D
100
AcDbGroup
300

 70
     0
 71
     1
  0
GROUP
  5
2F2755
102
{ACAD_REACTORS
330
D
102
}
330
D
100
AcDbGroup
300

 70
     0
 71
     1
  0
LAYOUT
  5
355
102
{ACAD_REACTORS
330
353
102
}
330
353
100
AcDbPlotSettings
  1

  2
JUST PDF 3
  4
A4
  6

 40
3.174999952316284
 41
3.174999952316284
 42
3.175003051757812
 43
3.17498779296875
 44
209.8886566162109
 45
297.0530090332031
 46
14.27171682183785
 47
9.855173015017613
 48
-862.8141920844818
 49
-2459.350664950474
140
-512.8237521475596
141
-1917.365314434707
142
1.0
143
2.0
 70
  3748
 72
     1
 73
     0
 74
     4
  7
spax form.ctb
 75
     0
147
0.547045008312821
148
862.8141920844818
149
2459.350664950474
100
AcDbLayout
  1
Model
 70
     1
 71
     0
 10
0.0
 20
0.0
 11
12.0
 21
9.0
 12
0.0
 22
0.0
 32
0.0
 14
-844.0623403053619
 24
-2049.693189472254
 34
0.0
 15
-790.9790069720286
 25
-1971.875553770067
 35
0.0
146
0.0
 13
0.0
 23
0.0
 33
0.0
 16
1.0
 26
0.0
 36
0.0
 17
0.0
 27
1.0
 37
0.0
 76
     0
330
18
331
3523F0
1001
ACAD_PSEXT
1000
JUST PDF 3
1000
JUST PDF 3
1000
JUST PDF 3 Port:
1000

1070
     0
  0
LAYOUT
  5
356
102
{ACAD_REACTORS
330
353
102
}
330
353
100
AcDbPlotSettings
  1

  2
Canon LASER SHOT LBP-750
  4

  6

 40
0.0
 41
0.0
 42
0.0
 43
0.0
 44
0.0
 45
0.0
 46
0.0
 47
0.0
 48
0.0
 49
0.0
140
0.0
141
0.0
142
1.0
143
1.0
 70
   688
 72
     0
 73
     0
 74
     5
  7
spax form.ctb
 75
    16
147
1.0
148
0.0
149
0.0
100
AcDbLayout
  1
ﾚｲｱｳﾄ1
 70
     0
 71
     1
 10
0.0
 20
0.0
 11
12.0
 21
9.0
 12
0.0
 22
0.0
 32
0.0
 14
1.000000000000000E+20
 24
1.000000000000000E+20
 34
1.000000000000000E+20
 15
-1.000000000000000E+20
 25
-1.000000000000000E+20
 35
-1.000000000000000E+20
146
0.0
 13
0.0
 23
0.0
 33
0.0
 16
1.0
 26
0.0
 36
0.0
 17
0.0
 27
1.0
 37
0.0
 76
     0
330
15
  0
MLINESTYLE
  5
1B
102
{ACAD_REACTORS
330
E
102
}
330
E
100
AcDbMlineStyle
  2
STANDARD
 70
     0
  3

 62
     0
 51
90.0
 52
90.0
 71
     2
 49
0.5
 62
   256
  6
BYLAYER
 49
-0.5
 62
   256
  6
BYLAYER
  0
ACDBPLACEHOLDER
  5
352
102
{ACAD_REACTORS
330
351
102
}
330
351
  0
SCALE
  5
CD54
102
{ACAD_REACTORS
330
CD53
102
}
330
CD53
100
AcDbScale
 70
     0
300
1:1
140
1.0
141
1.0
290
     1
1001
ACAD
1000
AcRTDxfName
1000
SCALE
1000
AcRTDxfName
1000
SCALE
  0
SCALE
  5
35DF8
102
{ACAD_REACTORS
330
CD53
102
}
330
CD53
100
AcDbScale
 70
     0
300
1:2
140
1.0
141
2.0
290
     0
1001
ACAD
1000
AcRTDxfName
1000
SCALE
1000
AcRTDxfName
1000
SCALE
  0
SCALE
  5
35DF9
102
{ACAD_REACTORS
330
CD53
102
}
330
CD53
100
AcDbScale
 70
     0
300
1:4
140
1.0
141
4.0
290
     0
1001
ACAD
1000
AcRTDxfName
1000
SCALE
1000
AcRTDxfName
1000
SCALE
  0
SCALE
  5
35DFA
102
{ACAD_REACTORS
330
CD53
102
}
330
CD53
100
AcDbScale
 70
     0
300
1:5
140
1.0
141
5.0
290
     0
1001
ACAD
1000
AcRTDxfName
1000
SCALE
1000
AcRTDxfName
1000
SCALE
  0
SCALE
  5
35DFB
102
{ACAD_REACTORS
330
CD53
102
}
330
CD53
100
AcDbScale
 70
     0
300
1:8
140
1.0
141
8.0
290
     0
1001
ACAD
1000
AcRTDxfName
1000
SCALE
1000
AcRTDxfName
1000
SCALE
  0
SCALE
  5
35DFC
102
{ACAD_REACTORS
330
CD53
102
}
330
CD53
100
AcDbScale
 70
     0
300
1:10
140
1.0
141
10.0
290
     0
1001
ACAD
1000
AcRTDxfName
1000
SCALE
1000
AcRTDxfName
1000
SCALE
  0
SCALE
  5
35DFD
102
{ACAD_REACTORS
330
CD53
102
}
330
CD53
100
AcDbScale
 70
     0
300
1:16
140
1.0
141
16.0
290
     0
1001
ACAD
1000
AcRTDxfName
1000
SCALE
1000
AcRTDxfName
1000
SCALE
  0
SCALE
  5
35DFE
102
{ACAD_REACTORS
330
CD53
102
}
330
CD53
100
AcDbScale
 70
     0
300
1:20
140
1.0
141
20.0
290
     0
1001
ACAD
1000
AcRTDxfName
1000
SCALE
1000
AcRTDxfName
1000
SCALE
  0
SCALE
  5
35DFF
102
{ACAD_REACTORS
330
CD53
102
}
330
CD53
100
AcDbScale
 70
     0
300
1:30
140
1.0
141
30.0
290
     0
1001
ACAD
1000
AcRTDxfName
1000
SCALE
1000
AcRTDxfName
1000
SCALE
  0
SCALE
  5
35E00
102
{ACAD_REACTORS
330
CD53
102
}
330
CD53
100
AcDbScale
 70
     0
300
1:40
140
1.0
141
40.0
290
     0
1001
ACAD
1000
AcRTDxfName
1000
SCALE
1000
AcRTDxfName
1000
SCALE
  0
SCALE
  5
35E01
102
{ACAD_REACTORS
330
CD53
102
}
330
CD53
100
AcDbScale
 70
     0
300
1:50
140
1.0
141
50.0
290
     0
1001
ACAD
1000
AcRTDxfName
1000
SCALE
1000
AcRTDxfName
1000
SCALE
  0
SCALE
  5
35E02
102
{ACAD_REACTORS
330
CD53
102
}
330
CD53
100
AcDbScale
 70
     0
300
1:100
140
1.0
141
100.0
290
     0
1001
ACAD
1000
AcRTDxfName
1000
SCALE
1000
AcRTDxfName
1000
SCALE
  0
SCALE
  5
35E03
102
{ACAD_REACTORS
330
CD53
102
}
330
CD53
100
AcDbScale
 70
     0
300
2:1
140
2.0
141
1.0
290
     0
1001
ACAD
1000
AcRTDxfName
1000
SCALE
1000
AcRTDxfName
1000
SCALE
  0
SCALE
  5
35E04
102
{ACAD_REACTORS
330
CD53
102
}
330
CD53
100
AcDbScale
 70
     0
300
4:1
140
4.0
141
1.0
290
     0
1001
ACAD
1000
AcRTDxfName
1000
SCALE
1000
AcRTDxfName
1000
SCALE
  0
SCALE
  5
35E05
102
{ACAD_REACTORS
330
CD53
102
}
330
CD53
100
AcDbScale
 70
     0
300
8:1
140
8.0
141
1.0
290
     0
1001
ACAD
1000
AcRTDxfName
1000
SCALE
1000
AcRTDxfName
1000
SCALE
  0
SCALE
  5
35E06
102
{ACAD_REACTORS
330
CD53
102
}
330
CD53
100
AcDbScale
 70
     0
300
10:1
140
10.0
141
1.0
290
     0
1001
ACAD
1000
AcRTDxfName
1000
SCALE
1000
AcRTDxfName
1000
SCALE
  0
SCALE
  5
35E07
102
{ACAD_REACTORS
330
CD53
102
}
330
CD53
100
AcDbScale
 70
     0
300
100:1
140
100.0
141
1.0
290
     0
1001
ACAD
1000
AcRTDxfName
1000
SCALE
1000
AcRTDxfName
1000
SCALE
  0
SCALE
  5
35E08
102
{ACAD_REACTORS
330
CD53
102
}
330
CD53
100
AcDbScale
 70
     0
300
1/128" = 1'-0"
140
0.0078125
141
12.0
290
     0
1001
ACAD
1000
AcRTDxfName
1000
SCALE
1000
AcRTDxfName
1000
SCALE
  0
SCALE
  5
35E09
102
{ACAD_REACTORS
330
CD53
102
}
330
CD53
100
AcDbScale
 70
     0
300
1/64" = 1'-0"
140
0.015625
141
12.0
290
     0
1001
ACAD
1000
AcRTDxfName
1000
SCALE
1000
AcRTDxfName
1000
SCALE
  0
SCALE
  5
35E0A
102
{ACAD_REACTORS
330
CD53
102
}
330
CD53
100
AcDbScale
 70
     0
300
1/32" = 1'-0"
140
0.03125
141
12.0
290
     0
1001
ACAD
1000
AcRTDxfName
1000
SCALE
1000
AcRTDxfName
1000
SCALE
  0
SCALE
  5
35E0B
102
{ACAD_REACTORS
330
CD53
102
}
330
CD53
100
AcDbScale
 70
     0
300
1/16" = 1'-0"
140
0.0625
141
12.0
290
     0
1001
ACAD
1000
AcRTDxfName
1000
SCALE
1000
AcRTDxfName
1000
SCALE
  0
SCALE
  5
35E0C
102
{ACAD_REACTORS
330
CD53
102
}
330
CD53
100
AcDbScale
 70
     0
300
3/32" = 1'-0"
140
0.09375
141
12.0
290
     0
1001
ACAD
1000
AcRTDxfName
1000
SCALE
1000
AcRTDxfName
1000
SCALE
  0
SCALE
  5
35E0D
102
{ACAD_REACTORS
330
CD53
102
}
330
CD53
100
AcDbScale
 70
     0
300
1/8" = 1'-0"
140
0.125
141
12.0
290
     0
1001
ACAD
1000
AcRTDxfName
1000
SCALE
1000
AcRTDxfName
1000
SCALE
  0
SCALE
  5
35E0E
102
{ACAD_REACTORS
330
CD53
102
}
330
CD53
100
AcDbScale
 70
     0
300
3/16" = 1'-0"
140
0.1875
141
12.0
290
     0
1001
ACAD
1000
AcRTDxfName
1000
SCALE
1000
AcRTDxfName
1000
SCALE
  0
SCALE
  5
35E0F
102
{ACAD_REACTORS
330
CD53
102
}
330
CD53
100
AcDbScale
 70
     0
300
1/4" = 1'-0"
140
0.25
141
12.0
290
     0
1001
ACAD
1000
AcRTDxfName
1000
SCALE
1000
AcRTDxfName
1000
SCALE
  0
SCALE
  5
35E10
102
{ACAD_REACTORS
330
CD53
102
}
330
CD53
100
AcDbScale
 70
     0
300
3/8" = 1'-0"
140
0.375
141
12.0
290
     0
1001
ACAD
1000
AcRTDxfName
1000
SCALE
1000
AcRTDxfName
1000
SCALE
  0
SCALE
  5
35E11
102
{ACAD_REACTORS
330
CD53
102
}
330
CD53
100
AcDbScale
 70
     0
300
1/2" = 1'-0"
140
0.5
141
12.0
290
     0
1001
ACAD
1000
AcRTDxfName
1000
SCALE
1000
AcRTDxfName
1000
SCALE
  0
SCALE
  5
35E12
102
{ACAD_REACTORS
330
CD53
102
}
330
CD53
100
AcDbScale
 70
     0
300
3/4" = 1'-0"
140
0.75
141
12.0
290
     0
1001
ACAD
1000
AcRTDxfName
1000
SCALE
1000
AcRTDxfName
1000
SCALE
  0
SCALE
  5
35E13
102
{ACAD_REACTORS
330
CD53
102
}
330
CD53
100
AcDbScale
 70
     0
300
1" = 1'-0"
140
1.0
141
12.0
290
     0
1001
ACAD
1000
AcRTDxfName
1000
SCALE
1000
AcRTDxfName
1000
SCALE
  0
SCALE
  5
35E14
102
{ACAD_REACTORS
330
CD53
102
}
330
CD53
100
AcDbScale
 70
     0
300
1-1/2" = 1'-0"
140
1.5
141
12.0
290
     0
1001
ACAD
1000
AcRTDxfName
1000
SCALE
1000
AcRTDxfName
1000
SCALE
  0
SCALE
  5
35E15
102
{ACAD_REACTORS
330
CD53
102
}
330
CD53
100
AcDbScale
 70
     0
300
3" = 1'-0"
140
3.0
141
12.0
290
     0
1001
ACAD
1000
AcRTDxfName
1000
SCALE
1000
AcRTDxfName
1000
SCALE
  0
SCALE
  5
35E16
102
{ACAD_REACTORS
330
CD53
102
}
330
CD53
100
AcDbScale
 70
     0
300
6" = 1'-0"
140
6.0
141
12.0
290
     0
1001
ACAD
1000
AcRTDxfName
1000
SCALE
1000
AcRTDxfName
1000
SCALE
  0
SCALE
  5
35E17
102
{ACAD_REACTORS
330
CD53
102
}
330
CD53
100
AcDbScale
 70
     0
300
1'-0" = 1'-0"
140
12.0
141
12.0
290
     0
1001
ACAD
1000
AcRTDxfName
1000
SCALE
1000
AcRTDxfName
1000
SCALE
  0
DICTIONARYVAR
  5
E0E
102
{ACAD_REACTORS
330
E0D
102
}
330
E0D
100
DictionaryVariables
280
     0
  1
1
  0
DICTIONARYVAR
  5
D04A
102
{ACAD_REACTORS
330
E0D
102
}
330
E0D
100
DictionaryVariables
280
     0
  1
0
  0
DICTIONARYVAR
  5
E0F
102
{ACAD_REACTORS
330
E0D
102
}
330
E0D
100
DictionaryVariables
280
     0
  1

  0
DICTIONARYVAR
  5
D049
102
{ACAD_REACTORS
330
E0D
102
}
330
E0D
100
DictionaryVariables
280
     0
  1
127
  0
ENDSEC
  0
EOF
