  0
SECTION
  2
HEADER
  9
$ACADVER
  1
AC1015
  9
$ACADMAINTVER
 70
     6
  9
$DWGCODEPAGE
  3
ANSI_932
  9
$INSBASE
 10
0.0
 20
0.0
 30
0.0
  9
$EXTMIN
 10
3121.798122251769
 20
-18457.10150063668
 30
0.0
  9
$EXTMAX
 10
3212.798122251769
 20
-18337.74458665447
 30
0.0000000000000047
  9
$LIMMIN
 10
0.0
 20
0.0
  9
$LIMMAX
 10
420.0
 20
297.0
  9
$ORTHOMODE
 70
     0
  9
$REGENMODE
 70
     1
  9
$FILLMODE
 70
     1
  9
$QTEXTMODE
 70
     0
  9
$MIRRTEXT
 70
     1
  9
$LTSCALE
 40
5.0
  9
$ATTMODE
 70
     0
  9
$TEXTSIZE
 40
3.5
  9
$TRACEWID
 40
1.0
  9
$TEXTSTYLE
  7
STANDARD
  9
$CLAYER
  8
0
  9
$CELTYPE
  6
BYLAYER
  9
$CECOLOR
 62
   256
  9
$CELTSCALE
 40
1.0
  9
$DISPSILH
 70
     0
  9
$DIMSCALE
 40
1.0
  9
$DIMASZ
 40
3.5
  9
$DIMEXO
 40
1.0
  9
$DIMDLI
 40
3.0
  9
$DIMRND
 40
0.0
  9
$DIMDLE
 40
0.0
  9
$DIMEXE
 40
1.0
  9
$DIMTP
 40
0.0
  9
$DIMTM
 40
0.0
  9
$DIMTXT
 40
2.5
  9
$DIMCEN
 40
0.0
  9
$DIMTSZ
 40
0.0
  9
$DIMTOL
 70
     0
  9
$DIMLIM
 70
     0
  9
$DIMTIH
 70
     0
  9
$DIMTOH
 70
     0
  9
$DIMSE1
 70
     0
  9
$DIMSE2
 70
     0
  9
$DIMTAD
 70
     3
  9
$DIMZIN
 70
     8
  9
$DIMBLK
  1

  9
$DIMASO
 70
     1
  9
$DIMSHO
 70
     0
  9
$DIMPOST
  1

  9
$DIMAPOST
  1

  9
$DIMALT
 70
     0
  9
$DIMALTD
 70
     0
  9
$DIMALTF
 40
25.4
  9
$DIMLFAC
 40
1.0
  9
$DIMTOFL
 70
     0
  9
$DIMTVP
 40
0.0
  9
$DIMTIX
 70
     0
  9
$DIMSOXD
 70
     0
  9
$DIMSAH
 70
     1
  9
$DIMBLK1
  1
OPEN
  9
$DIMBLK2
  1
OPEN
  9
$DIMSTYLE
  2
ｺﾋﾟｰ - STANDARD
  9
$DIMCLRD
 70
     8
  9
$DIMCLRE
 70
     8
  9
$DIMCLRT
 70
   256
  9
$DIMTFAC
 40
1.0
  9
$DIMGAP
 40
1.0
  9
$DIMJUST
 70
     0
  9
$DIMSD1
 70
     0
  9
$DIMSD2
 70
     0
  9
$DIMTOLJ
 70
     1
  9
$DIMTZIN
 70
     0
  9
$DIMALTZ
 70
     0
  9
$DIMALTTZ
 70
     0
  9
$DIMUPT
 70
     0
  9
$DIMDEC
 70
     2
  9
$DIMTDEC
 70
     2
  9
$DIMALTU
 70
     2
  9
$DIMALTTD
 70
     0
  9
$DIMTXSTY
  7
STANDARD
  9
$DIMAUNIT
 70
     0
  9
$DIMADEC
 70
     2
  9
$DIMALTRND
 40
0.0
  9
$DIMAZIN
 70
     2
  9
$DIMDSEP
 70
    46
  9
$DIMATFIT
 70
     3
  9
$DIMFRAC
 70
     0
  9
$DIMLDRBLK
  1
OPEN
  9
$DIMLUNIT
 70
     2
  9
$DIMLWD
 70
    -2
  9
$DIMLWE
 70
    -2
  9
$DIMTMOVE
 70
     0
  9
$LUNITS
 70
     2
  9
$LUPREC
 70
     2
  9
$SKETCHINC
 40
0.1
  9
$FILLETRAD
 40
1.6
  9
$AUNITS
 70
     0
  9
$AUPREC
 70
     1
  9
$MENU
  1
FM
  9
$ELEVATION
 40
0.0
  9
$PELEVATION
 40
0.0
  9
$THICKNESS
 40
0.0
  9
$LIMCHECK
 70
     0
  9
$CHAMFERA
 40
0.0
  9
$CHAMFERB
 40
0.0
  9
$CHAMFERC
 40
0.0
  9
$CHAMFERD
 40
0.0
  9
$SKPOLY
 70
     0
  9
$TDCREATE
 40
2448636.619629618
  9
$TDUCREATE
 40
2448636.244629618
  9
$TDUPDATE
 40
2458075.709792755
  9
$TDUUPDATE
 40
2458075.334792755
  9
$TDINDWG
 40
96.5820964815
  9
$TDUSRTIMER
 40
2458075.333732014
  9
$USRTIMER
 70
     1
  9
$ANGBASE
 50
0.0
  9
$ANGDIR
 70
     0
  9
$PDMODE
 70
     3
  9
$PDSIZE
 40
0.0
  9
$PLINEWID
 40
0.0
  9
$SPLFRAME
 70
     0
  9
$SPLINETYPE
 70
     6
  9
$SPLINESEGS
 70
     8
  9
$HANDSEED
  5
2F5C84
  9
$SURFTAB1
 70
     6
  9
$SURFTAB2
 70
     6
  9
$SURFTYPE
 70
     6
  9
$SURFU
 70
     6
  9
$SURFV
 70
     6
  9
$UCSBASE
  2

  9
$UCSNAME
  2

  9
$UCSORG
 10
0.0
 20
0.0
 30
0.0
  9
$UCSXDIR
 10
1.0
 20
0.0
 30
0.0
  9
$UCSYDIR
 10
0.0
 20
1.0
 30
0.0
  9
$UCSORTHOREF
  2

  9
$UCSORTHOVIEW
 70
     0
  9
$UCSORGTOP
 10
0.0
 20
0.0
 30
0.0
  9
$UCSORGBOTTOM
 10
0.0
 20
0.0
 30
0.0
  9
$UCSORGLEFT
 10
0.0
 20
0.0
 30
0.0
  9
$UCSORGRIGHT
 10
0.0
 20
0.0
 30
0.0
  9
$UCSORGFRONT
 10
0.0
 20
0.0
 30
0.0
  9
$UCSORGBACK
 10
0.0
 20
0.0
 30
0.0
  9
$PUCSBASE
  2

  9
$PUCSNAME
  2

  9
$PUCSORG
 10
0.0
 20
0.0
 30
0.0
  9
$PUCSXDIR
 10
1.0
 20
0.0
 30
0.0
  9
$PUCSYDIR
 10
0.0
 20
1.0
 30
0.0
  9
$PUCSORTHOREF
  2

  9
$PUCSORTHOVIEW
 70
     0
  9
$PUCSORGTOP
 10
0.0
 20
0.0
 30
0.0
  9
$PUCSORGBOTTOM
 10
0.0
 20
0.0
 30
0.0
  9
$PUCSORGLEFT
 10
0.0
 20
0.0
 30
0.0
  9
$PUCSORGRIGHT
 10
0.0
 20
0.0
 30
0.0
  9
$PUCSORGFRONT
 10
0.0
 20
0.0
 30
0.0
  9
$PUCSORGBACK
 10
0.0
 20
0.0
 30
0.0
  9
$USERI1
 70
     0
  9
$USERI2
 70
     0
  9
$USERI3
 70
     0
  9
$USERI4
 70
     0
  9
$USERI5
 70
     0
  9
$USERR1
 40
0.0
  9
$USERR2
 40
0.0
  9
$USERR3
 40
0.0
  9
$USERR4
 40
0.0
  9
$USERR5
 40
0.0
  9
$WORLDVIEW
 70
     0
  9
$SHADEDGE
 70
     3
  9
$SHADEDIF
 70
    70
  9
$TILEMODE
 70
     1
  9
$MAXACTVP
 70
    16
  9
$PINSBASE
 10
0.0
 20
0.0
 30
0.0
  9
$PLIMCHECK
 70
     0
  9
$PEXTMIN
 10
1.049999952316284
 20
0.7999999523162842
 30
0.0
  9
$PEXTMAX
 10
9.44999957084656
 20
7.199999570846558
 30
0.0
  9
$PLIMMIN
 10
-0.2500002402958907
 20
-0.2499999962453767
  9
$PLIMMAX
 10
10.74999951940822
 20
8.249999763458733
  9
$UNITMODE
 70
     0
  9
$VISRETAIN
 70
     0
  9
$PLINEGEN
 70
     0
  9
$PSLTSCALE
 70
     0
  9
$TREEDEPTH
 70
  3020
  9
$CMLSTYLE
  2
STANDARD
  9
$CMLJUST
 70
     0
  9
$CMLSCALE
 40
1.0
  9
$PROXYGRAPHICS
 70
     1
  9
$MEASUREMENT
 70
     0
  9
$CELWEIGHT
370
    -1
  9
$ENDCAPS
280
     0
  9
$JOINSTYLE
280
     0
  9
$LWDISPLAY
290
     0
  9
$INSUNITS
 70
     0
  9
$HYPERLINKBASE
  1

  9
$STYLESHEET
  1
spax form.ctb
  9
$XEDIT
290
     1
  9
$CEPSNTYPE
380
     0
  9
$PSTYLEMODE
290
     1
  9
$FINGERPRINTGUID
  2
{BBAEEBA6-8B94-11D3-9160-00E0294F7E09}
  9
$VERSIONGUID
  2
{510505AD-EEA6-494E-8977-C88E4EE5215C}
  9
$EXTNAMES
290
     1
  9
$PSVPSCALE
 40
0.0
  9
$OLESTARTUP
290
     0
  0
ENDSEC
  0
SECTION
  2
CLASSES
  0
CLASS
  1
LWPOLYLINE
  2
AcDbPolyline
  3
ObjectDBX Classes
 90
        0
280
     0
281
     1
  0
CLASS
  1
ACDBDICTIONARYWDFLT
  2
AcDbDictionaryWithDefault
  3
ObjectDBX Classes
 90
        0
280
     0
281
     0
  0
CLASS
  1
ACDBPLACEHOLDER
  2
AcDbPlaceHolder
  3
ObjectDBX Classes
 90
        0
280
     0
281
     0
  0
CLASS
  1
LAYOUT
  2
AcDbLayout
  3
ObjectDBX Classes
 90
        0
280
     0
281
     0
  0
CLASS
  1
DICTIONARYVAR
  2
AcDbDictionaryVar
  3
ObjectDBX Classes
 90
        0
280
     0
281
     0
  0
CLASS
  1
MATERIAL
  2
AcDbMaterial
  3
ObjectDBX Classes
 90
     1153
280
     0
281
     0
  0
CLASS
  1
VISUALSTYLE
  2
AcDbVisualStyle
  3
ObjectDBX Classes
 90
     4095
280
     0
281
     0
  0
CLASS
  1
TABLESTYLE
  2
AcDbTableStyle
  3
ObjectDBX Classes
 90
     4095
280
     0
281
     0
  0
CLASS
  1
SCALE
  2
AcDbScale
  3
ObjectDBX Classes
 90
     1153
280
     0
281
     0
  0
CLASS
  1
MLEADERSTYLE
  2
AcDbMLeaderStyle
  3
ACDB_MLEADERSTYLE_CLASS
 90
     4095
280
     0
281
     0
  0
CLASS
  1
CELLSTYLEMAP
  2
AcDbCellStyleMap
  3
ObjectDBX Classes
 90
     1152
280
     0
281
     0
  0
CLASS
  1
SORTENTSTABLE
  2
AcDbSortentsTable
  3
ObjectDBX Classes
 90
        0
280
     0
281
     0
  0
CLASS
  1
DIMASSOC
  2
AcDbDimAssoc
  3
"AcDbDimAssoc|Product Desc:     AcDim ARX App For Dimension|Company:          Autodesk, Inc.|WEB Address:      www.autodesk.com"
 90
        0
280
     0
281
     0
  0
CLASS
  1
ACDB_RADIMOBJECTCONTEXTDATA_CLASS
  2
AcDbRadialDimensionObjectContextData
  3
ObjectDBX Classes
 90
     1153
280
     0
281
     0
  0
CLASS
  1
ACDB_DMDIMOBJECTCONTEXTDATA_CLASS
  2
AcDbDiametricDimensionObjectContextData
  3
ObjectDBX Classes
 90
     1153
280
     0
281
     0
  0
CLASS
  1
MULTILEADER
  2
AcDbMLeader
  3
ACDB_MLEADER_CLASS
 90
     1025
280
     0
281
     1
  0
CLASS
  1
AEC_VARS_DWG_SETUP
  2
AecDbVarsDwgSetup
  3
AecBase60
 90
      129
280
     0
281
     0
  0
CLASS
  1
AEC_DISP_REP_2D_SECTION
  2
AecDbDispRep2dSection
  3
AecBase60
 90
      129
280
     0
281
     0
  0
CLASS
  1
AEC_DISP_PROPS_2D_SECTION
  2
AecDbDispProps2dSection
  3
AecBase60
 90
      129
280
     0
281
     0
  0
CLASS
  1
AEC_DISP_REP_CLIP_VOLUME_MODEL
  2
AecDbDispRepClipVolModel
  3
AecBase60
 90
      129
280
     0
281
     0
  0
CLASS
  1
AEC_DISP_PROPS_CLIP_VOLUME
  2
AecDbDispPropsClipVol
  3
AecBase60
 90
      129
280
     0
281
     0
  0
CLASS
  1
AEC_DISP_REP_CLIP_VOLUME_PLAN
  2
AecDbDispRepClipVolPlan
  3
AecBase60
 90
      129
280
     0
281
     0
  0
CLASS
  1
AEC_DISP_REP_CLIP_VOLUME_RESULT
  2
AecDbDispRepClipVolResult
  3
AecBase60
 90
      129
280
     0
281
     0
  0
CLASS
  1
AEC_DISP_REP_CLIP_VOLUME_RESULT_SUBDIV
  2
AecDbDispRepClipVolResSubDiv
  3
AecBase60
 90
      129
280
     0
281
     0
  0
CLASS
  1
AEC_DISP_PROPS_CLIP_VOLUME_RESULT
  2
AecDbDispPropsClipVolResSubDiv
  3
AecBase60
 90
      129
280
     0
281
     0
  0
CLASS
  1
AEC_DISP_REP_DISPLAYTHEME
  2
AecDbDispRepDisplayTheme
  3
AecBase60
 90
      129
280
     0
281
     0
  0
CLASS
  1
AEC_DISP_PROPS_DISPLAYTHEME
  2
AecDbDispPropsDisplayTheme
  3
AecBase60
 90
      129
280
     0
281
     0
  0
CLASS
  1
AEC_DISP_REP_ENT_REF
  2
AecDbDispRepEntRef
  3
AecBase60
 90
      129
280
     0
281
     0
  0
CLASS
  1
AEC_DISP_PROPS_ENT_REF
  2
AecDbDispPropsEntRef
  3
AecBase60
 90
      129
280
     0
281
     0
  0
CLASS
  1
AEC_DISP_REP_LAYOUT_CURVE
  2
AecDbDispRepLayoutCurve
  3
AecBase60
 90
      129
280
     0
281
     0
  0
CLASS
  1
AEC_DISP_PROPS_LAYOUT_CURVE
  2
AecDbDispPropsLayoutCurve
  3
AecBase60
 90
      129
280
     0
281
     0
  0
CLASS
  1
AEC_DISP_REP_LAYOUT_GRID2D
  2
AecDbDispRepLayoutGrid2d
  3
AecBase60
 90
      129
280
     0
281
     0
  0
CLASS
  1
AEC_DISP_PROPS_LAYOUT_GRID2D
  2
AecDbDispPropsLayoutGrid2d
  3
AecBase60
 90
      129
280
     0
281
     0
  0
CLASS
  1
AEC_DISP_REP_LAYOUT_GRID3D
  2
AecDbDispRepLayoutGrid3d
  3
AecBase60
 90
      129
280
     0
281
     0
  0
CLASS
  1
AEC_DISP_PROPS_LAYOUT_GRID3D
  2
AecDbDispPropsLayoutGrid3d
  3
AecBase60
 90
      129
280
     0
281
     0
  0
CLASS
  1
AEC_DISP_REP_MASKBLOCK_REF
  2
AecDbDispRepMaskBlockRef
  3
AecBase60
 90
      129
280
     0
281
     0
  0
CLASS
  1
AEC_DISP_PROPS_MASKBLOCK
  2
AecDbDispPropsMaskBlock
  3
AecBase60
 90
      129
280
     0
281
     0
  0
CLASS
  1
AEC_DISP_REP_MASKBLOCK_REF_RCP
  2
AecDbDispRepMaskBlockRefRcp
  3
AecArchBase60
 90
      129
280
     0
281
     0
  0
CLASS
  1
AEC_DISP_REP_MASS_ELEM_MODEL
  2
AecDbDispRepMassElemModel
  3
AecBase60
 90
      129
280
     0
281
     0
  0
CLASS
  1
AEC_DISP_PROPS_MASS_ELEM_MODEL
  2
AecDbDispPropsMassElem
  3
AecBase60
 90
      129
280
     0
281
     0
  0
CLASS
  1
AEC_DISP_REP_MASS_ELEM_SCHEM
  2
AecDbDispRepMassElemSchem
  3
AecBase60
 90
      129
280
     0
281
     0
  0
CLASS
  1
AEC_DISPREPAECDBDISPREPMASSELEMPLAN50
  2
AecDbDispRepMassElemPlan50
  3
AecArchDACHBase60
 90
      129
280
     0
281
     0
  0
CLASS
  1
AEC_DISPROPSMASSELEMPLANCOMMON
  2
AecDbDispPropsMassElemPlanCommon
  3
AecArchDACHBase60
 90
      129
280
     0
281
     0
  0
CLASS
  1
AEC_DISPREPAECDBDISPREPMASSELEMPLAN100
  2
AecDbDispRepMassElemPlan100
  3
AecArchDACHBase60
 90
      129
280
     0
281
     0
  0
CLASS
  1
AEC_DISP_REP_MASS_ELEM_RCP
  2
AecDbDispRepMassElemRcp
  3
AecArchBase60
 90
      129
280
     0
281
     0
  0
CLASS
  1
AEC_DISP_REP_MASS_GROUP_MODEL
  2
AecDbDispRepMassGroupModel
  3
AecBase60
 90
      129
280
     0
281
     0
  0
CLASS
  1
AEC_DISP_PROPS_MASS_GROUP
  2
AecDbDispPropsMassGroup
  3
AecBase60
 90
      129
280
     0
281
     0
  0
CLASS
  1
AEC_DISP_REP_MASS_GROUP_PLAN
  2
AecDbDispRepMassGroupPlan
  3
AecBase60
 90
      129
280
     0
281
     0
  0
CLASS
  1
AEC_DISPREPAECDBDISPREPMASSGROUPPLAN50
  2
AecDbDispRepMassGroupPlan50
  3
AecArchDACHBase60
 90
      129
280
     0
281
     0
  0
CLASS
  1
AEC_DISPROPSMASSGROUPPLANCOMMON
  2
AecDbDispPropsMassGroupPlanCommon
  3
AecArchDACHBase60
 90
      129
280
     0
281
     0
  0
CLASS
  1
AEC_DISPREPAECDBDISPREPMASSGROUPPLAN100
  2
AecDbDispRepMassGroupPlan100
  3
AecArchDACHBase60
 90
      129
280
     0
281
     0
  0
CLASS
  1
AEC_DISP_REP_MASS_GROUP_RCP
  2
AecDbDispRepMassGroupRcp
  3
AecArchBase60
 90
      129
280
     0
281
     0
  0
CLASS
  1
AEC_DISP_REP_MVBLOCK_REF
  2
AecDbDispRepMvBlockRef
  3
AecBase60
 90
      129
280
     0
281
     0
  0
CLASS
  1
AEC_DISP_REP_MVBLOCK_REF_MODEL
  2
AecDbDispRepMvBlockRefModel
  3
AecBase60
 90
      129
280
     0
281
     0
  0
CLASS
  1
AEC_AECDBDISPREPMVBLOCKREFPLAN100
  2
AecDbDispRepMvBlockRefPlan100
  3
AecBase60
 90
      129
280
     0
281
     0
  0
CLASS
  1
AEC_AECDBDISPREPMVBLOCKREFPLAN50
  2
AecDbDispRepMvBlockRefPlan50
  3
AecBase60
 90
      129
280
     0
281
     0
  0
CLASS
  1
AEC_DISP_REP_POLYGON_MODEL
  2
AecDbDispRepPolygonModel
  3
AecBase60
 90
      129
280
     0
281
     0
  0
CLASS
  1
AEC_DISP_PROPS_POLYGON_MODEL
  2
AecDbDispPropsPolygonModel
  3
AecBase60
 90
      129
280
     0
281
     0
  0
CLASS
  1
AEC_DISP_REP_POLYGON_TRUECOLOUR
  2
AecDbDispRepPolygonTrueColour
  3
AecBase60
 90
      129
280
     0
281
     0
  0
CLASS
  1
AEC_DISP_PROPS_POLYGON_TRUECOLOUR
  2
AecDbDispPropsPolygonTrueColour
  3
AecBase60
 90
      129
280
     0
281
     0
  0
CLASS
  1
AEC_DISP_REP_SLICE
  2
AecDbDispRepSlice
  3
AecBase60
 90
      129
280
     0
281
     0
  0
CLASS
  1
AEC_DISP_PROPS_SLICE
  2
AecDbDispPropsSlice
  3
AecBase60
 90
      129
280
     0
281
     0
  0
CLASS
  1
AEC_DISP_REP_ANCHOR
  2
AecDbDispRepAnchor
  3
AecBase60
 90
      129
280
     0
281
     0
  0
CLASS
  1
AEC_DISP_REP_ANCHOR_ENT_TO_NODE
  2
AecDbDispRepAnchorEntToNode
  3
AecBase60
 90
      129
280
     0
281
     0
  0
CLASS
  1
AEC_DISP_PROPS_ENT
  2
AecDbDispPropsEnt
  3
AecBase60
 90
      129
280
     0
281
     0
  0
CLASS
  1
AEC_DISP_REP_MATERIAL
  2
AecDbDispRepMaterial
  3
AecBase60
 90
      129
280
     0
281
     0
  0
CLASS
  1
AEC_DISP_PROPS_MATERIAL
  2
AecDbDispPropsMaterial
  3
AecBase60
 90
      129
280
     0
281
     0
  0
CLASS
  1
AEC_DISP_REP_EDITINPLACEPROFILE
  2
AecDbDispRepEditInPlaceProfile
  3
AecBase60
 90
      129
280
     0
281
     0
  0
CLASS
  1
AEC_DISP_PROPS_EDITINPLACEPROFILE_MODEL
  2
AecDbDispPropsEditInPlaceProfile
  3
AecBase60
 90
      129
280
     0
281
     0
  0
CLASS
  1
SUN
  2
AcDbSun
  3
SCENEOE
 90
     1153
280
     0
281
     0
  0
CLASS
  1
RASTERVARIABLES
  2
AcDbRasterVariables
  3
ISM
 90
        0
280
     0
281
     0
  0
ENDSEC
  0
SECTION
  2
TABLES
  0
TABLE
  2
VPORT
  5
8
102
{ACAD_XDICTIONARY
360
2F02D7
102
}
330
0
100
AcDbSymbolTable
 70
     1
  0
VPORT
  5
163677
330
8
100
AcDbSymbolTableRecord
100
AcDbViewportTableRecord
  2
*Active
 70
     0
 10
0.0
 20
0.0
 11
1.0
 21
1.0
 12
3167.298122251769
 22
-18397.42304364558
 13
0.0
 23
0.0
 14
1.0
 24
1.0
 15
20.0
 25
20.0
 16
0.0
 26
0.0
 36
1.0
 17
0.0
 27
0.0
 37
0.0
 40
121.7440522618619
 41
2.237265415549598
 42
50.0
 43
0.0
 44
0.0
 50
0.0
 51
0.0
 71
    16
 72
   100
 73
     1
 74
     0
 75
     0
 76
     0
 77
     0
 78
     1
281
     0
 65
     1
110
0.0
120
0.0
130
0.0
111
1.0
121
0.0
131
0.0
112
0.0
122
1.0
132
0.0
 79
     0
146
0.0
  0
ENDTAB
  0
TABLE
  2
LTYPE
  5
5
330
0
100
AcDbSymbolTable
 70
     1
  0
LTYPE
  5
12
330
5
100
AcDbSymbolTableRecord
100
AcDbLinetypeTableRecord
  2
BYBLOCK
 70
     0
  3

 72
    65
 73
     0
 40
0.0
  0
LTYPE
  5
13
330
5
100
AcDbSymbolTableRecord
100
AcDbLinetypeTableRecord
  2
BYLAYER
 70
     0
  3

 72
    65
 73
     0
 40
0.0
  0
LTYPE
  5
14
330
5
100
AcDbSymbolTableRecord
100
AcDbLinetypeTableRecord
  2
CONTINUOUS
 70
     0
  3
Solid line
 72
    65
 73
     0
 40
0.0
  0
ENDTAB
  0
TABLE
  2
LAYER
  5
2
102
{ACAD_XDICTIONARY
360
67DE7
102
}
330
0
100
AcDbSymbolTable
 70
     4
  0
LAYER
  5
F
102
{ACAD_XDICTIONARY
360
66C5B
102
}
330
2
100
AcDbSymbolTableRecord
100
AcDbLayerTableRecord
  2
0
 70
     0
 62
     7
  6
CONTINUOUS
370
    -3
390
616
  0
LAYER
  5
36
330
2
100
AcDbSymbolTableRecord
100
AcDbLayerTableRecord
  2
DEFPOINTS
 70
     0
 62
     7
  6
CONTINUOUS
290
     0
370
    -3
390
616
  0
LAYER
  5
280
102
{ACAD_XDICTIONARY
360
66C61
102
}
330
2
100
AcDbSymbolTableRecord
100
AcDbLayerTableRecord
  2
実線
 70
     0
 62
     4
  6
CONTINUOUS
370
    -3
390
616
  0
LAYER
  5
2F4
102
{ACAD_XDICTIONARY
360
66C67
102
}
330
2
100
AcDbSymbolTableRecord
100
AcDbLayerTableRecord
  2
文字
 70
     0
 62
     7
  6
CONTINUOUS
370
    -3
390
616
  0
ENDTAB
  0
TABLE
  2
STYLE
  5
3
330
0
100
AcDbSymbolTable
 70
     1
  0
STYLE
  5
10
330
3
100
AcDbSymbolTableRecord
100
AcDbTextStyleTableRecord
  2
STANDARD
 70
     0
 40
0.0
 41
1.0
 50
0.0
 71
     0
 42
3.5
  3
MONOTXT
  4
BIGFONT
  0
ENDTAB
  0
TABLE
  2
VIEW
  5
6
330
0
100
AcDbSymbolTable
 70
     0
  0
ENDTAB
  0
TABLE
  2
UCS
  5
7
330
0
100
AcDbSymbolTable
 70
     0
  0
ENDTAB
  0
TABLE
  2
APPID
  5
9
330
0
100
AcDbSymbolTable
 70
    23
  0
APPID
  5
11
330
9
100
AcDbSymbolTableRecord
100
AcDbRegAppTableRecord
  2
ACAD
 70
     0
  0
APPID
  5
66C55
330
9
100
AcDbSymbolTableRecord
100
AcDbRegAppTableRecord
  2
ACAD_MLEADERVER
 70
     0
  0
APPID
  5
66CC8
330
9
100
AcDbSymbolTableRecord
100
AcDbRegAppTableRecord
  2
ACAD_PSEXT
 70
     0
  0
APPID
  5
67DE4
330
9
100
AcDbSymbolTableRecord
100
AcDbRegAppTableRecord
  2
ACAD_DSTYLE_DIMJAG
 70
     0
  0
APPID
  5
67DE5
330
9
100
AcDbSymbolTableRecord
100
AcDbRegAppTableRecord
  2
ACAD_DSTYLE_DIMBREAK
 70
     0
  0
APPID
  5
67DE6
330
9
100
AcDbSymbolTableRecord
100
AcDbRegAppTableRecord
  2
ACAD_DSTYLE_DIMTALN
 70
     0
  0
APPID
  5
68101
330
9
100
AcDbSymbolTableRecord
100
AcDbRegAppTableRecord
  2
ACAD_EXEMPT_FROM_CAD_STANDARDS
 70
     0
  0
APPID
  5
74C21
330
9
100
AcDbSymbolTableRecord
100
AcDbRegAppTableRecord
  2
ACAD_DSTYLE_DIMRADIAL_EXTENSION
 70
     0
  0
APPID
  5
86ADD
330
9
100
AcDbSymbolTableRecord
100
AcDbRegAppTableRecord
  2
AcAecLayerStandard
 70
     0
  0
APPID
  5
86ADE
330
9
100
AcDbSymbolTableRecord
100
AcDbRegAppTableRecord
  2
AcadAnnotative
 70
     0
  0
APPID
  5
86ADF
330
9
100
AcDbSymbolTableRecord
100
AcDbRegAppTableRecord
  2
AcadAnnotativeDecomposition
 70
     0
  0
APPID
  5
16E922
330
9
100
AcDbSymbolTableRecord
100
AcDbRegAppTableRecord
  2
ASK_MEN_XD
 70
     0
  0
APPID
  5
1A9AA5
330
9
100
AcDbSymbolTableRecord
100
AcDbRegAppTableRecord
  2
GENIUS_GENODEF_13
 70
     0
  0
APPID
  5
1A9AA6
330
9
100
AcDbSymbolTableRecord
100
AcDbRegAppTableRecord
  2
GENIUS_GENREC_14
 70
     0
  0
APPID
  5
1A9AA7
330
9
100
AcDbSymbolTableRecord
100
AcDbRegAppTableRecord
  2
GENIUS_GENOBJ-N-REC_13
 70
     0
  0
APPID
  5
25EB3A
330
9
100
AcDbSymbolTableRecord
100
AcDbRegAppTableRecord
  2
ACAD_NAV_VCDISPLAY
 70
     0
  0
APPID
  5
2DCF1B
330
9
100
AcDbSymbolTableRecord
100
AcDbRegAppTableRecord
  2
AcadStringInfo
 70
     0
  0
APPID
  5
2DCF1C
330
9
100
AcDbSymbolTableRecord
100
AcDbRegAppTableRecord
  2
RAK
 70
     0
  0
APPID
  5
2ED1BB
330
9
100
AcDbSymbolTableRecord
100
AcDbRegAppTableRecord
  2
AECBASE
 70
     0
  0
APPID
  5
2ED1BC
330
9
100
AcDbSymbolTableRecord
100
AcDbRegAppTableRecord
  2
AEC_2DSECTION_XDATA
 70
     0
  0
APPID
  5
2ED1BD
330
9
100
AcDbSymbolTableRecord
100
AcDbRegAppTableRecord
  2
AEC_MASSGROUP_XDADA
 70
     0
  0
APPID
  5
2EE65C
330
9
100
AcDbSymbolTableRecord
100
AcDbRegAppTableRecord
  2
ACAD_SPLINE_DATA
 70
     0
  0
APPID
  5
2EE65D
330
9
100
AcDbSymbolTableRecord
100
AcDbRegAppTableRecord
  2
ACAD_SPLINE_DATA2
 70
     0
  0
ENDTAB
  0
TABLE
  2
DIMSTYLE
  5
A
330
0
100
AcDbSymbolTable
 70
     2
100
AcDbDimStyleTable
  0
DIMSTYLE
105
1CC
330
A
100
AcDbSymbolTableRecord
100
AcDbDimStyleTableRecord
  2
STANDARD
 70
     0
 41
1.5
 42
1.5
 44
1.0
 73
     0
 74
     0
 77
     3
 78
     8
 79
     2
140
2.500000000000002
141
0.0
147
1.0
171
     0
173
     1
176
     8
177
     8
178
     0
179
     2
271
     2
272
     2
274
     0
340
10
341
608
343
608
344
608
1001
ACAD_DSTYLE_DIMJAG
1070
   388
1040
1.5
1001
ACAD_DSTYLE_DIMTALN
1070
   392
1070
     0
  0
DIMSTYLE
105
1E3941
330
A
100
AcDbSymbolTableRecord
100
AcDbDimStyleTableRecord
  2
ｺﾋﾟｰ - STANDARD
 70
     0
 41
3.5
 42
1.0
 43
3.0
 44
1.0
 73
     0
 74
     0
 77
     3
 78
     8
 79
     2
140
2.5
141
0.0
147
1.0
171
     0
173
     1
176
     8
177
     8
271
     2
178
   256
179
     2
271
     2
272
     2
274
     0
340
10
341
608
343
608
344
608
1001
ACAD_DSTYLE_DIMJAG
1070
   388
1040
1.5
1001
ACAD_DSTYLE_DIMTALN
1070
   392
1070
     0
  0
ENDTAB
  0
TABLE
  2
BLOCK_RECORD
  5
1
330
0
100
AcDbSymbolTable
 70
     1
  0
BLOCK_RECORD
  5
18
102
{ACAD_XDICTIONARY
360
845D5
102
}
330
1
100
AcDbSymbolTableRecord
100
AcDbBlockTableRecord
  2
*MODEL_SPACE
340
619
  0
BLOCK_RECORD
  5
15
330
1
100
AcDbSymbolTableRecord
100
AcDbBlockTableRecord
  2
*PAPER_SPACE
340
61A
  0
BLOCK_RECORD
  5
608
330
1
100
AcDbSymbolTableRecord
100
AcDbBlockTableRecord
  2
_OPEN
340
0
  0
ENDTAB
  0
ENDSEC
  0
SECTION
  2
BLOCKS
  0
BLOCK
  5
39
330
18
100
AcDbEntity
  8
0
100
AcDbBlockBegin
  2
*MODEL_SPACE
 70
     0
 10
0.0
 20
0.0
 30
0.0
  3
*MODEL_SPACE
  1
*MODEL_SPACE
  0
ENDBLK
  5
3A
330
18
100
AcDbEntity
  8
0
100
AcDbBlockEnd
  0
BLOCK
  5
37
330
15
100
AcDbEntity
 67
     1
  8
0
100
AcDbBlockBegin
  2
*PAPER_SPACE
 70
     0
 10
0.0
 20
0.0
 30
0.0
  3
*PAPER_SPACE
  1
*PAPER_SPACE
  0
ENDBLK
  5
38
330
15
100
AcDbEntity
 67
     1
  8
0
100
AcDbBlockEnd
  0
BLOCK
  5
609
330
608
100
AcDbEntity
  8
0
100
AcDbBlockBegin
  2
_OPEN
 70
     0
 10
0.0
 20
0.0
 30
0.0
  3
_OPEN
  1
_OPEN
  0
LINE
  5
60A
330
608
100
AcDbEntity
  8
0
  6
ByBlock
 62
     0
100
AcDbLine
 10
-1.0
 20
0.1666666666666666
 30
0.0
 11
0.0
 21
0.0
 31
0.0
  0
LINE
  5
60B
330
608
100
AcDbEntity
  8
0
  6
ByBlock
 62
     0
100
AcDbLine
 10
0.0
 20
0.0
 30
0.0
 11
-1.0
 21
-0.1666666666666666
 31
0.0
  0
LINE
  5
60C
330
608
100
AcDbEntity
  8
0
  6
ByBlock
 62
     0
100
AcDbLine
 10
0.0
 20
0.0
 30
0.0
 11
-1.0
 21
0.0
 31
0.0
  0
ENDBLK
  5
60D
330
608
100
AcDbEntity
  8
0
100
AcDbBlockEnd
  0
ENDSEC
  0
SECTION
  2
ENTITIES
  0
TEXT
  5
11B04
330
18
100
AcDbEntity
  8
文字
100
AcDbText
 10
-1240.183388714458
 20
-1416.837204555437
 30
0.0
 40
6.75
  1

 41
1.022799999999999
100
AcDbText
  0
MTEXT
  5
12B3E
330
18
100
AcDbEntity
  8
0
100
AcDbMText
 10
-974.1891318600246
 20
-2072.131137572738
 30
0.0
 40
2.500000000000002
 41
0.0
 71
     9
 72
     1
  1
\A1;
 73
     1
 44
1.0
  0
LINE
  5
2F5754
330
18
100
AcDbEntity
  8
0
 62
     8
100
AcDbLine
 10
3198.219643423981
 20
-18426.50713709653
 30
0.0000000000000047
 11
3198.231672644702
 21
-18426.45595471333
 31
0.0000000000000047
  0
SPLINE
  5
2F5755
330
18
100
AcDbEntity
  8
0
 62
     8
100
AcDbSpline
210
0.0
220
0.0
230
1.0
 70
     8
 71
     3
 72
    61
 73
    57
 74
     0
 42
0.000000001
 43
0.0000000001
 40
0.0
 40
0.0
 40
0.0
 40
0.0
 40
0.002199897546932
 40
0.0205306131583821
 40
0.0390702190309216
 40
0.0578471044631308
 40
0.0768282366628384
 40
0.0959498591789814
 40
0.1151487183145585
 40
0.134377599008035
 40
0.153603641249219
 40
0.1728130994847885
 40
0.1920015281230165
 40
0.2111684814342409
 40
0.2303153509787226
 40
0.2494442549488093
 40
0.2685575464407672
 40
0.2876573155879814
 40
0.3067457298196394
 40
0.3258243763973164
 40
0.3448949160877755
 40
0.363958633669242
 40
0.3830167112326967
 40
0.4020702506197434
 40
0.4211200181770476
 40
0.4401668951232508
 40
0.4592115969347474
 40
0.4782548078896893
 40
0.497297068033906
 40
0.5163391554188751
 40
0.5353814543523345
 40
0.5544244413346207
 40
0.5734688121236503
 40
0.5925152013769366
 40
0.61156433032263
 40
0.6306168388465193
 40
0.6496737242598865
 40
0.6687358400045837
 40
0.6878042334317584
 40
0.7068802979934337
 40
0.7259652447849007
 40
0.7450608655094771
 40
0.7641690164664485
 40
0.7832917927328412
 40
0.8024316191239289
 40
0.8215910380216705
 40
0.8407724328562061
 40
0.8599774656070923
 40
0.8792060335371973
 40
0.8984543015928728
 40
0.9177092032786816
 40
0.9369379020869539
 40
0.9560919630938036
 40
0.975104115810949
 40
0.9939047658698987
 40
1.0
 40
1.0
 40
1.0
 40
1.0
 10
3125.305963038534
 20
-18426.32320148837
 30
0.0000000000000047
 10
3125.312475896474
 20
-18426.35252244748
 30
0.0000000000000047
 10
3125.373257348372
 20
-18426.62616122199
 30
0.0000000000000047
 10
3125.596490308418
 20
-18427.13712368605
 30
0.0000000000000047
 10
3125.982123740721
 20
-18427.85364314281
 30
0.0000000000000047
 10
3126.493112508649
 20
-18428.56066755221
 30
0.0000000000000047
 10
3127.114460396784
 20
-18429.25720107371
 30
0.0000000000000047
 10
3127.848450947062
 20
-18429.93995377101
 30
0.0000000000000047
 10
3128.690949715619
 20
-18430.60606963103
 30
0.0000000000000047
 10
3129.638507359832
 20
-18431.25281540172
 30
0.0000000000000047
 10
3130.686998395594
 20
-18431.8781017891
 30
0.0000000000000047
 10
3131.832397958914
 20
-18432.48015059721
 30
0.0000000000000047
 10
3133.070737865641
 20
-18433.05747486885
 30
0.0000000000000047
 10
3134.39801097994
 20
-18433.60871312456
 30
0.0000000000000047
 10
3135.810039836849
 20
-18434.13251331813
 30
0.0000000000000047
 10
3137.302468797313
 20
-18434.6276152853
 30
0.0000000000000047
 10
3138.870712498205
 20
-18435.09268287946
 30
0.0000000000000047
 10
3140.509959070982
 20
-18435.52653216334
 30
0.0000000000000047
 10
3142.215173047665
 20
-18435.92796578745
 30
0.0000000000000047
 10
3143.981108559764
 20
-18436.29585352855
 30
0.0000000000000047
 10
3145.802311456761
 20
-18436.62921575813
 30
0.0000000000000047
 10
3147.673154699109
 20
-18436.92702938598
 30
0.0000000000000047
 10
3149.587837271865
 20
-18437.18847598213
 30
0.0000000000000047
 10
3151.540412889716
 20
-18437.41278927298
 30
0.0000000000000047
 10
3153.524810201354
 20
-18437.59928369756
 30
0.0000000000000047
 10
3155.534837186043
 20
-18437.74742603124
 30
0.0000000000000047
 10
3157.564232817511
 20
-18437.8567762646
 30
0.0000000000000047
 10
3159.606655358313
 20
-18437.92702232063
 30
0.0000000000000047
 10
3161.65572970071
 20
-18437.9579217076
 30
0.0000000000000047
 10
3163.705047742598
 20
-18437.94940002595
 30
0.0000000000000047
 10
3165.748200675967
 20
-18437.90149202691
 30
0.0000000000000047
 10
3167.778793752284
 20
-18437.8143185993
 30
0.0000000000000047
 10
3169.790484707461
 20
-18437.68817061586
 30
0.0000000000000047
 10
3171.776997612068
 20
-18437.52339986033
 30
0.0000000000000047
 10
3173.732136592963
 20
-18437.32051441551
 30
0.0000000000000047
 10
3175.64980868379
 20
-18437.08011352738
 30
0.0000000000000047
 10
3177.524060886853
 20
-18436.80289135511
 30
0.0000000000000047
 10
3179.349063851527
 20
-18436.48965181622
 30
0.0000000000000047
 10
3181.119181824926
 20
-18436.14134531923
 30
0.0000000000000047
 10
3182.828941272755
 20
-18435.75891186105
 30
0.0000000000000047
 10
3184.473083774598
 20
-18435.34343410872
 30
0.0000000000000047
 10
3186.046567764333
 20
-18434.89608895924
 30
0.0000000000000047
 10
3187.54458512198
 20
-18434.41802511913
 30
0.0000000000000047
 10
3188.962590006517
 20
-18433.91051847224
 30
0.0000000000000047
 10
3190.296268746374
 20
-18433.37479722722
 30
0.0000000000000047
 10
3191.541583759846
 20
-18432.81211724427
 30
0.0000000000000047
 10
3192.694744192762
 20
-18432.22373241749
 30
0.0000000000000047
 10
3193.752117636768
 20
-18431.61080851277
 30
0.0000000000000047
 10
3194.710319198279
 20
-18430.97446938555
 30
0.0000000000000047
 10
3195.565906859256
 20
-18430.31588230418
 30
0.0000000000000047
 10
3196.315486227869
 20
-18429.63636031933
 30
0.0000000000000047
 10
3196.954714522663
 20
-18428.93758136859
 30
0.0000000000000047
 10
3197.482551339409
 20
-18428.22221213259
 30
0.0000000000000047
 10
3197.885815256737
 20
-18427.49283614958
 30
0.0000000000000047
 10
3198.129498861953
 20
-18426.91974592957
 30
0.0000000000000047
 10
3198.201914079545
 20
-18426.58828768347
 30
0.0000000000000047
 10
3198.219643423981
 20
-18426.50713709653
 30
0.0000000000000047
  0
LINE
  5
2F5756
330
18
100
AcDbEntity
  8
0
 62
     8
100
AcDbLine
 10
3125.109188287172
 20
-18424.27482700761
 30
0.0000000000000047
 11
3125.105631248941
 21
-18424.95168620034
 31
0.0000000000000047
  0
SPLINE
  5
2F5757
330
18
100
AcDbEntity
  8
0
 62
     8
100
AcDbSpline
210
0.0
220
0.0
230
1.0
 70
     8
 71
     3
 72
    11
 73
     7
 74
     0
 42
0.000000001
 43
0.0000000001
 40
0.0
 40
0.0
 40
0.0
 40
0.0
 40
0.1660993234488002
 40
0.4996372125778488
 40
0.8330864592322349
 40
1.0
 40
1.0
 40
1.0
 40
1.0
 10
3130.315679435493
 20
-18407.70522085537
 30
0.0000000000000047
 10
3130.11722838327
 20
-18408.38260974073
 30
0.0000000000000047
 10
3129.520275135616
 20
-18410.42023811564
 30
0.0000000000000047
 10
3128.650114346858
 20
-18413.85812884997
 30
0.0000000000000047
 10
3127.835446240396
 20
-18417.31527325288
 30
0.0000000000000047
 10
3127.423297390239
 20
-18419.4083690548
 30
0.0000000000000047
 10
3127.285810699317
 20
-18420.10659450291
 30
0.0000000000000047
  0
SPLINE
  5
2F5758
330
18
100
AcDbEntity
  8
0
 62
     8
100
AcDbSpline
210
0.0
220
0.0
230
1.0
 70
     8
 71
     3
 72
    11
 73
     7
 74
     0
 42
0.000000001
 43
0.0000000001
 40
0.0
 40
0.0
 40
0.0
 40
0.0
 40
0.0831433236283666
 40
0.411224626880945
 40
0.7385708942178546
 40
1.0
 40
1.0
 40
1.0
 40
1.0
 10
3196.250999265493
 20
-18420.42441613606
 30
0.0000000000000047
 10
3196.188092398614
 20
-18420.07709848711
 30
0.0000000000000047
 10
3195.876956738743
 20
-18418.35927480188
 30
0.0000000000000047
 10
3195.206734585413
 20
-18415.29893141168
 30
0.0000000000000047
 10
3194.315939078329
 20
-18411.51598792762
 30
0.0000000000000047
 10
3193.65710592964
 20
-18409.11266407731
 30
0.0000000000000047
 10
3193.364569643673
 20
-18408.04553587566
 30
0.0000000000000047
  0
SPLINE
  5
2F5759
330
18
100
AcDbEntity
  8
0
 62
     8
100
AcDbSpline
210
0.0
220
0.0
230
1.0
 70
     8
 71
     3
 72
    13
 73
     9
 74
     0
 42
0.000000001
 43
0.0000000001
 40
0.0
 40
0.0
 40
0.0
 40
0.0
 40
0.1419184379148201
 40
0.3192388530256768
 40
0.4989193564545193
 40
0.680896389134111
 40
0.8646152539292002
 40
1.0
 40
1.0
 40
1.0
 40
1.0
 10
3126.81555226871
 20
-18406.45026636152
 30
0.0000000000000047
 10
3126.869394954284
 20
-18406.64244802797
 30
0.0000000000000047
 10
3126.990511543779
 20
-18407.0747516502
 30
0.0000000000000047
 10
3127.313827076541
 20
-18407.73509822742
 30
0.0000000000000047
 10
3127.758973471842
 20
-18408.43335294042
 30
0.0000000000000047
 10
3128.324883554326
 20
-18409.12095797513
 30
0.0000000000000047
 10
3128.929653424897
 20
-18409.73798401835
 30
0.0000000000000047
 10
3129.393022587696
 20
-18410.11633804569
 30
0.0000000000000047
 10
3129.58961427236
 20
-18410.2768607166
 30
0.0000000000000047
  0
SPLINE
  5
2F575A
330
18
100
AcDbEntity
  8
0
 62
     8
100
AcDbSpline
210
0.0
220
0.0
230
1.0
 70
     8
 71
     3
 72
    13
 73
     9
 74
     0
 42
0.000000001
 43
0.0000000001
 40
0.0
 40
0.0
 40
0.0
 40
0.0
 40
0.1442657027014524
 40
0.3323156920258228
 40
0.5198805658933212
 40
0.7063433105492107
 40
0.8909468869821171
 40
1.0
 40
1.0
 40
1.0
 40
1.0
 10
3194.054599708741
 20
-18410.616844895
 30
0.0000000000000047
 10
3194.262274311332
 20
-18410.45011374916
 30
0.0000000000000047
 10
3194.740652248595
 20
-18410.06604896401
 30
0.0000000000000047
 10
3195.362713177298
 20
-18409.44034022721
 30
0.0000000000000047
 10
3195.939694631334
 20
-18408.74620793197
 30
0.0000000000000047
 10
3196.392549899464
 20
-18408.03542683368
 30
0.0000000000000047
 10
3196.700725306225
 20
-18407.4107569149
 30
0.0000000000000047
 10
3196.80835981901
 20
-18407.01898476872
 30
0.0000000000000047
 10
3196.848331252009
 20
-18406.87349524415
 30
0.0000000000000047
  0
LINE
  5
2F575B
330
18
100
AcDbEntity
  8
0
 62
     8
100
AcDbLine
 10
3197.042905165047
 20
-18405.57287094074
 30
0.0000000000000047
 11
3196.958721390297
 21
-18392.22277146315
 31
0.0000000000000047
  0
LINE
  5
2F575C
330
18
100
AcDbEntity
  8
0
 62
     8
100
AcDbLine
 10
3126.665007523209
 20
-18404.60626601057
 30
0.0000000000000047
 11
3126.654979914926
 21
-18405.20296810352
 31
0.0000000000000047
  0
LINE
  5
2F575D
330
18
100
AcDbEntity
  8
0
 62
     8
100
AcDbLine
 10
3167.548576319235
 20
-18380.64966061611
 30
0.0000000000000047
 11
3167.368438224994
 21
-18381.02965125054
 31
0.0000000000000047
  0
LINE
  5
2F575E
330
18
100
AcDbEntity
  8
0
 62
     8
100
AcDbLine
 10
3155.468227675811
 20
-18380.99532712222
 30
0.0000000000000047
 11
3155.255695834633
 21
-18380.6158962374
 31
0.0000000000000047
  0
LINE
  5
2F575F
330
18
100
AcDbEntity
  8
0
 62
     8
100
AcDbLine
 10
3188.664274318637
 20
-18384.51897855022
 30
0.0000000000000047
 11
3187.8153104141
 21
-18384.76520465497
 31
0.0000000000000047
  0
LINE
  5
2F5760
330
18
100
AcDbEntity
  8
0
 62
     8
100
AcDbLine
 10
3135.387784998778
 20
-18384.78236595136
 30
0.0000000000000047
 11
3134.517802376812
 21
-18384.53676415168
 31
0.0000000000000047
  0
LINE
  5
2F5761
330
18
100
AcDbEntity
  8
0
 62
     8
100
AcDbLine
 10
3197.024714236339
 20
-18424.44714217706
 30
0.0000000000000047
 11
3197.693636856721
 21
-18424.44690872079
 31
0.0000000000000047
  0
LINE
  5
2F5762
330
18
100
AcDbEntity
  8
0
 62
     8
100
AcDbLine
 10
3198.176509971964
 20
-18423.98681052906
 30
0.0000000000000047
 11
3198.180066892409
 21
-18423.30997374962
 31
0.0000000000000047
  0
LINE
  5
2F5763
330
18
100
AcDbEntity
  8
0
 62
     8
100
AcDbLine
 10
3197.226222685305
 20
-18426.48201224447
 30
0.0000000000000047
 11
3197.138814954339
 21
-18424.44709923777
 31
0.0000000000000047
  0
LINE
  5
2F5764
330
18
100
AcDbEntity
  8
0
 62
     8
100
AcDbLine
 10
3198.274925188856
 20
-18426.27798549376
 30
0.0000000000000047
 11
3198.278482227087
 21
-18425.60112630102
 31
0.0000000000000047
  0
LINE
  5
2F5765
330
18
100
AcDbEntity
  8
0
 62
     8
100
AcDbLine
 10
3198.268026124881
 20
-18425.59064477574
 30
0.0000000000000047
 11
3197.187952099163
 21
-18425.59102172523
 31
0.0000000000000047
  0
LINE
  5
2F5766
330
18
100
AcDbEntity
  8
0
 62
     8
100
AcDbLine
 10
3196.958693437836
 20
-18392.2209800209
 30
0.0000000000000047
 11
3195.837294488297
 21
-18392.22137139294
 31
0.0000000000000047
  0
LINE
  5
2F5767
330
18
100
AcDbEntity
  8
0
 62
     8
100
AcDbLine
 10
3128.012438459758
 20
-18392.24504249774
 30
0.0000000000000047
 11
3126.89139709537
 21
-18392.24543374498
 31
0.0000000000000047
  0
LINE
  5
2F5768
330
18
100
AcDbEntity
  8
0
 62
     8
100
AcDbLine
 10
3155.816964072951
 20
-18338.36352836482
 30
0.0000000000000047
 11
3154.845689189038
 21
-18379.12982002272
 31
0.0000000000000047
  0
LINE
  5
2F5769
330
18
100
AcDbEntity
  8
0
 62
     8
100
AcDbLine
 10
3169.681896964652
 20
-18379.32880103655
 30
0.0000000000000047
 11
3169.138027004912
 21
-18338.47096282044
 31
0.0000000000000047
  0
LINE
  5
2F576A
330
18
100
AcDbEntity
  8
0
 62
     8
100
AcDbLine
 10
3144.664643333608
 20
-18339.83764266002
 30
0.0000000000000047
 11
3143.653728745872
 21
-18382.26795152254
 31
0.0000000000000047
  0
LINE
  5
2F576B
330
18
100
AcDbEntity
  8
0
 62
     8
100
AcDbLine
 10
3180.755581700251
 20
-18382.64562953326
 30
0.0000000000000047
 11
3180.189660664445
 21
-18340.1310958839
 31
0.0000000000000047
  0
LINE
  5
2F576C
330
18
100
AcDbEntity
  8
0
 62
     8
100
AcDbLine
 10
3136.074535179063
 20
-18342.66248223095
 30
0.0000000000000047
 11
3135.073135424633
 21
-18384.69353569029
 31
0.0000000000000047
  0
LINE
  5
2F576D
330
18
100
AcDbEntity
  8
0
 62
     8
100
AcDbLine
 10
3189.146952201196
 20
-18384.66087765774
 30
0.0000000000000047
 11
3188.593707423234
 21
-18343.09840364714
 31
0.0000000000000047
  0
SPLINE
  5
2F576E
330
18
100
AcDbEntity
  8
0
 62
     8
100
AcDbSpline
210
0.0
220
0.0
230
1.0
 70
     8
 71
     3
 72
    11
 73
     7
 74
     0
 42
0.000000001
 43
0.0000000001
 40
0.0
 40
0.0
 40
0.0
 40
0.0
 40
0.1523999286863531
 40
0.4419423738760802
 40
0.7315048151607056
 40
0.9999999999999998
 40
0.9999999999999998
 40
0.9999999999999998
 40
0.9999999999999998
 10
3165.144053383605
 20
-18368.55878971675
 30
0.0000000000000047
 10
3164.852567232791
 20
-18368.54544592884
 30
0.0000000000000047
 10
3164.0072907123
 20
-18368.50675046912
 30
0.0000000000000047
 10
3162.59932633494
 20
-18368.47339233714
 30
0.0000000000000047
 10
3160.965128853864
 20
-18368.46878250162
 30
0.0000000000000047
 10
3159.894217279441
 20
-18368.49694153928
 30
0.0000000000000047
 10
3159.378975505722
 20
-18368.51048954161
 30
0.0000000000000047
  0
SPLINE
  5
2F576F
330
18
100
AcDbEntity
  8
0
 62
     8
100
AcDbSpline
210
0.0
220
0.0
230
1.0
 70
     8
 71
     3
 72
    11
 73
     7
 74
     0
 42
0.000000001
 43
0.0000000001
 40
0.0
 40
0.0
 40
0.0
 40
0.0
 40
0.0349574801366461
 40
0.3646874854742504
 40
0.6946313654922378
 40
1.0
 40
1.0
 40
1.0
 40
1.0
 10
3155.09210008083
 20
-18368.78777141518
 30
0.0000000000000047
 10
3155.035134999202
 20
-18368.79304844647
 30
0.0000000000000047
 10
3154.440857256703
 20
-18368.84810010534
 30
0.0000000000000047
 10
3153.331048373188
 20
-18368.97870422729
 30
0.0000000000000047
 10
3151.819594707308
 20
-18369.18716958362
 30
0.0000000000000047
 10
3150.864051097127
 20
-18369.35382521184
 30
0.0000000000000047
 10
3150.404760526295
 20
-18369.43392972806
 30
0.0000000000000047
  0
SPLINE
  5
2F5770
330
18
100
AcDbEntity
  8
0
 62
     8
100
AcDbSpline
210
0.0
220
0.0
230
1.0
 70
     8
 71
     3
 72
    11
 73
     7
 74
     0
 42
0.000000001
 43
0.0000000001
 40
0.0
 40
0.0
 40
0.0
 40
0.0
 40
0.1785674062997827
 40
0.518459248454363
 40
0.8580889746445595
 40
1.0
 40
1.0
 40
1.0
 40
1.0
 10
3174.056030856065
 20
-18369.63231044524
 30
0.0000000000000047
 10
3173.799044183169
 20
-18369.58175949741
 30
0.0000000000000047
 10
3173.052899519629
 20
-18369.43498799546
 30
0.0000000000000047
 10
3171.775021748127
 20
-18369.22057136507
 30
0.0000000000000047
 10
3170.522789579188
 20
-18369.03702907037
 30
0.0000000000000047
 10
3169.766355276886
 20
-18368.9517186244
 30
0.0000000000000047
 10
3169.543432570741
 20
-18368.92657746486
 30
0.0000000000000047
  0
LINE
  5
2F5771
330
18
100
AcDbEntity
  8
0
 62
     8
100
AcDbLine
 10
3128.316710487956
 20
-18392.74753222188
 30
0.0000000000000047
 11
3128.382876436703
 21
-18395.37989786246
 31
0.0000000000000047
  0
LWPOLYLINE
  5
2F5772
330
18
100
AcDbEntity
  8
0
 62
     8
100
AcDbPolyline
 90
        3
 70
   128
 43
0.0
 10
3160.736343213978
 20
-18346.80957729786
 10
3159.855282710238
 20
-18344.72320876759
 10
3157.070577314174
 20
-18338.12902494356
  0
LINE
  5
2F5773
330
18
100
AcDbEntity
  8
0
 62
     8
100
AcDbLine
 10
3195.418349152306
 20
-18395.73218466581
 30
0.0000000000000047
 11
3195.512181368965
 21
-18393.1006573721
 31
0.0000000000000047
  0
LINE
  5
2F5774
330
18
100
AcDbEntity
  8
0
 62
     8
100
AcDbLine
 10
3167.8963998234
 20
-18338.20372865979
 30
0.0000000000000047
 11
3163.781314011263
 21
-18346.8182210317
 31
0.0000000000000047
  0
SPLINE
  5
2F5775
330
18
100
AcDbEntity
  8
0
 62
     8
100
AcDbSpline
210
0.0
220
0.0
230
1.0
 70
     8
 71
     3
 72
    17
 73
    13
 74
     0
 42
0.000000001
 43
0.0000000001
 40
0.0
 40
0.0
 40
0.0
 40
0.0
 40
0.0252236137851103
 40
0.1300360646462781
 40
0.2262149612821971
 40
0.3155498179721601
 40
0.4114737588690952
 40
0.5558363459898974
 40
0.6782271147057508
 40
0.7968075601005423
 40
0.924726433056271
 40
1.0
 40
1.0
 40
1.0
 40
1.0
 10
3157.06441574279
 20
-18338.13059386338
 30
0.0000000000000047
 10
3157.060515798827
 20
-18338.11627670485
 30
0.0000000000000047
 10
3157.040410298891
 20
-18338.04246702129
 30
0.0000000000000047
 10
3156.951756058236
 20
-18337.93658561279
 30
0.0000000000000047
 10
3156.821678963762
 20
-18337.826806112
 30
0.0000000000000047
 10
3156.669297066166
 20
-18337.7577914264
 30
0.0000000000000047
 10
3156.477587658756
 20
-18337.72233603063
 30
0.0000000000000047
 10
3156.26131106129
 20
-18337.75181677288
 30
0.0000000000000047
 10
3156.05830887778
 20
-18337.86125845475
 30
0.0000000000000047
 10
3155.911663489748
 20
-18338.02303749895
 30
0.0000000000000047
 10
3155.826040095152
 20
-18338.19958890027
 30
0.0000000000000047
 10
3155.826977152309
 20
-18338.31964415842
 30
0.0000000000000047
 10
3155.827324289409
 20
-18338.36411917686
 30
0.0000000000000047
  0
SPLINE
  5
2F5776
330
18
100
AcDbEntity
  8
0
 62
     8
100
AcDbSpline
210
0.0
220
0.0
230
1.0
 70
     8
 71
     3
 72
    17
 73
    13
 74
     0
 42
0.000000001
 43
0.0000000001
 40
0.0
 40
0.0
 40
0.0
 40
0.0
 40
0.0267639473788942
 40
0.1628327734784854
 40
0.2722647083566674
 40
0.371755230914061
 40
0.4628605264826853
 40
0.5574787532570267
 40
0.6854641697871069
 40
0.7919945844846386
 40
0.9081881805805148
 40
1.0
 40
1.0
 40
1.0
 40
1.0
 10
3169.131349799951
 20
-18338.47113841872
 30
0.0000000000000047
 10
3169.133233618496
 20
-18338.45573508163
 30
0.0000000000000047
 10
3169.14469483511
 20
-18338.36202065065
 30
0.0000000000000047
 10
3169.086501162227
 20
-18338.20592643429
 30
0.0000000000000047
 10
3168.976295433057
 20
-18338.03960532334
 30
0.0000000000000047
 10
3168.839503947717
 20
-18337.92836525217
 30
0.0000000000000047
 10
3168.688423263926
 20
-18337.85893923947
 30
0.0000000000000047
 10
3168.508502022828
 20
-18337.82534775111
 30
0.0000000000000047
 10
3168.315057250711
 20
-18337.84549784109
 30
0.0000000000000047
 10
3168.128672354353
 20
-18337.92894355842
 30
0.0000000000000047
 10
3167.983416760423
 20
-18338.04698102895
 30
0.0000000000000047
 10
3167.928602734912
 20
-18338.15507172073
 30
0.0000000000000047
 10
3167.904408290744
 20
-18338.20278203178
 30
0.0000000000000047
  0
LINE
  5
2F5777
330
18
100
AcDbEntity
  8
0
 62
     8
100
AcDbLine
 10
3143.918060944397
 20
-18371.1731428027
 30
0.0000000000000047
 11
3143.124442097436
 21
-18371.48540500707
 31
0.0000000000000047
  0
SPLINE
  5
2F5778
330
18
100
AcDbEntity
  8
0
 62
     8
100
AcDbSpline
210
0.0
220
0.0
230
1.0
 70
     8
 71
     3
 72
     9
 73
     5
 74
     0
 42
0.000000001
 43
0.0000000001
 40
0.0
 40
0.0
 40
0.0
 40
0.0
 40
0.9414610300097626
 40
1.0
 40
1.0
 40
1.0
 40
1.0
 10
3181.207290175247
 20
-18371.80682990812
 30
0.0000000000000047
 10
3181.02526984087
 20
-18371.72397207719
 30
0.0000000000000047
 10
3180.831931690299
 20
-18371.63596224111
 30
0.0000000000000047
 10
3180.620257271901
 20
-18371.55396597542
 30
0.0000000000000047
 10
3180.607866069475
 20
-18371.54916599849
 30
0.0000000000000047
  0
LWPOLYLINE
  5
2F5779
330
18
100
AcDbEntity
  8
0
 62
     8
100
AcDbPolyline
 90
        3
 70
   128
 43
0.0
 10
3155.626187899566
 20
-18346.37068201352
 10
3153.97879246588
 20
-18345.2023926214
 10
3145.696940666192
 20
-18339.32913496377
  0
LINE
  5
2F577A
330
18
100
AcDbEntity
  8
0
 62
     8
100
AcDbLine
 10
3179.171904293673
 20
-18339.60671728451
 30
0.0000000000000047
 11
3169.241516879846
 21
-18346.24499134632
 31
0.0000000000000047
  0
SPLINE
  5
2F577B
330
18
100
AcDbEntity
  8
0
 62
     8
100
AcDbSpline
210
0.0
220
0.0
230
1.0
 70
     8
 71
     3
 72
    15
 73
    11
 74
     0
 42
0.000000001
 43
0.0000000001
 40
0.0
 40
0.0
 40
0.0
 40
0.0
 40
0.0267202686596549
 40
0.1370077768780357
 40
0.2576269187588011
 40
0.4174785544040253
 40
0.5703971160519039
 40
0.7170369362648567
 40
0.87765945653978
 40
1.0
 40
1.0
 40
1.0
 40
1.0
 10
3145.695697235872
 20
-18339.3327360947
 30
0.0000000000000047
 10
3145.686175977787
 20
-18339.32459035242
 30
0.0000000000000047
 10
3145.637355869728
 20
-18339.28282318104
 30
0.0000000000000047
 10
3145.522830248445
 20
-18339.23667073561
 30
0.0000000000000047
 10
3145.343325675942
 20
-18339.1984943541
 30
0.0000000000000047
 10
3145.136869896298
 20
-18339.2199557738
 30
0.0000000000000047
 10
3144.938094090626
 20
-18339.3124005143
 30
0.0000000000000047
 10
3144.781771541521
 20
-18339.4641002599
 30
0.0000000000000047
 10
3144.681529319682
 20
-18339.6468002466
 30
0.0000000000000047
 10
3144.675342104813
 20
-18339.78033330706
 30
0.0000000000000047
 10
3144.672667030476
 20
-18339.83806701608
 30
0.0000000000000047
  0
SPLINE
  5
2F577C
330
18
100
AcDbEntity
  8
0
 62
     8
100
AcDbSpline
210
0.0
220
0.0
230
1.0
 70
     8
 71
     3
 72
    16
 73
    12
 74
     0
 42
0.000000001
 43
0.0000000001
 40
0.0
 40
0.0
 40
0.0
 40
0.0
 40
0.0240544379127609
 40
0.1981511493313526
 40
0.3376927955554705
 40
0.462037717489736
 40
0.5747989939797524
 40
0.6876881515321496
 40
0.8299945104077325
 40
0.9717576337201331
 40
1.0
 40
1.0
 40
1.0
 40
1.0
 10
3180.184521794974
 20
-18340.13117134847
 30
0.0000000000000047
 10
3180.186022376665
 20
-18340.12006347645
 30
0.0000000000000047
 10
3180.198383587841
 20
-18340.02856112602
 30
0.0000000000000047
 10
3180.140999099267
 20
-18339.87165093409
 30
0.0000000000000047
 10
3180.029690834325
 20
-18339.70121465057
 30
0.0000000000000047
 10
3179.891426844855
 20
-18339.58877666285
 30
0.0000000000000047
 10
3179.742456393521
 20
-18339.52048188089
 30
0.0000000000000047
 10
3179.572333172638
 20
-18339.48739195411
 30
0.0000000000000047
 10
3179.387902458536
 20
-18339.50521493375
 30
0.0000000000000047
 10
3179.244086894404
 20
-18339.55048839339
 30
0.0000000000000047
 10
3179.183653226975
 20
-18339.6016968043
 30
0.0000000000000047
 10
3179.17361361134
 20
-18339.6102038631
 30
0.0000000000000047
  0
LINE
  5
2F577D
330
18
100
AcDbEntity
  8
0
 62
     8
100
AcDbLine
 10
3131.354395272228
 20
-18346.40807274294
 30
0.0000000000000047
 11
3130.394621960204
 21
-18386.69202614868
 31
0.0000000000000047
  0
LINE
  5
2F577E
330
18
100
AcDbEntity
  8
0
 62
     8
100
AcDbLine
 10
3193.605586210666
 20
-18387.10111743631
 30
0.0000000000000047
 11
3193.070743214892
 21
-18346.92107679953
 31
0.0000000000000047
  0
LINE
  5
2F577F
330
18
100
AcDbEntity
  8
0
 62
     8
100
AcDbLine
 10
3144.546562472017
 20
-18344.79351813703
 30
0.0000000000000047
 11
3136.948951635849
 21
-18342.07279852029
 31
0.0000000000000047
  0
LINE
  5
2F5780
330
18
100
AcDbEntity
  8
0
 62
     8
100
AcDbLine
 10
3187.731453256909
 20
-18342.4986074978
 30
0.0000000000000047
 11
3180.254588968201
 21
-18345.00927555088
 31
0.0000000000000047
  0
SPLINE
  5
2F5781
330
18
100
AcDbEntity
  8
0
 62
     8
100
AcDbSpline
210
0.0
220
0.0
230
1.0
 70
     8
 71
     3
 72
    13
 73
     9
 74
     0
 42
0.000000001
 43
0.0000000001
 40
0.0
 40
0.0
 40
0.0
 40
0.0
 40
0.1151515520821067
 40
0.3251158201285738
 40
0.5322108283573598
 40
0.7120319332147166
 40
0.8989351060394188
 40
1.0
 40
1.0
 40
1.0
 40
1.0
 10
3136.946990180569
 20
-18342.07455683848
 30
0.0000000000000047
 10
3136.901942598569
 20
-18342.06078707028
 30
0.0000000000000047
 10
3136.774756457332
 20
-18342.02190987411
 30
0.0000000000000047
 10
3136.551131484823
 20
-18342.0403147372
 30
0.0000000000000047
 10
3136.326405999896
 20
-18342.14843607628
 30
0.0000000000000047
 10
3136.167495805205
 20
-18342.32372047148
 30
0.0000000000000047
 10
3136.082170926068
 20
-18342.50293024471
 30
0.0000000000000047
 10
3136.084240588518
 20
-18342.6211056387
 30
0.0000000000000047
 10
3136.084966954529
 20
-18342.66258031954
 30
0.0000000000000047
  0
SPLINE
  5
2F5782
330
18
100
AcDbEntity
  8
0
 62
     8
100
AcDbSpline
210
0.0
220
0.0
230
1.0
 70
     8
 71
     3
 72
    10
 73
     6
 74
     0
 42
0.000000001
 43
0.0000000001
 40
0.0
 40
0.0
 40
0.0
 40
0.0
 40
0.4435971219931588
 40
0.9449546602969849
 40
0.9999999999999998
 40
0.9999999999999998
 40
0.9999999999999998
 40
0.9999999999999998
 10
3161.594107864397
 20
-18359.85069791632
 30
0.0000000000000047
 10
3161.489914541402
 20
-18359.84976934286
 30
0.0000000000000047
 10
3161.267960968545
 20
-18359.84779128716
 30
0.0000000000000047
 10
3161.031601636472
 20
-18359.82176602
 30
0.0000000000000047
 10
3160.934377083369
 20
-18359.7990939411
 30
0.0000000000000047
 10
3160.924758587916
 20
-18359.79685097591
 30
0.0000000000000047
  0
SPLINE
  5
2F5783
330
18
100
AcDbEntity
  8
0
 62
     8
100
AcDbSpline
210
0.0
220
0.0
230
1.0
 70
     8
 71
     3
 72
    10
 73
     6
 74
     0
 42
0.000000001
 43
0.0000000001
 40
0.0
 40
0.0
 40
0.0
 40
0.0
 40
0.3755733917586761
 40
0.9417293519678395
 40
1.0
 40
1.0
 40
1.0
 40
1.0
 10
3163.37825174291
 20
-18359.82763839825
 30
0.0000000000000047
 10
3163.308854962627
 20
-18359.83708338448
 30
0.0000000000000047
 10
3163.134846403024
 20
-18359.86076616114
 30
0.0000000000000047
 10
3162.91880180907
 20
-18359.86891566982
 30
0.0000000000000047
 10
3162.791083846144
 20
-18359.86192356012
 30
0.0000000000000047
 10
3162.779165378278
 20
-18359.86127106588
 30
0.0000000000000047
  0
SPLINE
  5
2F5784
330
18
100
AcDbEntity
  8
0
 62
     8
100
AcDbSpline
210
0.0
220
0.0
230
1.0
 70
     8
 71
     3
 72
    14
 73
    10
 74
     0
 42
0.000000001
 43
0.0000000001
 40
0.0
 40
0.0
 40
0.0
 40
0.0
 40
0.1455044122935077
 40
0.319057314563529
 40
0.4702533994552749
 40
0.6020672325889106
 40
0.7249715697236269
 40
0.8554212292777418
 40
1.0
 40
1.0
 40
1.0
 40
1.0
 10
3188.586101121743
 20
-18343.09939280273
 30
0.0000000000000047
 10
3188.583645527769
 20
-18343.03972832638
 30
0.0000000000000047
 10
3188.578260981647
 20
-18342.9088980148
 30
0.0000000000000047
 10
3188.485930165544
 20
-18342.73438082426
 30
0.0000000000000047
 10
3188.357063054813
 20
-18342.5988229353
 30
0.0000000000000047
 10
3188.213311373126
 20
-18342.51327582267
 30
0.0000000000000047
 10
3188.062689996872
 20
-18342.46842376462
 30
0.0000000000000047
 10
3187.898285342819
 20
-18342.4532349503
 30
0.0000000000000047
 10
3187.790967007599
 20
-18342.48854852787
 30
0.0000000000000047
 10
3187.734551192818
 20
-18342.50711240373
 30
0.0000000000000047
  0
SPLINE
  5
2F5785
330
18
100
AcDbEntity
  8
0
 62
     8
100
AcDbSpline
210
0.0
220
0.0
230
1.0
 70
     8
 71
     3
 72
     9
 73
     5
 74
     0
 42
0.000000001
 43
0.0000000001
 40
0.0
 40
0.0
 40
0.0
 40
0.0
 40
0.4998737672749618
 40
1.0
 40
1.0
 40
1.0
 40
1.0
 10
3162.778909779178
 20
-18359.86230910379
 30
0.0000000000000047
 10
3162.581615067388
 20
-18359.85787795273
 30
0.0000000000000047
 10
3162.186925998457
 20
-18359.84901341261
 30
0.0000000000000047
 10
3161.791893022316
 20
-18359.85126658054
 30
0.0000000000000047
 10
3161.594326668155
 20
-18359.85239344893
 30
0.0000000000000047
  0
LINE
  5
2F5786
330
18
100
AcDbEntity
  8
0
 62
     8
100
AcDbLine
 10
3160.957320575234
 20
-18359.8439345179
 30
0.0000000000000047
 11
3160.787038134268
 21
-18347.05114669157
 31
0.0000000000000047
  0
LINE
  5
2F5787
330
18
100
AcDbEntity
  8
0
 62
     8
100
AcDbLine
 10
3163.718554616409
 20
-18347.07968924228
 30
0.0000000000000047
 11
3163.413858592682
 21
-18359.86827439061
 31
0.0000000000000047
  0
LINE
  5
2F5788
330
18
100
AcDbEntity
  8
0
 62
     8
100
AcDbLine
 10
3131.222824522506
 20
-18350.50429347276
 30
0.0000000000000047
 11
3130.360060378429
 21
-18386.71621066443
 31
0.0000000000000047
  0
SPLINE
  5
2F5789
330
18
100
AcDbEntity
  8
0
 62
     8
100
AcDbSpline
210
0.0
220
0.0
230
1.0
 70
     8
 71
     3
 72
     9
 73
     5
 74
     0
 42
0.000000001
 43
0.0000000001
 40
0.0
 40
0.0
 40
0.0
 40
0.0
 40
0.2953671738498809
 40
1.0
 40
1.0
 40
1.0
 40
1.0
 10
3160.777917159282
 20
-18347.05044266993
 30
0.0000000000000047
 10
3160.780463278709
 20
-18347.0259843353
 30
0.0000000000000047
 10
3160.789083462845
 20
-18346.94317779215
 30
0.0000000000000047
 10
3160.754745976902
 20
-18346.86566850878
 30
0.0000000000000047
 10
3160.730550657138
 20
-18346.81105292338
 30
0.0000000000000047
  0
SPLINE
  5
2F578A
330
18
100
AcDbEntity
  8
0
 62
     8
100
AcDbSpline
210
0.0
220
0.0
230
1.0
 70
     8
 71
     3
 72
    10
 73
     6
 74
     0
 42
0.000000001
 43
0.0000000001
 40
0.0
 40
0.0
 40
0.0
 40
0.0
 40
0.1427523858655691
 40
0.9866059488308112
 40
1.0
 40
1.0
 40
1.0
 40
1.0
 10
3163.787110193538
 20
-18346.81823065804
 30
0.0000000000000047
 10
3163.780056020943
 20
-18346.82911873699
 30
0.0000000000000047
 10
3163.731302449471
 20
-18346.90436962259
 30
0.0000000000000047
 10
3163.706340687819
 20
-18347.00236862215
 30
0.0000000000000047
 10
3163.719012021222
 20
-18347.07945195054
 30
0.0000000000000047
 10
3163.719210004261
 20
-18347.08065633773
 30
0.0000000000000047
  0
LINE
  5
2F578B
330
18
100
AcDbEntity
  8
0
 62
     8
100
AcDbLine
 10
3135.98365369983
 20
-18346.47660313395
 30
0.0000000000000047
 11
3132.120545002309
 21
-18345.79041293142
 31
0.0000000000000047
  0
LINE
  5
2F578C
330
18
100
AcDbEntity
  8
0
 62
     8
100
AcDbLine
 10
3192.31566264704
 20
-18346.29568909493
 30
0.0000000000000047
 11
3188.64407948056
 21
-18346.88285247053
 31
0.0000000000000047
  0
SPLINE
  5
2F578D
330
18
100
AcDbEntity
  8
0
 62
     8
100
AcDbSpline
210
0.0
220
0.0
230
1.0
 70
     8
 71
     3
 72
    13
 73
     9
 74
     0
 42
0.000000001
 43
0.0000000001
 40
0.0
 40
0.0
 40
0.0
 40
0.0
 40
0.080817999676912
 40
0.2339221055581951
 40
0.4538139721732942
 40
0.6677917846351402
 40
0.8739137500499436
 40
1.0
 40
1.0
 40
1.0
 40
1.0
 10
3132.119412974737
 20
-18345.79576408013
 30
0.0000000000000047
 10
3132.089977397249
 20
-18345.78960663705
 30
0.0000000000000047
 10
3132.004778155843
 20
-18345.77178434429
 30
0.0000000000000047
 10
3131.834583476602
 20
-18345.79215215435
 30
0.0000000000000047
 10
3131.62899568146
 20
-18345.87717567422
 30
0.0000000000000047
 10
3131.459541416988
 20
-18346.04906100137
 30
0.0000000000000047
 10
3131.365213452363
 20
-18346.23706219471
 30
0.0000000000000047
 10
3131.364596190973
 20
-18346.36121394316
 30
0.0000000000000047
 10
3131.36436191569
 20
-18346.40833447681
 30
0.0000000000000047
  0
SPLINE
  5
2F578E
330
18
100
AcDbEntity
  8
0
 62
     8
100
AcDbSpline
210
0.0
220
0.0
230
1.0
 70
     8
 71
     3
 72
    14
 73
    10
 74
     0
 42
0.000000001
 43
0.0000000001
 40
0.0
 40
0.0
 40
0.0
 40
0.0
 40
0.1404058877004931
 40
0.339767143657257
 40
0.5016187448240422
 40
0.6482237080609881
 40
0.7791013180431386
 40
0.9118058275451719
 40
1.0
 40
1.0
 40
1.0
 40
1.0
 10
3193.061503417371
 20
-18346.92153235387
 30
0.0000000000000047
 10
3193.060797311306
 20
-18346.86916892902
 30
0.0000000000000047
 10
3193.059088610588
 20
-18346.74245507403
 30
0.0000000000000047
 10
3192.972234209792
 20
-18346.57069719835
 30
0.0000000000000047
 10
3192.845214982776
 20
-18346.43092137442
 30
0.0000000000000047
 10
3192.705570848665
 20
-18346.34319365631
 30
0.0000000000000047
 10
3192.560834590287
 20
-18346.29668019288
 30
0.0000000000000047
 10
3192.429444099644
 20
-18346.27800926264
 30
0.0000000000000047
 10
3192.349236241823
 20
-18346.2957484998
 30
0.0000000000000047
 10
3192.317213118905
 20
-18346.30283092026
 30
0.0000000000000047
  0
LINE
  5
2F578F
330
18
100
AcDbEntity
  8
0
 62
     8
100
AcDbLine
 10
3163.485755995001
 20
-18354.32732647583
 30
0.0000000000000047
 11
3163.354647477139
 21
-18359.83049954452
 31
0.0000000000000047
  0
SPLINE
  5
2F5790
330
18
100
AcDbEntity
  8
0
 62
     8
100
AcDbSpline
210
0.0
220
0.0
230
1.0
 70
     8
 71
     3
 72
     9
 73
     5
 74
     0
 42
0.000000001
 43
0.0000000001
 40
0.0
 40
0.0
 40
0.0
 40
0.0
 40
0.9540231897947746
 40
0.9999999999999998
 40
0.9999999999999998
 40
0.9999999999999998
 40
0.9999999999999998
 10
3131.261075300319
 20
-18350.32486054598
 30
0.0000000000000047
 10
3131.238418462313
 20
-18350.38156643798
 30
0.0000000000000047
 10
3131.214669733512
 20
-18350.4410051315
 30
0.0000000000000047
 10
3131.223845148256
 20
-18350.50170242336
 30
0.0000000000000047
 10
3131.224267004557
 20
-18350.50449309123
 30
0.0000000000000047
  0
SPLINE
  5
2F5791
330
18
100
AcDbEntity
  8
0
 62
     8
100
AcDbSpline
210
0.0
220
0.0
230
1.0
 70
     8
 71
     3
 72
     9
 73
     5
 74
     0
 42
0.000000001
 43
0.0000000001
 40
0.0
 40
0.0
 40
0.0
 40
0.0
 40
0.5242576175573591
 40
1.0
 40
1.0
 40
1.0
 40
1.0
 10
3163.551752749907
 20
-18354.08053728735
 30
0.0000000000000047
 10
3163.530551019195
 20
-18354.12131343934
 30
0.0000000000000047
 10
3163.490109583529
 20
-18354.19909228437
 30
0.0000000000000047
 10
3163.494317464696
 20
-18354.28646318449
 30
0.0000000000000047
 10
3163.496319332109
 20
-18354.32802922468
 30
0.0000000000000047
  0
SPLINE
  5
2F5792
330
18
100
AcDbEntity
  8
0
 62
     8
100
AcDbSpline
210
0.0
220
0.0
230
1.0
 70
     8
 71
     3
 72
    12
 73
     8
 74
     0
 42
0.000000001
 43
0.0000000001
 40
0.0
 40
0.0
 40
0.0
 40
0.0
 40
0.1440092902416987
 40
0.3586329020718148
 40
0.5725460291602382
 40
0.7862202516463882
 40
1.0
 40
1.0
 40
1.0
 40
1.0
 10
3197.692790612674
 20
-18424.43732006065
 30
0.0000000000000047
 10
3197.728885990707
 20
-18424.43465862033
 30
0.0000000000000047
 10
3197.81877595651
 20
-18424.42803071415
 30
0.0000000000000047
 10
3197.954276734673
 20
-18424.37183814158
 30
0.0000000000000047
 10
3198.07601158216
 20
-18424.2684525982
 30
0.0000000000000047
 10
3198.158961966023
 20
-18424.13272446348
 30
0.0000000000000047
 10
3198.170045151043
 20
-18424.03150908065
 30
0.0000000000000047
 10
3198.175588111612
 20
-18423.98088889567
 30
0.0000000000000047
  0
ARC
  5
2F5793
330
18
100
AcDbEntity
  8
0
 62
     8
100
AcDbCircle
 10
3161.247257365065
 20
-18514.11317243398
 30
0.0000000000000047
 40
100.8568190153962
100
AcDbArc
 50
80.60818624067831
 51
97.72983291241532
  0
SPLINE
  5
2F5794
330
18
100
AcDbEntity
  8
0
 62
     8
100
AcDbSpline
210
0.0
220
0.0
230
1.0
 70
     8
 71
     3
 72
    12
 73
     8
 74
     0
 42
0.000000001
 43
0.0000000001
 40
0.0
 40
0.0
 40
0.0
 40
0.0
 40
0.2137798047687129
 40
0.4274542003933227
 40
0.6413670221571067
 40
0.8559909153259431
 40
0.9999999999999998
 40
0.9999999999999998
 40
0.9999999999999998
 40
0.9999999999999998
 10
3198.274435073351
 20
-18426.2821151819
 30
0.0000000000000047
 10
3198.268887337714
 20
-18426.3326245516
 30
0.0000000000000047
 10
3198.257794601879
 20
-18426.43361838619
 30
0.0000000000000047
 10
3198.174771313869
 20
-18426.56764361488
 30
0.0000000000000047
 10
3198.052927115023
 20
-18426.66849472055
 30
0.0000000000000047
 10
3197.917305610078
 20
-18426.72186430885
 30
0.0000000000000047
 10
3197.827333889706
 20
-18426.72659384695
 30
0.0000000000000047
 10
3197.791205742275
 20
-18426.72849299314
 30
0.0000000000000047
  0
ARC
  5
2F5795
330
18
100
AcDbEntity
  8
0
 62
     8
100
AcDbCircle
 10
3129.465382711623
 20
-18424.97460765096
 30
0.0000000000000047
 40
4.358963220970832
100
AcDbArc
 50
163.0688269382609
 51
196.3797455128747
  0
LINE
  5
2F5796
330
18
100
AcDbEntity
  8
0
 62
     8
100
AcDbLine
 10
3198.175588111611
 20
-18423.98088889567
 30
0.0000000000000047
 11
3198.179145149843
 21
-18423.30402970294
 31
0.0000000000000047
  0
LWPOLYLINE
  5
2F5797
330
18
100
AcDbEntity
  8
0
 62
     8
100
AcDbPolyline
 90
       53
 70
   128
 43
0.0
 10
3198.179145149843
 20
-18423.30402970294
 10
3197.884013083324
 20
-18422.5700297528
 10
3197.462210241767
 20
-18421.84268286431
 10
3196.915252415993
 20
-18421.1245328763
 10
3196.245035773487
 20
-18420.41809910788
 10
3195.4539075025
 20
-18419.72585601144
 10
3194.544641973053
 20
-18419.05023318095
 10
3193.520439864004
 20
-18418.3935950298
 10
3192.384880659624
 20
-18417.75824487192
 10
3191.141945964851
 20
-18417.14641272017
 10
3189.795983048441
 20
-18416.5602390411
 10
3188.351716762475
 20
-18416.00177475081
 10
3186.814213958426
 20
-18415.47298529184
 10
3185.188858426068
 20
-18414.97572219054
 10
3183.48135089347
 20
-18414.51172305706
 10
3181.697673443071
 20
-18414.08261566225
 10
3179.844065323498
 20
-18413.68990981713
 10
3177.927045915661
 20
-18413.33497704244
 10
3175.953319725883
 20
-18413.01905873081
 10
3173.92981231899
 20
-18412.74327019865
 10
3171.863597579207
 20
-18412.50857226017
 10
3169.761946086506
 20
-18412.31578746845
 10
3167.632205572387
 20
-18412.16559202814
 10
3165.481836678399
 20
-18412.05851578302
 10
3163.318388593376
 20
-18411.99493003107
 10
3161.149439805081
 20
-18411.97505567405
 10
3158.982586529864
 20
-18411.99897135057
 10
3156.825429571076
 20
-18412.06658498924
 10
3154.685527688553
 20
-18412.17765821187
 10
3152.570385853684
 20
-18412.33181040209
 10
3150.487418443408
 20
-18412.5284943312
 10
3148.443902784268
 20
-18412.76702462587
 10
3146.447038051609
 20
-18413.04656148957
 10
3144.503791188927
 20
-18413.36613107883
 10
3142.620991390991
 20
-18413.72460514781
 10
3140.805224224966
 20
-18414.12073360112
 10
3139.06287843552
 20
-18414.5531241551
 10
3137.400027622686
 20
-18415.02026270148
 10
3135.822525597904
 20
-18415.52051327417
 10
3134.335887363553
 20
-18416.05212215525
 10
3132.945325220638
 20
-18416.61322599132
 10
3131.655725278938
 20
-18417.20185993071
 10
3130.471587684907
 20
-18417.8159535798
 10
3129.397075696355
 20
-18418.45336350188
 10
3128.435955037425
 20
-18419.11184885124
 10
3127.591595469843
 20
-18419.78910795314
 10
3126.866946255575
 20
-18420.48276205438
 10
3126.264561217923
 20
-18421.19038376592
 10
3125.786538794827
 20
-18421.90948895486
 10
3125.434558844887
 20
-18422.63756111851
 10
3125.209858459186
 20
-18423.37204326385
 10
3125.113221263861
 20
-18424.11036636268
 10
3125.109188287172
 20
-18424.27482700761
  0
LWPOLYLINE
  5
2F5798
330
18
100
AcDbEntity
  8
0
 62
     8
100
AcDbPolyline
 90
      103
 70
   128
 43
0.0
 10
3162.240411542147
 20
-18437.18149620979
 10
3164.331173910522
 20
-18437.15879188673
 10
3166.412101689991
 20
-18437.09222300588
 10
3168.475326911925
 20
-18436.98204431127
 10
3170.513000423245
 20
-18436.82867108755
 10
3172.517423350146
 20
-18436.63268724305
 10
3174.480963137811
 20
-18436.39483314565
 10
3176.396185101421
 20
-18436.11601573805
 10
3178.255815882021
 20
-18435.79729026039
 10
3180.052815225419
 20
-18435.43986632188
 10
3181.780351706723
 20
-18435.04509774808
 10
3183.431886254161
 20
-18434.61448458398
 10
3185.001147699035
 20
-18434.14965887687
 10
3186.482168446943
 20
-18433.65238263161
 10
3187.869355907515
 20
-18433.12454575344
 10
3189.157432111262
 20
-18432.56814777894
 10
3190.341517233408
 20
-18431.98529987908
 10
3191.417117150628
 20
-18431.37821267008
 10
3192.380147105481
 20
-18430.74919214072
 10
3193.226966592
 20
-18430.1006193177
 10
3193.954343859063
 20
-18429.43495637479
 10
3194.559538648581
 20
-18428.75473034597
 10
3195.040253993739
 20
-18428.06252094882
 10
3195.394659708833
 20
-18427.36095244736
 10
3195.621403959612
 20
-18426.65268551904
 10
3195.719636753115
 20
-18425.94040911754
 10
3195.688985487626
 20
-18425.22682625564
 10
3195.529566173842
 20
-18424.51463774336
 10
3195.241983784038
 20
-18423.80655031678
 10
3194.827319197774
 20
-18423.10525022347
 10
3194.287152866317
 20
-18422.41339914972
 10
3193.623540100718
 20
-18421.7336139068
 10
3192.838999676054
 20
-18421.06847862829
 10
3191.936488770336
 20
-18420.42051632751
 10
3190.919450642527
 20
-18419.79218888087
 10
3189.791729973926
 20
-18419.18586860599
 10
3188.557609848764
 20
-18418.6038667002
 10
3187.221773900689
 20
-18418.04838447995
 10
3185.78928317209
 20
-18417.52152964679
 10
3184.265587509851
 20
-18417.02530408998
 10
3182.656441430485
 20
-18416.56158765788
 10
3180.967963717653
 20
-18416.13213813715
 10
3179.206565730556
 20
-18415.73858721331
 10
3177.37891512167
 20
-18415.38242828992
 10
3175.491959501166
 20
-18415.06501241586
 10
3173.552842476631
 20
-18414.78753612116
 10
3171.568928364998
 20
-18414.55106173081
 10
3169.547729278836
 20
-18414.35648487428
 10
3167.496941059463
 20
-18414.20453853758
 10
3165.424312511547
 20
-18414.09580123772
 10
3163.337728490479
 20
-18414.03068886486
 10
3161.24507826407
 20
-18414.00944253474
 10
3159.154327902491
 20
-18414.03214888585
 10
3157.07340003573
 20
-18414.0987157345
 10
3155.010174901089
 20
-18414.20889646132
 10
3152.972489470263
 20
-18414.3622696892
 10
3150.968078375576
 20
-18414.55825149732
 10
3149.00453850062
 20
-18414.79610356252
 10
3147.089316711593
 20
-18415.07492503454
 10
3145.229673924196
 20
-18415.39364848415
 10
3143.432686500303
 20
-18415.7510724185
 10
3141.705138099494
 20
-18416.14584099646
 10
3140.053615558853
 20
-18416.5764561886
 10
3138.484354113978
 20
-18417.04128189571
 10
3137.003321359273
 20
-18417.53855611293
 10
3135.616145905499
 20
-18418.06639501916
 10
3134.328069701751
 20
-18418.62279299365
 10
3133.143984492314
 20
-18419.2056388613
 10
3132.068384662385
 20
-18419.81272810251
 10
3131.10535462024
 20
-18420.44174659965
 10
3130.258535133721
 20
-18421.09031942267
 10
3129.531145947154
 20
-18421.75598236975
 10
3128.925951244928
 20
-18422.43621043078
 10
3128.445247731983
 20
-18423.12841779156
 10
3128.090842016888
 20
-18423.82998629302
 10
3127.86409776611
 20
-18424.53825322134
 10
3127.765865059899
 20
-18425.25053165505
 10
3127.796516325387
 20
-18425.96411451695
 10
3127.95593555188
 20
-18426.67630099702
 10
3128.243517941684
 20
-18427.3843884236
 10
3128.658182527948
 20
-18428.08568851691
 10
3129.198337027191
 20
-18428.77754162703
 10
3129.861949705498
 20
-18429.45732483774
 10
3130.646502049668
 20
-18430.12246011209
 10
3131.549012955386
 20
-18430.77042241286
 10
3132.566051170486
 20
-18431.39875189171
 10
3133.693771751796
 20
-18432.00507013439
 10
3134.92789196425
 20
-18432.58707407239
 10
3136.263727912325
 20
-18433.14255629265
 10
3137.696206634127
 20
-18433.66940909775
 10
3139.219914303162
 20
-18434.16563668261
 10
3140.829060382529
 20
-18434.62935311471
 10
3142.517526088564
 20
-18435.05880060739
 10
3144.278935995166
 20
-18435.45235152707
 10
3146.106574684548
 20
-18435.80851045461
 10
3147.993542311848
 20
-18436.12592835672
 10
3149.932659161799
 20
-18436.403400587
 10
3151.916573360724
 20
-18436.63987700957
 10
3153.937760614673
 20
-18436.83445590246
 10
3155.988560753551
 20
-18436.98640223502
 10
3158.061189214175
 20
-18437.09513750266
 10
3160.147773322535
 20
-18437.16025190773
 10
3162.240411542147
 20
-18437.18149620979
  0
LINE
  5
2F5799
330
18
100
AcDbEntity
  8
0
 62
     8
100
AcDbLine
 10
3196.969324337431
 20
-18424.43757255284
 30
0.0000000000000047
 11
3197.692790612674
 21
-18424.43732006065
 31
0.0000000000000047
  0
LINE
  5
2F579A
330
18
100
AcDbEntity
  8
0
 62
     8
100
AcDbLine
 10
3197.067739467031
 20
-18426.72874548532
 30
0.0000000000000047
 11
3196.969324337431
 21
-18424.43757255284
 31
0.0000000000000047
  0
LINE
  5
2F579B
330
18
100
AcDbEntity
  8
0
 62
     8
100
AcDbLine
 10
3197.791205742275
 20
-18426.72849299314
 30
0.0000000000000047
 11
3197.067739467031
 21
-18426.72874548532
 31
0.0000000000000047
  0
ARC
  5
2F579C
330
18
100
AcDbEntity
  8
0
 62
     8
100
AcDbCircle
 10
3162.277832214371
 20
-18333.68945627576
 30
0.0000000000000047
 40
80.79773306447306
100
AcDbArc
 50
269.9918073596078
 51
274.2925890739377
  0
ARC
  5
2F579D
330
18
100
AcDbEntity
  8
0
 62
     8
100
AcDbCircle
 10
3162.20227940062
 20
-18333.17537716095
 30
0.0000000000000047
 40
81.31183654001794
100
AcDbArc
 50
265.1159765002711
 51
270.0450968902447
  0
ARC
  5
2F579E
330
18
100
AcDbEntity
  8
0
 62
     8
100
AcDbCircle
 10
3192.855263433505
 20
-18405.59761102343
 30
0.0000000000000047
 40
4.186849173383408
100
AcDbArc
 50
343.9385622545298
 51
16.65683244428192
  0
ARC
  5
2F579F
330
18
100
AcDbEntity
  8
0
 62
     8
100
AcDbCircle
 10
3130.872132221888
 20
-18405.27193476909
 30
0.0000000000000047
 40
4.215683781116303
100
AcDbArc
 50
162.273187099425
 51
194.6370903623651
  0
SPLINE
  5
2F57A0
330
18
100
AcDbEntity
  8
0
 62
     8
100
AcDbSpline
210
0.0
220
0.0
230
1.0
 70
     8
 71
     3
 72
    11
 73
     7
 74
     0
 42
0.000000001
 43
0.0000000001
 40
0.0
 40
0.0
 40
0.0
 40
0.0
 40
0.2758559440227504
 40
0.5517103004796289
 40
0.8275564010223323
 40
1.0
 40
1.0
 40
1.0
 40
1.0
 10
3126.873093429359
 20
-18392.66723465966
 30
0.0000000000000047
 10
3126.874325018607
 20
-18392.601829469
 30
0.0000000000000047
 10
3126.876788190017
 20
-18392.47101946407
 30
0.0000000000000047
 10
3126.881638757069
 20
-18392.33091273077
 30
0.0000000000000047
 10
3126.88645406288
 20
-18392.25173592362
 30
0.0000000000000047
 10
3126.890030070669
 20
-18392.25333265053
 30
0.0000000000000047
 10
3126.891405653586
 20
-18392.25394686347
 30
0.0000000000000047
  0
LINE
  5
2F57A1
330
18
100
AcDbEntity
  8
0
 62
     8
100
AcDbLine
 10
3126.676432781164
 20
-18404.36190207455
 30
0.0000000000000047
 11
3126.873093429359
 21
-18392.66723465966
 31
0.0000000000000047
  0
ARC
  5
2F57A2
330
18
100
AcDbEntity
  8
0
 62
     8
100
AcDbCircle
 10
3132.244380693739
 20
-18405.00164334681
 30
0.0000000000000047
 40
5.593364659491784
100
AcDbArc
 50
130.4729748175678
 51
175.9465613698188
  0
LINE
  5
2F57A3
330
18
100
AcDbEntity
  8
0
 62
     8
100
AcDbLine
 10
3128.810874000286
 20
-18388.57962489164
 30
0.0000000000000047
 11
3128.613787491823
 21
-18400.74670254626
 31
0.0000000000000047
  0
SPLINE
  5
2F57A4
330
18
100
AcDbEntity
  8
0
 62
     8
100
AcDbSpline
210
0.0
220
0.0
230
1.0
 70
     8
 71
     3
 72
    12
 73
     8
 74
     0
 42
0.000000001
 43
0.0000000001
 40
0.0
 40
0.0
 40
0.0
 40
0.0
 40
0.2147189828484802
 40
0.4294436758872605
 40
0.6441468431332165
 40
0.8588499770219682
 40
1.0
 40
1.0
 40
1.0
 40
1.0
 10
3129.036196997866
 20
-18387.77433282876
 30
0.0000000000000047
 10
3129.011355477344
 20
-18387.80390078473
 30
0.0000000000000047
 10
3128.961671775668
 20
-18387.86303748298
 30
0.0000000000000047
 10
3128.895476054301
 20
-18388.02792969763
 30
0.0000000000000047
 10
3128.84493311836
 20
-18388.22674116497
 30
0.0000000000000047
 10
3128.816979437095
 20
-18388.42024386
 30
0.0000000000000047
 10
3128.812607958097
 20
-18388.53436031952
 30
0.0000000000000047
 10
3128.810874000286
 20
-18388.57962489164
 30
0.0000000000000047
  0
ARC
  5
2F57A5
330
18
100
AcDbEntity
  8
0
 62
     8
100
AcDbCircle
 10
3141.361504958398
 20
-18402.1081612441
 30
0.0000000000000047
 40
18.90428135006676
100
AcDbArc
 50
111.7690287529472
 51
130.6914304279206
  0
SPLINE
  5
2F57A6
330
18
100
AcDbEntity
  8
0
 62
     8
100
AcDbSpline
210
0.0
220
0.0
230
1.0
 70
     8
 71
     3
 72
    12
 73
     8
 74
     0
 42
0.000000001
 43
0.0000000001
 40
0.0
 40
0.0
 40
0.0
 40
0.0
 40
0.2147050310925321
 40
0.4294074916910899
 40
0.6441020104974503
 40
0.8588013361283868
 40
1.0
 40
1.0
 40
1.0
 40
1.0
 10
3134.741621841258
 20
-18384.98356640903
 30
0.0000000000000047
 10
3134.738109387933
 20
-18384.91794171486
 30
0.0000000000000047
 10
3134.731084523334
 20
-18384.7866931122
 30
0.0000000000000047
 10
3134.664096922073
 20
-18384.63572448069
 30
0.0000000000000047
 10
3134.564177509171
 20
-18384.54266572809
 30
0.0000000000000047
 10
3134.453076443611
 20
-18384.51822588142
 30
0.0000000000000047
 10
3134.379673634528
 20
-18384.54241488254
 30
0.0000000000000047
 10
3134.350551866852
 20
-18384.55201160614
 30
0.0000000000000047
  0
LINE
  5
2F57A7
330
18
100
AcDbEntity
  8
0
 62
     8
100
AcDbLine
 10
3134.568361767994
 20
-18397.1361905673
 30
0.0000000000000047
 11
3134.741621841258
 21
-18384.98356640903
 31
0.0000000000000047
  0
ARC
  5
2F57A8
330
18
100
AcDbEntity
  8
0
 62
     8
100
AcDbCircle
 10
3153.048727190984
 20
-18443.57438347701
 30
0.0000000000000047
 40
49.98029278512046
100
AcDbArc
 50
100.6478826177422
 51
111.7003877087171
  0
LINE
  5
2F57A9
330
18
100
AcDbEntity
  8
0
 62
     8
100
AcDbLine
 10
3143.949965601803
 20
-18382.31279843207
 30
0.0000000000000047
 11
3143.813731820636
 21
-18394.45468755575
 31
0.0000000000000047
  0
SPLINE
  5
2F57AA
330
18
100
AcDbEntity
  8
0
 62
     8
100
AcDbSpline
210
0.0
220
0.0
230
1.0
 70
     8
 71
     3
 72
    12
 73
     8
 74
     0
 42
0.000000001
 43
0.0000000001
 40
0.0
 40
0.0
 40
0.0
 40
0.0
 40
0.214722961010815
 40
0.4294473479830188
 40
0.6441508555470697
 40
0.8588486322319324
 40
1.0
 40
1.0
 40
1.0
 40
1.0
 10
3144.509201440166
 20
-18381.60562031377
 30
0.0000000000000047
 10
3144.446739548691
 20
-18381.62418961313
 30
0.0000000000000047
 10
3144.321815350936
 20
-18381.66132833516
 30
0.0000000000000047
 10
3144.155122237692
 20
-18381.79699361228
 30
0.0000000000000047
 10
3144.028827017918
 20
-18381.97370486801
 30
0.0000000000000047
 10
3143.961099937127
 20
-18382.15537545386
 30
0.0000000000000047
 10
3143.953127825224
 20
-18382.26808928561
 30
0.0000000000000047
 10
3143.949965601803
 20
-18382.31279843207
 30
0.0000000000000047
  0
ARC
  5
2F57AB
330
18
100
AcDbEntity
  8
0
 62
     8
100
AcDbCircle
 10
3160.178266119098
 20
-18465.46309862293
 30
0.0000000000000047
 40
85.30882871240789
100
AcDbArc
 50
93.68036160973759
 51
100.5838682842882
  0
SPLINE
  5
2F57AC
330
18
100
AcDbEntity
  8
0
 62
     8
100
AcDbSpline
210
0.0
220
0.0
230
1.0
 70
     8
 71
     3
 72
    12
 73
     8
 74
     0
 42
0.000000001
 43
0.0000000001
 40
0.0
 40
0.0
 40
0.0
 40
0.0
 40
0.2147033072997925
 40
0.4294067912935362
 40
0.6440967411830057
 40
0.8587963953440628
 40
1.0
 40
1.0
 40
1.0
 40
1.0
 10
3155.325274964256
 20
-18380.88945323273
 30
0.0000000000000047
 10
3155.318827702759
 20
-18380.82249012511
 30
0.0000000000000047
 10
3155.305933174458
 20
-18380.68856385477
 30
0.0000000000000047
 10
3155.198914533073
 20
-18380.51558532274
 30
0.0000000000000047
 10
3155.04059127217
 20
-18380.39003311099
 30
0.0000000000000047
 10
3154.864755742021
 20
-18380.3295902925
 30
0.0000000000000047
 10
3154.74842410149
 20
-18380.3300297839
 30
0.0000000000000047
 10
3154.702269854313
 20
-18380.33020415087
 30
0.0000000000000047
  0
LINE
  5
2F57AD
330
18
100
AcDbEntity
  8
0
 62
     8
100
AcDbLine
 10
3155.234757679203
 20
-18393.0256198638
 30
0.0000000000000047
 11
3155.325274964256
 21
-18380.88945323273
 31
0.0000000000000047
  0
ARC
  5
2F57AE
330
18
100
AcDbEntity
  8
0
 62
     8
100
AcDbCircle
 10
3161.379996405651
 20
-18495.21163588148
 30
0.0000000000000047
 40
102.3706297165859
100
AcDbArc
 50
86.59849744375803
 51
93.44149539737887
  0
LINE
  5
2F57AF
330
18
100
AcDbEntity
  8
0
 62
     8
100
AcDbLine
 10
3167.495506747953
 20
-18380.88520578056
 30
0.0000000000000047
 11
3167.453907111405
 21
-18393.02135533921
 31
0.0000000000000047
  0
SPLINE
  5
2F57B0
330
18
100
AcDbEntity
  8
0
 62
     8
100
AcDbSpline
210
0.0
220
0.0
230
1.0
 70
     8
 71
     3
 72
    12
 73
     8
 74
     0
 42
0.000000001
 43
0.0000000001
 40
0.0
 40
0.0
 40
0.0
 40
0.0
 40
0.2147290540979187
 40
0.4294451437548094
 40
0.6441559085273743
 40
0.8588502639492164
 40
1.0
 40
1.0
 40
1.0
 40
1.0
 10
3168.12845987945
 20
-18380.32551836501
 30
0.0000000000000047
 10
3168.057584370489
 20
-18380.32751198774
 30
0.0000000000000047
 10
3167.915837631733
 20
-18380.33149911282
 30
0.0000000000000047
 10
3167.726391175297
 20
-18380.42300999791
 30
0.0000000000000047
 10
3167.583063809709
 20
-18380.56637234074
 30
0.0000000000000047
 10
3167.506818427944
 20
-18380.7303610342
 30
0.0000000000000047
 10
3167.498719344483
 20
-18380.84122878554
 30
0.0000000000000047
 10
3167.495506747953
 20
-18380.88520578056
 30
0.0000000000000047
  0
ARC
  5
2F57B1
330
18
100
AcDbEntity
  8
0
 62
     8
100
AcDbCircle
 10
3162.543639931139
 20
-18468.1699824308
 30
0.0000000000000047
 40
88.02181593707274
100
AcDbArc
 50
79.60163683315083
 51
86.36224619978725
  0
SPLINE
  5
2F57B2
330
18
100
AcDbEntity
  8
0
 62
     8
100
AcDbSpline
210
0.0
220
0.0
230
1.0
 70
     8
 71
     3
 72
    12
 73
     8
 74
     0
 42
0.000000001
 43
0.0000000001
 40
0.0
 40
0.0
 40
0.0
 40
0.0
 40
0.2147017600871569
 40
0.429402965321324
 40
0.6440951983340425
 40
0.8587989149270846
 40
1.0
 40
1.0
 40
1.0
 40
1.0
 10
3178.99273815411
 20
-18382.3005683856
 30
0.0000000000000047
 10
3178.986538496892
 20
-18382.23194882955
 30
0.0000000000000047
 10
3178.974139198478
 20
-18382.09470989479
 30
0.0000000000000047
 10
3178.877623403936
 20
-18381.89628685983
 30
0.0000000000000047
 10
3178.735285182839
 20
-18381.73332878162
 30
0.0000000000000047
 10
3178.577186741281
 20
-18381.63143543118
 30
0.0000000000000047
 10
3178.472373161219
 20
-18381.60447700577
 30
0.0000000000000047
 10
3178.430789594025
 20
-18381.59378156446
 30
0.0000000000000047
  0
LINE
  5
2F57B3
330
18
100
AcDbEntity
  8
0
 62
     8
100
AcDbLine
 10
3178.997357163483
 20
-18394.44240835117
 30
0.0000000000000047
 11
3178.99273815411
 21
-18382.3005683856
 31
0.0000000000000047
  0
ARC
  5
2F57B4
330
18
100
AcDbEntity
  8
0
 62
     8
100
AcDbCircle
 10
3169.266540778758
 20
-18447.03122848403
 30
0.0000000000000047
 40
53.48151821403841
100
AcDbArc
 50
68.95386800639757
 51
79.51679647224682
  0
LINE
  5
2F57B5
330
18
100
AcDbEntity
  8
0
 62
     8
100
AcDbLine
 10
3188.430254851547
 20
-18384.96482889401
 30
0.0000000000000047
 11
3188.472797416238
 21
-18397.11737773643
 31
0.0000000000000047
  0
SPLINE
  5
2F57B6
330
18
100
AcDbEntity
  8
0
 62
     8
100
AcDbSpline
210
0.0
220
0.0
230
1.0
 70
     8
 71
     3
 72
    12
 73
     8
 74
     0
 42
0.000000001
 43
0.0000000001
 40
0.0
 40
0.0
 40
0.0
 40
0.0
 40
0.2147197492025645
 40
0.4294410776401726
 40
0.6441480142828735
 40
0.8588480921686267
 40
1.0
 40
1.0
 40
1.0
 40
1.0
 10
3188.842249606748
 20
-18384.53299381881
 30
0.0000000000000047
 10
3188.796112151679
 20
-18384.52059288119
 30
0.0000000000000047
 10
3188.703836902204
 20
-18384.49579091476
 30
0.0000000000000047
 10
3188.580019302
 20
-18384.54886505161
 30
0.0000000000000047
 10
3188.486361546391
 20
-18384.66326508359
 30
0.0000000000000047
 10
3188.436857093508
 20
-18384.81198380014
 30
0.0000000000000047
 10
3188.432129925487
 20
-18384.92142002563
 30
0.0000000000000047
 10
3188.430254851547
 20
-18384.96482889402
 30
0.0000000000000047
  0
ARC
  5
2F57B7
330
18
100
AcDbEntity
  8
0
 62
     8
100
AcDbCircle
 10
3181.219569765602
 20
-18404.24011185552
 30
0.0000000000000047
 40
21.12997277029903
100
AcDbArc
 50
51.29188892459628
 51
68.85361418265428
  0
SPLINE
  5
2F57B8
330
18
100
AcDbEntity
  8
0
 62
     8
100
AcDbSpline
210
0.0
220
0.0
230
1.0
 70
     8
 71
     3
 72
    12
 73
     8
 74
     0
 42
0.000000001
 43
0.0000000001
 40
0.0
 40
0.0
 40
0.0
 40
0.0
 40
0.2147012229696807
 40
0.4294013900645323
 40
0.6440980675667749
 40
0.8588074678585172
 40
1.0
 40
1.0
 40
1.0
 40
1.0
 10
3194.669738794273
 20
-18388.55663992445
 30
0.0000000000000047
 10
3194.666849492943
 20
-18388.48682099248
 30
0.0000000000000047
 10
3194.661070904492
 20
-18388.34718347189
 30
0.0000000000000047
 10
3194.620674113573
 20
-18388.13179089338
 30
0.0000000000000047
 10
3194.561259305079
 20
-18387.94400600129
 30
0.0000000000000047
 10
3194.495041020993
 20
-18387.81461610093
 30
0.0000000000000047
 10
3194.450811167567
 20
-18387.76943368602
 30
0.0000000000000047
 10
3194.433264409789
 20
-18387.75150903042
 30
0.0000000000000047
  0
LINE
  5
2F57B9
330
18
100
AcDbEntity
  8
0
 62
     8
100
AcDbLine
 10
3194.737372572268
 20
-18400.72362519078
 30
0.0000000000000047
 11
3194.669738794273
 21
-18388.55663992445
 31
0.0000000000000047
  0
ARC
  5
2F57BA
330
18
100
AcDbEntity
  8
0
 62
     8
100
AcDbCircle
 10
3191.013684942986
 20
-18405.50440065181
 30
0.0000000000000047
 40
6.059840226374215
100
AcDbArc
 50
6.425988510895522
 51
52.08541061155059
  0
LINE
  5
2F57BB
330
18
100
AcDbEntity
  8
0
 62
     8
100
AcDbLine
 10
3196.958626614469
 20
-18392.64277457087
 30
0.0000000000000047
 11
3197.035452746288
 21
-18404.82618527872
 31
0.0000000000000047
  0
SPLINE
  5
2F57BC
330
18
100
AcDbEntity
  8
0
 62
     8
100
AcDbSpline
210
0.0
220
0.0
230
1.0
 70
     8
 71
     3
 72
    12
 73
     8
 74
     0
 42
0.000000001
 43
0.0000000001
 40
0.0
 40
0.0
 40
0.0
 40
0.0
 40
0.0123614233431668
 40
0.2824136151377121
 40
0.5524490372410532
 40
0.8224760384890235
 40
1.0
 40
1.0
 40
1.0
 40
1.0
 10
3196.958685631782
 20
-18392.22277147563
 30
0.0000000000000047
 10
3196.958691450448
 20
-18392.22216476959
 30
0.0000000000000047
 10
3196.958824385842
 20
-18392.2083037406
 30
0.0000000000000047
 10
3196.958305091403
 20
-18392.24834430861
 30
0.0000000000000047
 10
3196.957842856449
 20
-18392.34621773378
 30
0.0000000000000047
 10
3196.957805229155
 20
-18392.49058138861
 30
0.0000000000000047
 10
3196.958393337514
 20
-18392.59955105384
 30
0.0000000000000047
 10
3196.958626614469
 20
-18392.64277457087
 30
0.0000000000000047
  0
SPLINE
  5
2F57BD
330
18
100
AcDbEntity
  8
0
 62
     8
100
AcDbSpline
210
0.0
220
0.0
230
1.0
 70
    11
 71
     3
 72
    26
 73
    22
 74
     0
 42
0.000000001
 43
0.0000000001
 40
0.0
 40
0.0
 40
0.0
 40
0.0
 40
0.0536557160657955
 40
0.1073107484108666
 40
0.1609545051359216
 40
0.2146237893464336
 40
0.2683272450830309
 40
0.3220347609467206
 40
0.3757161861427561
 40
0.4293817679611673
 40
0.483055611960925
 40
0.5367410411630745
 40
0.5904242798226957
 40
0.6441019549740657
 40
0.6977821172785034
 40
0.7514690083602465
 40
0.8051483258273766
 40
0.8588146473645085
 40
0.9124869934350348
 40
0.966185147164111
 40
1.0
 40
1.0
 40
1.0
 40
1.0
 10
3192.261227204221
 20
-18393.04627985298
 30
0.0000000000000047
 10
3192.208174255649
 20
-18393.05237650934
 30
0.0000000000000047
 10
3192.102069034544
 20
-18393.06456974436
 30
0.0000000000000047
 10
3191.924875267601
 20
-18392.94263928036
 30
0.0000000000000047
 10
3191.759152047336
 20
-18392.73123623089
 30
0.0000000000000047
 10
3191.621991098359
 20
-18392.44403140509
 30
0.0000000000000047
 10
3191.530915587365
 20
-18392.11561323375
 30
0.0000000000000047
 10
3191.497344655323
 20
-18391.78207285766
 30
0.0000000000000047
 10
3191.525552085634
 20
-18391.48125965029
 30
0.0000000000000047
 10
3191.611909272039
 20
-18391.24708741943
 30
0.0000000000000047
 10
3191.745459425708
 20
-18391.10614810319
 30
0.0000000000000047
 10
3191.909770661777
 20
-18391.07458668711
 30
0.0000000000000047
 10
3192.085302740399
 20
-18391.15622925767
 30
0.0000000000000047
 10
3192.252088489138
 20
-18391.34186729958
 30
0.0000000000000047
 10
3192.39206216306
 20
-18391.61043388916
 30
0.0000000000000047
 10
3192.490836645169
 20
-18391.93143184789
 30
0.0000000000000047
 10
3192.538540541466
 20
-18392.26823141371
 30
0.0000000000000047
 10
3192.530715716352
 20
-18392.58324383487
 30
0.0000000000000047
 10
3192.46763367678
 20
-18392.83897521454
 30
0.0000000000000047
 10
3192.370711911094
 20
-18392.9929440214
 30
0.0000000000000047
 10
3192.291741294464
 20
-18393.03141481452
 30
0.0000000000000047
 10
3192.261227204221
 20
-18393.04627985298
 30
0.0000000000000047
1001
ACAD_SPLINE_DATA
1070
   100
1070
     1
1070
   101
1070
     0
1070
   102
1070
    15
1001
ACAD_SPLINE_DATA2
1070
   103
1070
     1
1070
   104
1070
    15
  0
SPLINE
  5
2F57BE
330
18
100
AcDbEntity
  8
0
 62
     8
100
AcDbSpline
210
0.0
220
0.0
230
1.0
 70
    11
 71
     3
 72
    26
 73
    22
 74
     0
 42
0.000000001
 43
0.0000000001
 40
0.0
 40
0.0
 40
0.0
 40
0.0
 40
0.0536901575700041
 40
0.1073813694228545
 40
0.1610533967989647
 40
0.2147195458225473
 40
0.2683984087408435
 40
0.322086121311894
 40
0.3757663472820766
 40
0.4294433016056417
 40
0.4831271598319874
 40
0.5368128659734286
 40
0.5904856404239266
 40
0.6441508298218062
 40
0.6978331401796738
 40
0.7515408450491871
 40
0.8052437974824211
 40
0.8589124575773931
 40
0.912557316328391
 40
0.966219200127233
 40
1.0
 40
1.0
 40
1.0
 40
1.0
 10
3130.812946014547
 20
-18392.83553712858
 30
0.0000000000000047
 10
3130.791764511343
 20
-18392.75453927164
 30
0.0000000000000047
 10
3130.749401089009
 20
-18392.59254196726
 30
0.0000000000000047
 10
3130.750987350761
 20
-18392.27084911656
 30
0.0000000000000047
 10
3130.801600021903
 20
-18391.93509538833
 30
0.0000000000000047
 10
3130.900601542512
 20
-18391.61570779064
 30
0.0000000000000047
 10
3131.037052484058
 20
-18391.35090072359
 30
0.0000000000000047
 10
3131.1972624848
 20
-18391.17027684031
 30
0.0000000000000047
 10
3131.363785854751
 20
-18391.0945171115
 30
0.0000000000000047
 10
3131.517669055037
 20
-18391.13205281786
 30
0.0000000000000047
 10
3131.640455362732
 20
-18391.27847113644
 30
0.0000000000000047
 10
3131.716887450995
 20
-18391.51698451762
 30
0.0000000000000047
 10
3131.73715515068
 20
-18391.82042962797
 30
0.0000000000000047
 10
3131.698588503135
 20
-18392.15449602041
 30
0.0000000000000047
 10
3131.606093637902
 20
-18392.48173067446
 30
0.0000000000000047
 10
3131.471277058735
 20
-18392.76556091062
 30
0.0000000000000047
 10
3131.310833215554
 20
-18392.97407814655
 30
0.0000000000000047
 10
3131.143653173116
 20
-18393.08429385603
 30
0.0000000000000047
 10
3130.989578877709
 20
-18393.08247800459
 30
0.0000000000000047
 10
3130.877444789325
 20
-18392.98755855335
 30
0.0000000000000047
 10
3130.83091959639
 20
-18392.87790025144
 30
0.0000000000000047
 10
3130.812946014547
 20
-18392.83553712858
 30
0.0000000000000047
1001
ACAD_SPLINE_DATA
1070
   100
1070
     1
1070
   101
1070
     0
1070
   102
1070
    15
1001
ACAD_SPLINE_DATA2
1070
   103
1070
     1
1070
   104
1070
    15
  0
LINE
  5
2F57BF
330
18
100
AcDbEntity
  8
0
 62
     8
100
AcDbLine
 10
3167.110741000366
 20
-18393.00148424387
 30
0.0000000000000047
 11
3167.217806186603
 21
-18392.77566065354
 31
0.0000000000000047
  0
LINE
  5
2F57C0
330
18
100
AcDbEntity
  8
0
 62
     8
100
AcDbLine
 10
3167.217806186603
 20
-18392.77566065354
 30
0.0000000000000047
 11
3167.314176971066
 21
-18381.26770055385
 31
0.0000000000000047
  0
LINE
  5
2F57C1
330
18
100
AcDbEntity
  8
0
 62
     8
100
AcDbLine
 10
3167.495506747953
 20
-18380.88520578056
 30
0.0000000000000047
 11
3167.314176971066
 21
-18381.26770055385
 31
0.0000000000000047
  0
LINE
  5
2F57C2
330
18
100
AcDbEntity
  8
0
 62
     8
100
AcDbLine
 10
3155.52225676987
 20
-18392.77974243996
 30
0.0000000000000047
 11
3155.646486057715
 21
-18393.00151837005
 31
0.0000000000000047
  0
LINE
  5
2F57C3
330
18
100
AcDbEntity
  8
0
 62
     8
100
AcDbLine
 10
3155.53945820215
 20
-18381.27180997063
 30
0.0000000000000047
 11
3155.325274964256
 21
-18380.88945323273
 31
0.0000000000000047
  0
LINE
  5
2F57C4
330
18
100
AcDbEntity
  8
0
 62
     8
100
AcDbLine
 10
3155.53945820215
 20
-18381.27180997063
 30
0.0000000000000047
 11
3155.52225676987
 21
-18392.77974243996
 31
0.0000000000000047
  0
SPLINE
  5
2F57C5
330
18
100
AcDbEntity
  8
0
 62
     8
100
AcDbSpline
210
0.0
220
0.0
230
1.0
 70
     8
 71
     3
 72
     9
 73
     5
 74
     0
 42
0.000000001
 43
0.0000000001
 40
0.0
 40
0.0
 40
0.0
 40
0.0
 40
0.8243909875357603
 40
1.0
 40
1.0
 40
1.0
 40
1.0
 10
3167.314176971066
 20
-18381.26770055385
 30
0.0000000000000047
 10
3167.317397273413
 20
-18381.19790487411
 30
0.0000000000000047
 10
3167.321303553801
 20
-18381.11324155199
 30
0.0000000000000047
 10
3167.365867822075
 20
-18381.04477469121
 30
0.0000000000000047
 10
3167.373693709218
 20
-18381.03275129341
 30
0.0000000000000047
  0
SPLINE
  5
2F57C6
330
18
100
AcDbEntity
  8
0
 62
     8
100
AcDbSpline
210
0.0
220
0.0
230
1.0
 70
     8
 71
     3
 72
     9
 73
     5
 74
     0
 42
0.000000001
 43
0.0000000001
 40
0.0
 40
0.0
 40
0.0
 40
0.0
 40
0.5390038973076753
 40
0.9999999999999998
 40
0.9999999999999998
 40
0.9999999999999998
 40
0.9999999999999998
 10
3155.462402008363
 20
-18380.99797045667
 30
0.0000000000000047
 10
3155.48696095831
 20
-18381.0438684175
 30
0.0000000000000047
 10
3155.532524543417
 20
-18381.12902171798
 30
0.0000000000000047
 10
3155.537270386832
 20
-18381.22675521117
 30
0.0000000000000047
 10
3155.539458202149
 20
-18381.27180997063
 30
0.0000000000000047
  0
LINE
  5
2F57C7
330
18
100
AcDbEntity
  8
0
 62
     8
100
AcDbLine
 10
3187.336250533839
 20
-18396.68501873495
 30
0.0000000000000047
 11
3187.5685881483
 21
-18385.21474592028
 31
0.0000000000000047
  0
LINE
  5
2F57C8
330
18
100
AcDbEntity
  8
0
 62
     8
100
AcDbLine
 10
3188.430254851547
 20
-18384.96482889401
 30
0.0000000000000047
 11
3187.5685881483
 21
-18385.21474592028
 31
0.0000000000000047
  0
LINE
  5
2F57C9
330
18
100
AcDbEntity
  8
0
 62
     8
100
AcDbLine
 10
3135.624720359835
 20
-18385.23287450632
 30
0.0000000000000047
 11
3134.741621841258
 21
-18384.98356640903
 31
0.0000000000000047
  0
LINE
  5
2F57CA
330
18
100
AcDbEntity
  8
0
 62
     8
100
AcDbLine
 10
3135.624720359835
 20
-18385.23287450632
 30
0.0000000000000047
 11
3135.741047295968
 21
-18396.67564203854
 31
0.0000000000000047
  0
SPLINE
  5
2F57CB
330
18
100
AcDbEntity
  8
0
 62
     8
100
AcDbSpline
210
0.0
220
0.0
230
1.0
 70
     8
 71
     3
 72
    11
 73
     7
 74
     0
 42
0.000000001
 43
0.0000000001
 40
0.0
 40
0.0
 40
0.0
 40
0.0
 40
0.300486517154343
 40
0.6009595994128443
 40
0.9013916215763376
 40
1.0
 40
1.0
 40
1.0
 40
1.0
 10
3187.5685881483
 20
-18385.21474592028
 30
0.0000000000000047
 10
3187.574534713013
 20
-18385.14837647339
 30
0.0000000000000047
 10
3187.586427576564
 20
-18385.01564054704
 30
0.0000000000000047
 10
3187.663045784935
 20
-18384.86744078885
 30
0.0000000000000047
 10
3187.744377589909
 20
-18384.78243767154
 30
0.0000000000000047
 10
3187.802830259495
 20
-18384.77484691258
 30
0.0000000000000047
 10
3187.817274719139
 20
-18384.77297113151
 30
0.0000000000000047
  0
SPLINE
  5
2F57CC
330
18
100
AcDbEntity
  8
0
 62
     8
100
AcDbSpline
210
0.0
220
0.0
230
1.0
 70
     8
 71
     3
 72
    11
 73
     7
 74
     0
 42
0.000000001
 43
0.0000000001
 40
0.0
 40
0.0
 40
0.0
 40
0.0
 40
0.2094054697649285
 40
0.5065009245584978
 40
0.8037188973504092
 40
0.9999999999999998
 40
0.9999999999999998
 40
0.9999999999999998
 40
0.9999999999999998
 10
3135.385445227061
 20
-18384.78953599753
 30
0.0000000000000047
 10
3135.414258978701
 20
-18384.79816350938
 30
0.0000000000000047
 10
3135.48395243925
 20
-18384.81903136317
 30
0.0000000000000047
 10
3135.565544001897
 20
-18384.93062159963
 30
0.0000000000000047
 10
3135.616258007063
 20
-18385.07835398294
 30
0.0000000000000047
 10
3135.622312346404
 20
-18385.18890476107
 30
0.0000000000000047
 10
3135.624720359835
 20
-18385.23287450632
 30
0.0000000000000047
  0
LWPOLYLINE
  5
2F57CD
330
18
100
AcDbEntity
  8
0
 62
     8
100
AcDbPolyline
 90
        3
 70
   128
 43
0.0
 10
3197.693636856721
 20
-18424.44690872079
 10
3197.693262866596
 20
-18424.44506940824
 10
3197.692790612674
 20
-18424.43732006065
  0
LINE
  5
2F57CE
330
18
100
AcDbEntity
  8
0
 62
     8
100
AcDbLine
 10
3198.176509971964
 20
-18423.98681052906
 30
0.0000000000000047
 11
3198.175588111611
 21
-18423.98088889567
 31
0.0000000000000047
  0
ELLIPSE
  5
2F57CF
330
18
100
AcDbEntity
  8
0
 62
     8
100
AcDbEllipse
 10
3196.970117651559
 20
-18424.2871586196
 30
0.0000000000000047
 11
0.1345523200816842
 21
-0.128851805841316
 31
0.0
210
0.0
220
0.0
230
1.0
 40
0.7047185726581673
 41
5.301174345644581
 42
5.649105566350026
  0
ELLIPSE
  5
2F57D0
330
18
100
AcDbEntity
  8
0
 62
     8
100
AcDbEllipse
 10
3197.068532861048
 20
-18426.57833341196
 30
0.0000000000000047
 11
0.1274639152926739
 21
0.1331030280665118
 31
0.0
210
0.0
220
0.0
230
1.0
 40
0.6968548365938064
 41
4.078309239555349
 42
5.64910556634985
  0
ARC
  5
2F57D1
330
18
100
AcDbEntity
  8
0
 62
     8
100
AcDbCircle
 10
3198.16097178238
 20
-18423.30985977234
 30
0.0000000000000047
 40
0.0190856227082955
100
AcDbArc
 50
2.410187735211638
 51
17.78639275016525
  0
LINE
  5
2F57D2
330
18
100
AcDbEntity
  8
0
 62
     8
100
AcDbLine
 10
3197.226353751242
 20
-18426.48882582889
 30
0.0000000000000047
 11
3197.226170357469
 21
-18426.5237233342
 31
0.0000000000000047
  0
LINE
  5
2F57D3
330
18
100
AcDbEntity
  8
0
 62
     8
100
AcDbLine
 10
3197.226222685305
 20
-18426.48201224447
 30
0.0000000000000047
 11
3197.226353751242
 21
-18426.48882582889
 31
0.0000000000000047
  0
ARC
  5
2F57D4
330
18
100
AcDbEntity
  8
0
 62
     8
100
AcDbCircle
 10
3203.960470700981
 20
-18426.57926919004
 30
0.0000000000000047
 40
6.171069427103393
100
AcDbArc
 50
179.4824472131744
 51
181.385615195379
  0
SPLINE
  5
2F57D5
330
18
100
AcDbEntity
  8
0
 62
     8
100
AcDbSpline
210
0.0
220
0.0
230
1.0
 70
     8
 71
     3
 72
    12
 73
     8
 74
     0
 42
0.000000001
 43
0.0000000001
 40
0.0
 40
0.0
 40
0.0
 40
0.0
 40
0.1441788475651288
 40
0.3589770571516407
 40
0.5729172410347898
 40
0.7864504460891589
 40
1.0
 40
1.0
 40
1.0
 40
1.0
 10
3197.789653036654
 20
-18426.52352667684
 30
0.0000000000000047
 10
3197.813796136592
 20
-18426.52200888431
 30
0.0000000000000047
 10
3197.873907721002
 20
-18426.51822987854
 30
0.0000000000000047
 10
3197.964516046233
 20
-18426.48171629894
 30
0.0000000000000047
 10
3198.045941117142
 20
-18426.41365402037
 30
0.0000000000000047
 10
3198.101456996218
 20
-18426.32373491431
 30
0.0000000000000047
 10
3198.108874747096
 20
-18426.25630879359
 30
0.0000000000000047
 10
3198.112583764512
 20
-18426.22259444268
 30
0.0000000000000047
  0
LINE
  5
2F57D6
330
18
100
AcDbEntity
  8
0
 62
     8
100
AcDbLine
 10
3198.274435073352
 20
-18426.2821151819
 30
0.0000000000000047
 11
3198.274925188856
 21
-18426.27798549376
 31
0.0000000000000047
  0
LINE
  5
2F57D7
330
18
100
AcDbEntity
  8
0
 62
     8
100
AcDbLine
 10
3197.226170357469
 20
-18426.5237233342
 30
0.0000000000000047
 11
3197.789653036655
 21
-18426.52352667684
 31
0.0000000000000047
  0
LINE
  5
2F57D8
330
18
100
AcDbEntity
  8
0
 62
     8
100
AcDbLine
 10
3198.112583764512
 20
-18426.22259444268
 30
0.0000000000000047
 11
3198.115350336716
 21
-18425.69615089425
 31
0.0000000000000047
  0
ELLIPSE
  5
2F57D9
330
18
100
AcDbEntity
  8
0
 62
     8
100
AcDbEllipse
 10
3198.117689118563
 20
-18425.75069673031
 30
0.0000000000000047
 11
0.1581814277720241
 21
0.1574072619521985
 31
0.0
210
0.0
220
0.0
230
1.0
 40
0.1831975075082375
 41
6.117438392251051
 42
7.688234719046986
  0
LINE
  5
2F57DA
330
18
100
AcDbEntity
  8
0
 62
     8
100
AcDbLine
 10
3195.594298696176
 20
-18401.59280825489
 30
0.0000000000000047
 11
3195.819813268131
 21
-18392.64317202059
 31
0.0000000000000047
  0
LINE
  5
2F57DB
330
18
100
AcDbEntity
  8
0
 62
     8
100
AcDbLine
 10
3196.958626614469
 20
-18392.64277457087
 30
0.0000000000000047
 11
3195.819813268131
 21
-18392.64317202059
 31
0.0000000000000047
  0
SPLINE
  5
2F57DC
330
18
100
AcDbEntity
  8
0
 62
     8
100
AcDbSpline
210
0.0
220
0.0
230
1.0
 70
     8
 71
     3
 72
    11
 73
     7
 74
     0
 42
0.000000001
 43
0.0000000001
 40
0.0
 40
0.0
 40
0.0
 40
0.0
 40
0.2759000911396995
 40
0.5517918713627812
 40
0.8276407276106604
 40
1.0
 40
1.0
 40
1.0
 40
1.0
 10
3195.819813268131
 20
-18392.64317202059
 30
0.0000000000000047
 10
3195.821628184004
 20
-18392.57776348982
 30
0.0000000000000047
 10
3195.825257961079
 20
-18392.44694839859
 30
0.0000000000000047
 10
3195.831156978054
 20
-18392.30684076199
 30
0.0000000000000047
 10
3195.835715320383
 20
-18392.22767194554
 30
0.0000000000000047
 10
3195.836862022306
 20
-18392.2292644683
 30
0.0000000000000047
 10
3195.83730298867
 20
-18392.22987687589
 30
0.0000000000000047
  0
ARC
  5
2F57DD
330
18
100
AcDbEntity
  8
0
 62
     8
100
AcDbCircle
 10
3191.588186280109
 20
-18392.17468708414
 30
0.0000000000000047
 40
4.251475747335022
100
AcDbArc
 50
336.4153731899872
 51
357.8696343187849
  0
LINE
  5
2F57DE
330
18
100
AcDbEntity
  8
0
 62
     8
100
AcDbLine
 10
3128.011906775696
 20
-18392.66683720994
 30
0.0000000000000047
 11
3126.873093429359
 21
-18392.66723465966
 31
0.0000000000000047
  0
LINE
  5
2F57DF
330
18
100
AcDbEntity
  8
0
 62
     8
100
AcDbLine
 10
3128.011906775696
 20
-18392.66683720994
 30
0.0000000000000047
 11
3128.13792163774
 21
-18401.24676175293
 31
0.0000000000000047
  0
SPLINE
  5
2F57E0
330
18
100
AcDbEntity
  8
0
 62
     8
100
AcDbSpline
210
0.0
220
0.0
230
1.0
 70
     8
 71
     3
 72
    12
 73
     8
 74
     0
 42
0.000000001
 43
0.0000000001
 40
0.0
 40
0.0
 40
0.0
 40
0.0
 40
0.2145399809578734
 40
0.4290814147923667
 40
0.643622074636428
 40
0.8582570860355417
 40
1.0
 40
1.0
 40
1.0
 40
1.0
 10
3128.018481719034
 20
-18392.28338906842
 30
0.0000000000000047
 10
3128.016307169493
 20
-18392.26551827541
 30
0.0000000000000047
 10
3128.011958055683
 20
-18392.22977656836
 30
0.0000000000000047
 10
3128.008957932742
 20
-18392.26800856515
 30
0.0000000000000047
 10
3128.008461325423
 20
-18392.37116605385
 30
0.0000000000000047
 10
3128.009776359374
 20
-18392.51415483669
 30
0.0000000000000047
 10
3128.011300554487
 20
-18392.62339063476
 30
0.0000000000000047
 10
3128.011906775696
 20
-18392.66683720994
 30
0.0000000000000047
  0
ARC
  5
2F57E1
330
18
100
AcDbEntity
  8
0
 62
     8
100
AcDbCircle
 10
3132.334084306484
 20
-18391.83759508709
 30
0.0000000000000047
 40
4.338566349219308
100
AcDbArc
 50
185.8976333427335
 51
202.8570173838229
  0
ARC
  5
2F57E2
330
18
100
AcDbEntity
  8
0
 62
     8
100
AcDbCircle
 10
3161.411637775094
 20
-18489.05506635997
 30
0.0000000000000047
 40
96.26125723791597
100
AcDbArc
 50
86.5951704185769
 51
93.44482242255857
  0
ARC
  5
2F57E3
330
18
100
AcDbEntity
  8
0
 62
     8
100
AcDbCircle
 10
3169.485158096636
 20
-18440.13431231171
 30
0.0000000000000047
 40
48.08599727662565
100
AcDbArc
 50
68.17739074305243
 51
78.65209439485392
  0
ARC
  5
2F57E4
330
18
100
AcDbEntity
  8
0
 62
     8
100
AcDbCircle
 10
3161.419789260019
 20
-18487.43672316585
 30
0.0000000000000047
 40
96.14722365955319
100
AcDbArc
 50
86.5362118703248
 51
93.51548000547625
  0
ARC
  5
2F57E5
330
18
100
AcDbEntity
  8
0
 62
     8
100
AcDbCircle
 10
3152.808315328738
 20
-18436.54267134538
 30
0.0000000000000047
 40
44.43132432213314
100
AcDbArc
 50
101.6584791872114
 51
112.60588700252
  0
ARC
  5
2F57E6
330
18
100
AcDbEntity
  8
0
 62
     8
100
AcDbCircle
 10
3169.300337105556
 20
-18431.95128039576
 30
0.0000000000000047
 40
46.73763383976401
100
AcDbArc
 50
68.06186250376192
 51
78.029325095944
  0
ARC
  5
2F57E7
330
18
100
AcDbEntity
  8
0
 62
     8
100
AcDbCircle
 10
3161.470849453712
 20
-18477.82862575148
 30
0.0000000000000047
 40
93.35637656290918
100
AcDbArc
 50
86.42885695340357
 51
93.64585522775367
  0
ARC
  5
2F57E8
330
18
100
AcDbEntity
  8
0
 62
     8
100
AcDbCircle
 10
3153.541084436048
 20
-18430.16064251425
 30
0.0000000000000047
 40
44.93840221418486
100
AcDbArc
 50
102.3812386673565
 51
110.9225413529336
  0
LINE
  5
2F57E9
330
18
100
AcDbEntity
  8
0
 62
     8
100
AcDbLine
 10
3186.761764387362
 20
-18388.59802245334
 30
0.0000000000000047
 11
3186.613618015289
 21
-18395.19424546343
 31
0.0000000000000047
  0
LINE
  5
2F57EA
330
18
100
AcDbEntity
  8
0
 62
     8
100
AcDbLine
 10
3137.493333520634
 20
-18388.18529636773
 30
0.0000000000000047
 11
3137.570552173548
 21
-18394.79491240941
 31
0.0000000000000047
  0
ARC
  5
2F57EB
330
18
100
AcDbEntity
  8
0
 62
     8
100
AcDbCircle
 10
3169.388322338568
 20
-18431.79430792599
 30
0.0000000000000047
 40
49.71107036534257
100
AcDbArc
 50
68.55594955849843
 51
78.85980841476538
  0
ARC
  5
2F57EC
330
18
100
AcDbEntity
  8
0
 62
     8
100
AcDbCircle
 10
3161.464611326845
 20
-18478.89935292525
 30
0.0000000000000047
 40
97.55036776887727
100
AcDbArc
 50
86.5634855322249
 51
93.48248109539526
  0
ARC
  5
2F57ED
330
18
100
AcDbEntity
  8
0
 62
     8
100
AcDbCircle
 10
3152.983445293816
 20
-18428.09673109477
 30
0.0000000000000047
 40
45.95128502001921
100
AcDbArc
 50
101.3479473285006
 51
112.1908929354617
  0
ARC
  5
2F57EE
330
18
100
AcDbEntity
  8
0
 62
     8
100
AcDbCircle
 10
3169.45450826491
 20
-18434.00368623079
 30
0.0000000000000047
 40
49.24950758033462
100
AcDbArc
 50
68.49504694729444
 51
78.83133260799865
  0
ARC
  5
2F57EF
330
18
100
AcDbEntity
  8
0
 62
     8
100
AcDbCircle
 10
3161.451867837941
 20
-18481.31946498336
 30
0.0000000000000047
 40
97.31098459348499
100
AcDbArc
 50
86.56064381511861
 51
93.48588683529016
  0
ARC
  5
2F57F0
330
18
100
AcDbEntity
  8
0
 62
     8
100
AcDbCircle
 10
3153.413979622543
 20
-18432.27679554273
 30
0.0000000000000047
 40
47.52470386690465
100
AcDbArc
 50
101.5335189617379
 51
110.8986498681268
  0
ARC
  5
2F57F1
330
18
100
AcDbEntity
  8
0
 62
     8
100
AcDbCircle
 10
3148.134750730844
 20
-18417.62321779395
 30
0.0000000000000047
 40
31.95332146930959
100
AcDbArc
 50
111.4280580440907
 51
112.9895239823995
  0
LINE
  5
2F57F2
330
18
100
AcDbEntity
  8
0
 62
     8
100
AcDbLine
 10
3187.504192913763
 20
-18388.3937627604
 30
0.0000000000000047
 11
3186.761764387362
 21
-18388.59802245334
 31
0.0000000000000047
  0
LINE
  5
2F57F3
330
18
100
AcDbEntity
  8
0
 62
     8
100
AcDbLine
 10
3136.461158052008
 20
-18387.8786050567
 30
0.0000000000000047
 11
3137.493333520634
 21
-18388.18529636773
 31
0.0000000000000047
  0
LWPOLYLINE
  5
2F57F4
330
18
100
AcDbEntity
  8
0
 62
     8
100
AcDbPolyline
 90
        4
 70
   128
 43
0.0
 10
3166.029216799811
 20
-18378.73798248845
 10
3165.928941923877
 20
-18377.58358536488
 10
3165.528010978051
 20
-18372.9660863476
 10
3165.166850225503
 20
-18368.80301333656
  0
LWPOLYLINE
  5
2F57F5
330
18
100
AcDbEntity
  8
0
 62
     8
100
AcDbPolyline
 90
        4
 70
   128
 43
0.0
 10
3159.361913694335
 20
-18368.75438359851
 10
3159.261494596509
 20
-18369.90701910373
 10
3158.8595581258
 20
-18374.51767415134
 10
3158.496842304955
 20
-18378.67488452053
  0
LINE
  5
2F57F6
330
18
100
AcDbEntity
  8
0
 62
     8
100
AcDbLine
 10
3157.628536094952
 20
-18378.18040224538
 30
0.0000000000000047
 11
3157.110169962557
 21
-18338.33064677141
 31
0.0000000000000047
  0
LINE
  5
2F57F7
330
18
100
AcDbEntity
  8
0
 62
     8
100
AcDbLine
 10
3157.628748413161
 20
-18378.18009392124
 30
0.0000000000000047
 11
3157.628536094952
 21
-18378.18040224538
 31
0.0000000000000047
  0
LINE
  5
2F57F8
330
18
100
AcDbEntity
  8
0
 62
     8
100
AcDbLine
 10
3166.91286706936
 20
-18378.25550628532
 30
0.0000000000000047
 11
3166.91286207581
 21
-18378.25786705555
 31
0.0000000000000047
  0
LINE
  5
2F57F9
330
18
100
AcDbEntity
  8
0
 62
     8
100
AcDbLine
 10
3166.91286706936
 20
-18378.25550628532
 30
0.0000000000000047
 11
3167.847589863137
 21
-18338.4206020201
 31
0.0000000000000047
  0
LWPOLYLINE
  5
2F57FA
330
18
100
AcDbEntity
  8
0
 62
     8
100
AcDbPolyline
 90
        4
 70
   128
 43
0.0
 10
3177.146773415201
 20
-18380.09874524191
 10
3176.808358313682
 20
-18378.91250876235
 10
3175.454820707916
 20
-18374.16769704644
 10
3174.234661475352
 20
-18369.88986637824
  0
LWPOLYLINE
  5
2F57FB
330
18
100
AcDbEntity
  8
0
 62
     8
100
AcDbPolyline
 90
        4
 70
   128
 43
0.0
 10
3150.229185395864
 20
-18369.68877299069
 10
3149.888658672546
 20
-18370.86921614869
 10
3148.52635286864
 20
-18375.59113836638
 10
3147.297882071497
 20
-18379.84869819324
  0
LINE
  5
2F57FC
330
18
100
AcDbEntity
  8
0
 62
     8
100
AcDbLine
 10
3157.110170974273
 20
-18338.33052882546
 30
0.0000000000000047
 11
3157.110169962557
 21
-18338.33064677141
 31
0.0000000000000047
  0
LWPOLYLINE
  5
2F57FD
330
18
100
AcDbEntity
  8
0
 62
     8
100
AcDbPolyline
 90
        3
 70
   128
 43
0.0
 10
3160.775924954573
 20
-18347.01108118391
 10
3158.777850131777
 20
-18342.27959702209
 10
3157.110170974273
 20
-18338.33052882546
  0
LINE
  5
2F57FE
330
18
100
AcDbEntity
  8
0
 62
     8
100
AcDbLine
 10
3160.775936764725
 20
-18347.01121384451
 30
0.0000000000000047
 11
3160.775924954573
 21
-18347.01108118391
 31
0.0000000000000047
  0
LINE
  5
2F57FF
330
18
100
AcDbEntity
  8
0
 62
     8
100
AcDbLine
 10
3160.942477198679
 20
-18359.80751614221
 30
0.0000000000000047
 11
3160.775936764725
 21
-18347.01121384451
 31
0.0000000000000047
  0
SPLINE
  5
2F5800
330
18
100
AcDbEntity
  8
0
 62
     8
100
AcDbSpline
210
0.0
220
0.0
230
1.0
 70
     8
 71
     3
 72
    11
 73
     7
 74
     0
 42
0.000000001
 43
0.0000000001
 40
0.0
 40
0.0
 40
0.0
 40
0.0
 40
0.0040410882352441
 40
0.3890371979992625
 40
0.779670360924404
 40
1.0
 40
1.0
 40
1.0
 40
1.0
 10
3160.745558823212
 20
-18360.14011107054
 30
0.0000000000000047
 10
3160.745760717492
 20
-18360.13939126458
 30
0.0000000000000047
 10
3160.765197161405
 20
-18360.07009525374
 30
0.0000000000000047
 10
3160.804884903327
 20
-18359.93689468281
 30
0.0000000000000047
 10
3160.862124766425
 20
-18359.80171443047
 30
0.0000000000000047
 10
3160.905437183559
 20
-18359.80772392432
 30
0.0000000000000047
 10
3160.921056807542
 20
-18359.80989110963
 30
0.0000000000000047
  0
LINE
  5
2F5801
330
18
100
AcDbEntity
  8
0
 62
     8
100
AcDbLine
 10
3163.732414701929
 20
-18347.03584664731
 30
0.0000000000000047
 11
3163.732425115414
 21
-18347.03594679251
 31
0.0000000000000047
  0
SPLINE
  5
2F5802
330
18
100
AcDbEntity
  8
0
 62
     8
100
AcDbSpline
210
0.0
220
0.0
230
1.0
 70
     8
 71
     3
 72
    10
 73
     6
 74
     0
 42
0.000000001
 43
0.0000000001
 40
0.0
 40
0.0
 40
0.0
 40
0.0
 40
0.4966948904953421
 40
0.999996956869834
 40
1.0
 40
1.0
 40
1.0
 40
1.0
 10
3167.847590525687
 20
-18338.42047594529
 30
0.0000000000000047
 10
3167.177442496493
 20
-18339.84465304806
 30
0.0000000000000047
 10
3165.828231939531
 20
-18342.71195206012
 30
0.0000000000000047
 10
3164.343042094768
 20
-18345.60633370986
 30
0.0000000000000047
 10
3163.732418393939
 20
-18347.03583800411
 30
0.0000000000000047
 10
3163.732414701928
 20
-18347.03584664731
 30
0.0000000000000047
  0
LINE
  5
2F5803
330
18
100
AcDbEntity
  8
0
 62
     8
100
AcDbLine
 10
3167.847589863137
 20
-18338.4206020201
 30
0.0000000000000047
 11
3167.847590525687
 21
-18338.42047594529
 31
0.0000000000000047
  0
SPLINE
  5
2F5804
330
18
100
AcDbEntity
  8
0
 62
     8
100
AcDbSpline
210
0.0
220
0.0
230
1.0
 70
     8
 71
     3
 72
    11
 73
     7
 74
     0
 42
0.000000001
 43
0.0000000001
 40
0.0
 40
0.0
 40
0.0
 40
0.0
 40
0.2933113103193048
 40
0.6398908707648856
 40
0.9963298599340888
 40
1.0
 40
1.0
 40
1.0
 40
1.0
 10
3163.432349120119
 20
-18359.82829848131
 30
0.0000000000000047
 10
3163.457749513974
 20
-18359.82422754722
 30
0.0000000000000047
 10
3163.513163265747
 20
-18359.81534635691
 30
0.0000000000000047
 10
3163.582445903936
 20
-18359.95714462458
 30
0.0000000000000047
 10
3163.624262070009
 20
-18360.09281228711
 30
0.0000000000000047
 10
3163.64578657483
 20
-18360.16368602775
 30
0.0000000000000047
 10
3163.646005947074
 20
-18360.16440835477
 30
0.0000000000000047
  0
LINE
  5
2F5805
330
18
100
AcDbEntity
  8
0
 62
     8
100
AcDbLine
 10
3163.432349120118
 20
-18359.82829848131
 30
0.0000000000000047
 11
3163.732425115414
 21
-18347.03594679251
 31
0.0000000000000047
  0
SPLINE
  5
2F5806
330
18
100
AcDbEntity
  8
0
 62
     8
100
AcDbSpline
210
0.0
220
0.0
230
1.0
 70
     8
 71
     3
 72
    15
 73
    11
 74
     0
 42
0.000000001
 43
0.0000000001
 40
0.0
 40
0.0
 40
0.0
 40
0.0
 40
0.1323166488647001
 40
0.265248621805279
 40
0.3980519069099282
 40
0.5304068949888883
 40
0.6127642592523452
 40
0.7444124153261032
 40
0.8758788288919841
 40
1.0
 40
1.0
 40
1.0
 40
1.0
 10
3145.863029346494
 20
-18339.72421552928
 30
0.0000000000000047
 10
3145.816781549956
 20
-18339.70422130427
 30
0.0000000000000047
 10
3145.724070886569
 20
-18339.6641398733
 30
0.0000000000000047
 10
3145.521878417369
 20
-18339.62800253099
 30
0.0000000000000047
 10
3145.300813997902
 20
-18339.61541252674
 30
0.0000000000000047
 10
3145.108191929948
 20
-18339.62737641323
 30
0.0000000000000047
 10
3144.936060760062
 20
-18339.65617087971
 30
0.0000000000000047
 10
3144.793327468095
 20
-18339.70042272346
 30
0.0000000000000047
 10
3144.685356465694
 20
-18339.7656008446
 30
0.0000000000000047
 10
3144.672717088882
 20
-18339.81419015076
 30
0.0000000000000047
 10
3144.666579019797
 20
-18339.83778660828
 30
0.0000000000000047
  0
LINE
  5
2F5807
330
18
100
AcDbEntity
  8
0
 62
     8
100
AcDbLine
 10
3146.273733217242
 20
-18379.48203333936
 30
0.0000000000000047
 11
3145.863029346493
 21
-18339.72421552928
 31
0.0000000000000047
  0
LINE
  5
2F5808
330
18
100
AcDbEntity
  8
0
 62
     8
100
AcDbLine
 10
3146.274396032473
 20
-18379.4816679552
 30
0.0000000000000047
 11
3146.273733217242
 21
-18379.48203333936
 31
0.0000000000000047
  0
LINE
  5
2F5809
330
18
100
AcDbEntity
  8
0
 62
     8
100
AcDbLine
 10
3178.177411220201
 20
-18379.7465535905
 30
0.0000000000000047
 11
3178.177513851364
 21
-18379.74892245214
 31
0.0000000000000047
  0
LINE
  5
2F580A
330
18
100
AcDbEntity
  8
0
 62
     8
100
AcDbLine
 10
3178.177411220201
 20
-18379.7465535905
 30
0.0000000000000047
 11
3178.999157970546
 21
-18340.00180652289
 31
0.0000000000000047
  0
SPLINE
  5
2F580B
330
18
100
AcDbEntity
  8
0
 62
     8
100
AcDbSpline
210
0.0
220
0.0
230
1.0
 70
     8
 71
     3
 72
    14
 73
    10
 74
     0
 42
0.000000001
 43
0.0000000001
 40
0.0
 40
0.0
 40
0.0
 40
0.0
 40
0.0537068673585042
 40
0.120351093239523
 40
0.2283848783361874
 40
0.4463409562303269
 40
0.6881965252032052
 40
0.9305825182603056
 40
1.0
 40
1.0
 40
1.0
 40
1.0
 10
3182.677382207549
 20
-18379.67159119568
 30
0.0000000000000047
 10
3182.623853781163
 20
-18379.64737641396
 30
0.0000000000000047
 10
3182.503902554219
 20
-18379.59311379177
 30
0.0000000000000047
 10
3182.264792769995
 20
-18379.39810661578
 30
0.0000000000000047
 10
3181.900869754771
 20
-18379.00380312104
 30
0.0000000000000047
 10
3181.47651844634
 20
-18378.38543341698
 30
0.0000000000000047
 10
3181.069132798604
 20
-18377.63256240173
 30
0.0000000000000047
 10
3180.800220949404
 20
-18377.04414275949
 30
0.0000000000000047
 10
3180.698515708416
 20
-18376.7285562946
 30
0.0000000000000047
 10
3180.67587285072
 20
-18376.6582965976
 30
0.0000000000000047
  0
SPLINE
  5
2F580C
330
18
100
AcDbEntity
  8
0
 62
     8
100
AcDbSpline
210
0.0
220
0.0
230
1.0
 70
     8
 71
     3
 72
    21
 73
    17
 74
     0
 42
0.000000001
 43
0.0000000001
 40
0.0
 40
0.0
 40
0.0
 40
0.0
 40
0.0120191681939203
 40
0.0364949368981249
 40
0.067553961475812
 40
0.1191687630184619
 40
0.2276509538426445
 40
0.3538656735988146
 40
0.4803484712459375
 40
0.6240879033676953
 40
0.7674505154532384
 40
0.8378752883725882
 40
0.9301669509887371
 40
0.9623993392416711
 40
0.9949568114344545
 40
1.0
 40
1.0
 40
1.0
 40
1.0
 10
3180.646159212694
 20
-18374.42602627622
 30
0.0000000000000047
 10
3180.665877790023
 20
-18374.42755407313
 30
0.0000000000000047
 10
3180.72575117092
 20
-18374.43219306738
 30
0.0000000000000047
 10
3180.865988407126
 20
-18374.51207908973
 30
0.0000000000000047
 10
3181.07987340634
 20
-18374.68568694386
 30
0.0000000000000047
 10
3181.424169168462
 20
-18375.07612767638
 30
0.0000000000000047
 10
3181.835098602182
 20
-18375.69869038277
 30
0.0000000000000047
 10
3182.25443738915
 20
-18376.47699722915
 30
0.0000000000000047
 10
3182.618370758101
 20
-18377.30833882459
 30
0.0000000000000047
 10
3182.915280027547
 20
-18378.14258677393
 30
0.0000000000000047
 10
3183.065676393037
 20
-18378.81453608754
 30
0.0000000000000047
 10
3183.092489919797
 20
-18379.32142971889
 30
0.0000000000000047
 10
3183.032015557137
 20
-18379.59658992035
 30
0.0000000000000047
 10
3182.868200107952
 20
-18379.70080724421
 30
0.0000000000000047
 10
3182.756301318295
 20
-18379.69788900299
 30
0.0000000000000047
 10
3182.686715416516
 20
-18379.67470125265
 30
0.0000000000000047
 10
3182.677382207549
 20
-18379.67159119568
 30
0.0000000000000047
  0
LWPOLYLINE
  5
2F580D
330
18
100
AcDbEntity
  8
0
 62
     8
100
AcDbPolyline
 90
        4
 70
   128
 43
0.0
 10
3185.948561936141
 20
-18382.79954786247
 10
3185.424636673942
 20
-18381.5529981971
 10
3183.32895045158
 20
-18376.56691751771
 10
3181.43949120182
 20
-18372.07157782972
  0
LWPOLYLINE
  5
2F580E
330
18
100
AcDbEntity
  8
0
 62
     8
100
AcDbPolyline
 90
        4
 70
   128
 43
0.0
 10
3142.888113690301
 20
-18371.74862713446
 10
3142.358207176331
 20
-18372.98623834095
 10
3140.238561875313
 20
-18377.93685301237
 10
3138.327368588729
 20
-18382.40062296995
  0
LINE
  5
2F580F
330
18
100
AcDbEntity
  8
0
 62
     8
100
AcDbLine
 10
3136.95876973762
 20
-18395.02347018285
 30
0.0000000000000047
 11
3136.461158052008
 21
-18387.8786050567
 31
0.0000000000000047
  0
LINE
  5
2F5810
330
18
100
AcDbEntity
  8
0
 62
     8
100
AcDbLine
 10
3187.232405533697
 20
-18395.44129912816
 30
0.0000000000000047
 11
3187.404182539609
 21
-18393.33133027821
 31
0.0000000000000047
  0
LINE
  5
2F5811
330
18
100
AcDbEntity
  8
0
 62
     8
100
AcDbLine
 10
3145.863042277715
 20
-18339.72409757917
 30
0.0000000000000047
 11
3145.863029346493
 21
-18339.72421552928
 31
0.0000000000000047
  0
LINE
  5
2F5812
330
18
100
AcDbEntity
  8
0
 62
     8
100
AcDbLine
 10
3178.999157970546
 20
-18340.00180652289
 30
0.0000000000000047
 11
3178.9991705526
 21
-18340.00168044393
 31
0.0000000000000047
  0
SPLINE
  5
2F5813
330
18
100
AcDbEntity
  8
0
 62
     8
100
AcDbSpline
210
0.0
220
0.0
230
1.0
 70
     8
 71
     3
 72
    14
 73
    10
 74
     0
 42
0.000000001
 43
0.0000000001
 40
0.0
 40
0.0
 40
0.0
 40
0.0
 40
0.1489883146198028
 40
0.3060275061492988
 40
0.4629268451820735
 40
0.6193163629450352
 40
0.716667607361489
 40
0.8721816502198292
 40
1.0
 40
1.0
 40
1.0
 40
1.0
 10
3137.09495290534
 20
-18342.48660186557
 30
0.0000000000000047
 10
3137.033425774685
 20
-18342.47455769394
 30
0.0000000000000047
 10
3136.907046773736
 20
-18342.44981852013
 30
0.0000000000000047
 10
3136.685003146971
 20
-18342.44147346882
 30
0.0000000000000047
 10
3136.467359132288
 20
-18342.4574219881
 30
0.0000000000000047
 10
3136.301784921757
 20
-18342.49276145538
 30
0.0000000000000047
 10
3136.174948585788
 20
-18342.54127486863
 30
0.0000000000000047
 10
3136.08990455851
 20
-18342.596595883
 30
0.0000000000000047
 10
3136.082983410881
 20
-18342.64222526914
 30
0.0000000000000047
 10
3136.079861107567
 20
-18342.66280982985
 30
0.0000000000000047
  0
LINE
  5
2F5814
330
18
100
AcDbEntity
  8
0
 62
     8
100
AcDbLine
 10
3137.303532389519
 20
-18382.17304875922
 30
0.0000000000000047
 11
3137.09495290534
 21
-18342.48660186557
 31
0.0000000000000047
  0
LINE
  5
2F5815
330
18
100
AcDbEntity
  8
0
 62
     8
100
AcDbLine
 10
3137.304548076147
 20
-18382.1725735108
 30
0.0000000000000047
 11
3137.303532389519
 21
-18382.17304875922
 31
0.0000000000000047
  0
LINE
  5
2F5816
330
18
100
AcDbEntity
  8
0
 62
     8
100
AcDbLine
 10
3186.969526342999
 20
-18382.58623085716
 30
0.0000000000000047
 11
3186.969713458197
 21
-18382.58862407623
 31
0.0000000000000047
  0
LINE
  5
2F5817
330
18
100
AcDbEntity
  8
0
 62
     8
100
AcDbLine
 10
3186.969526342999
 20
-18382.58623085716
 30
0.0000000000000047
 11
3187.585114360917
 21
-18342.90956677256
 31
0.0000000000000047
  0
LINE
  5
2F5818
330
18
100
AcDbEntity
  8
0
 62
     8
100
AcDbLine
 10
3137.094965661978
 20
-18342.48647985103
 30
0.0000000000000047
 11
3137.09495290534
 21
-18342.48660186557
 31
0.0000000000000047
  0
LINE
  5
2F5819
330
18
100
AcDbEntity
  8
0
 62
     8
100
AcDbLine
 10
3187.585114360917
 20
-18342.90956677256
 30
0.0000000000000047
 11
3187.585115023467
 21
-18342.90944069776
 31
0.0000000000000047
  0
ARC
  5
2F581A
330
18
100
AcDbEntity
  8
0
 62
     8
100
AcDbCircle
 10
3132.533140837479
 20
-18392.6765041796
 30
0.0000000000000047
 40
4.2170285599172
100
AcDbArc
 50
153.0066934271445
 51
180.9650870122295
  0
LINE
  5
2F581B
330
18
100
AcDbEntity
  8
0
 62
     8
100
AcDbLine
 10
3160.733616667952
 20
-18346.81027117004
 30
0.0000000000000047
 11
3160.775924954573
 21
-18347.01108118391
 31
0.0000000000000047
  0
LINE
  5
2F581C
330
18
100
AcDbEntity
  8
0
 62
     8
100
AcDbLine
 10
3157.067850768148
 20
-18338.12971881575
 30
0.0000000000000047
 11
3157.110170974273
 21
-18338.33052882546
 31
0.0000000000000047
  0
ARC
  5
2F581D
330
18
100
AcDbEntity
  8
0
 62
     8
100
AcDbCircle
 10
3191.126082691315
 20
-18395.58873663646
 30
0.0000000000000047
 40
4.280808861857925
100
AcDbArc
 50
327.1347472577185
 51
33.50223510922327
  0
ARC
  5
2F581E
330
18
100
AcDbEntity
  8
0
 62
     8
100
AcDbCircle
 10
3190.896349720209
 20
-18393.06436807665
 30
0.0000000000000047
 40
4.615974298305765
100
AcDbArc
 50
359.5495544916121
 51
34.9445035528722
  0
SPLINE
  5
2F581F
330
18
100
AcDbEntity
  8
0
 62
     8
100
AcDbSpline
210
0.0
220
0.0
230
1.0
 70
     8
 71
     3
 72
     9
 73
     5
 74
     0
 42
0.000000001
 43
0.0000000001
 40
0.0
 40
0.0
 40
0.0
 40
0.0
 40
0.0180115168023349
 40
1.0
 40
1.0
 40
1.0
 40
1.0
 10
3167.896745009513
 20
-18338.20396892983
 30
0.0000000000000047
 10
3167.895926954982
 20
-18338.2050254602
 30
0.0000000000000047
 10
3167.850508540768
 20
-18338.26368406052
 30
0.0000000000000047
 10
3167.849036274353
 20
-18338.34279243381
 30
0.0000000000000047
 10
3167.847590525687
 20
-18338.42047594529
 30
0.0000000000000047
  0
SPLINE
  5
2F5820
330
18
100
AcDbEntity
  8
0
 62
     8
100
AcDbSpline
210
0.0
220
0.0
230
1.0
 70
     8
 71
     3
 72
     9
 73
     5
 74
     0
 42
0.000000001
 43
0.0000000001
 40
0.0
 40
0.0
 40
0.0
 40
0.0
 40
0.021393164701776
 40
1.0
 40
1.0
 40
1.0
 40
1.0
 10
3163.782040213524
 20
-18346.81872523537
 30
0.0000000000000047
 10
3163.78106312022
 20
-18346.81998146147
 30
0.0000000000000047
 10
3163.735389966315
 20
-18346.87870237158
 30
0.0000000000000047
 10
3163.733886249492
 20
-18346.95812404997
 30
0.0000000000000047
 10
3163.732414701928
 20
-18347.03584664731
 30
0.0000000000000047
  0
SPLINE
  5
2F5821
330
18
100
AcDbEntity
  8
0
 62
     8
100
AcDbSpline
210
0.0
220
0.0
230
1.0
 70
     8
 71
     3
 72
    10
 73
     6
 74
     0
 42
0.000000001
 43
0.0000000001
 40
0.0
 40
0.0
 40
0.0
 40
0.0
 40
0.4478775676063149
 40
0.8957585099482116
 40
0.9999999999999998
 40
0.9999999999999998
 40
0.9999999999999998
 40
0.9999999999999998
 10
3145.863042277715
 20
-18339.72409757917
 30
0.0000000000000047
 10
3145.858358594717
 20
-18339.65260450123
 30
0.0000000000000047
 10
3145.848991193431
 20
-18339.50961780667
 30
0.0000000000000047
 10
3145.774817715239
 20
-18339.37498401723
 30
0.0000000000000047
 10
3145.705592647362
 20
-18339.34261992381
 30
0.0000000000000047
 10
3145.6925228574
 20
-18339.33650953756
 30
0.0000000000000047
  0
SPLINE
  5
2F5822
330
18
100
AcDbEntity
  8
0
 62
     8
100
AcDbSpline
210
0.0
220
0.0
230
1.0
 70
     8
 71
     3
 72
    10
 73
     6
 74
     0
 42
0.000000001
 43
0.0000000001
 40
0.0
 40
0.0
 40
0.0
 40
0.0
 40
0.1178933390870654
 40
0.5589504835828196
 40
1.0
 40
1.0
 40
1.0
 40
1.0
 10
3179.176167117458
 20
-18339.61410749515
 30
0.0000000000000047
 10
3179.161250022512
 20
-18339.62080934556
 30
0.0000000000000047
 10
3179.090525777209
 20
-18339.65258385086
 30
0.0000000000000047
 10
3179.014590244994
 20
-18339.78723306062
 30
0.0000000000000047
 10
3179.004310420433
 20
-18339.93019839493
 30
0.0000000000000047
 10
3178.9991705526
 20
-18340.00168044393
 30
0.0000000000000047
  0
LINE
  5
2F5823
330
18
100
AcDbEntity
  8
0
 62
     8
100
AcDbLine
 10
3132.140796805722
 20
-18346.19712895577
 30
0.0000000000000047
 11
3132.140784223667
 21
-18346.19725503472
 31
0.0000000000000047
  0
LINE
  5
2F5824
330
18
100
AcDbEntity
  8
0
 62
     8
100
AcDbLine
 10
3192.298307659561
 20
-18346.701200328
 30
0.0000000000000047
 11
3192.298308322111
 21
-18346.7010742532
 31
0.0000000000000047
  0
SPLINE
  5
2F5825
330
18
100
AcDbEntity
  8
0
 62
     8
100
AcDbSpline
210
0.0
220
0.0
230
1.0
 70
     8
 71
     3
 72
    10
 73
     6
 74
     0
 42
0.000000001
 43
0.0000000001
 40
0.0
 40
0.0
 40
0.0
 40
0.0
 40
0.2834273941392146
 40
0.6417097882210746
 40
1.0
 40
1.0
 40
1.0
 40
1.0
 10
3136.945866463094
 20
-18342.08011009677
 30
0.0000000000000047
 10
3136.975171178077
 20
-18342.09354760408
 30
0.0000000000000047
 10
3137.041520171979
 20
-18342.12397155089
 30
0.0000000000000047
 10
3137.098846332419
 20
-18342.27051635271
 30
0.0000000000000047
 10
3137.096259228201
 20
-18342.41449149468
 30
0.0000000000000047
 10
3137.094965661979
 20
-18342.48647985104
 30
0.0000000000000047
  0
SPLINE
  5
2F5826
330
18
100
AcDbEntity
  8
0
 62
     8
100
AcDbSpline
210
0.0
220
0.0
230
1.0
 70
     8
 71
     3
 72
    10
 73
     6
 74
     0
 42
0.000000001
 43
0.0000000001
 40
0.0
 40
0.0
 40
0.0
 40
0.0
 40
0.2869399589510142
 40
0.6434700847298739
 40
1.0
 40
1.0
 40
1.0
 40
1.0
 10
3187.733886171094
 20
-18342.50466010793
 30
0.0000000000000047
 10
3187.704832160044
 20
-18342.51780058223
 30
0.0000000000000047
 10
3187.639677808518
 20
-18342.5472684268
 30
0.0000000000000047
 10
3187.582713007011
 20
-18342.69337742962
 30
0.0000000000000047
 10
3187.584322297809
 20
-18342.83741961979
 30
0.0000000000000047
 10
3187.585126942972
 20
-18342.9094406936
 30
0.0000000000000047
  0
LINE
  5
2F5827
330
18
100
AcDbEntity
  8
0
 62
     8
100
AcDbLine
 10
3160.785668495492
 20
-18347.05119803424
 30
0.0000000000000047
 11
3160.775936764725
 21
-18347.01121384451
 31
0.0000000000000047
  0
SPLINE
  5
2F5828
330
18
100
AcDbEntity
  8
0
 62
     8
100
AcDbSpline
210
0.0
220
0.0
230
1.0
 70
     8
 71
     3
 72
    11
 73
     7
 74
     0
 42
0.000000001
 43
0.0000000001
 40
0.0
 40
0.0
 40
0.0
 40
0.0
 40
0.0135809077816039
 40
0.3423882832200291
 40
0.6711938240218494
 40
1.0
 40
1.0
 40
1.0
 40
1.0
 10
3132.120266306474
 20
-18345.79228501213
 30
0.0000000000000047
 10
3132.120882686442
 20
-18345.79175976911
 30
0.0000000000000047
 10
3132.136422242563
 20
-18345.77851786672
 30
0.0000000000000047
 10
3132.152010489541
 20
-18345.84065624894
 30
0.0000000000000047
 10
3132.161247693634
 20
-18345.97644896015
 30
0.0000000000000047
 10
3132.147613772749
 20
-18346.12356890986
 30
0.0000000000000047
 10
3132.140796805722
 20
-18346.19712895577
 30
0.0000000000000047
  0
SPLINE
  5
2F5829
330
18
100
AcDbEntity
  8
0
 62
     8
100
AcDbSpline
210
0.0
220
0.0
230
1.0
 70
     8
 71
     3
 72
    11
 73
     7
 74
     0
 42
0.000000001
 43
0.0000000001
 40
0.0
 40
0.0
 40
0.0
 40
0.0
 40
0.3281186944412805
 40
0.6562411227120813
 40
0.9843655996793517
 40
1.0
 40
1.0
 40
1.0
 40
1.0
 10
3192.298320241615
 20
-18346.70107424904
 30
0.0000000000000047
 10
3192.292052812517
 20
-18346.62740935735
 30
0.0000000000000047
 10
3192.279517883
 20
-18346.4800787357
 30
0.0000000000000047
 10
3192.287400094822
 20
-18346.34433541729
 30
0.0000000000000047
 10
3192.301186064764
 20
-18346.2825032438
 30
0.0000000000000047
 10
3192.315178614026
 20
-18346.29615843228
 30
0.0000000000000047
 10
3192.315815005202
 20
-18346.29677948004
 30
0.0000000000000047
  0
LWPOLYLINE
  5
2F582A
330
18
100
AcDbEntity
  8
0
 62
     8
100
AcDbPolyline
 90
       18
 70
   128
 43
0.0
 10
3197.692790612674
 20
-18424.43732006065
 10
3197.396384601229
 20
-18423.70612911448
 10
3196.97262084804
 20
-18422.98169308186
 10
3196.423016540599
 20
-18422.26658831698
 10
3195.749541283837
 20
-18421.5633788227
 10
3194.954579246607
 20
-18420.87456748987
 10
3194.040989981294
 20
-18420.20262452759
 10
3193.01203498637
 20
-18419.54994277943
 10
3191.871378404723
 20
-18418.91885398117
 10
3190.623110338919
 20
-18418.3116165592
 10
3189.271674461256
 20
-18417.73039533334
 10
3187.821904121444
 20
-18417.17726963321
 10
3186.278973795669
 20
-18416.65421299277
 10
3184.648411006096
 20
-18416.16309314615
 10
3182.936024629258
 20
-18415.70566798817
 10
3181.147928036732
 20
-18415.28356930836
 10
3179.290527175631
 20
-18414.89830279505
 10
3177.705577602944
 20
-18414.60828995653
  0
LWPOLYLINE
  5
2F582B
330
18
100
AcDbEntity
  8
0
 62
     8
100
AcDbPolyline
 90
       73
 70
   128
 43
0.0
 10
3147.681797872215
 20
-18414.1728089633
 10
3146.023960009979
 20
-18414.42060174517
 10
3144.1066553616
 20
-18414.75166477398
 10
3142.252341044948
 20
-18415.12145662203
 10
3140.467647686458
 20
-18415.52866621092
 10
3138.758961062878
 20
-18415.97183216178
 10
3137.13236390041
 20
-18416.44937533139
 10
3135.593671109479
 20
-18416.95958660652
 10
3134.148394899128
 20
-18417.50064723844
 10
3132.801673085412
 20
-18418.07062480349
 10
3131.558340783009
 20
-18418.66747724257
 10
3130.42282417717
 20
-18419.28907728512
 10
3129.399175933077
 20
-18419.93320430775
 10
3128.491063800082
 20
-18420.5975565317
 10
3127.701735376942
 20
-18421.27976322862
 10
3127.033994272811
 20
-18421.97738472884
 10
3126.490236738673
 20
-18422.68793273103
 10
3126.072391720649
 20
-18423.40886219419
 10
3125.781969934685
 20
-18424.13760383634
 10
3125.620003745274
 20
-18424.87155196208
 10
3125.58707205197
 20
-18425.60808884085
 10
3125.683276188502
 20
-18426.34457861852
 10
3125.908288648295
 20
-18427.07839168741
 10
3126.26130558103
 20
-18427.80690876726
 10
3126.741070893535
 20
-18428.52752699361
 10
3127.345852934521
 20
-18429.23767211936
 10
3128.073504441274
 20
-18429.93480662282
 10
3128.921415298096
 20
-18430.61643988543
 10
3129.88657265758
 20
-18431.28014036422
 10
3130.965525094801
 20
-18431.92353357208
 10
3132.154407319243
 20
-18432.54432239155
 10
3133.448976107901
 20
-18433.1402911268
 10
3134.844622399368
 20
-18433.70930956384
 10
3136.336336059067
 20
-18434.24934517632
 10
3137.918813329385
 20
-18434.7584671525
 10
3139.586385923681
 20
-18435.23486064571
 10
3141.333092368733
 20
-18435.6768226849
 10
3143.152714199714
 20
-18436.08277232333
 10
3145.038740638131
 20
-18436.45126081201
 10
3146.984428276648
 20
-18436.78097361117
 10
3148.98282491809
 20
-18437.07073038191
 10
3151.026817864508
 20
-18437.31949919509
 10
3153.109073970491
 20
-18437.52638842321
 10
3155.222183200965
 20
-18437.69065888385
 10
3157.358575369253
 20
-18437.81172793313
 10
3159.510626888865
 20
-18437.88915723505
 10
3161.6706498142
 20
-18437.92267511997
 10
3163.830938820237
 20
-18437.91216031028
 10
3165.983759632191
 20
-18437.85765005338
 10
3168.121444294267
 20
-18437.75933805623
 10
3170.236331659424
 20
-18437.61757653834
 10
3172.320886409841
 20
-18437.43287212573
 10
3174.367651291606
 20
-18437.2058838354
 10
3176.369318631745
 20
-18436.93742305031
 10
3178.318742083148
 20
-18436.62844945088
 10
3180.208960288986
 20
-18436.28006694215
 10
3182.033208453062
 20
-18435.89351552085
 10
3183.784990293289
 20
-18435.47018141146
 10
3185.458029403465
 20
-18435.0115747285
 10
3187.046352864391
 20
-18434.5193335119
 10
3188.544302814213
 20
-18433.99521559393
 10
3189.946512434819
 20
-18433.44109454313
 10
3191.247976945129
 20
-18432.85894744603
 10
3192.444041768877
 20
-18432.25085694359
 10
3193.530449339711
 20
-18431.61899089239
 10
3194.503303691853
 20
-18430.96561050598
 10
3195.359140929618
 20
-18430.29304594336
 10
3196.094905737581
 20
-18429.60370444616
 10
3196.707950245777
 20
-18428.90004391987
 10
3197.196105808609
 20
-18428.18457900552
 10
3197.557622796282
 20
-18427.45986687501
 10
3197.791205742275
 20
-18426.72849299314
 10
3197.791205742275
 20
-18426.72849299314
  0
LWPOLYLINE
  5
2F582C
330
18
100
AcDbEntity
  8
0
 62
     8
100
AcDbPolyline
 90
       51
 70
   128
 43
0.0
 10
3125.295357533738
 20
-18423.70517849674
 10
3125.431001806656
 20
-18423.31442031125
 10
3125.782981756595
 20
-18422.58634814759
 10
3126.261004179691
 20
-18421.86724295865
 10
3126.863389217344
 20
-18421.15962124712
 10
3127.588038431611
 20
-18420.46596714588
 10
3128.432397999193
 20
-18419.78870804397
 10
3129.393518658123
 20
-18419.13022269461
 10
3130.468030646676
 20
-18418.49281277255
 10
3131.652168240707
 20
-18417.87871912345
 10
3132.941768182407
 20
-18417.29008518406
 10
3134.332330325323
 20
-18416.72898134798
 10
3135.818968559672
 20
-18416.19737246691
 10
3137.396470584454
 20
-18415.69712189421
 10
3139.059321397289
 20
-18415.22998334783
 10
3140.801667186734
 20
-18414.79759279385
 10
3142.617434352759
 20
-18414.40146434055
 10
3144.500234150696
 20
-18414.04299027157
 10
3146.443481013378
 20
-18413.72342068231
 10
3148.440345746037
 20
-18413.44388381861
 10
3150.483861405176
 20
-18413.20535352393
 10
3152.566828815452
 20
-18413.00866959483
 10
3154.681970650321
 20
-18412.85451740461
 10
3156.821872532845
 20
-18412.74344418197
 10
3158.979029491632
 20
-18412.67583054331
 10
3161.145882766849
 20
-18412.65191486679
 10
3163.314831555145
 20
-18412.67178922381
 10
3165.478279640167
 20
-18412.73537497576
 10
3167.628648534156
 20
-18412.84245122087
 10
3169.758389048274
 20
-18412.99264666119
 10
3171.860040540977
 20
-18413.18543145291
 10
3173.926255280759
 20
-18413.42012939139
 10
3175.949762687651
 20
-18413.69591792355
 10
3177.923488877429
 20
-18414.01183623518
 10
3179.840508285266
 20
-18414.36676900987
 10
3181.694116404839
 20
-18414.75947485499
 10
3183.477793855239
 20
-18415.1885822498
 10
3185.185301387836
 20
-18415.65258138328
 10
3186.810656920195
 20
-18416.14984448457
 10
3188.348159724243
 20
-18416.67863394354
 10
3189.792426010209
 20
-18417.23709823383
 10
3191.138388926619
 20
-18417.82327191291
 10
3192.381323621393
 20
-18418.43510406466
 10
3193.516882825773
 20
-18419.07045422254
 10
3194.541084934821
 20
-18419.72709237368
 10
3195.450350464269
 20
-18420.40271520419
 10
3196.241478735255
 20
-18421.09495830063
 10
3196.911695377762
 20
-18421.80139206904
 10
3197.458653203535
 20
-18422.51954205705
 10
3197.880456045093
 20
-18423.24688894553
 10
3198.175588111611
 20
-18423.98088889567
  0
LWPOLYLINE
  5
2F582D
330
18
100
AcDbEntity
  8
0
 62
     8
100
AcDbPolyline
 90
       48
 70
   128
 43
0.0
 10
3193.373155398874
 20
-18408.04329162125
 10
3193.121900764131
 20
-18407.36509393468
 10
3192.743817133921
 20
-18406.6901433263
 10
3192.241271469866
 20
-18406.0241495719
 10
3191.616261929661
 20
-18405.36978640547
 10
3190.87130973255
 20
-18404.72969486255
 10
3190.009421829566
 20
-18404.10644671293
 10
3189.034079507772
 20
-18403.50255665801
 10
3187.949189315577
 20
-18402.92044983216
 10
3186.759119519579
 20
-18402.36247804783
 10
3185.468686788402
 20
-18401.83088728437
 10
3184.083060487479
 20
-18401.32780959246
 10
3182.607834894422
 20
-18400.8552793268
 10
3181.048944191235
 20
-18400.41519659551
 10
3179.412662638896
 20
-18400.00933132442
 10
3177.705592657852
 20
-18399.63932326133
 10
3175.934592088907
 20
-18399.30665355001
 10
3174.106799254314
 20
-18399.01267317275
 10
3172.229583184755
 20
-18398.75855419398
 10
3170.310485593068
 20
-18398.54532636091
 10
3168.357243491167
 20
-18398.37384864417
 10
3166.377717673023
 20
-18398.24480926284
 10
3164.379880795145
 20
-18398.15872568855
 10
3162.371781792662
 20
-18398.1159487224
 10
3160.361497677544
 20
-18398.11665031838
 10
3158.357133713189
 20
-18398.16082764771
 10
3156.366751897389
 20
-18398.24830312385
 10
3154.398370787755
 20
-18398.37872033809
 10
3152.459918347436
 20
-18398.55155626942
 10
3150.559196012032
 20
-18398.7661172326
 10
3148.703866770081
 20
-18399.02153888234
 10
3146.90138364603
 20
-18399.31678623823
 10
3145.159014761333
 20
-18399.65068212741
 10
3143.483782165672
 20
-18400.02187062556
 10
3141.88241625394
 20
-18400.4288658466
 10
3140.361378383164
 20
-18400.87002348342
 10
3138.926790577562
 20
-18401.34356928381
 10
3137.584423609036
 20
-18401.84759905464
 10
3136.339684903087
 20
-18402.38007460152
 10
3135.197596271051
 20
-18402.93886031705
 10
3134.16274553375
 20
-18403.52170693968
 10
3133.239298790159
 20
-18404.12625967842
 10
3132.430989894574
 20
-18404.75009073239
 10
3131.741048241244
 20
-18405.39068305814
 10
3131.172271678069
 20
-18406.04546285996
 10
3130.726942546318
 20
-18406.71178742587
 10
3130.406865010392
 20
-18407.38698169487
 10
3130.29849621919
 20
-18407.7120482783
  0
LWPOLYLINE
  5
2F582E
330
18
100
AcDbEntity
  8
0
 62
     8
100
AcDbPolyline
 90
       33
 70
   128
 43
0.0
 10
3161.346036728645
 20
-18394.24501327185
 10
3163.449574351453
 20
-18394.26636960782
 10
3165.547031881164
 20
-18394.33182366704
 10
3167.630448183773
 20
-18394.44112622988
 10
3169.691914564879
 20
-18394.59386141451
 10
3171.72362279687
 20
-18394.78945478912
 10
3173.717876514682
 20
-18395.02716117446
 10
3175.667079820039
 20
-18395.30607684131
 10
3177.563868745178
 20
-18395.62514759352
 10
3179.40102746715
 20
-18395.98316066833
 10
3181.171596281691
 20
-18396.37876095661
 10
3182.86885950914
 20
-18396.81044694258
 10
3184.486381427538
 20
-18397.27657475576
 10
3186.01801941421
 20
-18397.77538661783
 10
3187.457958482205
 20
-18398.30498237908
 10
3188.800748610052
 20
-18398.86335608585
 10
3190.041292473099
 20
-18399.44838785579
 10
3191.174882074936
 20
-18400.05786418749
 10
3192.197222062662
 20
-18400.68946575894
 10
3193.104431123544
 20
-18401.34079994285
 10
3193.893065649453
 20
-18402.00939673401
 10
3194.560132180113
 20
-18402.69272093828
 10
3195.10309949719
 20
-18403.38817623294
 10
3195.519923336223
 20
-18404.09312548049
 10
3195.808999057767
 20
-18404.80489887409
 10
3195.969257003433
 20
-18405.5207939043
 10
3196.000067838187
 20
-18406.23809165009
 10
3195.901314940289
 20
-18406.95407707596
 10
3195.67339396484
 20
-18407.66602887091
 10
3195.317142636127
 20
-18408.37124995656
 10
3194.83393592908
 20
-18409.06706338944
 10
3194.225591586147
 20
-18409.75083271643
 10
3193.930864031998
 20
-18410.03606735177
  0
LWPOLYLINE
  5
2F582F
330
18
100
AcDbEntity
  8
0
 62
     8
100
AcDbPolyline
 90
       32
 70
   128
 43
0.0
 10
3129.712252924622
 20
-18409.69131864764
 10
3129.132468198567
 20
-18409.08999342452
 10
3128.589500881489
 20
-18408.39453812986
 10
3128.172676955164
 20
-18407.6895868501
 10
3127.883589401407
 20
-18406.97781549287
 10
3127.723343375246
 20
-18406.2619204585
 10
3127.692532540493
 20
-18405.54462271271
 10
3127.791273518886
 20
-18404.828637291
 10
3128.019206326548
 20
-18404.11668345968
 10
3128.375457742552
 20
-18403.41146440625
 10
3128.8586644496
 20
-18402.71565097337
 10
3129.467008792533
 20
-18402.03188164637
 10
3130.198182670657
 20
-18401.36275443693
 10
3131.04941050383
 20
-18400.71080655257
 10
3132.01744905788
 20
-18400.07851033226
 10
3133.098646518379
 20
-18399.46826103237
 10
3134.288894987207
 20
-18398.88238090766
 10
3135.583676763908
 20
-18398.32308667935
 10
3136.978088708442
 20
-18397.79250171998
 10
3138.466829448772
 20
-18397.2926357355
 10
3140.044247408046
 20
-18396.82539287745
 10
3141.704374991859
 20
-18396.3925351507
 10
3143.440905971332
 20
-18395.99571087271
 10
3145.247265778055
 20
-18395.63642619756
 10
3147.116575570989
 20
-18395.31604106413
 10
3149.041771606101
 20
-18395.03577321877
 10
3151.015533020999
 20
-18394.79668198269
 10
3153.030389459639
 20
-18394.59967634329
 10
3155.07867304515
 20
-18394.44550684197
 10
3157.152637051122
 20
-18394.3347533393
 10
3159.244408747342
 20
-18394.26783722488
 10
3161.346036728645
 20
-18394.24501327185
  0
LWPOLYLINE
  5
2F5830
330
18
100
AcDbEntity
  8
0
 62
     8
100
AcDbPolyline
 90
       26
 70
   128
 43
0.0
 10
3161.333260292538
 20
-18393.43561771597
 10
3163.458959814633
 20
-18393.45677122206
 10
3165.578776860128
 20
-18393.52162812736
 10
3167.68497763853
 20
-18393.62995945532
 10
3169.769880624365
 20
-18393.78136550276
 10
3171.825893188613
 20
-18393.97529614956
 10
3173.845487410529
 20
-18394.21104273802
 10
3175.821319621863
 20
-18394.48774616024
 10
3177.74615871524
 20
-18394.80439281857
 10
3179.61298219854
 20
-18395.15983085004
 10
3181.41499968474
 20
-18395.55276198923
 10
3183.145617831732
 20
-18395.98175783838
 10
3184.798523080522
 20
-18396.44524358066
 10
3186.367683226484
 20
-18396.94153455992
 10
3187.847382304958
 20
-18397.4688159461
 10
3189.232221638747
 20
-18398.02516712181
 10
3190.517131583043
 20
-18398.6085576137
 10
3191.6974316467
 20
-18399.21685926498
 10
3192.768818747311
 20
-18399.84785030395
 10
3193.727391573974
 20
-18400.49922752903
 10
3194.56962709744
 20
-18401.16861444583
 10
3195.292476275329
 20
-18401.85356936281
 10
3195.893293058842
 20
-18402.55159760945
 10
3196.369881721623
 20
-18403.26014339081
 10
3196.72051052509
 20
-18403.97663042757
 10
3196.866427077276
 20
-18404.39749760231
  0
LWPOLYLINE
  5
2F5831
330
18
100
AcDbEntity
  8
0
 62
     8
100
AcDbPolyline
 90
       25
 70
   128
 43
0.0
 10
3126.856612911106
 20
-18403.98834822853
 10
3127.141682772367
 20
-18403.28430426704
 10
3127.5574001731
 20
-18402.57544706784
 10
3128.098221658607
 20
-18401.87702038558
 10
3128.762206887016
 20
-18401.19158145868
 10
3129.546924197994
 20
-18400.52162672983
 10
3130.449498639938
 20
-18399.86959995805
 10
3131.466659124249
 20
-18399.23788000888
 10
3132.594666559128
 20
-18398.62877275045
 10
3133.829420775958
 20
-18398.04450288722
 10
3135.166412327534
 20
-18397.48720178331
 10
3136.600769991499
 20
-18396.95890338143
 10
3138.127260246589
 20
-18396.46153200969
 10
3139.740299366732
 20
-18395.99690644175
 10
3141.434011971062
 20
-18395.56671548954
 10
3143.202208057829
 20
-18395.17253833371
 10
3145.038452950184
 20
-18394.81580791882
 10
3146.936032235987
 20
-18394.49782722351
 10
3148.888022586516
 20
-18394.2197529779
 10
3150.887315944631
 20
-18393.98260378403
 10
3152.926594987439
 20
-18393.78724386658
 10
3154.998440576421
 20
-18393.63438709978
 10
3157.095271810736
 20
-18393.5245888994
 10
3159.209453651937
 20
-18393.45825431412
 10
3161.333260292538
 20
-18393.43561771597
  0
LINE
  5
2F5832
330
18
100
AcDbEntity
  8
0
 62
     8
100
AcDbLine
 10
3197.136970876653
 20
-18424.44709713996
 30
0.0000000000000047
 11
3197.226170357469
 21
-18426.5237233342
 31
0.0000000000000047
  0
LINE
  5
2F5833
330
18
100
AcDbEntity
  8
0
 62
     8
100
AcDbLine
 10
3197.226353751242
 20
-18426.48882582889
 30
0.0000000000000047
 11
3197.138653418429
 21
-18424.44710084691
 31
0.0000000000000047
  0
LWPOLYLINE
  5
2F5834
330
18
100
AcDbEntity
  8
0
 62
     8
100
AcDbPolyline
 90
        9
 70
   128
 43
0.0
 10
3198.274925188856
 20
-18426.27798549376
 10
3198.27356743431
 20
-18426.27079589308
 10
3198.265857689694
 20
-18426.25974928046
 10
3198.251660099199
 20
-18426.24945279741
 10
3198.231565828658
 20
-18426.24034926653
 10
3198.206449929735
 20
-18426.23283060524
 10
3198.177387030463
 20
-18426.22721753284
 10
3198.145651247966
 20
-18426.22375753828
 10
3198.112583764512
 20
-18426.22259444268
  0
LINE
  5
2F5835
330
18
100
AcDbEntity
  8
0
 62
     8
100
AcDbLine
 10
3198.115350336716
 20
-18425.69615089425
 30
0.0000000000000047
 11
3197.192482662393
 21
-18425.6964729782
 31
0.0000000000000047
  0
SPLINE
  5
2F5836
330
18
100
AcDbEntity
  8
0
 62
     8
100
AcDbSpline
210
0.0
220
0.0
230
1.0
 70
     8
 71
     3
 72
    11
 73
     7
 74
     0
 42
0.000000001
 43
0.0000000001
 40
0.0
 40
0.0
 40
0.0
 40
0.0
 40
0.0681320740594226
 40
0.1575616750025645
 40
0.5737526939970023
 40
0.9999999999999998
 40
0.9999999999999998
 40
0.9999999999999998
 40
0.9999999999999998
 10
3166.928686275262
 20
-18381.52278502917
 30
0.0000000000000047
 10
3166.88369390933
 20
-18381.46349068593
 30
0.0000000000000047
 10
3166.779644933332
 20
-18381.32636707464
 30
0.0000000000000047
 10
3166.521290196616
 20
-18380.79916453148
 30
0.0000000000000047
 10
3166.185640561133
 20
-18379.93063545463
 30
0.0000000000000047
 10
3166.081771353303
 20
-18379.13868468087
 30
0.0000000000000047
 10
3166.02921679981
 20
-18378.73798248845
 30
0.0000000000000047
  0
SPLINE
  5
2F5837
330
18
100
AcDbEntity
  8
0
 62
     8
100
AcDbSpline
210
0.0
220
0.0
230
1.0
 70
     8
 71
     3
 72
    11
 73
     7
 74
     0
 42
0.000000001
 43
0.0000000001
 40
0.0
 40
0.0
 40
0.0
 40
0.0
 40
0.0673604514620805
 40
0.4524706241825082
 40
0.8442766950162864
 40
1.0
 40
1.0
 40
1.0
 40
1.0
 10
3158.496842304955
 20
-18378.67488452053
 30
0.0000000000000047
 10
3158.49078520743
 20
-18378.73785350904
 30
0.0000000000000047
 10
3158.450098741724
 20
-18379.16082599389
 30
0.0000000000000047
 10
3158.293281733099
 20
-18379.95052640888
 30
0.0000000000000047
 10
3157.990090165662
 20
-18380.8188977171
 30
0.0000000000000047
 10
3157.694767573288
 20
-18381.30654184963
 30
0.0000000000000047
 10
3157.610774618477
 20
-18381.4452331406
 30
0.0000000000000047
  0
SPLINE
  5
2F5838
330
18
100
AcDbEntity
  8
0
 62
     8
100
AcDbSpline
210
0.0
220
0.0
230
1.0
 70
     8
 71
     3
 72
    11
 73
     7
 74
     0
 42
0.000000001
 43
0.0000000001
 40
0.0
 40
0.0
 40
0.0
 40
0.0
 40
0.2439184469308063
 40
0.6211715009645992
 40
0.998894994846034
 40
1.0
 40
1.0
 40
1.0
 40
1.0
 10
3156.890288048011
 20
-18381.46941226792
 30
0.0000000000000047
 10
3157.009038277414
 20
-18381.20937346032
 30
0.0000000000000047
 10
3157.311451888056
 20
-18380.54714926834
 30
0.0000000000000047
 10
3157.523996532715
 20
-18379.43862041329
 30
0.0000000000000047
 10
3157.609216075136
 20
-18378.6015657154
 30
0.0000000000000047
 10
3157.628691604972
 20
-18378.18131973707
 30
0.0000000000000047
 10
3157.628748413162
 20
-18378.18009392124
 30
0.0000000000000047
  0
SPLINE
  5
2F5839
330
18
100
AcDbEntity
  8
0
 62
     8
100
AcDbSpline
210
0.0
220
0.0
230
1.0
 70
     8
 71
     3
 72
    10
 73
     6
 74
     0
 42
0.000000001
 43
0.0000000001
 40
0.0
 40
0.0
 40
0.0
 40
0.0
 40
0.4577383639211762
 40
0.9149074791294918
 40
1.0
 40
1.0
 40
1.0
 40
1.0
 10
3166.91286207581
 20
-18378.25786705556
 30
0.0000000000000047
 10
3166.941901570796
 20
-18378.67748022101
 30
0.0000000000000047
 10
3166.999944446917
 20
-18379.51618471614
 30
0.0000000000000047
 10
3167.196628168778
 20
-18380.4320818637
 30
0.0000000000000047
 10
3167.358511835716
 20
-18380.92117634184
 30
0.0000000000000047
 10
3167.383914867004
 20
-18380.9979257914
 30
0.0000000000000047
  0
SPLINE
  5
2F583A
330
18
100
AcDbEntity
  8
0
 62
     8
100
AcDbSpline
210
0.0
220
0.0
230
1.0
 70
     8
 71
     3
 72
     9
 73
     5
 74
     0
 42
0.000000001
 43
0.0000000001
 40
0.0
 40
0.0
 40
0.0
 40
0.0
 40
0.36736438871066
 40
1.0
 40
1.0
 40
1.0
 40
1.0
 10
3154.860869327332
 20
-18379.12996778747
 30
0.0000000000000047
 10
3154.851677249501
 20
-18379.28314018168
 30
0.0000000000000047
 10
3154.826655559558
 20
-18379.70008967086
 30
0.0000000000000047
 10
3154.877601605905
 20
-18380.10353507674
 30
0.0000000000000047
 10
3154.909831889079
 20
-18380.3587690077
 30
0.0000000000000047
  0
SPLINE
  5
2F583B
330
18
100
AcDbEntity
  8
0
 62
     8
100
AcDbSpline
210
0.0
220
0.0
230
1.0
 70
     8
 71
     3
 72
    17
 73
    13
 74
     0
 42
0.000000001
 43
0.0000000001
 40
0.0
 40
0.0
 40
0.0
 40
0.0
 40
0.1063094415213949
 40
0.2215326631953984
 40
0.3366587863015114
 40
0.4514216079778413
 40
0.5228766106577737
 40
0.6369800689836378
 40
0.7509303410898872
 40
0.8649063519391997
 40
0.9792169027124634
 40
1.0
 40
1.0
 40
1.0
 40
1.0
 10
3157.110169962556
 20
-18338.33064677141
 30
0.0000000000000047
 10
3157.091486382494
 20
-18338.30800826638
 30
0.0000000000000047
 10
3157.052552651018
 20
-18338.26083307443
 30
0.0000000000000047
 10
3156.912829676325
 20
-18338.20147978846
 30
0.0000000000000047
 10
3156.724132861561
 20
-18338.15943079713
 30
0.0000000000000047
 10
3156.532488760208
 20
-18338.14362889001
 30
0.0000000000000047
 10
3156.339985207582
 20
-18338.14601159051
 30
0.0000000000000047
 10
3156.155313415213
 20
-18338.16631809973
 30
0.0000000000000047
 10
3155.978748947691
 20
-18338.21220117474
 30
0.0000000000000047
 10
3155.861571690752
 20
-18338.27556716056
 30
0.0000000000000047
 10
3155.813116073607
 20
-18338.32945118474
 30
0.0000000000000047
 10
3155.819785145968
 20
-18338.35898425962
 30
0.0000000000000047
 10
3155.8208111304
 20
-18338.36352769136
 30
0.0000000000000047
  0
SPLINE
  5
2F583C
330
18
100
AcDbEntity
  8
0
 62
     8
100
AcDbSpline
210
0.0
220
0.0
230
1.0
 70
     8
 71
     3
 72
    17
 73
    13
 74
     0
 42
0.000000001
 43
0.0000000001
 40
0.0
 40
0.0
 40
0.0
 40
0.0
 40
0.0379673986995121
 40
0.1539084125257415
 40
0.269736747438579
 40
0.3851906826712321
 40
0.4570628028541694
 40
0.5718702481441476
 40
0.6865293273440175
 40
0.8012164487013802
 40
0.9162452184934707
 40
1.0
 40
1.0
 40
1.0
 40
1.0
 10
3169.130355291895
 20
-18338.47093305753
 30
0.0000000000000047
 10
3169.132315241052
 20
-18338.46268446034
 30
0.0000000000000047
 10
3169.140260285314
 20
-18338.42924712878
 30
0.0000000000000047
 10
3169.079755409154
 20
-18338.37153706107
 30
0.0000000000000047
 10
3168.952331506302
 20
-18338.30867893662
 30
0.0000000000000047
 10
3168.790057609833
 20
-18338.26969187194
 30
0.0000000000000047
 10
3168.608024464951
 20
-18338.24738384008
 30
0.0000000000000047
 10
3168.413378979334
 20
-18338.24257237423
 30
0.0000000000000047
 10
3168.199339400343
 20
-18338.26253708745
 30
0.0000000000000047
 10
3168.018301567038
 20
-18338.30571667871
 30
0.0000000000000047
 10
3167.897264917298
 20
-18338.36151190967
 30
0.0000000000000047
 10
3167.862315381145
 20
-18338.4030855322
 30
0.0000000000000047
 10
3167.847589863137
 20
-18338.4206020201
 30
0.0000000000000047
  0
SPLINE
  5
2F583D
330
18
100
AcDbEntity
  8
0
 62
     8
100
AcDbSpline
210
0.0
220
0.0
230
1.0
 70
     8
 71
     3
 72
     9
 73
     5
 74
     0
 42
0.000000001
 43
0.0000000001
 40
0.0
 40
0.0
 40
0.0
 40
0.0
 40
0.6467200680288732
 40
1.0
 40
1.0
 40
1.0
 40
1.0
 10
3169.615805592932
 20
-18380.44248375564
 30
0.0000000000000047
 10
3169.646943613015
 20
-18380.20631089309
 30
0.0000000000000047
 10
3169.695091214461
 20
-18379.84112528308
 30
0.0000000000000047
 10
3169.674672505649
 20
-18379.46247997871
 30
0.0000000000000047
 10
3169.667458985589
 20
-18379.32871219134
 30
0.0000000000000047
  0
SPLINE
  5
2F583E
330
18
100
AcDbEntity
  8
0
 62
     8
100
AcDbSpline
210
0.0
220
0.0
230
1.0
 70
     8
 71
     3
 72
    10
 73
     6
 74
     0
 42
0.000000001
 43
0.0000000001
 40
0.0
 40
0.0
 40
0.0
 40
0.0
 40
0.1300405253459
 40
0.8735042798636856
 40
1.0
 40
1.0
 40
1.0
 40
1.0
 10
3170.219316977131
 20
-18379.05788272587
 30
0.0000000000000047
 10
3170.226927968674
 20
-18379.12103099202
 30
0.0000000000000047
 10
3170.278052290645
 20
-18379.54520861355
 30
0.0000000000000047
 10
3170.325170335067
 20
-18380.03384681547
 30
0.0000000000000047
 10
3170.254907500643
 20
-18380.43378971375
 30
0.0000000000000047
 10
3170.24469099275
 20
-18380.49194307193
 30
0.0000000000000047
  0
SPLINE
  5
2F583F
330
18
100
AcDbEntity
  8
0
 62
     8
100
AcDbSpline
210
0.0
220
0.0
230
1.0
 70
     8
 71
     3
 72
     9
 73
     5
 74
     0
 42
0.000000001
 43
0.0000000001
 40
0.0
 40
0.0
 40
0.0
 40
0.0
 40
0.0884879206022352
 40
1.0
 40
1.0
 40
1.0
 40
1.0
 10
3177.650409894335
 20
-18381.46803479976
 30
0.0000000000000047
 10
3177.629464669332
 20
-18381.4271030205
 30
0.0000000000000047
 10
3177.392763152788
 20
-18380.9645339039
 30
0.0000000000000047
 10
3177.264074592439
 20
-18380.51159998247
 30
0.0000000000000047
 10
3177.146773415201
 20
-18380.09874524191
 30
0.0000000000000047
  0
LWPOLYLINE
  5
2F5840
330
18
100
AcDbEntity
  8
0
 62
     8
100
AcDbPolyline
 90
        3
 70
   128
 43
0.0
 10
3169.617959207567
 20
-18374.52551772799
 10
3169.665005300841
 20
-18374.87989365907
 10
3170.219316977131
 20
-18379.05788272587
  0
SPLINE
  5
2F5841
330
18
100
AcDbEntity
  8
0
 62
     8
100
AcDbSpline
210
0.0
220
0.0
230
1.0
 70
     8
 71
     3
 72
    10
 73
     6
 74
     0
 42
0.000000001
 43
0.0000000001
 40
0.0
 40
0.0
 40
0.0
 40
0.0
 40
0.1438654730078236
 40
0.9663685063082013
 40
1.0
 40
1.0
 40
1.0
 40
1.0
 10
3147.297882071497
 20
-18379.84869819324
 30
0.0000000000000047
 10
3147.278539344094
 20
-18379.91326238822
 30
0.0000000000000047
 10
3147.148611000635
 20
-18380.34695091236
 30
0.0000000000000047
 10
3147.009056081557
 20
-18380.80129016748
 30
0.0000000000000047
 10
3146.804042912882
 20
-18381.19379722093
 30
0.0000000000000047
 10
3146.7959893899
 20
-18381.20921605766
 30
0.0000000000000047
  0
ELLIPSE
  5
2F5842
330
18
100
AcDbEntity
  8
0
 62
     8
100
AcDbEllipse
 10
3170.572712501132
 20
-18951.48885358408
 30
0.0000000000000047
 11
-13.48168746830726
 21
1034.935807701357
 31
0.0
210
0.0
220
0.0
230
1.0
 40
0.0025002425814444
 41
0.9625689785682974
 42
0.972340763075895
  0
ELLIPSE
  5
2F5843
330
18
100
AcDbEntity
  8
0
 62
     8
100
AcDbEllipse
 10
3147.428159210156
 20
-18951.29496992195
 30
0.0000000000000047
 11
24.2908110278924
 21
1034.619385230746
 31
0.0
210
0.0
220
0.0
230
1.0
 40
0.0027535465027592
 41
5.310832639055706
 42
5.320604381378329
  0
SPLINE
  5
2F5844
330
18
100
AcDbEntity
  8
0
 62
     8
100
AcDbSpline
210
0.0
220
0.0
230
1.0
 70
     8
 71
     3
 72
    10
 73
     6
 74
     0
 42
0.000000001
 43
0.0000000001
 40
0.0
 40
0.0
 40
0.0
 40
0.0
 40
0.3209677458789514
 40
0.998018980834383
 40
1.0
 40
1.0
 40
1.0
 40
1.0
 10
3145.803644845911
 20
-18381.37941932592
 30
0.0000000000000047
 10
3145.872667886302
 20
-18381.17486492518
 30
0.0000000000000047
 10
3146.08728853062
 20
-18380.53882227858
 30
0.0000000000000047
 10
3146.201821573303
 20
-18379.90867020072
 30
0.0000000000000047
 10
3146.274184918534
 20
-18379.48291007436
 30
0.0000000000000047
 10
3146.274396032473
 20
-18379.4816679552
 30
0.0000000000000047
  0
SPLINE
  5
2F5845
330
18
100
AcDbEntity
  8
0
 62
     8
100
AcDbSpline
210
0.0
220
0.0
230
1.0
 70
     8
 71
     3
 72
     9
 73
     5
 74
     0
 42
0.000000001
 43
0.0000000001
 40
0.0
 40
0.0
 40
0.0
 40
0.0
 40
0.6650851500802322
 40
1.0
 40
1.0
 40
1.0
 40
1.0
 10
3178.177513851364
 20
-18379.74892245214
 30
0.0000000000000047
 10
3178.250657178962
 20
-18380.17613138517
 30
0.0000000000000047
 10
3178.360633063387
 20
-18380.81846858512
 30
0.0000000000000047
 10
3178.575770329666
 20
-18381.47148338032
 30
0.0000000000000047
 10
3178.647822994914
 20
-18381.69018773246
 30
0.0000000000000047
  0
LINE
  5
2F5846
330
18
100
AcDbEntity
  8
0
 62
     8
100
AcDbLine
 10
3178.992880446486
 20
-18382.68102478793
 30
0.0000000000000047
 11
3179.190687076938
 21
-18383.0775658787
 31
0.0000000000000047
  0
SPLINE
  5
2F5847
330
18
100
AcDbEntity
  8
0
 62
     8
100
AcDbSpline
210
0.0
220
0.0
230
1.0
 70
     8
 71
     3
 72
    10
 73
     6
 74
     0
 42
0.000000001
 43
0.0000000001
 40
0.0
 40
0.0
 40
0.0
 40
0.0
 40
0.2340504435825158
 40
0.5179636181936815
 40
1.0
 40
1.0
 40
1.0
 40
1.0
 10
3143.665226972335
 20
-18382.26778847657
 30
0.0000000000000047
 10
3143.659431281467
 20
-18382.33801989364
 30
0.0000000000000047
 10
3143.646605170281
 20
-18382.49344501631
 30
0.0000000000000047
 10
3143.652811896702
 20
-18382.78083282155
 30
0.0000000000000047
 10
3143.691947322897
 20
-18382.98345404964
 30
0.0000000000000047
 10
3143.716576489513
 20
-18383.11097002357
 30
0.0000000000000047
  0
SPLINE
  5
2F5848
330
18
100
AcDbEntity
  8
0
 62
     8
100
AcDbSpline
210
0.0
220
0.0
230
1.0
 70
     8
 71
     3
 72
    16
 73
    12
 74
     0
 42
0.000000001
 43
0.0000000001
 40
0.0
 40
0.0
 40
0.0
 40
0.0
 40
0.0225354757725399
 40
0.1562909449588825
 40
0.2896188387051637
 40
0.3726144036080387
 40
0.5051959223623732
 40
0.6375957527303296
 40
0.7700361230017961
 40
0.9028651823425629
 40
1.0
 40
1.0
 40
1.0
 40
1.0
 10
3180.184418132546
 20
-18340.13096228107
 30
0.0000000000000047
 10
3180.186019333618
 20
-18340.12675625903
 30
0.0000000000000047
 10
3180.197124190301
 20
-18340.09758611123
 30
0.0000000000000047
 10
3180.14519278177
 20
-18340.04304272563
 30
0.0000000000000047
 10
3180.044095946578
 20
-18339.9862739429
 30
0.0000000000000047
 10
3179.899019123988
 20
-18339.9419220209
 30
0.0000000000000047
 10
3179.724098347471
 20
-18339.91206646029
 30
0.0000000000000047
 10
3179.502958780806
 20
-18339.90239922
 30
0.0000000000000047
 10
3179.286616781856
 20
-18339.91840218758
 30
0.0000000000000047
 10
3179.11159130959
 20
-18339.95386630773
 30
0.0000000000000047
 10
3179.032546033735
 20
-18339.98757025679
 30
0.0000000000000047
 10
3178.999157970545
 20
-18340.00180652289
 30
0.0000000000000047
  0
SPLINE
  5
2F5849
330
18
100
AcDbEntity
  8
0
 62
     8
100
AcDbSpline
210
0.0
220
0.0
230
1.0
 70
     8
 71
     3
 72
     9
 73
     5
 74
     0
 42
0.000000001
 43
0.0000000001
 40
0.0
 40
0.0
 40
0.0
 40
0.0
 40
0.822977685357435
 40
1.0
 40
1.0
 40
1.0
 40
1.0
 10
3180.692480038502
 20
-18383.41184193038
 30
0.0000000000000047
 10
3180.728358922681
 20
-18383.21150676264
 30
0.0000000000000047
 10
3180.771955346763
 20
-18382.96807954548
 30
0.0000000000000047
 10
3180.750950628747
 20
-18382.69390728062
 30
0.0000000000000047
 10
3180.747232324945
 20
-18382.64537267169
 30
0.0000000000000047
  0
SPLINE
  5
2F584A
330
18
100
AcDbEntity
  8
0
 62
     8
100
AcDbSpline
210
0.0
220
0.0
230
1.0
 70
     8
 71
     3
 72
    11
 73
     7
 74
     0
 42
0.000000001
 43
0.0000000001
 40
0.0
 40
0.0
 40
0.0
 40
0.0
 40
0.0151009277702277
 40
0.112595782967653
 40
0.5663271902113917
 40
1.0
 40
1.0
 40
1.0
 40
1.0
 10
3143.301058370568
 20
-18383.20691258607
 30
0.0000000000000047
 10
3143.298490581438
 20
-18383.19645418448
 30
0.0000000000000047
 10
3143.2793445904
 20
-18383.11847408063
 30
0.0000000000000047
 10
3143.290163717709
 20
-18382.66989911238
 30
0.0000000000000047
 10
3143.349324773565
 20
-18381.87338869053
 30
0.0000000000000047
 10
3143.57872326537
 20
-18381.09226355209
 30
0.0000000000000047
 10
3143.690829886675
 20
-18380.71052913267
 30
0.0000000000000047
  0
SPLINE
  5
2F584B
330
18
100
AcDbEntity
  8
0
 62
     8
100
AcDbSpline
210
0.0
220
0.0
230
1.0
 70
     8
 71
     3
 72
    11
 73
     7
 74
     0
 42
0.000000001
 43
0.0000000001
 40
0.0
 40
0.0
 40
0.0
 40
0.0
 40
0.0077952222465289
 40
0.4442060498527385
 40
0.8882059601132517
 40
0.9999999999999998
 40
0.9999999999999998
 40
0.9999999999999998
 40
0.9999999999999998
 10
3180.73520563178
 20
-18381.11491850797
 30
0.0000000000000047
 10
3180.737275063993
 20
-18381.12157410554
 30
0.0000000000000047
 10
3180.855200413547
 20
-18381.50083932911
 30
0.0000000000000047
 10
3181.027576842705
 20
-18382.23915242759
 30
0.0000000000000047
 10
3181.135052375364
 20
-18383.03530169053
 30
0.0000000000000047
 10
3181.097242813416
 20
-18383.43213808517
 30
0.0000000000000047
 10
3181.089637686237
 20
-18383.51195893194
 30
0.0000000000000047
  0
SPLINE
  5
2F584C
330
18
100
AcDbEntity
  8
0
 62
     8
100
AcDbSpline
210
0.0
220
0.0
230
1.0
 70
     8
 71
     3
 72
     9
 73
     5
 74
     0
 42
0.000000001
 43
0.0000000001
 40
0.0
 40
0.0
 40
0.0
 40
0.0
 40
0.4924303489319362
 40
1.0
 40
1.0
 40
1.0
 40
1.0
 10
3187.269219390571
 20
-18385.43721303864
 30
0.0000000000000047
 10
3187.020676242461
 20
-18384.99465896946
 30
0.0000000000000047
 10
3186.51594872384
 20
-18384.09594492769
 30
0.0000000000000047
 10
3186.139590134174
 20
-18383.23601977312
 30
0.0000000000000047
 10
3185.94856193614
 20
-18382.79954786247
 30
0.0000000000000047
  0
SPLINE
  5
2F584D
330
18
100
AcDbEntity
  8
0
 62
     8
100
AcDbSpline
210
0.0
220
0.0
230
1.0
 70
     8
 71
     3
 72
    11
 73
     7
 74
     0
 42
0.000000001
 43
0.0000000001
 40
0.0
 40
0.0
 40
0.0
 40
0.0
 40
0.0791653476477117
 40
0.5317694845673206
 40
0.9922426895355522
 40
1.0
 40
1.0
 40
1.0
 40
1.0
 10
3138.327368588729
 20
-18382.40062296995
 30
0.0000000000000047
 10
3138.298092006059
 20
-18382.46836388793
 30
0.0000000000000047
 10
3138.101435340749
 20
-18382.92339319188
 30
0.0000000000000047
 10
3137.681061708744
 20
-18383.79165780438
 30
0.0000000000000047
 10
3137.240542488929
 20
-18384.61820394242
 30
0.0000000000000047
 10
3136.971951540913
 20
-18385.04074457202
 30
0.0000000000000047
 10
3136.967501716942
 20
-18385.04774492492
 30
0.0000000000000047
  0
LWPOLYLINE
  5
2F584E
330
18
100
AcDbEntity
  8
0
 62
     8
100
AcDbPolyline
 90
        3
 70
   128
 43
0.0
 10
3155.619698115961
 20
-18346.64323708171
 10
3150.838235712018
 20
-18343.25236148531
 10
3145.863042277715
 20
-18339.72409757917
  0
LWPOLYLINE
  5
2F584F
330
18
100
AcDbEntity
  8
0
 62
     8
100
AcDbPolyline
 90
        3
 70
   128
 43
0.0
 10
3178.9991705526
 20
-18340.00168044393
 10
3173.397579288787
 20
-18343.74659609274
 10
3169.245208253934
 20
-18346.52263705252
  0
SPLINE
  5
2F5850
330
18
100
AcDbEntity
  8
0
 62
     8
100
AcDbSpline
210
0.0
220
0.0
230
1.0
 70
     8
 71
     3
 72
    11
 73
     7
 74
     0
 42
0.000000001
 43
0.0000000001
 40
0.0
 40
0.0
 40
0.0
 40
0.0
 40
0.1495076660987949
 40
0.5738675333106129
 40
0.9987574675496389
 40
1.0
 40
1.0
 40
1.0
 40
1.0
 10
3136.223797299836
 20
-18385.33353940949
 30
0.0000000000000047
 10
3136.297240636018
 20
-18385.17258656646
 30
0.0000000000000047
 10
3136.579144215098
 20
-18384.55478807217
 30
0.0000000000000047
 10
3136.930439300199
 20
-18383.4951914206
 30
0.0000000000000047
 10
3137.191469442051
 20
-18382.61193420416
 30
0.0000000000000047
 10
3137.304219315989
 20
-18382.17385088997
 30
0.0000000000000047
 10
3137.304548076147
 20
-18382.1725735108
 30
0.0000000000000047
  0
SPLINE
  5
2F5851
330
18
100
AcDbEntity
  8
0
 62
     8
100
AcDbSpline
210
0.0
220
0.0
230
1.0
 70
     8
 71
     3
 72
     9
 73
     5
 74
     0
 42
0.000000001
 43
0.0000000001
 40
0.0
 40
0.0
 40
0.0
 40
0.0
 40
0.5885878965717187
 40
1.0
 40
1.0
 40
1.0
 40
1.0
 10
3186.969713458197
 20
-18382.58862407623
 30
0.0000000000000047
 10
3187.084390247775
 20
-18383.02938888215
 30
0.0000000000000047
 10
3187.279224001994
 20
-18383.77824017266
 30
0.0000000000000047
 10
3187.556654958737
 20
-18384.55263595815
 30
0.0000000000000047
 10
3187.670793412207
 20
-18384.87123175715
 30
0.0000000000000047
  0
SPLINE
  5
2F5852
330
18
100
AcDbEntity
  8
0
 62
     8
100
AcDbSpline
210
0.0
220
0.0
230
1.0
 70
     8
 71
     3
 72
    10
 73
     6
 74
     0
 42
0.000000001
 43
0.0000000001
 40
0.0
 40
0.0
 40
0.0
 40
0.0
 40
0.1587793502907278
 40
0.5799150209902904
 40
1.0
 40
1.0
 40
1.0
 40
1.0
 10
3159.467495357182
 20
-18368.51826472108
 30
0.0000000000000047
 10
3159.459352291948
 20
-18368.51585807496
 30
0.0000000000000047
 10
3159.429611108111
 20
-18368.50706820247
 30
0.0000000000000047
 10
3159.389604139201
 20
-18368.58139881689
 30
0.0000000000000047
 10
3159.371136153734
 20
-18368.69677003785
 30
0.0000000000000047
 10
3159.361913694335
 20
-18368.75438359851
 30
0.0000000000000047
  0
SPLINE
  5
2F5853
330
18
100
AcDbEntity
  8
0
 62
     8
100
AcDbSpline
210
0.0
220
0.0
230
1.0
 70
     8
 71
     3
 72
    10
 73
     6
 74
     0
 42
0.000000001
 43
0.0000000001
 40
0.0
 40
0.0
 40
0.0
 40
0.0
 40
0.1708048014216255
 40
0.5914482847267682
 40
1.0
 40
1.0
 40
1.0
 40
1.0
 10
3165.166850225503
 20
-18368.80301333656
 30
0.0000000000000047
 10
3165.163621606993
 20
-18368.77778814606
 30
0.0000000000000047
 10
3165.152441822446
 20
-18368.6904405099
 30
0.0000000000000047
 10
3165.11888123352
 20
-18368.58213868487
 30
0.0000000000000047
 10
3165.076982143822
 20
-18368.56461515789
 30
0.0000000000000047
 10
3165.056338096445
 20
-18368.55598116313
 30
0.0000000000000047
  0
SPLINE
  5
2F5854
330
18
100
AcDbEntity
  8
0
 62
     8
100
AcDbSpline
210
0.0
220
0.0
230
1.0
 70
     8
 71
     3
 72
    15
 73
    11
 74
     0
 42
0.000000001
 43
0.0000000001
 40
0.0
 40
0.0
 40
0.0
 40
0.0
 40
0.0093724180654337
 40
0.1670590980132207
 40
0.2651829517569482
 40
0.4220332046401753
 40
0.5786612439814587
 40
0.7353378959528991
 40
0.8925051390904947
 40
0.9999999999999998
 40
0.9999999999999998
 40
0.9999999999999998
 40
0.9999999999999998
 10
3188.59162836435
 20
-18343.09832418703
 30
0.0000000000000047
 10
3188.592295096107
 20
-18343.09685456143
 30
0.0000000000000047
 10
3188.604179287079
 20
-18343.07065915213
 30
0.0000000000000047
 10
3188.565127964864
 20
-18343.0279177669
 30
0.0000000000000047
 10
3188.482392467035
 20
-18342.96898878424
 30
0.0000000000000047
 10
3188.349392309941
 20
-18342.91934024558
 30
0.0000000000000047
 10
3188.153835413527
 20
-18342.88270951339
 30
0.0000000000000047
 10
3187.934456078592
 20
-18342.87036069303
 30
0.0000000000000047
 10
3187.7364990129
 20
-18342.88107716377
 30
0.0000000000000047
 10
3187.628840728125
 20
-18342.90133775411
 30
0.0000000000000047
 10
3187.585114360917
 20
-18342.90956677256
 30
0.0000000000000047
  0
SPLINE
  5
2F5855
330
18
100
AcDbEntity
  8
0
 62
     8
100
AcDbSpline
210
0.0
220
0.0
230
1.0
 70
     8
 71
     3
 72
    10
 73
     6
 74
     0
 42
0.000000001
 43
0.0000000001
 40
0.0
 40
0.0
 40
0.0
 40
0.0
 40
0.1166852441651422
 40
0.5589022255752607
 40
1.0
 40
1.0
 40
1.0
 40
1.0
 10
3150.404760526295
 20
-18369.43392972806
 30
0.0000000000000047
 10
3150.468031221653
 20
-18369.42864148757
 30
0.0000000000000047
 10
3150.402367518044
 20
-18369.42768087794
 30
0.0000000000000047
 10
3150.305958782105
 20
-18369.50975372796
 30
0.0000000000000047
 10
3150.254754898592
 20
-18369.62915033041
 30
0.0000000000000047
 10
3150.229185395864
 20
-18369.68877299069
 30
0.0000000000000047
  0
SPLINE
  5
2F5856
330
18
100
AcDbEntity
  8
0
 62
     8
100
AcDbSpline
210
0.0
220
0.0
230
1.0
 70
     8
 71
     3
 72
    10
 73
     6
 74
     0
 42
0.000000001
 43
0.0000000001
 40
0.0
 40
0.0
 40
0.0
 40
0.0
 40
0.1808507206472298
 40
0.6262110655427264
 40
1.0
 40
1.0
 40
1.0
 40
1.0
 10
3174.234661475352
 20
-18369.88986637824
 30
0.0000000000000047
 10
3174.225554855167
 20
-18369.8637855188
 30
0.0000000000000047
 10
3174.194022405038
 20
-18369.77347831558
 30
0.0000000000000047
 10
3174.114140508173
 20
-18369.66180259057
 30
0.0000000000000047
 10
3174.022495454784
 20
-18369.63556170954
 30
0.0000000000000047
 10
3173.980676573027
 20
-18369.62358763936
 30
0.0000000000000047
  0
LINE
  5
2F5857
330
18
100
AcDbEntity
  8
0
 62
     8
100
AcDbLine
 10
3135.151194826802
 20
-18381.41716937768
 30
0.0000000000000047
 11
3133.401517190744
 21
-18385.01561846439
 31
0.0000000000000047
  0
SPLINE
  5
2F5858
330
18
100
AcDbEntity
  8
0
 62
     8
100
AcDbSpline
210
0.0
220
0.0
230
1.0
 70
     8
 71
     3
 72
    12
 73
     8
 74
     0
 42
0.000000001
 43
0.0000000001
 40
0.0
 40
0.0
 40
0.0
 40
0.0
 40
0.1000952570985932
 40
0.4513302258432041
 40
0.7046174493087065
 40
0.9576486940755948
 40
1.0
 40
1.0
 40
1.0
 40
1.0
 10
3189.118282179306
 20
-18382.50711655355
 30
0.0000000000000047
 10
3189.172152466155
 20
-18382.60293288167
 30
0.0000000000000047
 10
3189.415053972533
 20
-18383.03496938633
 30
0.0000000000000047
 10
3189.759304457731
 20
-18383.73985688887
 30
0.0000000000000047
 10
3190.130895685399
 20
-18384.52006177476
 30
0.0000000000000047
 10
3190.362867663147
 20
-18385.01985090708
 30
0.0000000000000047
 10
3190.447073258213
 20
-18385.23109538647
 30
0.0000000000000047
 10
3190.459146472791
 20
-18385.26138315922
 30
0.0000000000000047
  0
LWPOLYLINE
  5
2F5859
330
18
100
AcDbEntity
  8
0
 62
     8
100
AcDbPolyline
 90
        3
 70
   128
 43
0.0
 10
3190.5695691172
 20
-18385.3215396416
 10
3190.466008019954
 20
-18385.10305427318
 10
3189.114898497739
 20
-18382.25263728276
  0
LINE
  5
2F585A
330
18
100
AcDbEntity
  8
0
 62
     8
100
AcDbLine
 10
3144.53803246556
 20
-18345.15185248265
 30
0.0000000000000047
 11
3137.094965661978
 21
-18342.48647985103
 31
0.0000000000000047
  0
LINE
  5
2F585B
330
18
100
AcDbEntity
  8
0
 62
     8
100
AcDbLine
 10
3187.585115023467
 20
-18342.90944069776
 30
0.0000000000000047
 11
3180.259392690313
 21
-18345.36967796668
 31
0.0000000000000047
  0
SPLINE
  5
2F585C
330
18
100
AcDbEntity
  8
0
 62
     8
100
AcDbSpline
210
0.0
220
0.0
230
1.0
 70
     8
 71
     3
 72
     9
 73
     5
 74
     0
 42
0.000000001
 43
0.0000000001
 40
0.0
 40
0.0
 40
0.0
 40
0.0
 40
0.4651630797656367
 40
1.0
 40
1.0
 40
1.0
 40
1.0
 10
3143.173971814559
 20
-18371.47027747512
 30
0.0000000000000047
 10
3143.116837659285
 20
-18371.49799341816
 30
0.0000000000000047
 10
3142.994011584391
 20
-18371.55757670034
 30
0.0000000000000047
 10
3142.92501539809
 20
-18371.68205274832
 30
0.0000000000000047
 10
3142.888113690301
 20
-18371.74862713446
 30
0.0000000000000047
  0
SPLINE
  5
2F585D
330
18
100
AcDbEntity
  8
0
 62
     8
100
AcDbSpline
210
0.0
220
0.0
230
1.0
 70
     8
 71
     3
 72
    10
 73
     6
 74
     0
 42
0.000000001
 43
0.0000000001
 40
0.0
 40
0.0
 40
0.0
 40
0.0
 40
0.2218915721251016
 40
0.7683474803408781
 40
1.0
 40
1.0
 40
1.0
 40
1.0
 10
3181.43949120182
 20
-18372.07157782972
 30
0.0000000000000047
 10
3181.425861420757
 20
-18372.04403347042
 30
0.0000000000000047
 10
3181.378665360816
 20
-18371.94865517879
 30
0.0000000000000047
 10
3181.286925027641
 20
-18371.84161554616
 30
0.0000000000000047
 10
3181.187372781748
 20
-18371.80712039417
 30
0.0000000000000047
 10
3181.157734844703
 20
-18371.79685076004
 30
0.0000000000000047
  0
SPLINE
  5
2F585E
330
18
100
AcDbEntity
  8
0
 62
     8
100
AcDbSpline
210
0.0
220
0.0
230
1.0
 70
     8
 71
     3
 72
    13
 73
     9
 74
     0
 42
0.000000001
 43
0.0000000001
 40
0.0
 40
0.0
 40
0.0
 40
0.0
 40
0.1826160619262754
 40
0.3744970347724482
 40
0.5661915253824616
 40
0.7572663890589489
 40
0.8762138769762843
 40
1.0
 40
1.0
 40
1.0
 40
1.0
 10
3132.140784223668
 20
-18346.19725503473
 30
0.0000000000000047
 10
3132.070648699193
 20
-18346.19408110896
 30
0.0000000000000047
 10
3131.926819368568
 20
-18346.18757223032
 30
0.0000000000000047
 10
3131.71390908377
 20
-18346.20886080656
 30
0.0000000000000047
 10
3131.531602061172
 20
-18346.25213131845
 30
0.0000000000000047
 10
3131.421850706126
 20
-18346.30659169176
 30
0.0000000000000047
 10
3131.362423214584
 20
-18346.36008779784
 30
0.0000000000000047
 10
3131.362637718252
 20
-18346.39209286904
 30
0.0000000000000047
 10
3131.362747108037
 20
-18346.40841439808
 30
0.0000000000000047
  0
LINE
  5
2F585F
330
18
100
AcDbEntity
  8
0
 62
     8
100
AcDbLine
 10
3132.083867162037
 20
-18385.65040674214
 30
0.0000000000000047
 11
3132.140784223667
 21
-18346.19725503472
 31
0.0000000000000047
  0
LINE
  5
2F5860
330
18
100
AcDbEntity
  8
0
 62
     8
100
AcDbLine
 10
3191.953337383611
 20
-18386.04007459166
 30
0.0000000000000047
 11
3192.298307659561
 21
-18346.701200328
 31
0.0000000000000047
  0
SPLINE
  5
2F5861
330
18
100
AcDbEntity
  8
0
 62
     8
100
AcDbSpline
210
0.0
220
0.0
230
1.0
 70
     8
 71
     3
 72
    13
 73
     9
 74
     0
 42
0.000000001
 43
0.0000000001
 40
0.0
 40
0.0
 40
0.0
 40
0.0
 40
0.0865499524560446
 40
0.278503797671345
 40
0.4702130930307211
 40
0.6619802246142861
 40
0.8542956507718573
 40
1.0
 40
1.0
 40
1.0
 40
1.0
 10
3193.067848096132
 20
-18346.92116201847
 30
0.0000000000000047
 10
3193.067320687245
 20
-18346.90993164154
 30
0.0000000000000047
 10
3193.065623570453
 20
-18346.8737940986
 30
0.0000000000000047
 10
3193.003129792677
 20
-18346.81479736248
 30
0.0000000000000047
 10
3192.86821894407
 20
-18346.75440584587
 30
0.0000000000000047
 10
3192.68125554502
 20
-18346.71292750712
 30
0.0000000000000047
 10
3192.481589074024
 20
-18346.69477977308
 30
0.0000000000000047
 10
3192.353514538567
 20
-18346.69926636868
 30
0.0000000000000047
 10
3192.298307659561
 20
-18346.701200328
 30
0.0000000000000047
  0
LINE
  5
2F5862
330
18
100
AcDbEntity
  8
0
 62
     8
100
AcDbLine
 10
3135.97409582433
 20
-18346.87802387199
 30
0.0000000000000047
 11
3132.140796805722
 21
-18346.19712895577
 31
0.0000000000000047
  0
LINE
  5
2F5863
330
18
100
AcDbEntity
  8
0
 62
     8
100
AcDbLine
 10
3192.298308322111
 20
-18346.7010742532
 30
0.0000000000000047
 11
3188.649432981618
 21
-18347.28473828968
 31
0.0000000000000047
  0
SPLINE
  5
2F5864
330
18
100
AcDbEntity
  8
0
 62
     8
100
AcDbSpline
210
0.0
220
0.0
230
1.0
 70
     8
 71
     3
 72
     9
 73
     5
 74
     0
 42
0.000000001
 43
0.0000000001
 40
0.0
 40
0.0
 40
0.0
 40
0.0
 40
0.641914617427945
 40
1.0
 40
1.0
 40
1.0
 40
1.0
 10
3163.732425115414
 20
-18347.03594679251
 30
0.0000000000000047
 10
3163.726422697541
 20
-18347.0452337115
 30
0.0000000000000047
 10
3163.717071893383
 20
-18347.05970124152
 30
0.0000000000000047
 10
3163.722704593594
 20
-18347.07437498254
 30
0.0000000000000047
 10
3163.724721581203
 20
-18347.07962943472
 30
0.0000000000000047
  0
SPLINE
  5
2F5865
330
18
100
AcDbEntity
  8
0
 62
     8
100
AcDbSpline
210
0.0
220
0.0
230
1.0
 70
     8
 71
     3
 72
     9
 73
     5
 74
     0
 42
0.000000001
 43
0.0000000001
 40
0.0
 40
0.0
 40
0.0
 40
0.0
 40
0.838084675965967
 40
1.0
 40
1.0
 40
1.0
 40
1.0
 10
3131.258274213562
 20
-18350.4426065171
 30
0.0000000000000047
 10
3131.240848751826
 20
-18350.45954715373
 30
0.0000000000000047
 10
3131.22005674568
 20
-18350.47976066807
 30
0.0000000000000047
 10
3131.224561031622
 20
-18350.50088155629
 30
0.0000000000000047
 10
3131.225290344539
 20
-18350.50430135174
 30
0.0000000000000047
  0
SPLINE
  5
2F5866
330
18
100
AcDbEntity
  8
0
 62
     8
100
AcDbSpline
210
0.0
220
0.0
230
1.0
 70
     8
 71
     3
 72
    10
 73
     6
 74
     0
 42
0.000000001
 43
0.0000000001
 40
0.0
 40
0.0
 40
0.0
 40
0.0
 40
0.1615096745886532
 40
0.9740899851758129
 40
1.0
 40
1.0
 40
1.0
 40
1.0
 10
3163.547961744581
 20
-18354.23995200206
 30
0.0000000000000047
 10
3163.540482635482
 20
-18354.24410236201
 30
0.0000000000000047
 10
3163.495374964433
 20
-18354.26913382881
 30
0.0000000000000047
 10
3163.47979812351
 20
-18354.30119711766
 30
0.0000000000000047
 10
3163.486235807325
 20
-18354.32654010162
 30
0.0000000000000047
 10
3163.486434736852
 20
-18354.32732321988
 30
0.0000000000000047
  0
TEXT
  5
2F59C3
330
18
100
AcDbEntity
  8
文字
100
AcDbText
 10
3121.798122251769
 20
-18457.10150063668
 30
0.0
 40
9.75
  1
MSP-100F/FLF
 41
0.8
100
AcDbText
  0
VIEWPORT
  5
1B39D6
102
{ACAD_XDICTIONARY
360
1B39D7
102
}
330
15
100
AcDbEntity
 67
     1
  8
0
100
AcDbViewport
 10
9.443112410971278
 20
5.64570822246414
 30
0.0
 40
25.68200028106094
 41
14.3866760833721
 68
     1
 69
     1
 12
9.443112410971278
 22
5.64570822246414
 13
0.0
 23
0.0
 14
10.0
 24
10.0
 15
10.0
 25
10.0
 16
0.0
 26
0.0
 36
1.0
 17
0.0
 27
0.0
 37
0.0
 42
50.0
 43
0.0
 44
0.0
 45
14.3866760833721
 50
0.0
 51
0.0
 72
   100
 90
   557088
  1

281
     0
 71
     1
 74
     0
110
0.0
120
0.0
130
0.0
111
1.0
121
0.0
131
0.0
112
0.0
122
1.0
132
0.0
 79
     0
146
0.0
  0
VIEWPORT
  5
1B39DA
102
{ACAD_XDICTIONARY
360
1B39DB
102
}
330
15
100
AcDbEntity
 67
     1
  8
実線
100
AcDbViewport
 10
5.249999761581421
 20
3.999999761581421
 30
0.0
 40
8.399999618530275
 41
6.399999618530274
 68
     2
 69
     2
 12
973.77522575311
 22
148.6828135753912
 13
0.0
 23
0.0
 14
1.0
 24
1.0
 15
20.0
 25
20.0
 16
0.0
 26
0.0
 36
1.0
 17
0.0
 27
0.0
 37
0.0
 42
50.0
 43
0.0
 44
0.0
 45
19878.02383915038
 50
0.0
 51
0.0
 72
   100
 90
   819200
  1

281
     0
 71
     1
 74
     0
110
0.0
120
0.0
130
0.0
111
1.0
121
0.0
131
0.0
112
0.0
122
1.0
132
0.0
 79
     0
146
0.0
  0
ENDSEC
  0
SECTION
  2
OBJECTS
  0
DICTIONARY
  5
C
330
0
100
AcDbDictionary
281
     1
  3
ACAD_GROUP
350
D
  3
ACAD_IMAGE_VARS
350
2ED20A
  3
ACAD_LAYOUT
350
617
  3
ACAD_MLINESTYLE
350
E
  3
ACAD_PLOTSETTINGS
350
618
  3
ACAD_PLOTSTYLENAME
350
615
  3
ACAD_SCALELIST
350
66C31
  3
AcadDim
350
12B3C
  3
AcDbVariableDictionary
350
6DE
  3
AcDsDecomposeData
350
2F5C7B
  3
AEC_DISP_REPS
350
2ED1C0
  3
AEC_DISPLAY_PROPS_DEFAULTS
350
2ED1C2
  3
AEC_VARS
350
2ED1BE
  3
APPDATA
350
2ED208
  3
DWGPROPS
350
2F5C78
  0
DICTIONARY
  5
2F02D7
330
8
100
AcDbDictionary
280
     1
281
     1
  0
DICTIONARY
  5
67DE7
330
2
100
AcDbDictionary
280
     1
281
     1
  3
ACAD_LAYERSTATES
360
67DE8
  0
DICTIONARY
  5
66C5B
330
F
100
AcDbDictionary
280
     1
281
     1
  3
ADSK_XREC_LAYER_RECONCILED
360
66C5C
  0
DICTIONARY
  5
66C61
330
280
100
AcDbDictionary
280
     1
281
     1
  3
ADSK_XREC_LAYER_RECONCILED
360
66C62
  0
DICTIONARY
  5
66C67
330
2F4
100
AcDbDictionary
280
     1
281
     1
  3
ADSK_XREC_LAYER_RECONCILED
360
66C68
  0
DICTIONARY
  5
845D5
330
18
100
AcDbDictionary
280
     1
281
     1
  3
ACAD_SORTENTS
360
845D6
  0
DICTIONARY
  5
1B39D7
330
1B39D6
100
AcDbDictionary
280
     1
281
     1
  3
ASDK_XREC_ANNOTATION_SCALE_INFO
360
1B39D8
  0
DICTIONARY
  5
1B39DB
330
1B39DA
100
AcDbDictionary
280
     1
281
     1
  3
ASDK_XREC_ANNOTATION_SCALE_INFO
360
1B39DC
  0
DICTIONARY
  5
D
102
{ACAD_REACTORS
330
C
102
}
330
C
100
AcDbDictionary
281
     1
  0
RASTERVARIABLES
  5
2ED20A
102
{ACAD_REACTORS
330
C
102
}
330
C
100
AcDbRasterVariables
 90
        0
 70
     1
 71
     1
 72
     0
  0
DICTIONARY
  5
617
102
{ACAD_REACTORS
330
C
102
}
330
C
100
AcDbDictionary
281
     1
  3
Model
350
619
  3
ﾚｲｱｳﾄ1
350
61A
  0
DICTIONARY
  5
E
102
{ACAD_REACTORS
330
C
102
}
330
C
100
AcDbDictionary
281
     1
  3
STANDARD
350
1B
  0
DICTIONARY
  5
618
102
{ACAD_REACTORS
330
C
102
}
330
C
100
AcDbDictionary
281
     1
  0
ACDBDICTIONARYWDFLT
  5
615
102
{ACAD_REACTORS
330
C
102
}
330
C
100
AcDbDictionary
281
     1
  3
Normal
350
616
100
AcDbDictionaryWithDefault
340
616
  0
DICTIONARY
  5
66C31
102
{ACAD_REACTORS
330
C
102
}
330
C
100
AcDbDictionary
281
     1
  3
A0
350
66C32
  3
A1
350
66C33
  3
A2
350
66C34
  3
A3
350
66C35
  3
A4
350
66C36
  3
A5
350
66C37
  3
A6
350
66C38
  3
A7
350
66C39
  3
A8
350
66C3A
  3
A9
350
66C3B
  3
B0
350
66C3C
  3
B1
350
66C3D
  3
B2
350
66C3E
  3
B3
350
66C3F
  3
B4
350
66C40
  3
B5
350
66C41
  3
B6
350
66C42
  3
B7
350
66C43
  3
B8
350
66C44
  3
B9
350
66C45
  3
C0
350
66C46
  3
C1
350
66C47
  3
C2
350
66C48
  3
C3
350
66C49
  3
C4
350
66C4A
  3
C5
350
66C4B
  3
C6
350
66C4C
  3
C7
350
66C4D
  3
C8
350
66C4E
  3
C9
350
66C4F
  3
D0
350
66C50
  3
D1
350
66C51
  3
D2
350
66C52
  0
XRECORD
  5
12B3C
102
{ACAD_REACTORS
330
C
102
}
330
C
100
AcDbXrecord
280
     1
 90
   990106
  3
OPEN
 60
     0
 61
     0
 62
     1
 63
     3
 64
     1
 65
     0
 66
     0
 67
     3
 68
     1
 69
     0
 70
     0
 71
     0
 72
     0
 40
0.0
170
     2
340
0
  0
DICTIONARY
  5
6DE
102
{ACAD_REACTORS
330
C
102
}
330
C
100
AcDbDictionary
281
     1
  3
DIMASSOC
350
6DF
  3
INDEXCTL
350
66CB9
  3
PROJECTNAME
350
6E0
  3
SORTENTS
350
66CB8
  0
DICTIONARY
  5
2F5C7B
102
{ACAD_REACTORS
330
C
102
}
330
C
100
AcDbDictionary
281
     1
  3
AcDsRecords
350
2F5C7C
  3
AcDsSchemas
350
2F5C7D
1001
ACAD
1070
     2
  0
DICTIONARY
  5
2ED1C0
102
{ACAD_REACTORS
330
C
102
}
330
C
100
AcDbDictionary
281
     1
  3
AecDbDispRep2dSection
350
2ED1C1
  3
AecDbDispRepAnchor
350
2ED1F7
  3
AecDbDispRepAnchorEntToNode
350
2ED1F8
  3
AecDbDispRepClipVolModel
350
2ED1C4
  3
AecDbDispRepClipVolPlan
350
2ED1C6
  3
AecDbDispRepClipVolResSubDiv
350
2ED1C9
  3
AecDbDispRepClipVolResult
350
2ED1C8
  3
AecDbDispRepDisplayTheme
350
2ED1CB
  3
AecDbDispRepEditInPlaceProfile
350
2ED1FC
  3
AecDbDispRepEntRef
350
2ED1CD
  3
AecDbDispRepLayoutCurve
350
2ED1CF
  3
AecDbDispRepLayoutGrid2d
350
2ED1D1
  3
AecDbDispRepLayoutGrid3d
350
2ED1D3
  3
AecDbDispRepMaskBlockRef
350
2ED1D5
  3
AecDbDispRepMaskBlockRefRcp
350
2ED1D7
  3
AecDbDispRepMassElemModel
350
2ED1D9
  3
AecDbDispRepMassElemPlan100
350
2ED1DF
  3
AecDbDispRepMassElemPlan50
350
2ED1DD
  3
AecDbDispRepMassElemRcp
350
2ED1E1
  3
AecDbDispRepMassElemSchem
350
2ED1DB
  3
AecDbDispRepMassGroupModel
350
2ED1E3
  3
AecDbDispRepMassGroupPlan
350
2ED1E5
  3
AecDbDispRepMassGroupPlan100
350
2ED1E9
  3
AecDbDispRepMassGroupPlan50
350
2ED1E7
  3
AecDbDispRepMassGroupRcp
350
2ED1EB
  3
AecDbDispRepMaterial
350
2ED1FA
  3
AecDbDispRepMvBlockRef
350
2ED1ED
  3
AecDbDispRepMvBlockRefModel
350
2ED1EE
  3
AecDbDispRepMvBlockRefPlan100
350
2ED1EF
  3
AecDbDispRepMvBlockRefPlan50
350
2ED1F0
  3
AecDbDispRepPolygonModel
350
2ED1F1
  3
AecDbDispRepPolygonTrueColour
350
2ED1F3
  3
AecDbDispRepSlice
350
2ED1F5
  0
DICTIONARY
  5
2ED1C2
102
{ACAD_REACTORS
330
C
102
}
330
C
100
AcDbDictionary
281
     1
  3
*A1
350
2ED1C3
  3
*A10
350
2ED1E0
  3
*A11
350
2ED1CE
  3
*A12
350
2ED1F9
  3
*A13
350
2ED1D2
  3
*A14
350
2ED1D4
  3
*A15
350
2ED1C5
  3
*A16
350
2ED1D8
  3
*A17
350
2ED1DC
  3
*A18
350
2ED1F2
  3
*A19
350
2ED1DE
  3
*A2
350
2ED1D0
  3
*A20
350
2ED1E2
  3
*A21
350
2ED1E4
  3
*A22
350
2ED1D6
  3
*A23
350
2ED1E8
  3
*A24
350
2ED1EA
  3
*A25
350
2ED1CA
  3
*A26
350
2ED1EC
  3
*A27
350
2ED1F4
  3
*A3
350
2ED1F6
  3
*A4
350
2ED1E6
  3
*A5
350
2ED1FB
  3
*A6
350
2ED1FD
  3
*A7
350
2ED1DA
  3
*A8
350
2ED1C7
  3
*A9
350
2ED1CC
  0
DICTIONARY
  5
2ED1BE
102
{ACAD_REACTORS
330
C
102
}
330
C
100
AcDbDictionary
281
     1
  3
AEC_VARS_DWG_SETUP
350
2ED1BF
  0
DICTIONARY
  5
2ED208
102
{ACAD_REACTORS
330
C
102
}
330
C
100
AcDbDictionary
281
     1
  0
XRECORD
  5
2F5C78
102
{ACAD_REACTORS
330
C
102
}
330
C
100
AcDbXrecord
280
     1
  1
DWGPROPS COOKIE
  2

  3

  4

  6

  7

  8
SPAX
  9

300
=
301
=
302
=
303
=
304
=
305
=
306
=
307
=
308
=
309
=
 40
0.0
 41
2448636.244629618
 42
2458075.334792755
  1

 90
        0
  0
DICTIONARY
  5
67DE8
102
{ACAD_REACTORS
330
67DE7
102
}
330
67DE7
100
AcDbDictionary
281
     1
  0
XRECORD
  5
66C5C
102
{ACAD_REACTORS
330
66C5B
102
}
330
66C5B
100
AcDbXrecord
280
     1
290
     1
  0
XRECORD
  5
66C62
102
{ACAD_REACTORS
330
66C61
102
}
330
66C61
100
AcDbXrecord
280
     1
290
     1
  0
XRECORD
  5
66C68
102
{ACAD_REACTORS
330
66C67
102
}
330
66C67
100
AcDbXrecord
280
     1
290
     1
  0
SORTENTSTABLE
  5
845D6
102
{ACAD_REACTORS
330
845D5
102
}
330
845D5
100
AcDbSortentsTable
330
18
331
11B04
  5
11B04
331
12B3E
  5
12B3E
  0
XRECORD
  5
1B39D8
102
{ACAD_REACTORS
330
1B39D7
102
}
330
1B39D7
100
AcDbXrecord
280
     1
 90
        1
340
66C32
  0
XRECORD
  5
1B39DC
102
{ACAD_REACTORS
330
1B39DB
102
}
330
1B39DB
100
AcDbXrecord
280
     1
 90
        1
340
66C32
  0
LAYOUT
  5
619
102
{ACAD_REACTORS
330
617
102
}
330
617
100
AcDbPlotSettings
  1

  2
JUST PDF 3
  4
A4
  6

 40
3.174999952316284
 41
3.174999952316284
 42
3.175003051757812
 43
3.17498779296875
 44
209.8886566162109
 45
297.0530090332031
 46
14.27171755861522
 47
9.855173074625782
 48
3095.959806859421
 49
-19075.55620678916
140
3620.94546234414
141
-18262.57818137316
142
1.0
143
3.0
 70
  3748
 72
     1
 73
     0
 74
     4
  7
spax form.ctb
 75
    16
147
1.0
148
-3095.959806859421
149
19075.55620678916
100
AcDbLayout
  1
Model
 70
     1
 71
     0
 10
0.0
 20
0.0
 11
12.0
 21
9.0
 12
0.0
 22
0.0
 32
0.0
 14
3121.798122251769
 24
-18457.10150063668
 34
0.0
 15
3212.798122251769
 25
-18337.74458665447
 35
0.0000000000000047
146
0.0
 13
0.0
 23
0.0
 33
0.0
 16
1.0
 26
0.0
 36
0.0
 17
0.0
 27
1.0
 37
0.0
 76
     0
330
18
331
163677
1001
ACAD_PSEXT
1000
JUST PDF 3
1000
JUST PDF 3
1000
JUST PDF 3 Port:
1000

1070
     0
  0
LAYOUT
  5
61A
102
{ACAD_REACTORS
330
617
102
}
102
{ACAD_XDICTIONARY
360
2F5C79
102
}
330
617
100
AcDbPlotSettings
  1

  2
none_device
  4
Letter_(8.50_x_11.00_Inches)
  6

 40
6.349999904632568
 41
6.349999904632568
 42
6.350006103515625
 43
6.350006103515625
 44
215.8999938964844
 45
279.3999938964844
 46
0.0
 47
0.0
 48
0.0
 49
0.0
140
0.0
141
0.0
142
1.0
143
1.0
 70
   688
 72
     0
 73
     1
 74
     5
  7
spax form.ctb
 75
    16
147
1.0
148
0.0
149
0.0
100
AcDbLayout
  1
ﾚｲｱｳﾄ1
 70
     0
 71
     1
 10
-0.2500002402958907
 20
-0.2499999962453767
 11
10.74999951940822
 21
8.249999763458733
 12
0.0
 22
0.0
 32
0.0
 14
1.049999952316284
 24
0.7999999523162842
 34
0.0
 15
9.44999957084656
 25
7.199999570846558
 35
0.0
146
0.0
 13
0.0
 23
0.0
 33
0.0
 16
1.0
 26
0.0
 36
0.0
 17
0.0
 27
1.0
 37
0.0
 76
     0
330
15
331
1B39D6
1001
ACAD_PSEXT
1000
なし
1000
なし
1000
適切ではありません
1000
新しいプロッタ環境設定名を選択しない限り、レイアウトは印刷されません。
1070
     0
  0
MLINESTYLE
  5
1B
102
{ACAD_REACTORS
330
E
102
}
330
E
100
AcDbMlineStyle
  2
STANDARD
 70
     0
  3

 62
     0
 51
90.0
 52
90.0
 71
     2
 49
0.5
 62
   256
  6
BYLAYER
 49
-0.5
 62
   256
  6
BYLAYER
  0
ACDBPLACEHOLDER
  5
616
102
{ACAD_REACTORS
330
615
102
}
330
615
  0
SCALE
  5
66C32
102
{ACAD_REACTORS
330
66C31
102
}
330
66C31
100
AcDbScale
 70
     0
300
1:1
140
1.0
141
1.0
290
     1
1001
ACAD
1000
AcRTDxfName
1000
SCALE
  0
SCALE
  5
66C33
102
{ACAD_REACTORS
330
66C31
102
}
330
66C31
100
AcDbScale
 70
     0
300
1:2
140
1.0
141
2.0
290
     0
1001
ACAD
1000
AcRTDxfName
1000
SCALE
  0
SCALE
  5
66C34
102
{ACAD_REACTORS
330
66C31
102
}
330
66C31
100
AcDbScale
 70
     0
300
1:4
140
1.0
141
4.0
290
     0
1001
ACAD
1000
AcRTDxfName
1000
SCALE
  0
SCALE
  5
66C35
102
{ACAD_REACTORS
330
66C31
102
}
330
66C31
100
AcDbScale
 70
     0
300
1:5
140
1.0
141
5.0
290
     0
1001
ACAD
1000
AcRTDxfName
1000
SCALE
  0
SCALE
  5
66C36
102
{ACAD_REACTORS
330
66C31
102
}
330
66C31
100
AcDbScale
 70
     0
300
1:8
140
1.0
141
8.0
290
     0
1001
ACAD
1000
AcRTDxfName
1000
SCALE
  0
SCALE
  5
66C37
102
{ACAD_REACTORS
330
66C31
102
}
330
66C31
100
AcDbScale
 70
     0
300
1:10
140
1.0
141
10.0
290
     0
1001
ACAD
1000
AcRTDxfName
1000
SCALE
  0
SCALE
  5
66C38
102
{ACAD_REACTORS
330
66C31
102
}
330
66C31
100
AcDbScale
 70
     0
300
1:16
140
1.0
141
16.0
290
     0
1001
ACAD
1000
AcRTDxfName
1000
SCALE
  0
SCALE
  5
66C39
102
{ACAD_REACTORS
330
66C31
102
}
330
66C31
100
AcDbScale
 70
     0
300
1:20
140
1.0
141
20.0
290
     0
1001
ACAD
1000
AcRTDxfName
1000
SCALE
  0
SCALE
  5
66C3A
102
{ACAD_REACTORS
330
66C31
102
}
330
66C31
100
AcDbScale
 70
     0
300
1:30
140
1.0
141
30.0
290
     0
1001
ACAD
1000
AcRTDxfName
1000
SCALE
  0
SCALE
  5
66C3B
102
{ACAD_REACTORS
330
66C31
102
}
330
66C31
100
AcDbScale
 70
     0
300
1:40
140
1.0
141
40.0
290
     0
1001
ACAD
1000
AcRTDxfName
1000
SCALE
  0
SCALE
  5
66C3C
102
{ACAD_REACTORS
330
66C31
102
}
330
66C31
100
AcDbScale
 70
     0
300
1:50
140
1.0
141
50.0
290
     0
1001
ACAD
1000
AcRTDxfName
1000
SCALE
  0
SCALE
  5
66C3D
102
{ACAD_REACTORS
330
66C31
102
}
330
66C31
100
AcDbScale
 70
     0
300
1:100
140
1.0
141
100.0
290
     0
1001
ACAD
1000
AcRTDxfName
1000
SCALE
  0
SCALE
  5
66C3E
102
{ACAD_REACTORS
330
66C31
102
}
330
66C31
100
AcDbScale
 70
     0
300
2:1
140
2.0
141
1.0
290
     0
1001
ACAD
1000
AcRTDxfName
1000
SCALE
  0
SCALE
  5
66C3F
102
{ACAD_REACTORS
330
66C31
102
}
330
66C31
100
AcDbScale
 70
     0
300
4:1
140
4.0
141
1.0
290
     0
1001
ACAD
1000
AcRTDxfName
1000
SCALE
  0
SCALE
  5
66C40
102
{ACAD_REACTORS
330
66C31
102
}
330
66C31
100
AcDbScale
 70
     0
300
8:1
140
8.0
141
1.0
290
     0
1001
ACAD
1000
AcRTDxfName
1000
SCALE
  0
SCALE
  5
66C41
102
{ACAD_REACTORS
330
66C31
102
}
330
66C31
100
AcDbScale
 70
     0
300
10:1
140
10.0
141
1.0
290
     0
1001
ACAD
1000
AcRTDxfName
1000
SCALE
  0
SCALE
  5
66C42
102
{ACAD_REACTORS
330
66C31
102
}
330
66C31
100
AcDbScale
 70
     0
300
100:1
140
100.0
141
1.0
290
     0
1001
ACAD
1000
AcRTDxfName
1000
SCALE
  0
SCALE
  5
66C43
102
{ACAD_REACTORS
330
66C31
102
}
330
66C31
100
AcDbScale
 70
     0
300
1/128" = 1'-0"
140
0.0078125
141
12.0
290
     0
1001
ACAD
1000
AcRTDxfName
1000
SCALE
  0
SCALE
  5
66C44
102
{ACAD_REACTORS
330
66C31
102
}
330
66C31
100
AcDbScale
 70
     0
300
1/64" = 1'-0"
140
0.015625
141
12.0
290
     0
1001
ACAD
1000
AcRTDxfName
1000
SCALE
  0
SCALE
  5
66C45
102
{ACAD_REACTORS
330
66C31
102
}
330
66C31
100
AcDbScale
 70
     0
300
1/32" = 1'-0"
140
0.03125
141
12.0
290
     0
1001
ACAD
1000
AcRTDxfName
1000
SCALE
  0
SCALE
  5
66C46
102
{ACAD_REACTORS
330
66C31
102
}
330
66C31
100
AcDbScale
 70
     0
300
1/16" = 1'-0"
140
0.0625
141
12.0
290
     0
1001
ACAD
1000
AcRTDxfName
1000
SCALE
  0
SCALE
  5
66C47
102
{ACAD_REACTORS
330
66C31
102
}
330
66C31
100
AcDbScale
 70
     0
300
3/32" = 1'-0"
140
0.09375
141
12.0
290
     0
1001
ACAD
1000
AcRTDxfName
1000
SCALE
  0
SCALE
  5
66C48
102
{ACAD_REACTORS
330
66C31
102
}
330
66C31
100
AcDbScale
 70
     0
300
1/8" = 1'-0"
140
0.125
141
12.0
290
     0
1001
ACAD
1000
AcRTDxfName
1000
SCALE
  0
SCALE
  5
66C49
102
{ACAD_REACTORS
330
66C31
102
}
330
66C31
100
AcDbScale
 70
     0
300
3/16" = 1'-0"
140
0.1875
141
12.0
290
     0
1001
ACAD
1000
AcRTDxfName
1000
SCALE
  0
SCALE
  5
66C4A
102
{ACAD_REACTORS
330
66C31
102
}
330
66C31
100
AcDbScale
 70
     0
300
1/4" = 1'-0"
140
0.25
141
12.0
290
     0
1001
ACAD
1000
AcRTDxfName
1000
SCALE
  0
SCALE
  5
66C4B
102
{ACAD_REACTORS
330
66C31
102
}
330
66C31
100
AcDbScale
 70
     0
300
3/8" = 1'-0"
140
0.375
141
12.0
290
     0
1001
ACAD
1000
AcRTDxfName
1000
SCALE
  0
SCALE
  5
66C4C
102
{ACAD_REACTORS
330
66C31
102
}
330
66C31
100
AcDbScale
 70
     0
300
1/2" = 1'-0"
140
0.5
141
12.0
290
     0
1001
ACAD
1000
AcRTDxfName
1000
SCALE
  0
SCALE
  5
66C4D
102
{ACAD_REACTORS
330
66C31
102
}
330
66C31
100
AcDbScale
 70
     0
300
3/4" = 1'-0"
140
0.75
141
12.0
290
     0
1001
ACAD
1000
AcRTDxfName
1000
SCALE
  0
SCALE
  5
66C4E
102
{ACAD_REACTORS
330
66C31
102
}
330
66C31
100
AcDbScale
 70
     0
300
1" = 1'-0"
140
1.0
141
12.0
290
     0
1001
ACAD
1000
AcRTDxfName
1000
SCALE
  0
SCALE
  5
66C4F
102
{ACAD_REACTORS
330
66C31
102
}
330
66C31
100
AcDbScale
 70
     0
300
1-1/2" = 1'-0"
140
1.5
141
12.0
290
     0
1001
ACAD
1000
AcRTDxfName
1000
SCALE
  0
SCALE
  5
66C50
102
{ACAD_REACTORS
330
66C31
102
}
330
66C31
100
AcDbScale
 70
     0
300
3" = 1'-0"
140
3.0
141
12.0
290
     0
1001
ACAD
1000
AcRTDxfName
1000
SCALE
  0
SCALE
  5
66C51
102
{ACAD_REACTORS
330
66C31
102
}
330
66C31
100
AcDbScale
 70
     0
300
6" = 1'-0"
140
6.0
141
12.0
290
     0
1001
ACAD
1000
AcRTDxfName
1000
SCALE
  0
SCALE
  5
66C52
102
{ACAD_REACTORS
330
66C31
102
}
330
66C31
100
AcDbScale
 70
     0
300
1'-0" = 1'-0"
140
12.0
141
12.0
290
     0
1001
ACAD
1000
AcRTDxfName
1000
SCALE
  0
DICTIONARYVAR
  5
6DF
102
{ACAD_REACTORS
330
6DE
102
}
330
6DE
100
DictionaryVariables
280
     0
  1
1
  0
DICTIONARYVAR
  5
66CB9
102
{ACAD_REACTORS
330
6DE
102
}
330
6DE
100
DictionaryVariables
280
     0
  1
0
  0
DICTIONARYVAR
  5
6E0
102
{ACAD_REACTORS
330
6DE
102
}
330
6DE
100
DictionaryVariables
280
     0
  1

  0
DICTIONARYVAR
  5
66CB8
102
{ACAD_REACTORS
330
6DE
102
}
330
6DE
100
DictionaryVariables
280
     0
  1
127
  0
DICTIONARY
  5
2F5C7C
102
{ACAD_REACTORS
330
2F5C7B
102
}
330
2F5C7B
100
AcDbDictionary
281
     1
  0
DICTIONARY
  5
2F5C7D
102
{ACAD_REACTORS
330
2F5C7B
102
}
330
2F5C7B
100
AcDbDictionary
281
     1
  3
8796077201288
350
2F5C7E
  3
8796077201304
350
2F5C7F
  3
8796077201320
350
2F5C80
  3
8796077201336
350
2F5C81
  3
8796077201352
350
2F5C82
  3
8796077201368
350
2F5C83
  0
ACAD_PROXY_OBJECT
  5
2ED1C1
102
{ACAD_REACTORS
330
2ED1C0
102
}
330
2ED1C0
100
AcDbProxyObject
 90
      499
 91
      517
 95
   524319
 70
     0
 93
      107
310
51B4D1465180051946946A818027
340
2ED1C3
 94
        0
1001
ACAD
1000
AcRTDxfName
1000
AEC_DISP_REP_2D_SECTION
1000
AcRTDxfName
1000
AEC_DISP_REP_2D_SECTION
1000
AcRTDxfName
1000
AEC_DISP_REP_2D_SECTION
1000
AcRTDxfName
1000
AEC_DISP_REP_2D_SECTION
1000
AcRTDxfName
1000
AEC_DISP_REP_2D_SECTION
1000
AcRTDxfName
1000
AEC_DISP_REP_2D_SECTION
1000
AcRTDxfName
1000
AEC_DISP_REP_2D_SECTION
1000
AcRTDxfName
1000
AEC_DISP_REP_2D_SECTION
1000
AcRTDxfName
1000
AEC_DISP_REP_2D_SECTION
1000
AcRTDxfName
1000
AEC_DISP_REP_2D_SECTION
1000
AcRTDxfName
1000
AEC_DISP_REP_2D_SECTION
  0
ACAD_PROXY_OBJECT
  5
2ED1F7
102
{ACAD_REACTORS
330
2ED1C0
102
}
330
2ED1C0
100
AcDbProxyObject
 90
      499
 91
      562
 95
   524319
 70
     0
 93
      107
310
51B4D1465180051946946A818027
340
0
 94
        0
1001
ACAD
1000
AcRTDxfName
1000
AEC_DISP_REP_ANCHOR
1000
AcRTDxfName
1000
AEC_DISP_REP_ANCHOR
1000
AcRTDxfName
1000
AEC_DISP_REP_ANCHOR
1000
AcRTDxfName
1000
AEC_DISP_REP_ANCHOR
1000
AcRTDxfName
1000
AEC_DISP_REP_ANCHOR
1000
AcRTDxfName
1000
AEC_DISP_REP_ANCHOR
1000
AcRTDxfName
1000
AEC_DISP_REP_ANCHOR
1000
AcRTDxfName
1000
AEC_DISP_REP_ANCHOR
1000
AcRTDxfName
1000
AEC_DISP_REP_ANCHOR
1000
AcRTDxfName
1000
AEC_DISP_REP_ANCHOR
1000
AcRTDxfName
1000
AEC_DISP_REP_ANCHOR
  0
ACAD_PROXY_OBJECT
  5
2ED1F8
102
{ACAD_REACTORS
330
2ED1C0
102
}
330
2ED1C0
100
AcDbProxyObject
 90
      499
 91
      563
 95
   524319
 70
     0
 93
      107
310
51B4D1465180051946946A818027
340
2ED1F9
 94
        0
1001
ACAD
1000
AcRTDxfName
1000
AEC_DISP_REP_ANCHOR_ENT_TO_NODE
1000
AcRTDxfName
1000
AEC_DISP_REP_ANCHOR_ENT_TO_NODE
1000
AcRTDxfName
1000
AEC_DISP_REP_ANCHOR_ENT_TO_NODE
1000
AcRTDxfName
1000
AEC_DISP_REP_ANCHOR_ENT_TO_NODE
1000
AcRTDxfName
1000
AEC_DISP_REP_ANCHOR_ENT_TO_NODE
1000
AcRTDxfName
1000
AEC_DISP_REP_ANCHOR_ENT_TO_NODE
1000
AcRTDxfName
1000
AEC_DISP_REP_ANCHOR_ENT_TO_NODE
1000
AcRTDxfName
1000
AEC_DISP_REP_ANCHOR_ENT_TO_NODE
1000
AcRTDxfName
1000
AEC_DISP_REP_ANCHOR_ENT_TO_NODE
1000
AcRTDxfName
1000
AEC_DISP_REP_ANCHOR_ENT_TO_NODE
1000
AcRTDxfName
1000
AEC_DISP_REP_ANCHOR_ENT_TO_NODE
  0
ACAD_PROXY_OBJECT
  5
2ED1C4
102
{ACAD_REACTORS
330
2ED1C0
102
}
330
2ED1C0
100
AcDbProxyObject
 90
      499
 91
      519
 95
   524319
 70
     0
 93
      117
310
51B4D146518005194694651AA06008
340
2ED1C5
 94
        0
1001
ACAD
1000
AcRTDxfName
1000
AEC_DISP_REP_CLIP_VOLUME_MODEL
1000
AcRTDxfName
1000
AEC_DISP_REP_CLIP_VOLUME_MODEL
1000
AcRTDxfName
1000
AEC_DISP_REP_CLIP_VOLUME_MODEL
1000
AcRTDxfName
1000
AEC_DISP_REP_CLIP_VOLUME_MODEL
1000
AcRTDxfName
1000
AEC_DISP_REP_CLIP_VOLUME_MODEL
1000
AcRTDxfName
1000
AEC_DISP_REP_CLIP_VOLUME_MODEL
1000
AcRTDxfName
1000
AEC_DISP_REP_CLIP_VOLUME_MODEL
1000
AcRTDxfName
1000
AEC_DISP_REP_CLIP_VOLUME_MODEL
1000
AcRTDxfName
1000
AEC_DISP_REP_CLIP_VOLUME_MODEL
1000
AcRTDxfName
1000
AEC_DISP_REP_CLIP_VOLUME_MODEL
1000
AcRTDxfName
1000
AEC_DISP_REP_CLIP_VOLUME_MODEL
  0
ACAD_PROXY_OBJECT
  5
2ED1C6
102
{ACAD_REACTORS
330
2ED1C0
102
}
330
2ED1C0
100
AcDbProxyObject
 90
      499
 91
      521
 95
   524319
 70
     0
 93
      117
310
51B4D146518005194694651AA06008
340
2ED1C7
 94
        0
1001
ACAD
1000
AcRTDxfName
1000
AEC_DISP_REP_CLIP_VOLUME_PLAN
1000
AcRTDxfName
1000
AEC_DISP_REP_CLIP_VOLUME_PLAN
1000
AcRTDxfName
1000
AEC_DISP_REP_CLIP_VOLUME_PLAN
1000
AcRTDxfName
1000
AEC_DISP_REP_CLIP_VOLUME_PLAN
1000
AcRTDxfName
1000
AEC_DISP_REP_CLIP_VOLUME_PLAN
1000
AcRTDxfName
1000
AEC_DISP_REP_CLIP_VOLUME_PLAN
1000
AcRTDxfName
1000
AEC_DISP_REP_CLIP_VOLUME_PLAN
1000
AcRTDxfName
1000
AEC_DISP_REP_CLIP_VOLUME_PLAN
1000
AcRTDxfName
1000
AEC_DISP_REP_CLIP_VOLUME_PLAN
1000
AcRTDxfName
1000
AEC_DISP_REP_CLIP_VOLUME_PLAN
1000
AcRTDxfName
1000
AEC_DISP_REP_CLIP_VOLUME_PLAN
  0
ACAD_PROXY_OBJECT
  5
2ED1C9
102
{ACAD_REACTORS
330
2ED1C0
102
}
330
2ED1C0
100
AcDbProxyObject
 90
      499
 91
      523
 95
   524319
 70
     0
 93
      117
310
51B4D146518005194694651AA06008
340
2ED1CA
 94
        0
1001
ACAD
1000
AcRTDxfName
1000
AEC_DISP_REP_CLIP_VOLUME_RESULT_SUBDIV
1000
AcRTDxfName
1000
AEC_DISP_REP_CLIP_VOLUME_RESULT_SUBDIV
1000
AcRTDxfName
1000
AEC_DISP_REP_CLIP_VOLUME_RESULT_SUBDIV
1000
AcRTDxfName
1000
AEC_DISP_REP_CLIP_VOLUME_RESULT_SUBDIV
1000
AcRTDxfName
1000
AEC_DISP_REP_CLIP_VOLUME_RESULT_SUBDIV
1000
AcRTDxfName
1000
AEC_DISP_REP_CLIP_VOLUME_RESULT_SUBDIV
1000
AcRTDxfName
1000
AEC_DISP_REP_CLIP_VOLUME_RESULT_SUBDIV
1000
AcRTDxfName
1000
AEC_DISP_REP_CLIP_VOLUME_RESULT_SUBDIV
1000
AcRTDxfName
1000
AEC_DISP_REP_CLIP_VOLUME_RESULT_SUBDIV
1000
AcRTDxfName
1000
AEC_DISP_REP_CLIP_VOLUME_RESULT_SUBDIV
1000
AcRTDxfName
1000
AEC_DISP_REP_CLIP_VOLUME_RESULT_SUBDIV
  0
ACAD_PROXY_OBJECT
  5
2ED1C8
102
{ACAD_REACTORS
330
2ED1C0
102
}
330
2ED1C0
100
AcDbProxyObject
 90
      499
 91
      522
 95
   524319
 70
     0
 93
      107
310
51B4D1465180051946946A818027
340
0
 94
        0
1001
ACAD
1000
AcRTDxfName
1000
AEC_DISP_REP_CLIP_VOLUME_RESULT
1000
AcRTDxfName
1000
AEC_DISP_REP_CLIP_VOLUME_RESULT
1000
AcRTDxfName
1000
AEC_DISP_REP_CLIP_VOLUME_RESULT
1000
AcRTDxfName
1000
AEC_DISP_REP_CLIP_VOLUME_RESULT
1000
AcRTDxfName
1000
AEC_DISP_REP_CLIP_VOLUME_RESULT
1000
AcRTDxfName
1000
AEC_DISP_REP_CLIP_VOLUME_RESULT
1000
AcRTDxfName
1000
AEC_DISP_REP_CLIP_VOLUME_RESULT
1000
AcRTDxfName
1000
AEC_DISP_REP_CLIP_VOLUME_RESULT
1000
AcRTDxfName
1000
AEC_DISP_REP_CLIP_VOLUME_RESULT
1000
AcRTDxfName
1000
AEC_DISP_REP_CLIP_VOLUME_RESULT
1000
AcRTDxfName
1000
AEC_DISP_REP_CLIP_VOLUME_RESULT
  0
ACAD_PROXY_OBJECT
  5
2ED1CB
102
{ACAD_REACTORS
330
2ED1C0
102
}
330
2ED1C0
100
AcDbProxyObject
 90
      499
 91
      525
 95
   524319
 70
     0
 93
      107
310
51B4D1465180051946946A818027
340
2ED1CC
 94
        0
1001
ACAD
1000
AcRTDxfName
1000
AEC_DISP_REP_DISPLAYTHEME
1000
AcRTDxfName
1000
AEC_DISP_REP_DISPLAYTHEME
1000
AcRTDxfName
1000
AEC_DISP_REP_DISPLAYTHEME
1000
AcRTDxfName
1000
AEC_DISP_REP_DISPLAYTHEME
1000
AcRTDxfName
1000
AEC_DISP_REP_DISPLAYTHEME
1000
AcRTDxfName
1000
AEC_DISP_REP_DISPLAYTHEME
1000
AcRTDxfName
1000
AEC_DISP_REP_DISPLAYTHEME
1000
AcRTDxfName
1000
AEC_DISP_REP_DISPLAYTHEME
1000
AcRTDxfName
1000
AEC_DISP_REP_DISPLAYTHEME
1000
AcRTDxfName
1000
AEC_DISP_REP_DISPLAYTHEME
1000
AcRTDxfName
1000
AEC_DISP_REP_DISPLAYTHEME
  0
ACAD_PROXY_OBJECT
  5
2ED1FC
102
{ACAD_REACTORS
330
2ED1C0
102
}
330
2ED1C0
100
AcDbProxyObject
 90
      499
 91
      567
 95
   524319
 70
     0
 93
      107
310
51B4D1465180051946946A818027
340
2ED1FD
 94
        0
1001
ACAD
1000
AcRTDxfName
1000
AEC_DISP_REP_EDITINPLACEPROFILE
1000
AcRTDxfName
1000
AEC_DISP_REP_EDITINPLACEPROFILE
1000
AcRTDxfName
1000
AEC_DISP_REP_EDITINPLACEPROFILE
1000
AcRTDxfName
1000
AEC_DISP_REP_EDITINPLACEPROFILE
1000
AcRTDxfName
1000
AEC_DISP_REP_EDITINPLACEPROFILE
1000
AcRTDxfName
1000
AEC_DISP_REP_EDITINPLACEPROFILE
1000
AcRTDxfName
1000
AEC_DISP_REP_EDITINPLACEPROFILE
1000
AcRTDxfName
1000
AEC_DISP_REP_EDITINPLACEPROFILE
1000
AcRTDxfName
1000
AEC_DISP_REP_EDITINPLACEPROFILE
1000
AcRTDxfName
1000
AEC_DISP_REP_EDITINPLACEPROFILE
1000
AcRTDxfName
1000
AEC_DISP_REP_EDITINPLACEPROFILE
  0
ACAD_PROXY_OBJECT
  5
2ED1CD
102
{ACAD_REACTORS
330
2ED1C0
102
}
330
2ED1C0
100
AcDbProxyObject
 90
      499
 91
      527
 95
   524319
 70
     0
 93
      107
310
51B4D1465180051946946A818027
340
2ED1CE
 94
        0
1001
ACAD
1000
AcRTDxfName
1000
AEC_DISP_REP_ENT_REF
1000
AcRTDxfName
1000
AEC_DISP_REP_ENT_REF
1000
AcRTDxfName
1000
AEC_DISP_REP_ENT_REF
1000
AcRTDxfName
1000
AEC_DISP_REP_ENT_REF
1000
AcRTDxfName
1000
AEC_DISP_REP_ENT_REF
1000
AcRTDxfName
1000
AEC_DISP_REP_ENT_REF
1000
AcRTDxfName
1000
AEC_DISP_REP_ENT_REF
1000
AcRTDxfName
1000
AEC_DISP_REP_ENT_REF
1000
AcRTDxfName
1000
AEC_DISP_REP_ENT_REF
1000
AcRTDxfName
1000
AEC_DISP_REP_ENT_REF
1000
AcRTDxfName
1000
AEC_DISP_REP_ENT_REF
  0
ACAD_PROXY_OBJECT
  5
2ED1CF
102
{ACAD_REACTORS
330
2ED1C0
102
}
330
2ED1C0
100
AcDbProxyObject
 90
      499
 91
      529
 95
   524319
 70
     0
 93
      107
310
51B4D1465180051946946A818027
340
2ED1D0
 94
        0
1001
ACAD
1000
AcRTDxfName
1000
AEC_DISP_REP_LAYOUT_CURVE
1000
AcRTDxfName
1000
AEC_DISP_REP_LAYOUT_CURVE
1000
AcRTDxfName
1000
AEC_DISP_REP_LAYOUT_CURVE
1000
AcRTDxfName
1000
AEC_DISP_REP_LAYOUT_CURVE
1000
AcRTDxfName
1000
AEC_DISP_REP_LAYOUT_CURVE
1000
AcRTDxfName
1000
AEC_DISP_REP_LAYOUT_CURVE
1000
AcRTDxfName
1000
AEC_DISP_REP_LAYOUT_CURVE
1000
AcRTDxfName
1000
AEC_DISP_REP_LAYOUT_CURVE
1000
AcRTDxfName
1000
AEC_DISP_REP_LAYOUT_CURVE
1000
AcRTDxfName
1000
AEC_DISP_REP_LAYOUT_CURVE
1000
AcRTDxfName
1000
AEC_DISP_REP_LAYOUT_CURVE
  0
ACAD_PROXY_OBJECT
  5
2ED1D1
102
{ACAD_REACTORS
330
2ED1C0
102
}
330
2ED1C0
100
AcDbProxyObject
 90
      499
 91
      531
 95
   524319
 70
     0
 93
      107
310
51B4D1465180051946946A818027
340
2ED1D2
 94
        0
1001
ACAD
1000
AcRTDxfName
1000
AEC_DISP_REP_LAYOUT_GRID2D
1000
AcRTDxfName
1000
AEC_DISP_REP_LAYOUT_GRID2D
1000
AcRTDxfName
1000
AEC_DISP_REP_LAYOUT_GRID2D
1000
AcRTDxfName
1000
AEC_DISP_REP_LAYOUT_GRID2D
1000
AcRTDxfName
1000
AEC_DISP_REP_LAYOUT_GRID2D
1000
AcRTDxfName
1000
AEC_DISP_REP_LAYOUT_GRID2D
1000
AcRTDxfName
1000
AEC_DISP_REP_LAYOUT_GRID2D
1000
AcRTDxfName
1000
AEC_DISP_REP_LAYOUT_GRID2D
1000
AcRTDxfName
1000
AEC_DISP_REP_LAYOUT_GRID2D
1000
AcRTDxfName
1000
AEC_DISP_REP_LAYOUT_GRID2D
1000
AcRTDxfName
1000
AEC_DISP_REP_LAYOUT_GRID2D
  0
ACAD_PROXY_OBJECT
  5
2ED1D3
102
{ACAD_REACTORS
330
2ED1C0
102
}
330
2ED1C0
100
AcDbProxyObject
 90
      499
 91
      533
 95
   524319
 70
     0
 93
      107
310
51B4D1465180051946946A818027
340
2ED1D4
 94
        0
1001
ACAD
1000
AcRTDxfName
1000
AEC_DISP_REP_LAYOUT_GRID3D
1000
AcRTDxfName
1000
AEC_DISP_REP_LAYOUT_GRID3D
1000
AcRTDxfName
1000
AEC_DISP_REP_LAYOUT_GRID3D
1000
AcRTDxfName
1000
AEC_DISP_REP_LAYOUT_GRID3D
1000
AcRTDxfName
1000
AEC_DISP_REP_LAYOUT_GRID3D
1000
AcRTDxfName
1000
AEC_DISP_REP_LAYOUT_GRID3D
1000
AcRTDxfName
1000
AEC_DISP_REP_LAYOUT_GRID3D
1000
AcRTDxfName
1000
AEC_DISP_REP_LAYOUT_GRID3D
1000
AcRTDxfName
1000
AEC_DISP_REP_LAYOUT_GRID3D
1000
AcRTDxfName
1000
AEC_DISP_REP_LAYOUT_GRID3D
1000
AcRTDxfName
1000
AEC_DISP_REP_LAYOUT_GRID3D
  0
ACAD_PROXY_OBJECT
  5
2ED1D5
102
{ACAD_REACTORS
330
2ED1C0
102
}
330
2ED1C0
100
AcDbProxyObject
 90
      499
 91
      535
 95
   524319
 70
     0
 93
      107
310
51B4D1465180051946946A818027
340
2ED1D6
 94
        0
1001
ACAD
1000
AcRTDxfName
1000
AEC_DISP_REP_MASKBLOCK_REF
1000
AcRTDxfName
1000
AEC_DISP_REP_MASKBLOCK_REF
1000
AcRTDxfName
1000
AEC_DISP_REP_MASKBLOCK_REF
1000
AcRTDxfName
1000
AEC_DISP_REP_MASKBLOCK_REF
1000
AcRTDxfName
1000
AEC_DISP_REP_MASKBLOCK_REF
1000
AcRTDxfName
1000
AEC_DISP_REP_MASKBLOCK_REF
1000
AcRTDxfName
1000
AEC_DISP_REP_MASKBLOCK_REF
1000
AcRTDxfName
1000
AEC_DISP_REP_MASKBLOCK_REF
1000
AcRTDxfName
1000
AEC_DISP_REP_MASKBLOCK_REF
1000
AcRTDxfName
1000
AEC_DISP_REP_MASKBLOCK_REF
1000
AcRTDxfName
1000
AEC_DISP_REP_MASKBLOCK_REF
  0
ACAD_PROXY_OBJECT
  5
2ED1D7
102
{ACAD_REACTORS
330
2ED1C0
102
}
330
2ED1C0
100
AcDbProxyObject
 90
      499
 91
      537
 95
   524319
 70
     0
 93
      117
310
51B4D146518005194694651AA06008
340
2ED1D8
 94
        0
1001
ACAD
1000
AcRTDxfName
1000
AEC_DISP_REP_MASKBLOCK_REF_RCP
1000
AcRTDxfName
1000
AEC_DISP_REP_MASKBLOCK_REF_RCP
1000
AcRTDxfName
1000
AEC_DISP_REP_MASKBLOCK_REF_RCP
1000
AcRTDxfName
1000
AEC_DISP_REP_MASKBLOCK_REF_RCP
1000
AcRTDxfName
1000
AEC_DISP_REP_MASKBLOCK_REF_RCP
1000
AcRTDxfName
1000
AEC_DISP_REP_MASKBLOCK_REF_RCP
1000
AcRTDxfName
1000
AEC_DISP_REP_MASKBLOCK_REF_RCP
1000
AcRTDxfName
1000
AEC_DISP_REP_MASKBLOCK_REF_RCP
1000
AcRTDxfName
1000
AEC_DISP_REP_MASKBLOCK_REF_RCP
1000
AcRTDxfName
1000
AEC_DISP_REP_MASKBLOCK_REF_RCP
1000
AcRTDxfName
1000
AEC_DISP_REP_MASKBLOCK_REF_RCP
  0
ACAD_PROXY_OBJECT
  5
2ED1D9
102
{ACAD_REACTORS
330
2ED1C0
102
}
330
2ED1C0
100
AcDbProxyObject
 90
      499
 91
      538
 95
   524319
 70
     0
 93
      117
310
51B4D146518005194694651AA06008
340
2ED1DA
 94
        0
1001
ACAD
1000
AcRTDxfName
1000
AEC_DISP_REP_MASS_ELEM_MODEL
1000
AcRTDxfName
1000
AEC_DISP_REP_MASS_ELEM_MODEL
1000
AcRTDxfName
1000
AEC_DISP_REP_MASS_ELEM_MODEL
1000
AcRTDxfName
1000
AEC_DISP_REP_MASS_ELEM_MODEL
1000
AcRTDxfName
1000
AEC_DISP_REP_MASS_ELEM_MODEL
1000
AcRTDxfName
1000
AEC_DISP_REP_MASS_ELEM_MODEL
1000
AcRTDxfName
1000
AEC_DISP_REP_MASS_ELEM_MODEL
1000
AcRTDxfName
1000
AEC_DISP_REP_MASS_ELEM_MODEL
1000
AcRTDxfName
1000
AEC_DISP_REP_MASS_ELEM_MODEL
1000
AcRTDxfName
1000
AEC_DISP_REP_MASS_ELEM_MODEL
1000
AcRTDxfName
1000
AEC_DISP_REP_MASS_ELEM_MODEL
  0
ACAD_PROXY_OBJECT
  5
2ED1DF
102
{ACAD_REACTORS
330
2ED1C0
102
}
330
2ED1C0
100
AcDbProxyObject
 90
      499
 91
      543
 95
   524319
 70
     0
 93
      127
310
51B4D146518005194694651946A81802
340
2ED1E0
 94
        0
1001
ACAD
1000
AcRTDxfName
1000
AEC_DISPREPAECDBDISPREPMASSELEMPLAN100
1000
AcRTDxfName
1000
AEC_DISPREPAECDBDISPREPMASSELEMPLAN100
1000
AcRTDxfName
1000
AEC_DISPREPAECDBDISPREPMASSELEMPLAN100
1000
AcRTDxfName
1000
AEC_DISPREPAECDBDISPREPMASSELEMPLAN100
1000
AcRTDxfName
1000
AEC_DISPREPAECDBDISPREPMASSELEMPLAN100
1000
AcRTDxfName
1000
AEC_DISPREPAECDBDISPREPMASSELEMPLAN100
1000
AcRTDxfName
1000
AEC_DISPREPAECDBDISPREPMASSELEMPLAN100
1000
AcRTDxfName
1000
AEC_DISPREPAECDBDISPREPMASSELEMPLAN100
1000
AcRTDxfName
1000
AEC_DISPREPAECDBDISPREPMASSELEMPLAN100
1000
AcRTDxfName
1000
AEC_DISPREPAECDBDISPREPMASSELEMPLAN100
1000
AcRTDxfName
1000
AEC_DISPREPAECDBDISPREPMASSELEMPLAN100
  0
ACAD_PROXY_OBJECT
  5
2ED1DD
102
{ACAD_REACTORS
330
2ED1C0
102
}
330
2ED1C0
100
AcDbProxyObject
 90
      499
 91
      541
 95
   524319
 70
     0
 93
      127
310
51B4D146518005194694651946A81802
340
2ED1DE
 94
        0
1001
ACAD
1000
AcRTDxfName
1000
AEC_DISPREPAECDBDISPREPMASSELEMPLAN50
1000
AcRTDxfName
1000
AEC_DISPREPAECDBDISPREPMASSELEMPLAN50
1000
AcRTDxfName
1000
AEC_DISPREPAECDBDISPREPMASSELEMPLAN50
1000
AcRTDxfName
1000
AEC_DISPREPAECDBDISPREPMASSELEMPLAN50
1000
AcRTDxfName
1000
AEC_DISPREPAECDBDISPREPMASSELEMPLAN50
1000
AcRTDxfName
1000
AEC_DISPREPAECDBDISPREPMASSELEMPLAN50
1000
AcRTDxfName
1000
AEC_DISPREPAECDBDISPREPMASSELEMPLAN50
1000
AcRTDxfName
1000
AEC_DISPREPAECDBDISPREPMASSELEMPLAN50
1000
AcRTDxfName
1000
AEC_DISPREPAECDBDISPREPMASSELEMPLAN50
1000
AcRTDxfName
1000
AEC_DISPREPAECDBDISPREPMASSELEMPLAN50
1000
AcRTDxfName
1000
AEC_DISPREPAECDBDISPREPMASSELEMPLAN50
  0
ACAD_PROXY_OBJECT
  5
2ED1E1
102
{ACAD_REACTORS
330
2ED1C0
102
}
330
2ED1C0
100
AcDbProxyObject
 90
      499
 91
      544
 95
   524319
 70
     0
 93
      127
310
51B4D146518005194694651946A81802
340
2ED1E2
 94
        0
1001
ACAD
1000
AcRTDxfName
1000
AEC_DISP_REP_MASS_ELEM_RCP
1000
AcRTDxfName
1000
AEC_DISP_REP_MASS_ELEM_RCP
1000
AcRTDxfName
1000
AEC_DISP_REP_MASS_ELEM_RCP
1000
AcRTDxfName
1000
AEC_DISP_REP_MASS_ELEM_RCP
1000
AcRTDxfName
1000
AEC_DISP_REP_MASS_ELEM_RCP
1000
AcRTDxfName
1000
AEC_DISP_REP_MASS_ELEM_RCP
1000
AcRTDxfName
1000
AEC_DISP_REP_MASS_ELEM_RCP
1000
AcRTDxfName
1000
AEC_DISP_REP_MASS_ELEM_RCP
1000
AcRTDxfName
1000
AEC_DISP_REP_MASS_ELEM_RCP
1000
AcRTDxfName
1000
AEC_DISP_REP_MASS_ELEM_RCP
1000
AcRTDxfName
1000
AEC_DISP_REP_MASS_ELEM_RCP
  0
ACAD_PROXY_OBJECT
  5
2ED1DB
102
{ACAD_REACTORS
330
2ED1C0
102
}
330
2ED1C0
100
AcDbProxyObject
 90
      499
 91
      540
 95
   524319
 70
     0
 93
      117
310
51B4D146518005194694651AA06008
340
2ED1DC
 94
        0
1001
ACAD
1000
AcRTDxfName
1000
AEC_DISP_REP_MASS_ELEM_SCHEM
1000
AcRTDxfName
1000
AEC_DISP_REP_MASS_ELEM_SCHEM
1000
AcRTDxfName
1000
AEC_DISP_REP_MASS_ELEM_SCHEM
1000
AcRTDxfName
1000
AEC_DISP_REP_MASS_ELEM_SCHEM
1000
AcRTDxfName
1000
AEC_DISP_REP_MASS_ELEM_SCHEM
1000
AcRTDxfName
1000
AEC_DISP_REP_MASS_ELEM_SCHEM
1000
AcRTDxfName
1000
AEC_DISP_REP_MASS_ELEM_SCHEM
1000
AcRTDxfName
1000
AEC_DISP_REP_MASS_ELEM_SCHEM
1000
AcRTDxfName
1000
AEC_DISP_REP_MASS_ELEM_SCHEM
1000
AcRTDxfName
1000
AEC_DISP_REP_MASS_ELEM_SCHEM
1000
AcRTDxfName
1000
AEC_DISP_REP_MASS_ELEM_SCHEM
  0
ACAD_PROXY_OBJECT
  5
2ED1E3
102
{ACAD_REACTORS
330
2ED1C0
102
}
330
2ED1C0
100
AcDbProxyObject
 90
      499
 91
      545
 95
   524319
 70
     0
 93
      117
310
51B4D146518005194694651AA06008
340
2ED1E4
 94
        0
1001
ACAD
1000
AcRTDxfName
1000
AEC_DISP_REP_MASS_GROUP_MODEL
1000
AcRTDxfName
1000
AEC_DISP_REP_MASS_GROUP_MODEL
1000
AcRTDxfName
1000
AEC_DISP_REP_MASS_GROUP_MODEL
1000
AcRTDxfName
1000
AEC_DISP_REP_MASS_GROUP_MODEL
1000
AcRTDxfName
1000
AEC_DISP_REP_MASS_GROUP_MODEL
1000
AcRTDxfName
1000
AEC_DISP_REP_MASS_GROUP_MODEL
1000
AcRTDxfName
1000
AEC_DISP_REP_MASS_GROUP_MODEL
1000
AcRTDxfName
1000
AEC_DISP_REP_MASS_GROUP_MODEL
1000
AcRTDxfName
1000
AEC_DISP_REP_MASS_GROUP_MODEL
1000
AcRTDxfName
1000
AEC_DISP_REP_MASS_GROUP_MODEL
1000
AcRTDxfName
1000
AEC_DISP_REP_MASS_GROUP_MODEL
  0
ACAD_PROXY_OBJECT
  5
2ED1E5
102
{ACAD_REACTORS
330
2ED1C0
102
}
330
2ED1C0
100
AcDbProxyObject
 90
      499
 91
      547
 95
   524319
 70
     0
 93
      117
310
51B4D146518005194694651AA06008
340
2ED1E6
 94
        0
1001
ACAD
1000
AcRTDxfName
1000
AEC_DISP_REP_MASS_GROUP_PLAN
1000
AcRTDxfName
1000
AEC_DISP_REP_MASS_GROUP_PLAN
1000
AcRTDxfName
1000
AEC_DISP_REP_MASS_GROUP_PLAN
1000
AcRTDxfName
1000
AEC_DISP_REP_MASS_GROUP_PLAN
1000
AcRTDxfName
1000
AEC_DISP_REP_MASS_GROUP_PLAN
1000
AcRTDxfName
1000
AEC_DISP_REP_MASS_GROUP_PLAN
1000
AcRTDxfName
1000
AEC_DISP_REP_MASS_GROUP_PLAN
1000
AcRTDxfName
1000
AEC_DISP_REP_MASS_GROUP_PLAN
1000
AcRTDxfName
1000
AEC_DISP_REP_MASS_GROUP_PLAN
1000
AcRTDxfName
1000
AEC_DISP_REP_MASS_GROUP_PLAN
1000
AcRTDxfName
1000
AEC_DISP_REP_MASS_GROUP_PLAN
  0
ACAD_PROXY_OBJECT
  5
2ED1E9
102
{ACAD_REACTORS
330
2ED1C0
102
}
330
2ED1C0
100
AcDbProxyObject
 90
      499
 91
      550
 95
   524319
 70
     0
 93
      127
310
51B4D146518005194694651946A81802
340
2ED1EA
 94
        0
1001
ACAD
1000
AcRTDxfName
1000
AEC_DISPREPAECDBDISPREPMASSGROUPPLAN100
1000
AcRTDxfName
1000
AEC_DISPREPAECDBDISPREPMASSGROUPPLAN100
1000
AcRTDxfName
1000
AEC_DISPREPAECDBDISPREPMASSGROUPPLAN100
1000
AcRTDxfName
1000
AEC_DISPREPAECDBDISPREPMASSGROUPPLAN100
1000
AcRTDxfName
1000
AEC_DISPREPAECDBDISPREPMASSGROUPPLAN100
1000
AcRTDxfName
1000
AEC_DISPREPAECDBDISPREPMASSGROUPPLAN100
1000
AcRTDxfName
1000
AEC_DISPREPAECDBDISPREPMASSGROUPPLAN100
1000
AcRTDxfName
1000
AEC_DISPREPAECDBDISPREPMASSGROUPPLAN100
1000
AcRTDxfName
1000
AEC_DISPREPAECDBDISPREPMASSGROUPPLAN100
1000
AcRTDxfName
1000
AEC_DISPREPAECDBDISPREPMASSGROUPPLAN100
1000
AcRTDxfName
1000
AEC_DISPREPAECDBDISPREPMASSGROUPPLAN100
  0
ACAD_PROXY_OBJECT
  5
2ED1E7
102
{ACAD_REACTORS
330
2ED1C0
102
}
330
2ED1C0
100
AcDbProxyObject
 90
      499
 91
      548
 95
   524319
 70
     0
 93
      127
310
51B4D146518005194694651946A81802
340
2ED1E8
 94
        0
1001
ACAD
1000
AcRTDxfName
1000
AEC_DISPREPAECDBDISPREPMASSGROUPPLAN50
1000
AcRTDxfName
1000
AEC_DISPREPAECDBDISPREPMASSGROUPPLAN50
1000
AcRTDxfName
1000
AEC_DISPREPAECDBDISPREPMASSGROUPPLAN50
1000
AcRTDxfName
1000
AEC_DISPREPAECDBDISPREPMASSGROUPPLAN50
1000
AcRTDxfName
1000
AEC_DISPREPAECDBDISPREPMASSGROUPPLAN50
1000
AcRTDxfName
1000
AEC_DISPREPAECDBDISPREPMASSGROUPPLAN50
1000
AcRTDxfName
1000
AEC_DISPREPAECDBDISPREPMASSGROUPPLAN50
1000
AcRTDxfName
1000
AEC_DISPREPAECDBDISPREPMASSGROUPPLAN50
1000
AcRTDxfName
1000
AEC_DISPREPAECDBDISPREPMASSGROUPPLAN50
1000
AcRTDxfName
1000
AEC_DISPREPAECDBDISPREPMASSGROUPPLAN50
1000
AcRTDxfName
1000
AEC_DISPREPAECDBDISPREPMASSGROUPPLAN50
  0
ACAD_PROXY_OBJECT
  5
2ED1EB
102
{ACAD_REACTORS
330
2ED1C0
102
}
330
2ED1C0
100
AcDbProxyObject
 90
      499
 91
      551
 95
   524319
 70
     0
 93
      127
310
51B4D146518005194694651946A81802
340
2ED1EC
 94
        0
1001
ACAD
1000
AcRTDxfName
1000
AEC_DISP_REP_MASS_GROUP_RCP
1000
AcRTDxfName
1000
AEC_DISP_REP_MASS_GROUP_RCP
1000
AcRTDxfName
1000
AEC_DISP_REP_MASS_GROUP_RCP
1000
AcRTDxfName
1000
AEC_DISP_REP_MASS_GROUP_RCP
1000
AcRTDxfName
1000
AEC_DISP_REP_MASS_GROUP_RCP
1000
AcRTDxfName
1000
AEC_DISP_REP_MASS_GROUP_RCP
1000
AcRTDxfName
1000
AEC_DISP_REP_MASS_GROUP_RCP
1000
AcRTDxfName
1000
AEC_DISP_REP_MASS_GROUP_RCP
1000
AcRTDxfName
1000
AEC_DISP_REP_MASS_GROUP_RCP
1000
AcRTDxfName
1000
AEC_DISP_REP_MASS_GROUP_RCP
1000
AcRTDxfName
1000
AEC_DISP_REP_MASS_GROUP_RCP
  0
ACAD_PROXY_OBJECT
  5
2ED1FA
102
{ACAD_REACTORS
330
2ED1C0
102
}
330
2ED1C0
100
AcDbProxyObject
 90
      499
 91
      565
 95
   524319
 70
     0
 93
      107
310
51B4D1465180051946946A818027
340
2ED1FB
 94
        0
1001
ACAD
1000
AcRTDxfName
1000
AEC_DISP_REP_MATERIAL
1000
AcRTDxfName
1000
AEC_DISP_REP_MATERIAL
1000
AcRTDxfName
1000
AEC_DISP_REP_MATERIAL
1000
AcRTDxfName
1000
AEC_DISP_REP_MATERIAL
1000
AcRTDxfName
1000
AEC_DISP_REP_MATERIAL
1000
AcRTDxfName
1000
AEC_DISP_REP_MATERIAL
1000
AcRTDxfName
1000
AEC_DISP_REP_MATERIAL
1000
AcRTDxfName
1000
AEC_DISP_REP_MATERIAL
1000
AcRTDxfName
1000
AEC_DISP_REP_MATERIAL
1000
AcRTDxfName
1000
AEC_DISP_REP_MATERIAL
1000
AcRTDxfName
1000
AEC_DISP_REP_MATERIAL
  0
ACAD_PROXY_OBJECT
  5
2ED1ED
102
{ACAD_REACTORS
330
2ED1C0
102
}
330
2ED1C0
100
AcDbProxyObject
 90
      499
 91
      552
 95
   524319
 70
     0
 93
      107
310
51B4D1465180051946946A818027
340
0
 94
        0
1001
ACAD
1000
AcRTDxfName
1000
AEC_DISP_REP_MVBLOCK_REF
1000
AcRTDxfName
1000
AEC_DISP_REP_MVBLOCK_REF
1000
AcRTDxfName
1000
AEC_DISP_REP_MVBLOCK_REF
1000
AcRTDxfName
1000
AEC_DISP_REP_MVBLOCK_REF
1000
AcRTDxfName
1000
AEC_DISP_REP_MVBLOCK_REF
1000
AcRTDxfName
1000
AEC_DISP_REP_MVBLOCK_REF
1000
AcRTDxfName
1000
AEC_DISP_REP_MVBLOCK_REF
1000
AcRTDxfName
1000
AEC_DISP_REP_MVBLOCK_REF
1000
AcRTDxfName
1000
AEC_DISP_REP_MVBLOCK_REF
1000
AcRTDxfName
1000
AEC_DISP_REP_MVBLOCK_REF
1000
AcRTDxfName
1000
AEC_DISP_REP_MVBLOCK_REF
  0
ACAD_PROXY_OBJECT
  5
2ED1EE
102
{ACAD_REACTORS
330
2ED1C0
102
}
330
2ED1C0
100
AcDbProxyObject
 90
      499
 91
      553
 95
   524319
 70
     0
 93
      117
310
51B4D146518005194694651AA06008
340
0
 94
        0
1001
ACAD
1000
AcRTDxfName
1000
AEC_DISP_REP_MVBLOCK_REF_MODEL
1000
AcRTDxfName
1000
AEC_DISP_REP_MVBLOCK_REF_MODEL
1000
AcRTDxfName
1000
AEC_DISP_REP_MVBLOCK_REF_MODEL
1000
AcRTDxfName
1000
AEC_DISP_REP_MVBLOCK_REF_MODEL
1000
AcRTDxfName
1000
AEC_DISP_REP_MVBLOCK_REF_MODEL
1000
AcRTDxfName
1000
AEC_DISP_REP_MVBLOCK_REF_MODEL
1000
AcRTDxfName
1000
AEC_DISP_REP_MVBLOCK_REF_MODEL
1000
AcRTDxfName
1000
AEC_DISP_REP_MVBLOCK_REF_MODEL
1000
AcRTDxfName
1000
AEC_DISP_REP_MVBLOCK_REF_MODEL
1000
AcRTDxfName
1000
AEC_DISP_REP_MVBLOCK_REF_MODEL
1000
AcRTDxfName
1000
AEC_DISP_REP_MVBLOCK_REF_MODEL
  0
ACAD_PROXY_OBJECT
  5
2ED1EF
102
{ACAD_REACTORS
330
2ED1C0
102
}
330
2ED1C0
100
AcDbProxyObject
 90
      499
 91
      554
 95
   524319
 70
     0
 93
      117
310
51B4D146518005194694651AA06008
340
0
 94
        0
1001
ACAD
1000
AcRTDxfName
1000
AEC_AECDBDISPREPMVBLOCKREFPLAN100
1000
AcRTDxfName
1000
AEC_AECDBDISPREPMVBLOCKREFPLAN100
1000
AcRTDxfName
1000
AEC_AECDBDISPREPMVBLOCKREFPLAN100
1000
AcRTDxfName
1000
AEC_AECDBDISPREPMVBLOCKREFPLAN100
1000
AcRTDxfName
1000
AEC_AECDBDISPREPMVBLOCKREFPLAN100
1000
AcRTDxfName
1000
AEC_AECDBDISPREPMVBLOCKREFPLAN100
1000
AcRTDxfName
1000
AEC_AECDBDISPREPMVBLOCKREFPLAN100
1000
AcRTDxfName
1000
AEC_AECDBDISPREPMVBLOCKREFPLAN100
1000
AcRTDxfName
1000
AEC_AECDBDISPREPMVBLOCKREFPLAN100
1000
AcRTDxfName
1000
AEC_AECDBDISPREPMVBLOCKREFPLAN100
1000
AcRTDxfName
1000
AEC_AECDBDISPREPMVBLOCKREFPLAN100
  0
ACAD_PROXY_OBJECT
  5
2ED1F0
102
{ACAD_REACTORS
330
2ED1C0
102
}
330
2ED1C0
100
AcDbProxyObject
 90
      499
 91
      555
 95
   524319
 70
     0
 93
      117
310
51B4D146518005194694651AA06008
340
0
 94
        0
1001
ACAD
1000
AcRTDxfName
1000
AEC_AECDBDISPREPMVBLOCKREFPLAN50
1000
AcRTDxfName
1000
AEC_AECDBDISPREPMVBLOCKREFPLAN50
1000
AcRTDxfName
1000
AEC_AECDBDISPREPMVBLOCKREFPLAN50
1000
AcRTDxfName
1000
AEC_AECDBDISPREPMVBLOCKREFPLAN50
1000
AcRTDxfName
1000
AEC_AECDBDISPREPMVBLOCKREFPLAN50
1000
AcRTDxfName
1000
AEC_AECDBDISPREPMVBLOCKREFPLAN50
1000
AcRTDxfName
1000
AEC_AECDBDISPREPMVBLOCKREFPLAN50
1000
AcRTDxfName
1000
AEC_AECDBDISPREPMVBLOCKREFPLAN50
1000
AcRTDxfName
1000
AEC_AECDBDISPREPMVBLOCKREFPLAN50
1000
AcRTDxfName
1000
AEC_AECDBDISPREPMVBLOCKREFPLAN50
1000
AcRTDxfName
1000
AEC_AECDBDISPREPMVBLOCKREFPLAN50
  0
ACAD_PROXY_OBJECT
  5
2ED1F1
102
{ACAD_REACTORS
330
2ED1C0
102
}
330
2ED1C0
100
AcDbProxyObject
 90
      499
 91
      556
 95
   524319
 70
     0
 93
      117
310
51B4D146518005194694651AA06008
340
2ED1F2
 94
        0
1001
ACAD
1000
AcRTDxfName
1000
AEC_DISP_REP_POLYGON_MODEL
1000
AcRTDxfName
1000
AEC_DISP_REP_POLYGON_MODEL
1000
AcRTDxfName
1000
AEC_DISP_REP_POLYGON_MODEL
1000
AcRTDxfName
1000
AEC_DISP_REP_POLYGON_MODEL
1000
AcRTDxfName
1000
AEC_DISP_REP_POLYGON_MODEL
1000
AcRTDxfName
1000
AEC_DISP_REP_POLYGON_MODEL
1000
AcRTDxfName
1000
AEC_DISP_REP_POLYGON_MODEL
1000
AcRTDxfName
1000
AEC_DISP_REP_POLYGON_MODEL
1000
AcRTDxfName
1000
AEC_DISP_REP_POLYGON_MODEL
1000
AcRTDxfName
1000
AEC_DISP_REP_POLYGON_MODEL
1000
AcRTDxfName
1000
AEC_DISP_REP_POLYGON_MODEL
  0
ACAD_PROXY_OBJECT
  5
2ED1F3
102
{ACAD_REACTORS
330
2ED1C0
102
}
330
2ED1C0
100
AcDbProxyObject
 90
      499
 91
      558
 95
   524319
 70
     0
 93
      117
310
51B4D146518005194694651AA06008
340
2ED1F4
 94
        0
1001
ACAD
1000
AcRTDxfName
1000
AEC_DISP_REP_POLYGON_TRUECOLOUR
1000
AcRTDxfName
1000
AEC_DISP_REP_POLYGON_TRUECOLOUR
1000
AcRTDxfName
1000
AEC_DISP_REP_POLYGON_TRUECOLOUR
1000
AcRTDxfName
1000
AEC_DISP_REP_POLYGON_TRUECOLOUR
1000
AcRTDxfName
1000
AEC_DISP_REP_POLYGON_TRUECOLOUR
1000
AcRTDxfName
1000
AEC_DISP_REP_POLYGON_TRUECOLOUR
1000
AcRTDxfName
1000
AEC_DISP_REP_POLYGON_TRUECOLOUR
1000
AcRTDxfName
1000
AEC_DISP_REP_POLYGON_TRUECOLOUR
1000
AcRTDxfName
1000
AEC_DISP_REP_POLYGON_TRUECOLOUR
1000
AcRTDxfName
1000
AEC_DISP_REP_POLYGON_TRUECOLOUR
1000
AcRTDxfName
1000
AEC_DISP_REP_POLYGON_TRUECOLOUR
  0
ACAD_PROXY_OBJECT
  5
2ED1F5
102
{ACAD_REACTORS
330
2ED1C0
102
}
330
2ED1C0
100
AcDbProxyObject
 90
      499
 91
      560
 95
   524319
 70
     0
 93
      107
310
51B4D1465180051946946A818027
340
2ED1F6
 94
        0
1001
ACAD
1000
AcRTDxfName
1000
AEC_DISP_REP_SLICE
1000
AcRTDxfName
1000
AEC_DISP_REP_SLICE
1000
AcRTDxfName
1000
AEC_DISP_REP_SLICE
1000
AcRTDxfName
1000
AEC_DISP_REP_SLICE
1000
AcRTDxfName
1000
AEC_DISP_REP_SLICE
1000
AcRTDxfName
1000
AEC_DISP_REP_SLICE
1000
AcRTDxfName
1000
AEC_DISP_REP_SLICE
1000
AcRTDxfName
1000
AEC_DISP_REP_SLICE
1000
AcRTDxfName
1000
AEC_DISP_REP_SLICE
1000
AcRTDxfName
1000
AEC_DISP_REP_SLICE
1000
AcRTDxfName
1000
AEC_DISP_REP_SLICE
  0
ACAD_PROXY_OBJECT
  5
2ED1C3
102
{ACAD_REACTORS
330
2ED1C2
102
}
330
2ED1C2
100
AcDbProxyObject
 90
      499
 91
      518
 95
   524319
 70
     0
 93
     3236
310
51B4D14651800519465194651913D0951946946C00000060801FDFEA035684A8CA34A3600000030400FEFF501406B4254651A51B000000182007F7FA80D5A12A328D28D8000000C1003FBFD40501AD0951946946C00000060801FDFEA0280D684A8CA34A3600000030400FEFF501406B4254651A51B000000182007F7FA80A
310
035A12A328D28D8000000C1003FBFD40501AD0951946946C00000060801FDFEA0280D684A8CA34A3600000030400FEFF501406B4254651A51B000000182007F7FA80A035A12A328D28D8000000C1003FBFD40501AD0951946946C00000060801FDFEA0280D684A8CA34A3600000030400FEFF501406B4254651A51B0000001
310
82007F7FA80D5A12A328D28D8000000C1003FBFD406AD0951946946C00000060801FDFEA0280D684A8CA34A3600000030400FEFF501406B4254651A51B000000182007F7FA80A034A328D28CA3203A14A328D28C8000000C1003FBFD406A51A0000000000000E100182D4454FB21E93F00000000000005080A555555555555
310
55555555555520E82009C00A6009200620066006201A801A
340
F
340
12
340
0
340
F
340
12
340
0
340
F
340
12
340
0
340
F
340
12
340
0
340
F
340
12
340
0
340
F
340
12
340
0
340
F
340
12
340
0
340
F
340
12
340
0
340
F
340
12
340
0
340
F
340
12
340
0
340
F
340
12
340
0
340
F
340
12
340
0
340
F
340
12
340
0
340
F
340
12
340
0
340
F
340
12
340
0
340
F
340
12
340
0
340
F
340
12
340
0
340
F
340
12
340
0
340
F
340
12
340
0
340
F
340
12
340
0
 94
        0
1001
ACAD
1000
AcRTDxfName
1000
AEC_DISP_PROPS_2D_SECTION
1000
AcRTDxfName
1000
AEC_DISP_PROPS_2D_SECTION
1000
AcRTDxfName
1000
AEC_DISP_PROPS_2D_SECTION
1000
AcRTDxfName
1000
AEC_DISP_PROPS_2D_SECTION
1000
AcRTDxfName
1000
AEC_DISP_PROPS_2D_SECTION
1000
AcRTDxfName
1000
AEC_DISP_PROPS_2D_SECTION
1000
AcRTDxfName
1000
AEC_DISP_PROPS_2D_SECTION
1000
AcRTDxfName
1000
AEC_DISP_PROPS_2D_SECTION
1000
AcRTDxfName
1000
AEC_DISP_PROPS_2D_SECTION
1000
AcRTDxfName
1000
AEC_DISP_PROPS_2D_SECTION
1000
AcRTDxfName
1000
AEC_DISP_PROPS_2D_SECTION
  0
ACAD_PROXY_OBJECT
  5
2ED1E0
102
{ACAD_REACTORS
330
2ED1C2
102
}
330
2ED1C2
100
AcDbProxyObject
 90
      499
 91
      542
 95
   524319
 70
     0
 93
     1191
310
51B4D14651800519465194651903D0951946946C00000060801FDFEA035684A8CA34A3200000030400FEFF501AB4294651A519000000182007F7FA80A034A340000000000001C200305A88A9F643D27E0000000000000A1014A5194651902D0951946946C00000060801FDFEA0280D684A8CA34A3600000030400FEFF501AA
310
00AAAA90741004E0053004900310033003100AAA5803
340
F
340
12
340
0
340
F
340
12
340
0
340
F
340
12
340
0
340
F
340
12
340
0
340
F
340
12
340
0
 94
        0
1001
ACAD
1000
AcRTDxfName
1000
AEC_DISPROPSMASSELEMPLANCOMMON
1000
AcRTDxfName
1000
AEC_DISPROPSMASSELEMPLANCOMMON
1000
AcRTDxfName
1000
AEC_DISPROPSMASSELEMPLANCOMMON
1000
AcRTDxfName
1000
AEC_DISPROPSMASSELEMPLANCOMMON
1000
AcRTDxfName
1000
AEC_DISPROPSMASSELEMPLANCOMMON
1000
AcRTDxfName
1000
AEC_DISPROPSMASSELEMPLANCOMMON
1000
AcRTDxfName
1000
AEC_DISPROPSMASSELEMPLANCOMMON
1000
AcRTDxfName
1000
AEC_DISPROPSMASSELEMPLANCOMMON
1000
AcRTDxfName
1000
AEC_DISPROPSMASSELEMPLANCOMMON
1000
AcRTDxfName
1000
AEC_DISPROPSMASSELEMPLANCOMMON
1000
AcRTDxfName
1000
AEC_DISPROPSMASSELEMPLANCOMMON
  0
ACAD_PROXY_OBJECT
  5
2ED1CE
102
{ACAD_REACTORS
330
2ED1C2
102
}
330
2ED1C2
100
AcDbProxyObject
 90
      499
 91
      528
 95
   524319
 70
     0
 93
      395
310
51B4D146518005194651A5194640B4254651A51B000000182007F7FA80D5A12A328D28D8000000C1003FBFD406AAAA838020
340
F
340
12
340
0
340
F
340
12
340
0
 94
        0
1001
ACAD
1000
AcRTDxfName
1000
AEC_DISP_PROPS_ENT_REF
1000
AcRTDxfName
1000
AEC_DISP_PROPS_ENT_REF
1000
AcRTDxfName
1000
AEC_DISP_PROPS_ENT_REF
1000
AcRTDxfName
1000
AEC_DISP_PROPS_ENT_REF
1000
AcRTDxfName
1000
AEC_DISP_PROPS_ENT_REF
1000
AcRTDxfName
1000
AEC_DISP_PROPS_ENT_REF
1000
AcRTDxfName
1000
AEC_DISP_PROPS_ENT_REF
1000
AcRTDxfName
1000
AEC_DISP_PROPS_ENT_REF
1000
AcRTDxfName
1000
AEC_DISP_PROPS_ENT_REF
1000
AcRTDxfName
1000
AEC_DISP_PROPS_ENT_REF
1000
AcRTDxfName
1000
AEC_DISP_PROPS_ENT_REF
  0
ACAD_PROXY_OBJECT
  5
2ED1F9
102
{ACAD_REACTORS
330
2ED1C2
102
}
330
2ED1C2
100
AcDbProxyObject
 90
      499
 91
      564
 95
   524319
 70
     0
 93
      232
310
51B4D146518005194651B4254651A51B000000182007F7FA80D5541001
340
F
340
12
340
0
 94
        0
1001
ACAD
1000
AcRTDxfName
1000
AEC_DISP_PROPS_ENT
1000
AcRTDxfName
1000
AEC_DISP_PROPS_ENT
1000
AcRTDxfName
1000
AEC_DISP_PROPS_ENT
1000
AcRTDxfName
1000
AEC_DISP_PROPS_ENT
1000
AcRTDxfName
1000
AEC_DISP_PROPS_ENT
1000
AcRTDxfName
1000
AEC_DISP_PROPS_ENT
1000
AcRTDxfName
1000
AEC_DISP_PROPS_ENT
1000
AcRTDxfName
1000
AEC_DISP_PROPS_ENT
1000
AcRTDxfName
1000
AEC_DISP_PROPS_ENT
1000
AcRTDxfName
1000
AEC_DISP_PROPS_ENT
1000
AcRTDxfName
1000
AEC_DISP_PROPS_ENT
  0
ACAD_PROXY_OBJECT
  5
2ED1D2
102
{ACAD_REACTORS
330
2ED1C2
102
}
330
2ED1C2
100
AcDbProxyObject
 90
      499
 91
      532
 95
   524319
 70
     0
 93
      653
310
51B4D14651800519465194651904D0951946946400000060801FDFEA035684A8CA34A3200000030400FEFF501AB4254651A51B000000182007F7FA80D5A12A328D28D8000000C1003FBFD406A6AAAAA1600D
340
F
340
12
340
0
340
F
340
12
340
0
340
F
340
12
340
0
340
F
340
12
340
0
 94
        0
1001
ACAD
1000
AcRTDxfName
1000
AEC_DISP_PROPS_LAYOUT_GRID2D
1000
AcRTDxfName
1000
AEC_DISP_PROPS_LAYOUT_GRID2D
1000
AcRTDxfName
1000
AEC_DISP_PROPS_LAYOUT_GRID2D
1000
AcRTDxfName
1000
AEC_DISP_PROPS_LAYOUT_GRID2D
1000
AcRTDxfName
1000
AEC_DISP_PROPS_LAYOUT_GRID2D
1000
AcRTDxfName
1000
AEC_DISP_PROPS_LAYOUT_GRID2D
1000
AcRTDxfName
1000
AEC_DISP_PROPS_LAYOUT_GRID2D
1000
AcRTDxfName
1000
AEC_DISP_PROPS_LAYOUT_GRID2D
1000
AcRTDxfName
1000
AEC_DISP_PROPS_LAYOUT_GRID2D
1000
AcRTDxfName
1000
AEC_DISP_PROPS_LAYOUT_GRID2D
1000
AcRTDxfName
1000
AEC_DISP_PROPS_LAYOUT_GRID2D
  0
ACAD_PROXY_OBJECT
  5
2ED1D4
102
{ACAD_REACTORS
330
2ED1C2
102
}
330
2ED1C2
100
AcDbProxyObject
 90
      499
 91
      534
 95
   524319
 70
     0
 93
      824
310
51B4D14651800519465194651904D0951946946400000060801FDFEA035684A8CA34A3200000030400FEFF501AB4254651A51B000000182007F7FA80D5A12A328D28D8000000C1003FBFD406A546519464074254651A51B000000182007F7FA80D555555543801
340
F
340
12
340
0
340
F
340
12
340
0
340
F
340
12
340
0
340
F
340
12
340
0
340
F
340
12
340
0
 94
        0
1001
ACAD
1000
AcRTDxfName
1000
AEC_DISP_PROPS_LAYOUT_GRID3D
1000
AcRTDxfName
1000
AEC_DISP_PROPS_LAYOUT_GRID3D
1000
AcRTDxfName
1000
AEC_DISP_PROPS_LAYOUT_GRID3D
1000
AcRTDxfName
1000
AEC_DISP_PROPS_LAYOUT_GRID3D
1000
AcRTDxfName
1000
AEC_DISP_PROPS_LAYOUT_GRID3D
1000
AcRTDxfName
1000
AEC_DISP_PROPS_LAYOUT_GRID3D
1000
AcRTDxfName
1000
AEC_DISP_PROPS_LAYOUT_GRID3D
1000
AcRTDxfName
1000
AEC_DISP_PROPS_LAYOUT_GRID3D
1000
AcRTDxfName
1000
AEC_DISP_PROPS_LAYOUT_GRID3D
1000
AcRTDxfName
1000
AEC_DISP_PROPS_LAYOUT_GRID3D
1000
AcRTDxfName
1000
AEC_DISP_PROPS_LAYOUT_GRID3D
  0
ACAD_PROXY_OBJECT
  5
2ED1C5
102
{ACAD_REACTORS
330
2ED1C2
102
}
330
2ED1C2
100
AcDbProxyObject
 90
      499
 91
      520
 95
   524319
 70
     0
 93
      522
310
51B4D14651800519465194651903D0951946946C00000060801FDFEA035684A8CA34A3600000030400FEFF501AB4254651A51B000000182007F7FA80D5555509004B
340
F
340
12
340
0
340
F
340
12
340
0
340
F
340
12
340
0
 94
        0
1001
ACAD
1000
AcRTDxfName
1000
AEC_DISP_PROPS_CLIP_VOLUME
1000
AcRTDxfName
1000
AEC_DISP_PROPS_CLIP_VOLUME
1000
AcRTDxfName
1000
AEC_DISP_PROPS_CLIP_VOLUME
1000
AcRTDxfName
1000
AEC_DISP_PROPS_CLIP_VOLUME
1000
AcRTDxfName
1000
AEC_DISP_PROPS_CLIP_VOLUME
1000
AcRTDxfName
1000
AEC_DISP_PROPS_CLIP_VOLUME
1000
AcRTDxfName
1000
AEC_DISP_PROPS_CLIP_VOLUME
1000
AcRTDxfName
1000
AEC_DISP_PROPS_CLIP_VOLUME
1000
AcRTDxfName
1000
AEC_DISP_PROPS_CLIP_VOLUME
1000
AcRTDxfName
1000
AEC_DISP_PROPS_CLIP_VOLUME
1000
AcRTDxfName
1000
AEC_DISP_PROPS_CLIP_VOLUME
  0
ACAD_PROXY_OBJECT
  5
2ED1D8
102
{ACAD_REACTORS
330
2ED1C2
102
}
330
2ED1C2
100
AcDbProxyObject
 90
      499
 91
      536
 95
   524319
 70
     0
 93
      393
310
51B4D14651800519465194651902D0951946946C00000060801FDFEA035684A8CA34A3600000030400FEFF501AAAAA0E00A0
340
F
340
12
340
0
340
F
340
12
340
0
 94
        0
1001
ACAD
1000
AcRTDxfName
1000
AEC_DISP_PROPS_MASKBLOCK
1000
AcRTDxfName
1000
AEC_DISP_PROPS_MASKBLOCK
1000
AcRTDxfName
1000
AEC_DISP_PROPS_MASKBLOCK
1000
AcRTDxfName
1000
AEC_DISP_PROPS_MASKBLOCK
1000
AcRTDxfName
1000
AEC_DISP_PROPS_MASKBLOCK
1000
AcRTDxfName
1000
AEC_DISP_PROPS_MASKBLOCK
1000
AcRTDxfName
1000
AEC_DISP_PROPS_MASKBLOCK
1000
AcRTDxfName
1000
AEC_DISP_PROPS_MASKBLOCK
1000
AcRTDxfName
1000
AEC_DISP_PROPS_MASKBLOCK
1000
AcRTDxfName
1000
AEC_DISP_PROPS_MASKBLOCK
1000
AcRTDxfName
1000
AEC_DISP_PROPS_MASKBLOCK
  0
ACAD_PROXY_OBJECT
  5
2ED1DC
102
{ACAD_REACTORS
330
2ED1C2
102
}
330
2ED1C2
100
AcDbProxyObject
 90
      499
 91
      539
 95
   524319
 70
     0
 93
      881
310
51B4D14651800519465194651903D0951946946C00000060801FDFEA0280D684A8CA34A3200000030400FEFF501AB4294651A519000000182007F7FA80A034A340000000000001C200305A88A9F643D27E0000000000000A1014AAAAA90741004E00530049003100330031008C00EB
340
F
340
12
340
0
340
F
340
12
340
0
340
F
340
12
340
0
 94
        0
1001
ACAD
1000
AcRTDxfName
1000
AEC_DISP_PROPS_MASS_ELEM_MODEL
1000
AcRTDxfName
1000
AEC_DISP_PROPS_MASS_ELEM_MODEL
1000
AcRTDxfName
1000
AEC_DISP_PROPS_MASS_ELEM_MODEL
1000
AcRTDxfName
1000
AEC_DISP_PROPS_MASS_ELEM_MODEL
1000
AcRTDxfName
1000
AEC_DISP_PROPS_MASS_ELEM_MODEL
1000
AcRTDxfName
1000
AEC_DISP_PROPS_MASS_ELEM_MODEL
1000
AcRTDxfName
1000
AEC_DISP_PROPS_MASS_ELEM_MODEL
1000
AcRTDxfName
1000
AEC_DISP_PROPS_MASS_ELEM_MODEL
1000
AcRTDxfName
1000
AEC_DISP_PROPS_MASS_ELEM_MODEL
1000
AcRTDxfName
1000
AEC_DISP_PROPS_MASS_ELEM_MODEL
1000
AcRTDxfName
1000
AEC_DISP_PROPS_MASS_ELEM_MODEL
  0
ACAD_PROXY_OBJECT
  5
2ED1F2
102
{ACAD_REACTORS
330
2ED1C2
102
}
330
2ED1C2
100
AcDbProxyObject
 90
      499
 91
      557
 95
   524319
 70
     0
 93
     1595
310
51B4D14651800519465194651906D0951946946C00000060801FDFEA035684A8CA34A3600000030400FEFF501AB4254651A51B000000182007F7FA80D5A12A328D28D8000000C1003FBFD406AD0A51946946400000060801FDFEA03528D000000000000070800C16A22A7D90F49F8000000000000284052B4294651A519000
310
000182007F7FA80D4A340000000000001C200305A88A9F643D27E0000000000000A1014AAAAAAA90741004E0053004900310033003100A41D040138014C012400C400CC00C4004806C
340
F
340
12
340
0
340
F
340
12
340
0
340
F
340
12
340
0
340
F
340
12
340
0
340
F
340
12
340
0
340
F
340
12
340
0
 94
        0
1001
ACAD
1000
AcRTDxfName
1000
AEC_DISP_PROPS_POLYGON_MODEL
1000
AcRTDxfName
1000
AEC_DISP_PROPS_POLYGON_MODEL
1000
AcRTDxfName
1000
AEC_DISP_PROPS_POLYGON_MODEL
1000
AcRTDxfName
1000
AEC_DISP_PROPS_POLYGON_MODEL
1000
AcRTDxfName
1000
AEC_DISP_PROPS_POLYGON_MODEL
1000
AcRTDxfName
1000
AEC_DISP_PROPS_POLYGON_MODEL
1000
AcRTDxfName
1000
AEC_DISP_PROPS_POLYGON_MODEL
1000
AcRTDxfName
1000
AEC_DISP_PROPS_POLYGON_MODEL
1000
AcRTDxfName
1000
AEC_DISP_PROPS_POLYGON_MODEL
1000
AcRTDxfName
1000
AEC_DISP_PROPS_POLYGON_MODEL
1000
AcRTDxfName
1000
AEC_DISP_PROPS_POLYGON_MODEL
  0
ACAD_PROXY_OBJECT
  5
2ED1DE
102
{ACAD_REACTORS
330
2ED1C2
102
}
330
2ED1C2
100
AcDbProxyObject
 90
      499
 91
      542
 95
   524319
 70
     0
 93
     1191
310
51B4D14651800519465194651903D0951946946C00000060801FDFEA035684A8CA34A3200000030400FEFF501AB4294651A519000000182007F7FA80A034A340000000000001C200305A88A9F643D27E0000000000000A1014A5194651902D0951946946C00000060801FDFEA0280D684A8CA34A3600000030400FEFF501AA
310
00AAAA90741004E0053004900310033003100AAA5803
340
F
340
12
340
0
340
F
340
12
340
0
340
F
340
12
340
0
340
F
340
12
340
0
340
F
340
12
340
0
 94
        0
1001
ACAD
1000
AcRTDxfName
1000
AEC_DISPROPSMASSELEMPLANCOMMON
1000
AcRTDxfName
1000
AEC_DISPROPSMASSELEMPLANCOMMON
1000
AcRTDxfName
1000
AEC_DISPROPSMASSELEMPLANCOMMON
1000
AcRTDxfName
1000
AEC_DISPROPSMASSELEMPLANCOMMON
1000
AcRTDxfName
1000
AEC_DISPROPSMASSELEMPLANCOMMON
1000
AcRTDxfName
1000
AEC_DISPROPSMASSELEMPLANCOMMON
1000
AcRTDxfName
1000
AEC_DISPROPSMASSELEMPLANCOMMON
1000
AcRTDxfName
1000
AEC_DISPROPSMASSELEMPLANCOMMON
1000
AcRTDxfName
1000
AEC_DISPROPSMASSELEMPLANCOMMON
1000
AcRTDxfName
1000
AEC_DISPROPSMASSELEMPLANCOMMON
1000
AcRTDxfName
1000
AEC_DISPROPSMASSELEMPLANCOMMON
  0
ACAD_PROXY_OBJECT
  5
2ED1D0
102
{ACAD_REACTORS
330
2ED1C2
102
}
330
2ED1C2
100
AcDbProxyObject
 90
      499
 91
      530
 95
   524319
 70
     0
 93
      266
310
51B4D14651800519465194651901D0951946946C00000060801FDFEA035355050040
340
F
340
12
340
0
 94
        0
1001
ACAD
1000
AcRTDxfName
1000
AEC_DISP_PROPS_LAYOUT_CURVE
1000
AcRTDxfName
1000
AEC_DISP_PROPS_LAYOUT_CURVE
1000
AcRTDxfName
1000
AEC_DISP_PROPS_LAYOUT_CURVE
1000
AcRTDxfName
1000
AEC_DISP_PROPS_LAYOUT_CURVE
1000
AcRTDxfName
1000
AEC_DISP_PROPS_LAYOUT_CURVE
1000
AcRTDxfName
1000
AEC_DISP_PROPS_LAYOUT_CURVE
1000
AcRTDxfName
1000
AEC_DISP_PROPS_LAYOUT_CURVE
1000
AcRTDxfName
1000
AEC_DISP_PROPS_LAYOUT_CURVE
1000
AcRTDxfName
1000
AEC_DISP_PROPS_LAYOUT_CURVE
1000
AcRTDxfName
1000
AEC_DISP_PROPS_LAYOUT_CURVE
1000
AcRTDxfName
1000
AEC_DISP_PROPS_LAYOUT_CURVE
  0
ACAD_PROXY_OBJECT
  5
2ED1E2
102
{ACAD_REACTORS
330
2ED1C2
102
}
330
2ED1C2
100
AcDbProxyObject
 90
      499
 91
      539
 95
   524319
 70
     0
 93
      881
310
51B4D14651800519465194651903D0951946946C00000060801FDFEA0280D684A8CA34A3200000030400FEFF501AB4294651A519000000182007F7FA80A034A340000000000001C200305A88A9F643D27E0000000000000A1014AAAAA90741004E00530049003100330031008C00EB
340
F
340
12
340
0
340
F
340
12
340
0
340
F
340
12
340
0
 94
        0
1001
ACAD
1000
AcRTDxfName
1000
AEC_DISP_PROPS_MASS_ELEM_MODEL
1000
AcRTDxfName
1000
AEC_DISP_PROPS_MASS_ELEM_MODEL
1000
AcRTDxfName
1000
AEC_DISP_PROPS_MASS_ELEM_MODEL
1000
AcRTDxfName
1000
AEC_DISP_PROPS_MASS_ELEM_MODEL
1000
AcRTDxfName
1000
AEC_DISP_PROPS_MASS_ELEM_MODEL
1000
AcRTDxfName
1000
AEC_DISP_PROPS_MASS_ELEM_MODEL
1000
AcRTDxfName
1000
AEC_DISP_PROPS_MASS_ELEM_MODEL
1000
AcRTDxfName
1000
AEC_DISP_PROPS_MASS_ELEM_MODEL
1000
AcRTDxfName
1000
AEC_DISP_PROPS_MASS_ELEM_MODEL
1000
AcRTDxfName
1000
AEC_DISP_PROPS_MASS_ELEM_MODEL
1000
AcRTDxfName
1000
AEC_DISP_PROPS_MASS_ELEM_MODEL
  0
ACAD_PROXY_OBJECT
  5
2ED1E4
102
{ACAD_REACTORS
330
2ED1C2
102
}
330
2ED1C2
100
AcDbProxyObject
 90
      499
 91
      546
 95
   524319
 70
     0
 93
      403
310
51B4D146518005194651A5194640B4254651A51B000000182007F7FA80A035A12A328D28D8000000C1003FBFD406AAAA838030
340
F
340
12
340
0
340
F
340
12
340
0
 94
        0
1001
ACAD
1000
AcRTDxfName
1000
AEC_DISP_PROPS_MASS_GROUP
1000
AcRTDxfName
1000
AEC_DISP_PROPS_MASS_GROUP
1000
AcRTDxfName
1000
AEC_DISP_PROPS_MASS_GROUP
1000
AcRTDxfName
1000
AEC_DISP_PROPS_MASS_GROUP
1000
AcRTDxfName
1000
AEC_DISP_PROPS_MASS_GROUP
1000
AcRTDxfName
1000
AEC_DISP_PROPS_MASS_GROUP
1000
AcRTDxfName
1000
AEC_DISP_PROPS_MASS_GROUP
1000
AcRTDxfName
1000
AEC_DISP_PROPS_MASS_GROUP
1000
AcRTDxfName
1000
AEC_DISP_PROPS_MASS_GROUP
1000
AcRTDxfName
1000
AEC_DISP_PROPS_MASS_GROUP
1000
AcRTDxfName
1000
AEC_DISP_PROPS_MASS_GROUP
  0
ACAD_PROXY_OBJECT
  5
2ED1D6
102
{ACAD_REACTORS
330
2ED1C2
102
}
330
2ED1C2
100
AcDbProxyObject
 90
      499
 91
      536
 95
   524319
 70
     0
 93
      393
310
51B4D14651800519465194651902D0951946946C00000060801FDFEA035684A8CA34A3600000030400FEFF501AAAAA0E0080
340
F
340
12
340
0
340
F
340
12
340
0
 94
        0
1001
ACAD
1000
AcRTDxfName
1000
AEC_DISP_PROPS_MASKBLOCK
1000
AcRTDxfName
1000
AEC_DISP_PROPS_MASKBLOCK
1000
AcRTDxfName
1000
AEC_DISP_PROPS_MASKBLOCK
1000
AcRTDxfName
1000
AEC_DISP_PROPS_MASKBLOCK
1000
AcRTDxfName
1000
AEC_DISP_PROPS_MASKBLOCK
1000
AcRTDxfName
1000
AEC_DISP_PROPS_MASKBLOCK
1000
AcRTDxfName
1000
AEC_DISP_PROPS_MASKBLOCK
1000
AcRTDxfName
1000
AEC_DISP_PROPS_MASKBLOCK
1000
AcRTDxfName
1000
AEC_DISP_PROPS_MASKBLOCK
1000
AcRTDxfName
1000
AEC_DISP_PROPS_MASKBLOCK
1000
AcRTDxfName
1000
AEC_DISP_PROPS_MASKBLOCK
  0
ACAD_PROXY_OBJECT
  5
2ED1E8
102
{ACAD_REACTORS
330
2ED1C2
102
}
330
2ED1C2
100
AcDbProxyObject
 90
      499
 91
      549
 95
   524319
 70
     0
 93
     1193
310
51B4D146518005194651A5194640B4254651A51B000000182007F7FA80D5A12A328D28D8000000C1003FBFD406A5194651903D0951946946C00000060801FDFEA0280D68528CA34A3200000030400FEFF50140694680000000000003840060B51153EC87A4FC0000000000001420295A12A328D28D8000000C1003FBFD406A
310
802AAAAA90741004E0053004900310033003100A960080
340
F
340
12
340
0
340
F
340
12
340
0
340
F
340
12
340
0
340
F
340
12
340
0
340
F
340
12
340
0
 94
        0
1001
ACAD
1000
AcRTDxfName
1000
AEC_DISPROPSMASSGROUPPLANCOMMON
1000
AcRTDxfName
1000
AEC_DISPROPSMASSGROUPPLANCOMMON
1000
AcRTDxfName
1000
AEC_DISPROPSMASSGROUPPLANCOMMON
1000
AcRTDxfName
1000
AEC_DISPROPSMASSGROUPPLANCOMMON
1000
AcRTDxfName
1000
AEC_DISPROPSMASSGROUPPLANCOMMON
1000
AcRTDxfName
1000
AEC_DISPROPSMASSGROUPPLANCOMMON
1000
AcRTDxfName
1000
AEC_DISPROPSMASSGROUPPLANCOMMON
1000
AcRTDxfName
1000
AEC_DISPROPSMASSGROUPPLANCOMMON
1000
AcRTDxfName
1000
AEC_DISPROPSMASSGROUPPLANCOMMON
1000
AcRTDxfName
1000
AEC_DISPROPSMASSGROUPPLANCOMMON
1000
AcRTDxfName
1000
AEC_DISPROPSMASSGROUPPLANCOMMON
  0
ACAD_PROXY_OBJECT
  5
2ED1EA
102
{ACAD_REACTORS
330
2ED1C2
102
}
330
2ED1C2
100
AcDbProxyObject
 90
      499
 91
      549
 95
   524319
 70
     0
 93
     1193
310
51B4D146518005194651A5194640B4254651A51B000000182007F7FA80D5A12A328D28D8000000C1003FBFD406A5194651903D0951946946C00000060801FDFEA0280D68528CA34A3200000030400FEFF50140694680000000000003840060B51153EC87A4FC0000000000001420295A12A328D28D8000000C1003FBFD406A
310
802AAAAA90741004E0053004900310033003100A960080
340
F
340
12
340
0
340
F
340
12
340
0
340
F
340
12
340
0
340
F
340
12
340
0
340
F
340
12
340
0
 94
        0
1001
ACAD
1000
AcRTDxfName
1000
AEC_DISPROPSMASSGROUPPLANCOMMON
1000
AcRTDxfName
1000
AEC_DISPROPSMASSGROUPPLANCOMMON
1000
AcRTDxfName
1000
AEC_DISPROPSMASSGROUPPLANCOMMON
1000
AcRTDxfName
1000
AEC_DISPROPSMASSGROUPPLANCOMMON
1000
AcRTDxfName
1000
AEC_DISPROPSMASSGROUPPLANCOMMON
1000
AcRTDxfName
1000
AEC_DISPROPSMASSGROUPPLANCOMMON
1000
AcRTDxfName
1000
AEC_DISPROPSMASSGROUPPLANCOMMON
1000
AcRTDxfName
1000
AEC_DISPROPSMASSGROUPPLANCOMMON
1000
AcRTDxfName
1000
AEC_DISPROPSMASSGROUPPLANCOMMON
1000
AcRTDxfName
1000
AEC_DISPROPSMASSGROUPPLANCOMMON
1000
AcRTDxfName
1000
AEC_DISPROPSMASSGROUPPLANCOMMON
  0
ACAD_PROXY_OBJECT
  5
2ED1CA
102
{ACAD_REACTORS
330
2ED1C2
102
}
330
2ED1C2
100
AcDbProxyObject
 90
      499
 91
      524
 95
   524319
 70
     0
 93
     1586
310
51B4D1465180051946519465190AD0951946946C00000060801FDFEA035684A8CA34A3600000030400FEFF501AB4254651A51B000000182007F7FA80D5A12A328D28D8000000C1003FBFD406AD0951946946C00000060801FDFEA035684A8CA34A3600000030400FEFF501AB4254651A51B000000182007F7FA80D5A12A328
310
D28D8000000C1003FBFD406AD0951946946C00000060801FDFEA035684A8CA34A3600000030400FEFF501A94651901D0951946946C00000060801FDFEA03555555555555551A0040
340
F
340
12
340
0
340
F
340
12
340
0
340
F
340
12
340
0
340
F
340
12
340
0
340
F
340
12
340
0
340
F
340
12
340
0
340
F
340
12
340
0
340
F
340
12
340
0
340
F
340
12
340
0
340
F
340
12
340
0
340
F
340
12
340
0
 94
        0
1001
ACAD
1000
AcRTDxfName
1000
AEC_DISP_PROPS_CLIP_VOLUME_RESULT
1000
AcRTDxfName
1000
AEC_DISP_PROPS_CLIP_VOLUME_RESULT
1000
AcRTDxfName
1000
AEC_DISP_PROPS_CLIP_VOLUME_RESULT
1000
AcRTDxfName
1000
AEC_DISP_PROPS_CLIP_VOLUME_RESULT
1000
AcRTDxfName
1000
AEC_DISP_PROPS_CLIP_VOLUME_RESULT
1000
AcRTDxfName
1000
AEC_DISP_PROPS_CLIP_VOLUME_RESULT
1000
AcRTDxfName
1000
AEC_DISP_PROPS_CLIP_VOLUME_RESULT
1000
AcRTDxfName
1000
AEC_DISP_PROPS_CLIP_VOLUME_RESULT
1000
AcRTDxfName
1000
AEC_DISP_PROPS_CLIP_VOLUME_RESULT
1000
AcRTDxfName
1000
AEC_DISP_PROPS_CLIP_VOLUME_RESULT
1000
AcRTDxfName
1000
AEC_DISP_PROPS_CLIP_VOLUME_RESULT
  0
ACAD_PROXY_OBJECT
  5
2ED1EC
102
{ACAD_REACTORS
330
2ED1C2
102
}
330
2ED1C2
100
AcDbProxyObject
 90
      499
 91
      546
 95
   524319
 70
     0
 93
      403
310
51B4D146518005194651A5194640B4254651A51B000000182007F7FA80A035A12A328D28D8000000C1003FBFD406AAAA838030
340
F
340
12
340
0
340
F
340
12
340
0
 94
        0
1001
ACAD
1000
AcRTDxfName
1000
AEC_DISP_PROPS_MASS_GROUP
1000
AcRTDxfName
1000
AEC_DISP_PROPS_MASS_GROUP
1000
AcRTDxfName
1000
AEC_DISP_PROPS_MASS_GROUP
1000
AcRTDxfName
1000
AEC_DISP_PROPS_MASS_GROUP
1000
AcRTDxfName
1000
AEC_DISP_PROPS_MASS_GROUP
1000
AcRTDxfName
1000
AEC_DISP_PROPS_MASS_GROUP
1000
AcRTDxfName
1000
AEC_DISP_PROPS_MASS_GROUP
1000
AcRTDxfName
1000
AEC_DISP_PROPS_MASS_GROUP
1000
AcRTDxfName
1000
AEC_DISP_PROPS_MASS_GROUP
1000
AcRTDxfName
1000
AEC_DISP_PROPS_MASS_GROUP
1000
AcRTDxfName
1000
AEC_DISP_PROPS_MASS_GROUP
  0
ACAD_PROXY_OBJECT
  5
2ED1F4
102
{ACAD_REACTORS
330
2ED1C2
102
}
330
2ED1C2
100
AcDbProxyObject
 90
      499
 91
      559
 95
   524319
 70
     0
 93
      171
310
51B4D146518005194651BFFFFFFFFFFFD0240A810020
1001
ACAD
1000
AcRTDxfName
1000
AEC_DISP_PROPS_POLYGON_TRUECOLOUR
1000
AcRTDxfName
1000
AEC_DISP_PROPS_POLYGON_TRUECOLOUR
1000
AcRTDxfName
1000
AEC_DISP_PROPS_POLYGON_TRUECOLOUR
1000
AcRTDxfName
1000
AEC_DISP_PROPS_POLYGON_TRUECOLOUR
1000
AcRTDxfName
1000
AEC_DISP_PROPS_POLYGON_TRUECOLOUR
1000
AcRTDxfName
1000
AEC_DISP_PROPS_POLYGON_TRUECOLOUR
1000
AcRTDxfName
1000
AEC_DISP_PROPS_POLYGON_TRUECOLOUR
1000
AcRTDxfName
1000
AEC_DISP_PROPS_POLYGON_TRUECOLOUR
1000
AcRTDxfName
1000
AEC_DISP_PROPS_POLYGON_TRUECOLOUR
1000
AcRTDxfName
1000
AEC_DISP_PROPS_POLYGON_TRUECOLOUR
1000
AcRTDxfName
1000
AEC_DISP_PROPS_POLYGON_TRUECOLOUR
  0
ACAD_PROXY_OBJECT
  5
2ED1F6
102
{ACAD_REACTORS
330
2ED1C2
102
}
330
2ED1C2
100
AcDbProxyObject
 90
      499
 91
      561
 95
   524319
 70
     0
 93
      522
310
51B4D14651800519465194651903D0951946946C00000060801FDFEA035684A8CA34A3600000030400FEFF501AB4254651A51B000000182007F7FA80D5555509004B
340
F
340
12
340
0
340
F
340
12
340
0
340
F
340
12
340
0
 94
        0
1001
ACAD
1000
AcRTDxfName
1000
AEC_DISP_PROPS_SLICE
1000
AcRTDxfName
1000
AEC_DISP_PROPS_SLICE
1000
AcRTDxfName
1000
AEC_DISP_PROPS_SLICE
1000
AcRTDxfName
1000
AEC_DISP_PROPS_SLICE
1000
AcRTDxfName
1000
AEC_DISP_PROPS_SLICE
1000
AcRTDxfName
1000
AEC_DISP_PROPS_SLICE
1000
AcRTDxfName
1000
AEC_DISP_PROPS_SLICE
1000
AcRTDxfName
1000
AEC_DISP_PROPS_SLICE
1000
AcRTDxfName
1000
AEC_DISP_PROPS_SLICE
1000
AcRTDxfName
1000
AEC_DISP_PROPS_SLICE
1000
AcRTDxfName
1000
AEC_DISP_PROPS_SLICE
  0
ACAD_PROXY_OBJECT
  5
2ED1E6
102
{ACAD_REACTORS
330
2ED1C2
102
}
330
2ED1C2
100
AcDbProxyObject
 90
      499
 91
      546
 95
   524319
 70
     0
 93
      403
310
51B4D146518005194651A5194640B4254651A51B000000182007F7FA80A035A12A328D28D8000000C1003FBFD406AAAA838030
340
F
340
12
340
0
340
F
340
12
340
0
 94
        0
1001
ACAD
1000
AcRTDxfName
1000
AEC_DISP_PROPS_MASS_GROUP
1000
AcRTDxfName
1000
AEC_DISP_PROPS_MASS_GROUP
1000
AcRTDxfName
1000
AEC_DISP_PROPS_MASS_GROUP
1000
AcRTDxfName
1000
AEC_DISP_PROPS_MASS_GROUP
1000
AcRTDxfName
1000
AEC_DISP_PROPS_MASS_GROUP
1000
AcRTDxfName
1000
AEC_DISP_PROPS_MASS_GROUP
1000
AcRTDxfName
1000
AEC_DISP_PROPS_MASS_GROUP
1000
AcRTDxfName
1000
AEC_DISP_PROPS_MASS_GROUP
1000
AcRTDxfName
1000
AEC_DISP_PROPS_MASS_GROUP
1000
AcRTDxfName
1000
AEC_DISP_PROPS_MASS_GROUP
1000
AcRTDxfName
1000
AEC_DISP_PROPS_MASS_GROUP
  0
ACAD_PROXY_OBJECT
  5
2ED1FB
102
{ACAD_REACTORS
330
2ED1C2
102
}
330
2ED1C2
100
AcDbProxyObject
 90
      499
 91
      566
 95
   524319
 70
     0
 93
     2230
310
51B4D14651800519465194651905D0951946946C00000060801FDFEA035684A8CA34A3600000030400FEFF501AB4254651A51B000000182007F7FA80D5A12A328D28D8000000C1003FBFD406AD0951946946C00000060801FDFEA03528CA3207A14A328D28C8000000C1003FBFD406A51A0000000000000E100182D4454FB2
310
1E93F00000000000005080A568528CA34A3200000030400FEFF501A94680000000000003840060B51153EC87A4FC0000000000001420295A14A328D28C8000000C1003FBFD406A51A0000000000000E100182D4454FB21E93F00000000000005080A555555555483A080270029802480188019801880520E82009C00A60092
310
00620066006201483A0802700298024801880198018804B00C
340
F
340
12
340
0
340
F
340
12
340
0
340
F
340
12
340
0
340
F
340
12
340
0
340
F
340
12
340
0
340
F
340
12
340
0
340
F
340
12
340
0
340
F
340
12
340
0
340
0
340
0
340
0
 94
        0
1001
ACAD
1000
AcRTDxfName
1000
AEC_DISP_PROPS_MATERIAL
1000
AcRTDxfName
1000
AEC_DISP_PROPS_MATERIAL
1000
AcRTDxfName
1000
AEC_DISP_PROPS_MATERIAL
1000
AcRTDxfName
1000
AEC_DISP_PROPS_MATERIAL
1000
AcRTDxfName
1000
AEC_DISP_PROPS_MATERIAL
1000
AcRTDxfName
1000
AEC_DISP_PROPS_MATERIAL
1000
AcRTDxfName
1000
AEC_DISP_PROPS_MATERIAL
1000
AcRTDxfName
1000
AEC_DISP_PROPS_MATERIAL
1000
AcRTDxfName
1000
AEC_DISP_PROPS_MATERIAL
1000
AcRTDxfName
1000
AEC_DISP_PROPS_MATERIAL
1000
AcRTDxfName
1000
AEC_DISP_PROPS_MATERIAL
  0
ACAD_PROXY_OBJECT
  5
2ED1FD
102
{ACAD_REACTORS
330
2ED1C2
102
}
330
2ED1C2
100
AcDbProxyObject
 90
      499
 91
      568
 95
   524319
 70
     0
 93
      994
310
51B4D14651800519465194651904D0951946946C00000060801FDFEA03568528CA34A3200000030400FEFF501A94680000000000003840060B51153EC87A4FC0000000000001420295A12A328D28D8000000C1003FBFD406AD0951946946C00000060801FDFEA035555483A0802700298024801880198018805548006A
340
F
340
12
340
0
340
F
340
12
340
0
340
F
340
12
340
0
340
F
340
12
340
0
 94
        0
1001
ACAD
1000
AcRTDxfName
1000
AEC_DISP_PROPS_EDITINPLACEPROFILE_MODEL
1000
AcRTDxfName
1000
AEC_DISP_PROPS_EDITINPLACEPROFILE_MODEL
1000
AcRTDxfName
1000
AEC_DISP_PROPS_EDITINPLACEPROFILE_MODEL
1000
AcRTDxfName
1000
AEC_DISP_PROPS_EDITINPLACEPROFILE_MODEL
1000
AcRTDxfName
1000
AEC_DISP_PROPS_EDITINPLACEPROFILE_MODEL
1000
AcRTDxfName
1000
AEC_DISP_PROPS_EDITINPLACEPROFILE_MODEL
1000
AcRTDxfName
1000
AEC_DISP_PROPS_EDITINPLACEPROFILE_MODEL
1000
AcRTDxfName
1000
AEC_DISP_PROPS_EDITINPLACEPROFILE_MODEL
1000
AcRTDxfName
1000
AEC_DISP_PROPS_EDITINPLACEPROFILE_MODEL
1000
AcRTDxfName
1000
AEC_DISP_PROPS_EDITINPLACEPROFILE_MODEL
1000
AcRTDxfName
1000
AEC_DISP_PROPS_EDITINPLACEPROFILE_MODEL
  0
ACAD_PROXY_OBJECT
  5
2ED1DA
102
{ACAD_REACTORS
330
2ED1C2
102
}
330
2ED1C2
100
AcDbProxyObject
 90
      499
 91
      539
 95
   524319
 70
     0
 93
      881
310
51B4D14651800519465194651903D0951946946C00000060801FDFEA0280D684A8CA34A3200000030400FEFF501AB4294651A519000000182007F7FA80A034A340000000000001C200305A88A9F643D27E0000000000000A1014AAAAA90741004E00530049003100330031008C00EB
340
F
340
12
340
0
340
F
340
12
340
0
340
F
340
12
340
0
 94
        0
1001
ACAD
1000
AcRTDxfName
1000
AEC_DISP_PROPS_MASS_ELEM_MODEL
1000
AcRTDxfName
1000
AEC_DISP_PROPS_MASS_ELEM_MODEL
1000
AcRTDxfName
1000
AEC_DISP_PROPS_MASS_ELEM_MODEL
1000
AcRTDxfName
1000
AEC_DISP_PROPS_MASS_ELEM_MODEL
1000
AcRTDxfName
1000
AEC_DISP_PROPS_MASS_ELEM_MODEL
1000
AcRTDxfName
1000
AEC_DISP_PROPS_MASS_ELEM_MODEL
1000
AcRTDxfName
1000
AEC_DISP_PROPS_MASS_ELEM_MODEL
1000
AcRTDxfName
1000
AEC_DISP_PROPS_MASS_ELEM_MODEL
1000
AcRTDxfName
1000
AEC_DISP_PROPS_MASS_ELEM_MODEL
1000
AcRTDxfName
1000
AEC_DISP_PROPS_MASS_ELEM_MODEL
1000
AcRTDxfName
1000
AEC_DISP_PROPS_MASS_ELEM_MODEL
  0
ACAD_PROXY_OBJECT
  5
2ED1C7
102
{ACAD_REACTORS
330
2ED1C2
102
}
330
2ED1C2
100
AcDbProxyObject
 90
      499
 91
      520
 95
   524319
 70
     0
 93
      522
310
51B4D14651800519465194651903D0951946946C00000060801FDFEA035684A8CA34A3600000030400FEFF501AB4254651A51B000000182007F7FA80D5555509004B
340
F
340
12
340
0
340
F
340
12
340
0
340
F
340
12
340
0
 94
        0
1001
ACAD
1000
AcRTDxfName
1000
AEC_DISP_PROPS_CLIP_VOLUME
1000
AcRTDxfName
1000
AEC_DISP_PROPS_CLIP_VOLUME
1000
AcRTDxfName
1000
AEC_DISP_PROPS_CLIP_VOLUME
1000
AcRTDxfName
1000
AEC_DISP_PROPS_CLIP_VOLUME
1000
AcRTDxfName
1000
AEC_DISP_PROPS_CLIP_VOLUME
1000
AcRTDxfName
1000
AEC_DISP_PROPS_CLIP_VOLUME
1000
AcRTDxfName
1000
AEC_DISP_PROPS_CLIP_VOLUME
1000
AcRTDxfName
1000
AEC_DISP_PROPS_CLIP_VOLUME
1000
AcRTDxfName
1000
AEC_DISP_PROPS_CLIP_VOLUME
1000
AcRTDxfName
1000
AEC_DISP_PROPS_CLIP_VOLUME
1000
AcRTDxfName
1000
AEC_DISP_PROPS_CLIP_VOLUME
  0
ACAD_PROXY_OBJECT
  5
2ED1CC
102
{ACAD_REACTORS
330
2ED1C2
102
}
330
2ED1C2
100
AcDbProxyObject
 90
      499
 91
      526
 95
   524319
 70
     0
 93
     1123
310
51B4D14651800519465194651905D0951946946C00000060801FDFEA03568528CA34A3200000030400FEFF501A94680000000000003840060B51153EC87A4FC0000000000001420295A12A328D28D8000000C1003FBFD406AD0951946946C00000060801FDFEA035684A8CA34A3600000030400FEFF501AAAAA41D04013801
310
4C012400C400CC00C402AAA50020
340
F
340
12
340
0
340
F
340
12
340
0
340
F
340
12
340
0
340
F
340
12
340
0
340
F
340
12
340
0
 94
        0
1001
ACAD
1000
AcRTDxfName
1000
AEC_DISP_PROPS_DISPLAYTHEME
1000
AcRTDxfName
1000
AEC_DISP_PROPS_DISPLAYTHEME
1000
AcRTDxfName
1000
AEC_DISP_PROPS_DISPLAYTHEME
1000
AcRTDxfName
1000
AEC_DISP_PROPS_DISPLAYTHEME
1000
AcRTDxfName
1000
AEC_DISP_PROPS_DISPLAYTHEME
1000
AcRTDxfName
1000
AEC_DISP_PROPS_DISPLAYTHEME
1000
AcRTDxfName
1000
AEC_DISP_PROPS_DISPLAYTHEME
1000
AcRTDxfName
1000
AEC_DISP_PROPS_DISPLAYTHEME
1000
AcRTDxfName
1000
AEC_DISP_PROPS_DISPLAYTHEME
1000
AcRTDxfName
1000
AEC_DISP_PROPS_DISPLAYTHEME
1000
AcRTDxfName
1000
AEC_DISP_PROPS_DISPLAYTHEME
  0
ACAD_PROXY_OBJECT
  5
2ED1BF
102
{ACAD_REACTORS
330
2ED1BE
102
}
330
2ED1BE
100
AcDbProxyObject
 90
      499
 91
      516
 95
   524319
 70
     0
 93
     1888
310
51B4D146518005194651A8FC812095550000000000000B08000000000000008200000000000001807E8F2048F205000200001204000000000000581F8000000000000B0807EC3FA6DEBC0E99F8000000000001C07FE8FCC02846002E0041A4E2520CA600E2005C008C00E8005C008321803A80170023003A00170020898006
310
20064006001202DA008C2080248020801000140019001A801B00100021803780360037803900148010001000100010002080220019001A801B0021082008600820088008200A4008600900087A08032803180260030803C803280390029803A003200170032003B80338049C09
330
0
 94
        0
1001
ACAD
1000
AcRTDxfName
1000
AEC_VARS_DWG_SETUP
1000
AcRTDxfName
1000
AEC_VARS_DWG_SETUP
1000
AcRTDxfName
1000
AEC_VARS_DWG_SETUP
1000
AcRTDxfName
1000
AEC_VARS_DWG_SETUP
1000
AcRTDxfName
1000
AEC_VARS_DWG_SETUP
1000
AcRTDxfName
1000
AEC_VARS_DWG_SETUP
1000
AcRTDxfName
1000
AEC_VARS_DWG_SETUP
1000
AcRTDxfName
1000
AEC_VARS_DWG_SETUP
1000
AcRTDxfName
1000
AEC_VARS_DWG_SETUP
1000
AcRTDxfName
1000
AEC_VARS_DWG_SETUP
1000
AcRTDxfName
1000
AEC_VARS_DWG_SETUP
  0
DICTIONARY
  5
2F5C79
330
61A
100
AcDbDictionary
280
     1
281
     1
  3
ADSK_XREC_LAYOUTTHUMBNAIL
360
2F5C7A
  0
XRECORD
  5
2F5C7E
102
{ACAD_REACTORS
330
2F5C7D
102
}
330
2F5C7D
100
AcDbXrecord
280
     1
  1
AcDb_Thumbnail_Schema
102
{ATTRRECORD
341
2F5C80
  2
AcDbDs::TreatedAsObjectData
280
     1
291
     1
102
ATTRRECORD}
102
{ATTRRECORD
341
2F5C81
  2
AcDbDs::Legacy
280
     1
291
     1
102
ATTRRECORD}
  2
AcDbDs::ID
280
    10
 91
        8
102
{ATTRRECORD
341
2F5C82
  2
AcDs:Indexable
280
     1
291
     1
102
ATTRRECORD}
102
{ATTRRECORD
341
2F5C83
  2
AcDbDs::HandleAttribute
280
     7
282
     1
102
ATTRRECORD}
  2
Thumbnail_Data
280
    15
 91
        0
  0
XRECORD
  5
2F5C7F
102
{ACAD_REACTORS
330
2F5C7D
102
}
330
2F5C7D
100
AcDbXrecord
280
     1
  1
AcDb3DSolid_ASM_Data
102
{ATTRRECORD
341
2F5C80
  2
AcDbDs::TreatedAsObjectData
280
     1
291
     1
102
ATTRRECORD}
102
{ATTRRECORD
341
2F5C81
  2
AcDbDs::Legacy
280
     1
291
     1
102
ATTRRECORD}
  2
AcDbDs::ID
280
    10
 91
        8
102
{ATTRRECORD
341
2F5C82
  2
AcDs:Indexable
280
     1
291
     1
102
ATTRRECORD}
102
{ATTRRECORD
341
2F5C83
  2
AcDbDs::HandleAttribute
280
     7
282
     1
102
ATTRRECORD}
  2
ASM_Data
280
    15
 91
        0
  0
XRECORD
  5
2F5C80
102
{ACAD_REACTORS
330
2F5C7D
102
}
330
2F5C7D
100
AcDbXrecord
280
     1
  1
AcDbDs::TreatedAsObjectDataSchema
  2
AcDbDs::TreatedAsObjectData
280
     1
 91
        0
  0
XRECORD
  5
2F5C81
102
{ACAD_REACTORS
330
2F5C7D
102
}
330
2F5C7D
100
AcDbXrecord
280
     1
  1
AcDbDs::LegacySchema
  2
AcDbDs::Legacy
280
     1
 91
        0
  0
XRECORD
  5
2F5C82
102
{ACAD_REACTORS
330
2F5C7D
102
}
330
2F5C7D
100
AcDbXrecord
280
     1
  1
AcDbDs::IndexedPropertySchema
  2
AcDs:Indexable
280
     1
 91
        0
  0
XRECORD
  5
2F5C83
102
{ACAD_REACTORS
330
2F5C7D
102
}
330
2F5C7D
100
AcDbXrecord
280
     1
  1
AcDbDs::HandleAttributeSchema
  2
AcDbDs::HandleAttribute
280
     7
 91
        1
284
     1
  0
XRECORD
  5
2F5C7A
102
{ACAD_REACTORS
330
2F5C79
102
}
330
2F5C79
100
AcDbXrecord
280
     1
310
28000000B40000008B0000000100080000000000BC61000000000000000000000000000000000000FFFFFFFF000000FFFFFFFFFF000000FF000000FF000000FF000000FF000000FF000000FF000000FF000000FF330000FF660000FF990000FFCC0000FFFF0000FF003300FF333300FF663300FF993300FFCC3300FFFF3300
310
FF006600FF336600FF666600FF996600FFCC6600FFFF6600FF009900FF339900FF669900FF999900FFCC9900FFFF9900FF00CC00FF33CC00FF66CC00FF99CC00FFCCCC00FFFFCC00FF00FF00FF33FF00FF66FF00FF99FF00FFCCFF00FFFFFF00FF000033FF330033FF660033FF990033FFCC0033FFFF0033FF003333FF3333
310
33FF663333FF993333FFCC3333FFFF3333FF006633FF336633FF666633FF996633FFCC6633FFFF6633FF009933FF339933FF669933FF999933FFCC9933FFFF9933FF00CC33FF33CC33FF66CC33FF99CC33FFCCCC33FFFFCC33FF00FF33FF33FF33FF66FF33FF99FF33FFCCFF33FFFFFF33FF000066FF330066FF660066FF99
310
0066FFCC0066FFFF0066FF003366FF333366FF663366FF993366FFCC3366FFFF3366FF006666FF336666FF666666FF996666FFCC6666FFFF6666FF009966FF339966FF669966FF999966FFCC9966FFFF9966FF00CC66FF33CC66FF66CC66FF99CC66FFCCCC66FFFFCC66FF00FF66FF33FF66FF66FF66FF99FF66FFCCFF66FF
310
FFFF66FF000099FF330099FF660099FF990099FFCC0099FFFF0099FF003399FF333399FF663399FF993399FFCC3399FFFF3399FF006699FF336699FF666699FF996699FFCC6699FFFF6699FF009999FF339999FF669999FF999999FFCC9999FFFF9999FF00CC99FF33CC99FF66CC99FF99CC99FFCCCC99FFFFCC99FF00FF99
310
FF33FF99FF66FF99FF99FF99FFCCFF99FFFFFF99FF0000CCFF3300CCFF6600CCFF9900CCFFCC00CCFFFF00CCFF0033CCFF3333CCFF6633CCFF9933CCFFCC33CCFFFF33CCFF0066CCFF3366CCFF6666CCFF9966CCFFCC66CCFFFF66CCFF0099CCFF3399CCFF6699CCFF9999CCFFCC99CCFFFF99CCFF00CCCCFF33CCCCFF66CC
310
CCFF99CCCCFFCCCCCCFFFFCCCCFF00FFCCFF33FFCCFF66FFCCFF99FFCCFFCCFFCCFFFFFFCCFF0000FFFF3300FFFF6600FFFF9900FFFFCC00FFFFFF00FFFF0033FFFF3333FFFF6633FFFF9933FFFFCC33FFFFFF33FFFF0066FFFF3366FFFF6666FFFF9966FFFFCC66FFFFFF66FFFF0099FFFF3399FFFF6699FFFF9999FFFFCC
310
99FFFFFF99FFFF00CCFFFF33CCFFFF66CCFFFF99CCFFFFCCCCFFFFFFCCFFFF00FFFFFF33FFFFFF66FFFFFF99FFFFFFCCFFFFFFFFFFFFFF000000FF0D0D0DFF1A1A1AFF282828FF353535FF434343FF505050FF5D5D5DFF6B6B6BFF787878FF868686FF939393FFA1A1A1FFAEAEAEFFBBBBBBFFC9C9C9FFD6D6D6FFE4E4E4FF
310
F1F1F1FFFFFFFFFF000000FF000000FF000000FF000000FF000000FF000000FF000000FF000000FF000000FF000000FFE2E2E2E2E2E2E2E2E2E2E2E2E2E2E2E2E2E2E2E2E2E2E2E2E2E2E2E2E2E2E2E2E2E2E2E2E2E2E2E2E2E2E2E2E2E2E2E2E2E2E2E2E2E2E2E2E2E2E2E2E2E2E2E2E2E2E2E2E2E2E2E2E2E2E2E2E2E2E2
310
E2E2E2E2E2E2E2E2E2E2E2E2E2E2E2E2E2E2E2E2E2E2E2E2E2E2E2E2E2E2E2E2E2E2E2E2E2E2E2E2E2E2E2E2E2E2E2E2E2E2E2E2E2E2E2E2E2E2E2E2E2E2E2E2E2E2E2E2E2E2E2E2E2E2E2E2E2E2E2E2E2E2E2E2E2E2E2E2E2E2E2E2E2E2E2E2E2E2E2E2EFE2F5F5F5F5F5F5F5F5F5F5F5F5F5F5F5F5F5F5F5F5F5F5F5F5F5
310
F5F5F5F5F5F5F5F5F5F5F5F5F5F5F5F5F5F5F5F5F5F5F5F5F5F5F5F5F5F5F5F5F5F5F5F5F5F5F5F5F5F5F5F5F5F5F5F5F5F5F5F5F5F5F5F5F5F5F5F5F5F5F5F5F5F5F5F5F5F5F5F5F5F5F5F5F5F5F5F5F5F5F5F5F5F5F5F5F5F5F5F5F5F5F5F5F5F5F5F5F5F5F5F5F5F5F5F5F5F5F5F5F5F5F5F5F5F5F5F5F5F5F5F5F5F5F5
310
F5F5F5F5F5F5F5F5F5F5F5F5F5F5F5F5F5F5F5F5F5F5F5F5E2E2EFE2F5F5F5F5F5F5F5F5F5F5F5F5F5F5F5F5F5F5F5F5F5F5F5F5F5F5F5F5F5F5F5F5F5F5F5F5F5F5F5F5F5F5F5F5F5F5F5F5F5F5F5F5F5F5F5F5F5F5F5F5F5F5F5F5F5F5F5F5F5F5F5F5F5F5F5F5F5F5F5F5F5F5F5F5F5F5F5F5F5F5F5F5F5F5F5F5F5F5F5
310
F5F5F5F5F5F5F5F5F5F5F5F5F5F5F5F5F5F5F5F5F5F5F5F5F5F5F5F5F5F5F5F5F5F5F5F5F5F5F5F5F5F5F5F5F5F5F5F5F5F5F5F5F5F5F5F5F5F5F5F5F5F5F5F5F5F5F5F5F5F5F5F5F5F5F5F5F5E2E2EFE2F5F5F5F5F5F5F5F5F5F5F5F5F5F5F5F5F5F5F5F5F5F5F5F5F5F5F5F5F5F5F5F5F5F5F5F5F5F5F5F5F5F5F5F5F5F5
310
F5F5F5F5F5F5F5F5F5F5F5F5F5F5F5F5F5F5F5F5F5F5F5F5F5F5F5F5F5F5F5F5F5F5F5F5F5F5F5F5F5F5F5F5F5F5F5F5F5F5F5F5F5F5F5F5F5F5F5F5F5F5F5F5F5F5F5F5F5F5F5F5F5F5F5F5F5F5F5F5F5F5F5F5F5F5F5F5F5F5F5F5F5F5F5F5F5F5F5F5F5F5F5F5F5F5F5F5F5F5F5F5F5F5F5F5F5F5F5F5F5F5F5F5F5F5F5
310
F5F5F5E2E2EFE2F5F5F5E2E2E2E2E2E2E2E2F5F5F5F5F5F5F5F5F5E2E2E2E2E2E2E2E2E2E2E2E2E2E2E2F5F5F5F5F5F5F5F5F5E2E2E2E2E2E2E2E2E2E2E2E2E2E2E2E2F5F5F5F5F5F5F5F5E2E2E2E2E2E2E2E2E2E2E2E2E2E2E2E2F5F5F5F5F5F5F5F5E2E2E2E2E2E2E2E2E2E2E2E2E2E2E2E2F5F5F5F5F5F5F5F5E2E2E2E2
310
E2E2E2E2E2E2E2E2E2E2E2E2F5F5F5F5F5F5F5F5F5E2E2E2E2E2E2E2E2E2E2E2E2E2E2E2F5F5F5F5F5F5F5F5F5E2E2E2E2E2E2E2E2F5F5F5E2E2EFE2F5F5F5E2F5F5F5F5F5F5F5F5F5F5F5F5F5F5F5F5F5F5F5F5F5F5F5F5F5F5F5F5F5F5F5F5F5F5F5F5F5F5F5F5F5F5F5F5F5F5F5F5F5F5F5F5F5F5F5F5F5F5F5F5F5F5F5
310
F5F5F5F5F5F5F5F5F5F5F5F5F5F5F5F5F5F5F5F5F5F5F5F5F5F5F5F5F5F5F5F5F5F5F5F5F5F5F5F5F5F5F5F5F5F5F5F5F5F5F5F5F5F5F5F5F5F5F5F5F5F5F5F5F5F5F5F5F5F5F5F5F5F5F5F5F5F5F5F5F5F5F5F5F5F5F5F5F5F5F5F5F5F5F5F5F5F5F5F5F5F5F5F5F5E2F5F5F5E2E2EFE2F5F5F5E2F5F5F5F5F5F5F5F5F5F5
310
F5F5F5F5F5F5F5F5F5F5F5F5F5F5F5F5F5F5F5F5F5F5F5F5F5F5F5F5F5F5F5F5F5F5F5F5F5F5F5F5F5F5F5F5F5F5F5F5F5F5F5F5F5F5F5F5F5F5F5F5F5F5F5F5F5F5F5F5F5F5F5F5F5F5F5F5F5F5F5F5F5F5F5F5F5F5F5F5F5F5F5F5F5F5F5F5F5F5F5F5F5F5F5F5F5F5F5F5F5F5F5F5F5F5F5F5F5F5F5F5F5F5F5F5F5F5F5
310
F5F5F5F5F5F5F5F5F5F5F5F5F5F5F5F5F5F5F5F5F5F5F5F5F5F5F5F5F5F5F5E2F5F5F5E2E2EFE2F5F5F5E2F5F5F5F5F5F5F5F5F5F5F5F5F5F5F5F5F5F5F5F5F5F5F5F5F5F5F5F5F5F5F5F5F5F5F5F5F5F5F5F5F5F5F5F5F5F5F5F5F5F5F5F5F5F5F5F5F5F5F5F5F5F5F5F5F5F5F5F5F5F5F5F5F5F5F5F5F5F5F5F5F5F5F5F5
310
F5F5F5F5F5F5F5F5F5F5F5F5F5F5F5F5F5F5F5F5F5F5F5F5F5F5F5F5F5F5F5F5F5F5F5F5F5F5F5F5F5F5F5F5F5F5F5F5F5F5F5F5F5F5F5F5F5F5F5F5F5F5F5F5F5F5F5F5F5F5F5F5F5F5F5F5F5F5F5F5F5F5F5F5E2F5F5F5E2E2EFE2F5F5F5E2F5F5F5F5F5F5F5F5F5F5F5F5F5F5F5F5F5F5F5F5F5F5F5F5F5F5F5F5F5F5F5
310
F5F5F5F5F5F5F5F5F5F5F5F5F5F5F5F5F5F5F5F5F5F5F5F5F5F5F5F5F5F5F5F5F5F5F5F5F5F5F5F5F5F5F5F5F5F5F5F5F5F5F5F5F5F5F5F5F5F5F5F5F5F5F5F5F5F5F5F5F5F5F5F5F5F5F5F5F5F5F5F5F5F5F5F5F5F5F5F5F5F5F5F5F5F5F5F5F5F5F5F5F5F5F5F5F5F5F5F5F5F5F5F5F5F5F5F5F5F5F5F5F5F5F5F5F5F5F5
310
F5F5F5F5F5F5F5F5F5F5E2F5F5F5E2E2EFE2F5F5F5E2F5F5F5F5F5F5F5F5F5F5F5F5F5F5F5F5F5F5F5F5F5F5F5F5F5F5F5F5F5F5F5F5F5F5F5F5F5F5F5F5F5F5F5F5F5F5F5F5F5F5F5F5F5F5F5F5F5F5F5F5F5F5F5F5F5F5F5F5F5F5F5F5F5F5F5F5F5F5F5F5F5F5F5F5F5F5F5F5F5F5F5F5F5F5F5F5F5F5F5F5F5F5F5F5F5
310
F5F5F5F5F5F5F5F5F5F5F5F5F5F5F5F5F5F5F5F5F5F5F5F5F5F5F5F5F5F5F5F5F5F5F5F5F5F5F5F5F5F5F5F5F5F5F5F5F5F5F5F5F5F5F5F5F5F5F5F5F5F5F5E2F5F5F5E2E2EFE2F5F5F5E2F5F5F5F5F5F5F5F5F5F5F5F5F5F5F5F5F5F5F5F5F5F5F5F5F5F5F5F5F5F5F5F5F5F5F5F5F5F5F5F5F5F5F5F5F5F5F5F5F5F5F5F5
310
F5F5F5F5F5F5F5F5F5F5F5F5F5F5F5F5F5F5F5F5F5F5F5F5F5F5F5F5F5F5F5F5F5F5F5F5F5F5F5F5F5F5F5F5F5F5F5F5F5F5F5F5F5F5F5F5F5F5F5F5F5F5F5F5F5F5F5F5F5F5F5F5F5F5F5F5F5F5F5F5F5F5F5F5F5F5F5F5F5F5F5F5F5F5F5F5F5F5F5F5F5F5F5F5F5F5F5F5F5F5F5F5F5F5F5F5E2F5F5F5E2E2EFE2F5F5F5
310
E2F5F5F5F5F5F5F5F5F5F5F5F5F5F5F5F5F5F5F5F5F5F5F5F5F5F5F5F5F5F5F5F5F5F5F5F5F5F5F5F5F5F5F5F5F5F5F5F5F5F5F5F5F5F5F5F5F5F5F5F5F5F5F5F5F5F5F5F5F5F5F5F5F5F5F5F5F5F5F5F5F5F5F5F5F5F5F5F5F5F5F5F5F5F5F5F5F5F5F5F5F5F5F5F5F5F5F5F5F5F5F5F5F5F5F5F5F5F5F5F5F5F5F5F5F5F5
310
F5F5F5F5F5F5F5F5F5F5F5F5F5F5F5F5F5F5F5F5F5F5F5F5F5F5F5F5F5F5F5F5F5F5F5F5F5F5F5F5F5F5E2F5F5F5E2E2EFE2F5F5F5E2F5F5F5F5F5F5F5F5F5F5F5F5F5F5F5F5F5F5F5F5F5F5F5F5F5F5F5F5F5F5F5F5F5F5F5F5F5F5F5F5F5F5F5F5F5F5F5F5F5F5F5F5F5F5F5F5F5F5F5F5F5F5F5F5F5F5F5F5F5F5F5F5F5
310
F5F5F5F5F5F5F5F5F5F5F5F5F5F5F5F5F5F5F5F5F5F5F5F5F5F5F5F5F5F5F5F5F5F5F5F5F5F5F5F5F5F5F5F5F5F5F5F5F5F5F5F5F5F5F5F5F5F5F5F5F5F5F5F5F5F5F5F5F5F5F5F5F5F5F5F5F5F5F5F5F5F5F5F5F5F5F5F5F5F5F5F5F5F5F5E2F5F5F5E2E2EFE2F5F5F5F5F5F5F5F5F5F5F5F5F5F5F5F5F5F5F5F5F5F5F5F5
310
F5F5F5F5F5F5F5F5F5F5F5F5F5F5F5F5F5F5F5F5F5F5F5F5F5F5F5F5F5F5F5F5F5F5F5F5F5F5F5F5F5F5F5F5F5F5F5F5F5F5F5F5F5F5F5F5F5F5F5F5F5F5F5F5F5F5F5F5F5F5F5F5F5F5F5F5F5F5F5F5F5F5F5F5F5F5F5F5F5F5F5F5F5F5F5F5F5F5F5F5F5F5F5F5F5F5F5F5F5F5F5F5F5F5F5F5F5F5F5F5F5F5F5F5F5F5F5
310
F5F5F5F5F5F5F5F5F5F5F5F5F5F5F5F5F5F5F5F5F5F5F5F5F5E2E2EFE2F5F5F5F5F5F5F5F5F5F5F5F5F5F5F5F5F5F5F5F5F5F5F5F5F5F5F5F5F5F5F5F5F5F5F5F5F5F5F5F5F5F5F5F5F5F5F5F5F5F5F5F5F5F5F5F5F5F5F5F5F5F5F5F5F5F5F5F5F5F5F5F5F5F5F5F5F5F5F5F5F5F5F5F5F5F5F5F5F5F5F5F5F5F5F5F5F5F5
310
F5F5F5F5F5F5F5F5F5F5F5F5F5F5F5F5F5F5F5F5F5F5F5F5F5F5F5F5F5F5F5F5F5F5F5F5F5F5F5F5F5F5F5F5F5F5F5F5F5F5F5F5F5F5F5F5F5F5F5F5F5F5F5F5F5F5F5F5F5F5F5F5F5F5F5F5F5F5E2E2EFE2F5F5F5F5F5F5F5F5F5F5F5F5F5F5F5F5F5F5F5F5F5F5F5F5F5F5F5F5F5F5F5F5F5F5F5F5F5F5F5F5F5F5F5F5F5
310
F5F5F5F5F5F5F5F5F5F5F5F5F5F5F5F5F5F5F5F5F5F5F5F5F5F5F5F5F5F5F5F5F5F5F5F5F5F5F5F5F5F5F5F5F5F5F5F5F5F5F5F5F5F5F5F5F5F5F5F5F5F5F5F5F5F5F5F5F5F5F5F5F5F5F5F5F5F5F5F5F5F5F5F5F5F5F5F5F5F5F5F5F5F5F5F5F5F5F5F5F5F5F5F5F5F5F5F5F5F5F5F5F5F5F5F5F5F5F5F5F5F5F5F5F5F5F5
310
F5F5F5F5E2E2EFE2F5F5F5F5F5F5F5F5F5F5F5F5F5F5F5F5F5F5F5F5F5F5F5F5F5F5F5F5F5F5F5F5F5F5F5F5F5F5F5F5F5F5F5F5F5F5F5F5F5F5F5F5F5F5F5F5F5F5F5F5F5F5F5F5F5F5F5F5F5F5F5F5F5F5F5F5F5F5F5F5F5F5F5F5F5F5F5F5F5F5F5F5F5F5F5F5F5F5F5F5F5F5F5F5F5F5F5F5F5F5F5F5F5F5F5F5F5F5F5
310
F5F5F5F5F5F5F5F5F5F5F5F5F5F5F5F5F5F5F5F5F5F5F5F5F5F5F5F5F5F5F5F5F5F5F5F5F5F5F5F5F5F5F5F5F5F5F5F5F5F5F5F5F5F5F5F5F5E2E2EFE2F5F5F5F5F5F5F5F5F5F5F5F5F5F5F5F5F5F5F5F52D2D2D2D2D2D2D2D2D2D2D2D2D2D2D2D2D2D2D2D2D2D2D2D2D2D2D2D2D2D2D2D2D2D2D2D2D2D2D2D2D2D2D2D2D2D
310
2D2D2D2D2D2D2D2D2D2D2D2D2D2D2D2D2D2D2D2D2D2D2D2D2D2D2D2D2D2D2D2D2D2D2D2D2D2D2D2D2D2D2D2D2D2D2D2D2D2D2D2D2D2D2D2D2D2D2D2D2D2D2D2D2D2D2D2D2D2D2D2D2D2D2D2D2D2D2D2D2D2D2D2D2D2D2D2D2D2DF5F5F5F5F5F5F5F5F5F5F5F5F5F5F5F5F5F5F5F5E2E2EFE2F5F5F5F5F5F5F5F5F5F5F5F5F5
310
F5F5F5F5F5F5F52DF5F5F5F5F5F5F5F5F5F5F5F5F5F5F5F5F5F5F5F5F5F5F5F5F5F5F5F5F5F5F5F5F5F5F5F5F5F5F5F5F5F5F5F5F5F5F5F5F5F5F5F5F5F5F5F5F5F5F5F5F5F5F5F5F5F5F5F5F5F5F5F5F5F5F5F5F5F5F5F5F5F5F5F5F5F5F5F5F5F5F5F5F5F5F5F5F5F5F5F5F5F5F5F5F5F5F5F5F5F5F5F5F5F5F5F5F5F5F5
310
F5F5F5F5F5F5F5F5F5F5F5F5F5F5F52DF5F5F5F5F5F5F5F5F5F5F5F5F5F5F5F5F5F5F5F5E2E2EFE2F5F5F5F5F5F5F5F5F5F5F5F5F5F5F5F5F5F5F5F52DF5F5F5F5F5F5F5F5F5F5F5F5F5F5F5F5F5F5F5F5F5F5F5F5F5F5F5F5F5F5F5F5F5F5F5F5F5F5F5F5F5F5F5F5F5F5F5F5F5F5F5F5F5F5F5F5F5F5F5F5F5F5F5F5F5F5
310
F5F5F5F5F5F5F5F5F5F5F5F5F5F5F5F5F5F5F5F5F5F5F5F5F5F5F5F5F5F5F5F5F5F5F5F5F5F5F5F5F5F5F5F5F5F5F5F5F5F5F5F5F5F5F5F5F5F5F5F5F5F5F5F5F5F5F5F52DF5F5F5F5F5F5F5F5F5F5F5F5F5F5F5F5F5F5F5F5E2E2EFE2F5F5F5F5F5F5F5F5F5F5F5F5F5F5F5F5F5F5F5F52DF5F5F5F5F5F5F5F5F5F5F5F5F5
310
F5F5F5F5F5F5F5F5F5F5F5F5F5F5F5F5F5F5F5F5F5F5F5F5F5F5F5F5F5F5F5F5F5F5F5F5F5F5F5F5F5F5F5F5F5F5F5F5F5F5F5F5F5F5F5F5F5F5F5F5F5F5F5F5F5F5F5F5F5F5F5F5F5F5F5F5F5F5F5F5F5F5F5F5F5F5F5F5F5F5F5F5F5F5F5F5F5F5F5F5F5F5F5F5F5F5F5F5F5F5F5F5F5F5F5F5F5F5F5F5F52DF5F5F5F5F5
310
F5F5F5F5F5F5F5F5F5F5F5F5F5F5F5E2E2EFE2F5F5F5F5F5F5F5F5F5F5F5F5F5F5F5F5F5F5F5F52DF5F5F5F5F5F5F5F5F5F5F5F5F5F5F5F5F5F5F5F5F5F5F5F5F5F5F5F5F5F5F5F5F5F5F5F5F5F5F5F5F5F5F5F5F5F5F5F5F5F5F5F5F5F5F5F5F5F5F5F5F5F5F5F5F5F5F5F5F5F5F5F5F5F5F5F5F5F5F5F5F5F5F5F5F5F5F5
310
F5F5F5F5F5F5F5F5F5F5F5F5F5F5F5F5F5F5F5F5F5F5F5F5F5F5F5F5F5F5F5F5F5F5F5F5F5F5F5F5F5F5F5F5F5F5F52DF5F5F5F5F5F5F5F5F5F5F5F5F5F5F5F5F5F5F5F5E2E2EFE2F5F5F5E2F5F5F5F5F5F5F5F5F5F5F5F5F5F5F5F52DF5F5F5F5F5F5F5F5F5F5F5F5F5F5F5F5F5F5F5F5F5F5F5F5F5F5F5F5F5F5F5F5F5F5
310
F5F5F5F5F5F5F5F5F5F5F5F5F5F5F5F5F5F5F5F5F5F5F5F5F5F5F5F5F5F5F5F5F5F5F5F5F5F5F5F5F5F5F5F5F5F5F5F5F5F5F5F5F5F5F5F5F5F5F5F5F5F5F5F5F5F5F5F5F5F5F5F5F5F5F5F5F5F5F5F5F5F5F5F5F5F5F5F5F5F5F5F5F5F5F5F5F5F5F5F52DF5F5F5F5F5F5F5F5F5F5F5F5F5F5F5F5E2F5F5F5E2E2EFE2F5F5
310
F5E2F5F5F5F5F5F5F5F5F5F5F5F5F5F5F5F52DF5F5F5F5F5F5F5F5F5F5F5F5F5F5F5F5F5F5F5F5F5F5F5F5F5F5F5F5F5F5F5F5F5F5F5F5F5F5F5F5F5F5F5F5F5F5F5F5F5F5F5F5F5F5F5F5F5F5F5F5F5F5F5F5F5F5F5F5F5F5F5F5F5F5F5F5F5F5F5F5F5F5F5F5F5F5F5F5F5F5F5F5F5F5F5F5F5F5F5F5F5F5F5F5F5F5F5F5
310
F5F5F5F5F5F5F5F5F5F5F5F5F5F5F5F5F5F5F5F5F5F5F5F5F5F52DF5F5F5F5F5F5F5F5F5F5F5F5F5F5F5F5E2F5F5F5E2E2EFE2F5F5F5E2F5F5F5F5F5F5F5F5F5F5F5F5F5F5F5F52DF5F5F5F5F5F5F5F5F5F5F5F5F5F5F5F5F5F5F5F5F5F5F5F5F5F5F5F5F5F5F5F5F5F5F5F5F5F5F5F5F5F5F5F5F5F5F5F5F5F5F5F5F5F5F5
310
F5F5F5F5F5F5F5F5F5F5F5F5F5F5F5F5F5F5F5F5F5F5F5F5F5F5F5F5F5F5F5F5F5F5F5F5F5F5F5F5F5F5F5F5F5F5F5F5F5F5F5F5F5F5F5F5F5F5F5F5F5F5F5F5F5F5F5F5F5F5F5F5F5F5F5F5F5F5F52DF5F5F5F5F5F5F5F5F5F5F5F5F5F5F5F5E2F5F5F5E2E2EFE2F5F5F5E2F5F5F5F5F5F5F5F5F5F5F5F5F5F5F5F52DF5F5
310
F5F5F5F5F5F5F5F5F5F5F5F5F5F5F5F5F5F5F5F5F5F5F5F5F5F5F5F5F5F5F5F5F5F5F5F5F5F5F5F5F5F5F5F5F5F5F5F5F5F5F5F5F5F5F5F5F5F5F5F5F5F5F5F5F5F5F5F5F5F5F5F5F5F5F5F5F5F5F5F5F5F5F5F5F5F5F5F5F5F5F5F5F5F5F5F5F5F5F5F5F5F5F5F5F5F5F5F5F5F5F5F5F5F5F5F5F5F5F5F5F5F5F5F5F5F5F5
310
F5F5F5F5F52DF5F5F5F5F5F5F5F5F5F5F5F5F5F5F5F5E2F5F5F5E2E2EFE2F5F5F5E2F5F5F5F5F5F5F5F5F5F5F5F5F5F5F5F52DF5F5F5F5F5F5F5F5F5F5F5F5F5F5F5F5F5F5F5F5F5F5F5F5F5F5F5F5F5F5F5F5F5F5F5F5F5F5F5F5F5F5F5F5F5F5F5F5F5F5F5F5F5F5F5F5F5F5F5F5F5F5F5F5F5F5F5F5F5F5F5F5F5F5F5F5
310
F5F5F5F5F5F5F5F5F5F5F5F5F5F5F5F5F5F5F5F5F5F5F5F5F5F5F5F5F5F5F5F5F5F5F5F5F5F5F5F5F5F5F5F5F5F5F5F5F5F5F5F5F5F5F5F5F5F52DF5F5F5F5F5F5F5F5F5F5F5F5F5F5F5F5E2F5F5F5E2E2EFE2F5F5F5E2F5F5F5F5F5F5F5F5F5F5F5F5F5F5F5F52DF5F5F5F5F5F5F5F5F5F5F5F5F5F5F5F5F5F5F5F5F5F5F5
310
F5F5F5F5F5F5F5F5F5F5F5F5F5F5F5F5F5F5F5F5F5F5F5F5F5F5F5F5F5F5F5F5F5F5F5F5F5F5F5F5F5F5F5F5F5F5F5F5F5F5F5F5F5F5F5F5F5F5F5F5F5F5F5F5F5F5F5F5F5F5F5F5F5F5F5F5F5F5F5F5F5F5F5F5F5F5F5F5F5F5F5F5F5F5F5F5F5F5F5F5F5F5F5F5F5F5F5F5F5F5F52DF5F5F5F5F5F5F5F5F5F5F5F5F5F5F5
310
F5E2F5F5F5E2E2EFE2F5F5F5E2F5F5F5F5F5F5F5F5F5F5F5F5F5F5F5F52DF5F5F5F5F5F5F5F5F5F5F5F5F5F5F5F5F5F5F5F5F5F5F5F5F5F5F5F5F5F5F5F5F5F5F5F5F5F5F5F5F5F5F5F5F5F5F5F5F5F5F5F5F5F5F5F5F5F5F5F5F5F5F5F5F5F5F5F5F5F5F5F5F5F5F5F5F5F5F5F5F5F5F5F5F5F5F5F5F5F5F5F5F5F5F5F5F5
310
F5F5F5F5F5F5F5F5F5F5F5F5F5F5F5F5F5F5F5F5F5F5F5F5F5F5F5F5F5F5F5F5F5F5F5F5F52DF5F5F5F5F5F5F5F5F5F5F5F5F5F5F5F5E2F5F5F5E2E2EFE2F5F5F5E2F5F5F5F5F5F5F5F5F5F5F5F5F5F5F5F52DF5F5F5F5F5F5F5F5F5F5F5F5F5F5F5F5F5F5F5F5F5F5F5F5F5F5F5F5F5F5F5F5F5F5F5F5F5F5F5F5F5F5F5F5
310
F5F5F5F5F5F5F5F5F5F5F5F5F5F5F5F5F5F5F5F5F5F5F5F5F5F5F5F5F5F5F5F5F5F5F5F5F5F5F5F5F5F5F5F5F5F5F5F5F5F5F5F5F5F5F5F5F5F5F5F5F5F5F5F5F5F5F5F5F5F5F5F5F5F5F5F5F5F5F5F5F5F5F5F5F5F5F5F5F5F52DF5F5F5F5F5F5F5F5F5F5F5F5F5F5F5F5E2F5F5F5E2E2EFE2F5F5F5E2F5F5F5F5F5F5F5F5
310
F5F5F5F5F5F5F5F52DF5F5F5F5F5F5F5F5F5F5F5F5F5F5F5F5F5F5F5F5F5F5F5F5F5F5F5F5F5F5F5F5F5F5F5F5F5F5F5F5F5F5F5F5F5F5F5F5F5F5F5F5F5F5F5F5F5F5F5F5F5F5F5F5F5F5F5F5F5F5F5F5F5F5F5F5F5F5F5F5F5F5F5F5F5F5F5F5F5F5F5F5F5F5F5F5F5F5F5F5F5F5F5F5F5F5F5F5F5F5F5F5F5F5F5F5F5F5
310
F5F5F5F5F5F5F5F5F5F5F5F5F5F5F5F52DF5F5F5F5F5F5F5F5F5F5F5F5F5F5F5F5E2F5F5F5E2E2EFE2F5F5F5E2F5F5F5F5F5F5F5F5F5F5F5F5F5F5F5F52DF5F5F5F5F5F5F5F5F5F5F5F5F5F5F5F5F5F5F5F5F5F5F5F5F5F5F5F5F5F5F5F5F5F5F5F5F5F5F5F5F5F5F5F5F5F5F5F5F5F5F5F5F5F5F5F5F5F5F5F5F5F5F5F5F5
310
F5F5F5F5F5F5F5F5F5F5E2E2E2C3E2ECE2F5F5F5C3C3E2E2E2F5F5F5F5F5F5F5F5F5F5F5F5F5F5F5F5F5F5F5F5F5F5F5F5F5F5F5F5F5F5F5F5F5F5F5F5F5F5F5F5F5F5F5F52DF5F5F5F5F5F5F5F5F5F5F5F5F5F5F5F5E2F5F5F5E2E2EFE2F5F5F5E2F5F5F5F5F5F5F5F5F5F5F5F5F5F5F5F52DF5F5F5F5F5F5F5F5F5F5F5F5
310
F5F5F5F5F5F5F5F5F5F5F5F5F5F5F5F5F5F5F5F5F5F5F5F5F5F5F5F5F5F5F5F5F5F5F5F5F5F5F5F5F5F5F5F5F5F5F5F5F5F5F5F5F5F5F5F5F5F5F5F5F5F5F5C3E2ECC3E2ECE2F5F5F5C3C3E2E2E2F5F5F5F5F5F5F5F5F5F5F5F5F5F5F5F5F5F5F5F5F5F5F5F5F5F5F5F5F5F5F5F5F5F5F5F5F5F5F5F5F5F5F5F52DF5F5F5F5
310
F5F5F5F5F5F5F5F5F5F5F5F5E2F5F5F5E2E2EFE2F5F5F5E2F5F5F5F5F5F5F5F5F5F5F5F5F5F5F5F52DF5F5F5F5F5F5F5F5F5F5F5F5F5F5F5F5F5F5F5F5F5F5F5F5F5F5F5F5F5F5F5F5F5F5F5F5F5F5F5F5F5F5F5F5F5F5F5F5F5F5F5F5F5F5F5F5F5F5F5F5F5F5F5F5F5F5F5F5F5F5F5F5F5F5F5C3C3C3C3E2E2C3F5F5F5C3
310
E2E22DC3F5F5F5F5F5F5F5F5F5F5F5F5F5F5F5F5F5F5F5F5F5F5F5F5F5F5F5F5F5F5F5F5F5F5F5F5F5F5F5F5F5F5F5F52DF5F5F5F5F5F5F5F5F5F5F5F5F5F5F5F5E2F5F5F5E2E2EFE2F5F5F5E2F5F5F5F5F5F5F5F5F5F5F5F5F5F5F5F52DF5F5F5F5F5F5F5F5F5F5F5F5F5F5F5F5F5F5F5F5F5F5F5F5F5F5F5F5F5F5F5F5F5
310
F5F5F5F5F5F5F5F5F5F5F5F5F5F5F5F5F5F5F5F5F5F5F5F5F5F5F5F5F5F5F5F5F5F5F5F5F5F5F5F5F5F5C3E2E2C30F0FC3F5F5F5C3C3E2C3C3F5F5F5F5F5F5C3E2E2F5F5F5F5F5F5F5F5F5F5F5F5F5F5F5F5F5F5F5F5F5F5F5F5F5F5F5F5F5F5F5F5F5F5F52DF5F5F5F5F5F5F5F5F5F5F5F5F5F5F5F5E2F5F5F5E2E2EFE2F5
310
F5F5E2F5F5F5F5F5F5F5F5F5F5F5F5F5F5F5F52DF5F5F5F5F5F5F5F5F5F5F5F5F5F5F5F5F5F5F5F5F5F5F5F5F5F5F5F5F5F5F5F5F5F5F5F5F5F5F5F5F5F5F5F5F5F5F5F5F5F5F5F5F5F5F5F5F5F5F5F5F5F5F5F5F5F5F5F5F5F5F5F5F5F5F5C3E2E2C3ECE2ECF5F5F5F5F5F5F5F5F5F5F5F5F5C3C3E2E2F5F5F5F5F5F5F5F5
310
F5F5F5F5F5F5F5F5F5F5F5F5F5F5F5F5F5F5F5F5F5F5F5F5F5F5F52DF5F5F5F5F5F5F5F5F5F5F5F5F5F5F5F5E2F5F5F5E2E2EFE2F5F5F5E2F5F5F5F5F5F5F5F5F5F5F5F5F5F5F5F52DF5F5F5F5F5F5F5F5F5F5F5F5F5F5F5F5F5F5F5F5F5F5F5F5F5F5F5F5F5F5F5F5F5F5F5F5F5F5F5F5F5F5F5F5F5F5F5F5F5F5F5F5F5F5
310
F5F5F5F5F5F5F5F5F5F5F5F5F5F5F5F5F5F5F5F5F5E2ECECC3E2ECE2F5F5F5F5BE2DECF52D2DF5E2F5F5C3C3C3F5F5F5F5F5F5F5F5F5F5F5F5F5F5F5F5F5F5F5F5F5F5F5F5F5F5F5F5F5F5F5F5F5F5F52DF5F5F5F5F5F5F5F5F5F5F5F5F5F5F5F5E2F5F5F5E2E2EFE2F5F5F5E2F5F5F5F5F5F5F5F5F5F5F5F5F5F5F5F52DF5
310
F5F5F5F5F5F5F5F5F5F5F5F5F5F5F5F5F5F5F5F5F5F5F5F5F5F5F5F5F5F5F5F5F5F5F5F5F5F5F5F5F5F5F5F5F5F5F5F5F5F5F5F5F5F5F5F5F5F5F5F5F5F5F5F5F5F5F5F5F5F5F5F5F5F5E2E2E2E2E2E2C3F5F5F5C32DE22D2D2DEC2DE2F5F5ECDCF5F5F5F5F5F5F5F5F5F5F5F5F5F5F5F5F5F5F5F5F5F5F5F5F5F5F5F5F5F5
310
F5F5F5F5F5F52DF5F5F5F5F5F5F5F5F5F5F5F5F5F5F5F5E2F5F5F5E2E2EFE2F5F5F5E2F5F5F5F5F5F5F5F5F5F5F5F5F5F5F5F52DF5F5F5F5F5F5F5F5F5F5F5F5F5F5F5F5F5F5F5F5F5F5F5F5F5F5F5F5F5F5F5F5F5F5F5F5F5F5F5F5F5F5F5F5F5F5F5F5F5F5F5F5F5F5F5F5F5F5F5F5F5F5F5F5F5F5F5F5F5F5F5F5F5F5F5
310
E2E2E2E2E2E2C3F5F5F5E2BE2DF5F5F5F5F5E2F5F5C3E2E2F5F5F5F5F5F5F5F5F5F5F5F5F5F5F5F5F5F5F5F5F5F5F5F5F5F5F5F5F5F5F5F5F5F5F52DF5F5F5F5F5F5F5F5F5F5F5F5F5F5F5F5E2F5F5F5E2E2EFE2F5F5F5F5F5F5F5F5F5F5F5F5F5F5F5F5F5F5F5F52DF5F5F5F5F5F5F5F5F5F5F5F5F5F5F5F5F5F5F5F5F5F5
310
F5F5F5F5F5F5F5F5F5F5F5F5F5F5F5F5F5F5F5F5F5F5F5F5F5F5F5F5F5F5F5F5F5F5F5F5F5F5F5F5F5F5F5F5E22DE2E2ECE2E2F5F5E22D2DC32D2DC3F5F5F5F5F52DF5F5F5F52D2D2D2DC3E2E2F5F5F5F5F5F5F5F5F5F5F5F5F5F5F5F5F5F5F5F5F5F5F5F5F5F5F5F5F5F5F5F5F5F5F52DF5F5F5F5F5F5F5F5F5F5F5F5F5F5
310
F5F5F5F5F5F5E2E2EFE2F5F5F5F5F5F5F5F5F5F5F5F5F5F5F5F5F5F5F5F52DF5F5F5F5F5F5F5F5F5F5F5F5F5F5F5F5F5F5F5F5F5F5F5F5F5F5F5F5F5F5F5F5F5F5F5F5F5F5F5F5F5F5F5F5F5F5F5F5F5F5F5F5F5F5F5F5F5F5F5F5F5F5F5F5F5F52DBEC3C3E22DE2F5F5E2E2E2E2F5F5E2F5F5F5F5F5F5F5E2E2E2BE2DE2BE
310
C3E2E2F5F5F5F5F5F5F5F5F5F5F5F5F5F5F5F5F5F5F5F5F5F5F5F5F5F5F5F5F5F5F5F5F5F5F52DF5F5F5F5F5F5F5F5F5F5F5F5F5F5F5F5F5F5F5F5E2E2EFE2F5F5F5F5F5F5F5F5F5F5F5F5F5F5F5F5F5F5F5F52DF5F5F5F5F5F5F5F5F5F5F5F5F5F5F5F5F5F5F5F5F5F5F5F5F5F5F5F5F5F5F5F5F5F5F5F5F5F5F5F5F5F5F5
310
F5F5F5F5F5F5F5F5F5F5F5F5F5F5F5F5F5F5F5F5F5F5F5F5F5F5F5F5F5F5F5F5F5F5F5F5F5F5F5F5F5F5F5F5F5F52DE2E2F5F5F5F5C3E22DF5F5F5F5F5F5F5F5F5F5F5F5F5F5F5F5F5F5F5F5F5F5F5F5F5F5F5F5F5F5F5F5F5F5F52DF5F5F5F5F5F5F5F5F5F5F5F5F5F5F5F5F5F5F5F5E2E2EFE2F5F5F5F5F5F5F5F5F5F5F5
310
F5F5F5F5F5F5F5F5F52DF5F5F5F5F5F5F5F5F5F5F5F5F5F5F5F5F5F5F5F5F5F5F5F5F5F5F5F5F5F5F5F5F5F5F5F5F5F5F5F5F5F5F5F5F5F5F5F5F5F5F5F5F5F5F5F5F5F5F5F5F5F5F5F5F5F5F5F5F5F5F5F5F5F5F5F5F5F5F5F5F5F5F5F5F5F5F5F5F5F5F5BE28F5F5F5F5F5F5F5F5F5F5F5F5F5F5F5F5F5F5F5F5F5F5F5F5
310
F5F5F5F5F5F5F5F5F5F5F5F5F5F5F5F5F52DF5F5F5F5F5F5F5F5F5F5F5F5F5F5F5F5F5F5F5F5E2E2EFE2F5F5F5F5F5F5F5F5F5F5F5F5F5F5F5F5F5F5F5F52DF5F5F5F5F5F5F5F5F5F5F5F5F5F5F5F5F5F5F5F5F5F5F5F5F5F5F5F5F5F5F5F5F5F5F5F5F5F5F5F5F5F5F5F5F5F5F5F5F5F5F5F5F5F5F5F5F5F5F5F5F5F5F5F5
310
F5F5F5BEE2E2E2F5F5F5ECC3C3C3C3C3C3F5F5F5F5F5F5F5F5F5F52D2DF5F5F5F5F5F5F5F5F5F5F5F5F5F5F5F5F5F5F5F5F5F5F5F5F5F5F5F5F5F5F5F5F5F5F5F5F5F5F5F5F52DF5F5F5F5F5F5F5F5F5F5F5F5F5F5F5F5F5F5F5F5E2E2EFE2F5F5F5F5F5F5F5F5F5F5F5F5F5F5F5F5F5F5F5F52DF5F5F5F5F5F5F5F5F5F5F5
310
F5F5F5F5F5F5F5F5F5F5F5F5F5F5F5F5F5F5F5F5F5F5F5F5F5F5F5F5F5F5F5F5F5F5F5F5F5F5F5F5F5F5F5F5F5F5F5F5F5F5F5F5F5F5F5E2ECE2E2E22D2D2DECE2E2E2E2E2C3F5F5F5F5F5F5F5F5F5F5E2E2F5F5F5F5F5F5F5F5F5F5F5F5F5F5F5F5F5F5F5F5F5F5F5F5F5F5F5F5F5F5F5F5F5F5F5F5F5F5F5F5F52DF5F5F5
310
F5F5F5F5F5F5F5F5F5F5F5F5F5F5F5F5F5E2E2EFE2F5F5F5F5F5F5F5F5F5F5F5F5F5F5F5F5F5F5F5F52DF5F5F5F5F5F5F5F5F5F5F5F5F5F5F5F5F5F5F5F5F5F5F5F5F5F5F5F5F5F5F5F5F5F5F5F5F5F5F5F5F5F5F5F5F5F5F5F5F5F5F5F5F5F5F5F5F5F5F5F5F5F5F5F5F5F5E2ECE2E2ECE22D2DECE2E2ECE2E2C3F5F5F5F5
310
F5F5F5F5F5F5E2E2F5F5F5F5F5F5F5F5F5F5F5F5F5F5F5F5F5F5F5F5F5F5F5F5F5F5F5F5F5F5F5F5F5F5F5F5F5F5F5F5F52DF5F5F5F5F5F5F5F5F5F5F5F5F5F5F5F5F5F5F5F5E2E2EFE2F5F5F5F5F5F5F5F5F5F5F5F5F5F5F5F5F5F5F5F52DF5F5F5F5F5F5F5F5F5F5F5F5F5F5F5F5F5F5F5F5F5F5F5F5F5F5F5F5F5F5F5F5
310
F5F5F5F5F5F5F5F5F5F5F5F5F5F5F5F5F5F5F5F5F5F5F5F5F5F5F5F5F5F5F5F5F5F52D2DE2ECECF5C3ECECE2E2E2E2E2C3F5F5F5F5F5F5F5F5F5F5BE28F5F5F5F5F5F5F5F5F5F5F5F5F5F5F5F5F5F5F5F5F5F5F5F5F5F5F5F5F5F5F5F5F5F5F5F5F5F5F5F5F52DF5F5F5F5F5F5F5F5F5F5F5F5F5F5F5F5F5F5F5F5E2E2EFE2
310
F5F5F5F5F5F5F5F5F5F5F5F5F5F5F5F5F5F5F5F52DF5F5F5F5F5F5F5F5F5F5F5F5F5F5F5F5F5F5F5F5F5F5F5F5F5F5F5F5F5F5F5F5F5F5F5F5F5F5F5F5F5F5F5F5F5F5F5F5F5F5F5F5F5F5F5F5F5F5F5F5F5F5F5F5F5F52D2DE22D2DF5F5F5ECE2E2E2C3E2E2F5F5F5F5F5F5F5F5F5F5F5F5F5F5F5F5F5F5F5F5F5F5F5F5F5
310
F5F5F5F5F5F5F5F5F5F5F5F5F5F5F5F5F5F5F5F5F5F5F5F5F5F5F5F52DF5F5F5F5F5F5F5F5F5F5F5F5F5F5F5F5F5F5F5F5E2E2EFE2F5F5F5E2F5F5F5F5F5F5F5F5F5F5F5F5F5F5F5F52DF5F5F5F5F5F5F5F5F5F5F5F5F5F5F5F5F5F5F5F5F5F5F5F5F5F5F5F5F5F5F5F5F5F5F5F5F5F5F5F5F5F5F5F5F5F5F5F5F5F5F5F5F5
310
F5F5F5F5F5F5F5F5F5F5F5F5E22DE2E2E2F5BE362DECECECECECECECE2E2ECF5F5F5F5F5F5F5F5F5F5F5F5F5F5F5F5F5F5F5F5F5F5F5F5F5F5F5F5F5F5F5F5F5F5F5F5F5F5F5F5F5F5F5F5F5F5F5F5F5F52DF5F5F5F5F5F5F5F5F5F5F5F5F5F5F5F5E2F5F5F5E2E2EFE2F5F5F5E2F5F5F5F5F5F5F5F5F5F5F5F5F5F5F5F52D
310
F5F5F5F5F5F5F5F5F5F5F5F5F5F5F5F5F5F5F5F5F5F5F5F5F5F5F5F5F5F5F5F5F5F5F5F5F5F5F5F5F5F5F5F5F5F5F5F5F5F5F5F5F5F5F5F5F5F5F5F5F5F5F5F5F5E22DE2E2ECE2BE2DE22DE2C3ECEC28ECECECECF5F5F5F5F5F5F5F5F5F5F5F5F5F5F5F5F5F5F5F5F5F5F5F5F5F5F5F5F5F5F5F5F5F5F5F5F5F5F5F5F5F5F5
310
F5F5F5F5F5F5F52DF5F5F5F5F5F5F5F5F5F5F5F5F5F5F5F5E2F5F5F5E2E2EFE2F5F5F5E2F5F5F5F5F5F5F5F5F5F5F5F5F5F5F5F52DF5F5F5F5F5F5F5F5F5F5F5F5F5F5F5F5F5F5F5F5F5F5F5F5F5F5F5F5F5F5F5F5F5F5F5F5F5F5F5F5F5F5F5F5F5F5F5F5F5F5F5F5F5F5F5F5F5F5F5F5F5F5F5F5F5E2E2E22DE2E22D2DE2
310
E2E2C3ECECEC2DE2E2C3F5F5F5F5F5F5F5F5F5F5F5F5F5F5F5F5F5F5F5F5F5F5F5F5F5F5F5F5F5F5F5F5F5F5F5F5F5F5F5F5F5F5F5F5F5F5F5F5F5F52DF5F5F5F5F5F5F5F5F5F5F5F5F5F5F5F5E2F5F5F5E2E2EFE2F5F5F5E2F5F5F5F5F5F5F5F5F5F5F5F5F5F5F5F52DF5F5F5F5F5F5F5F5F5F5F5F5F5F5F5F5F5F5F5F5F5
310
F5F5F5F5F5F5F5F5F5F5F5F5F5F5F5F5F5F5F5F5F5F5F5F5F5F5F5F5F5F5F5F5F5F5F5F5F5F5F5F5F5F5F5F5E2E22DECE2F5F5F5ECE22DC3E2ECE2E2282DE2F5F5F5F5F5F5F5F5F5F5F5F5F5F5F5F5F5F5F5F5F5F5F5F5F5F5F5F5F5F5F5F5F5F5F5F5F5F5F5F5F5F5F5F5F5F5F5F5F5F52DF5F5F5F5F5F5F5F5F5F5F5F5F5
310
F5F5F5E2F5F5F5E2E2EFE2F5F5F5E2F5F5F5F5F5F5F5F5F5F5F5F5F5F5F5F52DF5F5F5F5F5F5F5F5F5F5F5F5F5F5F5F5F5F5F5F5F5F5F5F5F5F5F5F5F5F5F5F5F5F5F5F5F5F5F5F5F5F5F5F5F5F5F5F5F5F5F5F5F5F5F5F5F5F5F5F5F5F5F5F5F5E2E2E2F5F5F5F5F5F5F5F5F5F5ECECECE22DE2F5F5F5F5F5F5F5F5F5F5F5
310
F5F5F5F5F5F5F5F5F5F5F5F5F5F5F5F5F5F5F5F5F5F5F5F5F5F5F5F5F5F5F5F5F5F5F5F5F5F5F52DF5F5F5F5F5F5F5F5F5F5F5F5F5F5F5F5E2F5F5F5E2E2EFE2F5F5F5E2F5F5F5F5F5F5F5F5F5F5F5F5F5F5F5F52DF5F5F5F5F5F5F5F5F5F5F5F5F5F5F5F5F5F5F5F5F5F5F5F5F5F5F5F5F5F5F5F5F5F5F5F5F5F5F5F5F5F5
310
F5F5F5F5F5F5F5F5F5F5F5F5F5F5F5F5F5F5F5F5F5F5F5F5F5F5F5F5F5F5F5F5F5F5F5F5F5F5F5F5F5F5F5F5F5F5F5F5F5F5F5F5F5F5F5F5F5F5F5F5F5F5F5F5F5F5F5F5F5F5F5F5F5F5F5F5F5F5F5F5F5F5F5F5F5F5F5F5F5F5F5F52DF5F5F5F5F5F5F5F5F5F5F5F5F5F5F5F5E2F5F5F5E2E2EFE2F5F5F5E2F5F5F5F5F5F5
310
F5F5F5F5F5F5F5F5F5F52DF5F5F5F5F5F5F5F5F5F5F5F5F5F5F5F5F5F5F5F5F5F5F5F5F5F5F5F5F5F5F5F5F5F5F5F5F5F5F5F5F5F5F5F5F5F5F5F5F5F5F5F5F5F5F5F5F5F5F5F5F5F5F5F5F5F5F5F5F5F5F5F5F5F5F5F5F5F5F5F5F5F5F5F5F5F5F5F5F5F5F5F5F5F5F5F5F5F5F5F5F5F5F5F5F5F5F5F5F5F5F5F5F5F5F5F5
310
F5F5F5F5F5F5F5F5F5F5F5F5F5F5F5F5F5F52DF5F5F5F5F5F5F5F5F5F5F5F5F5F5F5F5E2F5F5F5E2E2EFE2F5F5F5E2F5F5F5F5F5F5F5F5F5F5F5F5F5F5F5F52DF5F5F5F5F5F5F5F5F5F5F5F5F5F5F5F5F5F5F5F5F5F5F5F5F5F5F5F5F5F5F5F5F5F5F5F5F5F5F5F5F5F5F5F5F5F5F5F5F5F5F5F5F5F5F5F5F5F5F5F5F5F5F5
310
F5F5F5F5F5F5F5F5F5F5F5F5F5F5F5F5F5F5F5F5F5F5F5F5F5F5F5F5F5F5F5F5F5F5F5F5F5F5F5F5F5F5F5F5F5F5F5F5F5F5F5F5F5F5F5F5F5F5F5F5F5F5F5F5F5F5F5F5F5F5F52DF5F5F5F5F5F5F5F5F5F5F5F5F5F5F5F5E2F5F5F5E2E2EFE2F5F5F5E2F5F5F5F5F5F5F5F5F5F5F5F5F5F5F5F52DF5F5F5F5F5F5F5F5F5F5
310
F5F5F5F5F5F5F5F5F5F5F5F5F5F5F5F5F5F5F5F5F5F5F5F5F5F5F5F5F5F5F5F5F5F5F5F5F5F5F5F5F5F5F5F5F5F5F5F5F5F5F5F5F5F5F5F5F5F5F5F5F5F5F5F5F5F5F5F5F5F5F5F5F5F5F5F5F5F5F5F5F5F5F5F5F5F5F5F5F5F5F5F5F5F5F5F5F5F5F5F5F5F5F5F5F5F5F5F5F5F5F5F5F5F5F5F5F5F5F5F5F5F5F5F52DF5F5
310
F5F5F5F5F5F5F5F5F5F5F5F5F5F5E2F5F5F5E2E2EFE2F5F5F5E2F5F5F5F5F5F5F5F5F5F5F5F5F5F5F5F52DF5F5F5F5F5F5F5F5F5F5F5F5F5F5F5F5F5F5F5F5F5F5F5F5F5F5F5F5F5F5F5F5F5F5F5F5F5F5F5F5F5F5F5F5F5F5F5F5F5F5F5F5F5F5F5F5F5F5F5F5F5F5F5F5F5F5F5F5F5F5F5F5F5F5F5F5F5F5F5F5F5F5F5F5
310
F5F5F5F5F5F5F5F5F5F5F5F5F5F5F5F5F5F5F5F5F5F5F5F5F5F5F5F5F5F5F5F5F5F5F5F5F5F5F5F5F5F5F5F5F5F5F5F5F5F52DF5F5F5F5F5F5F5F5F5F5F5F5F5F5F5F5E2F5F5F5E2E2EFE2F5F5F5E2F5F5F5F5F5F5F5F5F5F5F5F5F5F5F5F52DF5F5F5F5F5F5F5F5F5F5F5F5F5F5F5F5F5F5F5F5F5F5F5F5F5F5F5F5F5F5F5
310
F5F5F5F5F5F5F5F5F5F5F5F5F5F5F5F5F5F5F5F5F5F5F5F5F5F5F5F5F5F5F5F5F5F5F5F5F5F5F5F5F5F5F5F5F5F5F5F5F5F5F5F5F5F5F5F5F5F5F5F5F5F5F5F5F5F5F5F5F5F5F5F5F5F5F5F5F5F5F5F5F5F5F5F5F5F5F5F5F5F5F5F5F5F5F5F5F5F5F5F5F5F5F52DF5F5F5F5F5F5F5F5F5F5F5F5F5F5F5F5E2F5F5F5E2E2EF
310
E2F5F5F5E2F5F5F5F5F5F5F5F5F5F5F5F5F5F5F5F52DF5F5F5F5F5F5F5F5F5F5F5F5F5F5F5F5F5F5F5F5F5F5F5F5F5F5F5F5F5F5F5F5F5F5F5F5F5F5F5F5F5F5F5F5F5F5F5F5F5F5F5F5F5F5F5F5F5F5F5F5F5F5F5F5F5F5F5F5F5F5F5F5F5F5F5F5F5F5F5F5F5F5F5F5F5F5F5F5F5F5F5F5F5F5F5F5F5F5F5F5F5F5F5F5F5
310
F5F5F5F5F5F5F5F5F5F5F5F5F5F5F5F5F5F5F5F5F5F5F5F5F5F5F5F5F52DF5F5F5F5F5F5F5F5F5F5F5F5F5F5F5F5E2F5F5F5E2E2EFE2F5F5F5E2F5F5F5F5F5F5F5F5F5F5F5F5F5F5F5F52DF5F5F5F5F5F5F5F5F5F5F5F5F5F5F5F5F5F5F5F5F5F5F5F5F5F5F5F5F5F5F5F5F5F5F5F5F5F5F5F5F5F5F5F5F5F5F5F5F5F5F5F5
310
F5F5F5F5F5F5F5F5F5F5F5F5F5F5F5F5F5F5F5F5F5F5F5F5F5F5F5F5F5F5F5F5F5F5F5F5F5F5F5F5F5F5F5F5F5F5F5F5F5F5F5F5F5F5F5F5F5F5F5F5F5F5F5F5F5F5F5F5F5F5F5F5F5F5F5F5F5F5F5F5F5F52DF5F5F5F5F5F5F5F5F5F5F5F5F5F5F5F5E2F5F5F5E2E2EFE2F5F5F5E2F5F5F5F5F5F5F5F5F5F5F5F5F5F5F5F5
310
2DF5F5F5F5F5F5F5F5F5F5F5F5F5F5F5F5F5F5F5F5F5F5F5F5F5F5F5F5F5F5F5F5F5F5F5F5F5F5F5F5F5F5F5F5F5F5F5F5F5F5F5F5F5F5F5F5F5F5F5F5F5F5F5F5F5F5F5F5F5F5F5F5F5F5F5F5F5F5F5F5F5F5F5F5F5F5F5F5F5F5F5F5F5F5F5F5F5F5F5F5F5F5F5F5F5F5F5F5F5F5F5F5F5F5F5F5F5F5F5F5F5F5F5F5F5F5
310
F5F5F5F5F5F5F5F52DF5F5F5F5F5F5F5F5F5F5F5F5F5F5F5F5E2F5F5F5E2E2EFE2F5F5F5E2F5F5F5F5F5F5F5F5F5F5F5F5F5F5F5F52DF5F5F5F5F5F5F5F5F5F5F5F5F5F5F5F5F5F5F5F5F5F5F5F5F5F5F5F5F5F5F5F5F5F5F5F5F5F5F5F5F5F5F5F5F5F5F5F5F5F5F5F5F5F5F5F5F5F5F5F5F5F5F5F5F5F5F5F5F5F5F5F5F5
310
F5F5F5F5F5F5F5F5F5F5F5F5F5F5F5F5F5F5F5F5F5F5F5F5F5F5F5F5F5F5F5F5F5F5F5F5F5F5F5F5F5F5F5F5F5F5F5F5F5F5F5F5F5F5F5F5F5F5F5F5F52DF5F5F5F5F5F5F5F5F5F5F5F5F5F5F5F5E2F5F5F5E2E2EFE2F5F5F5E2F5F5F5F5F5F5F5F5F5F5F5F5F5F5F5F52DF5F5F5F5F5F5F5F5F5F5F5F5F5F5F5F5F5F5F5F5
310
F5F5F5F5F5F5F5F5F5F5F5F5F5F5F5F5F5F5F5F5F5F5F5F5F5F5F5F5F5F5F5F5F5F5F5F5F5F5F5F5F5F5F5F5F5F5F5F5F5F5F5F5F5F5F5F5F5F5F5F5F5F5F5F5F5F5F5F5F5F5F5F5F5F5F5F5F5F5F5F5F5F5F5F5F5F5F5F5F5F5F5F5F5F5F5F5F5F5F5F5F5F5F5F5F5F5F5F5F5F5F5F5F5F52DF5F5F5F5F5F5F5F5F5F5F5F5
310
F5F5F5F5E2F5F5F5E2E2EFE2F5F5F5E2F5F5F5F5F5F5F5F5F5F5F5F5F5F5F5F52DF5F5F5F5F5F5F5F5F5F5F5F5F5F5F5F5F5F5F5F5F5F5F5F5F5F5F5F5F5F5F5F5F5F5F5F5F5F5F5F5F5F5F5F5F5F5F5F5F5F5F5F5F5F5F5F5F5F5F5F5F5F5F5F5F5F5F5F5F5F5F5F5F5F5F5F5F5F5F5F5F5F5F5F5F5F5F5F5F5F5F5F5F5F5
310
F5F5F5F5F5F5F5F5F5F5F5F5F5F5F5F5F5F5F5F5F5F5F5F5F5F5F5F5F5F5F5F5F5F5F5F5F5F5F5F52DF5F5F5F5F5F5F5F5F5F5F5F5F5F5F5F5E2F5F5F5E2E2EFE2F5F5F5F5F5F5F5F5F5F5F5F5F5F5F5F5F5F5F5F52DF5F5F5F5F5F5F5F5F5F5F5F5F5F5F5F5F5F5F5F5F5F5F5F5F5F5F5F5F5F5F5F5F5F5F5F5F5F5F5F5F5
310
F5F5F5F5F5F5F5F5F5F5F5F5F5F5F5F5F5F5F5F5F5F5F5F5F5F5F5F5F5F5F5F5F5F5F5F5F5F5F5F5F5F5F5F5F5F5F5F5F5F5F5F5F5F5F5F5F5F5F5F5F5F5F5F5F5F5F5F5F5F5F5F5F5F5F5F5F5F5F5F5F5F5F5F5F5F5F5F5F5F5F5F5F52DF5F5F5F5F5F5F5F5F5F5F5F5F5F5F5F5F5F5F5F5E2E2EFE2F5F5F5F5F5F5F5F5F5
310
F5F5F5F5F5F5F5F5F5F5F52DF5F5F5F5F5F5F5F5F5F5F5F5F5F5F5F5F5F5F5F5F5F5F5F5F5F5F5F5F5F5F5F5F5F5F5F5F5F5F5F5F5F5F5F5F5F5F5F5F5F5F5F5F5F5F5F5F5F5F5F5F5F5F5F5F5F5F5F5F5F5F5F5F5F5F5F5F5F5F5F5F5F5F5F5F5F5F5F5F5F5F5F5F5F5F5F5F5F5F5F5F5F5F5F5F5F5F5F5F5F5F5F5F5F5F5
310
F5F5F5F5F5F5F5F5F5F5F5F5F5F5F5F5F5F5F52DF5F5F5F5F5F5F5F5F5F5F5F5F5F5F5F5F5F5F5F5E2E2EFE2F5F5F5F5F5F5F5F5F5F5F5F5F5F5F5F5F5F5F5F52DF5F5F5F5F5F5F5F5F5F5F5F5F5F5F5F5F5F5F5F5F5F5F5F5F5F5F5F5F5F5F5F5F5F5F5F5F5F5F5F5F5F5F5F5F5F5F5F5F5F5F5F5F5F5F5F5F5F5F5F5F5F5
310
F5F5F5F5F5F5F5F5F5F5F5F5F5F5F5F5F5F5F5F5F5F5F5F5F5F5F5F5F5F5F5F5F5F5F5F5F5F5F5F5F5F5F5F5F5F5F5F5F5F5F5F5F5F5F5F5F5F5F5F5F5F5F5F5F5F5F5F5F5F5F5F52DF5F5F5F5F5F5F5F5F5F5F5F5F5F5F5F5F5F5F5F5E2E2EFE2F5F5F5F5F5F5F5F5F5F5F5F5F5F5F5F5F5F5F5F52DF5F5F5F5F5F5F5F5F5
310
F5F5F5F5F5F5F5F5F5F5F5F5F5F5F5F5F5F5F5F5F5F5F5F5F5F5F5F5F5F5F5F5F5F5F5F5F5F5F5F5F5F5F5F5F5F5F5F5F5F5F5F5E2BEBEBEF5F5F5F5F5F5F5F5F5F5F5F5F5F5F5F5F5F5F5F5F5F5F5F5F5F5F5F5F5F5F5F5F5F5F5F5F5F5F5F5F5F5F5F5F5F5F5F5F5F5F5F5F5F5F5F5F5F5F5F5F5F5F5F5F5F5F5F5F52DF5
310
F5F5F5F5F5F5F5F5F5F5F5F5F5F5F5F5F5F5F5E2E2EFE2F5F5F5F5F5F5F5F5F5F5F5F5F5F5F5F5F5F5F5F52DF5F5F5F5F5F5F5F5F5F5F5F5F5F5F5F5F5F5F5F5F5F5F5F5F5F5F5F5F5F5F5F5F5F5F5F5F5F5F5F5F5F5F5F5F5F5F5F5F5F5F5F5F5F5F5F5F5F5F5F5F5F5E2E2E2F5F5F5F5F5F5F5F5F5F5F5F5F5F5F5F5F5F5
310
F5F5F5F5F5F5F5F5F5F5F5F5F5F5F5F5F5F5F5F5F5F5F5F5F5F5F5F5F5F5F5F5F5F5F5F5F5F5F5F5F5F5F5F5F5F5F5F5F5F5F52DF5F5F5F5F5F5F5F5F5F5F5F5F5F5F5F5F5F5F5F5E2E2EFE2F5F5F5F5F5F5F5F5F5F5F5F5F5F5F5F5F5F5F5F52DF5F5F5F5F5F5F5F5F5F5F5F5F5F5F5F5F5F5F5F5F5F5F5F5F5F5F5F5F5F5
310
F5F5F5F5F5F5F5F5F5F5F5F5F5F5F5F5F5F5F5F5F5F5F5F5F5F5F5F5F5F5F5F5F5F5F5F5F5F5F5F5F5F5F5F5F5F5F5F5F5F5F5F5F5F5F5F5F5F5F5F5F5F5F5F5F5F5F5F5F5F5F5F5F5F5F5F5F5F5F5F5F5F5F5F5F5F5F5F5F5F5F5F5F5F5F5F5F5F5F5F5F5F5F5F52DF5F5F5F5F5F5F5F5F5F5F5F5F5F5F5F5F5F5F5F5E2E2
310
EFE2F5F5F5F5F5F5F5F5F5F5F5F5F5F5F5F5F5F5F5F52DF5F5F5F5F5F5F5F5F5F5F5F5F5F5F5F5F5F5F5F5F5F5F5F5F5F5F5F5F5F5F5F5F5F5F5F5F5F5F5F5F5F5F5F5F5F5F5F5F5F5F5F5F5F5F5F5F5F5F5F5F5F5F5F5F5F5F5F5F5F5F5F5F5F5F5F5F5F5F5F5F5F5F5F5F5F5F5F5F5F5F5F5F5F5F5F5F5F5F5F5F5F5F5F5
310
F5F5F5F5F5F5F5F5F5F5F5F5F5F5F5F5F5F5F5F5F5F5F5F5F5F5F5F5F5F52DF5F5F5F5F5F5F5F5F5F5F5F5F5F5F5F5F5F5F5F5E2E2EFE2F5F5F5F5F5F5F5F5F5F5F5F5F5F5F5F5F5F5F5F52DF5F5F5F5F5F5F5F5F5F5F5F5F5F5F5F5F5F5F5F5F5F5F5F5F5F5F5F5F5F5F5F5F5F5F5F5F5F5F5F5F5F5F5F5F5F5F5F5F5F5F5
310
F5F5F5F5F5F5F5F5F5F5F5F5F5F5F5F5F5F5F5F5F5F5F5F5F5F5F5F5F5F5F5F5F5F5F5F5F5F5F5F5F5F5F5F5F5F5F5F5F5F5F5F5F5F5F5F5F5F5F5F5F5F5F5F5F5F5F5F5F5F5F5F5F5F5F5F5F5F5F5F5F5F5F52DF5F5F5F5F5F5F5F5F5F5F5F5F5F5F5F5F5F5F5F5E2E2EFE2F5F5F5F5F5F5F5F5F5F5F5F5F5F5F5F5F5F5F5
310
F52DF5F5F5F5F5F5F5F5F5F5F5F5F5F5F5F5F5F5F5F5F5F5F5F5F5F5F5F5F5F5F5F5F5F5F5F5F5F5F5F5F5F5F5F5F5F5F5F5F5F5F5F5F5F5F5F5F5F5F5F5F5F5F5F5F5F5F5F5F5F5F5F5F5F5F5F5F5F5F5F5F5F5F5F5F5F5F5F5F5F5F5F5F5F5F5F5F5F5F5F5F5F5F5F5F5F5F5F5F5F5F5F5F5F5F5F5F5F5F5F5F5F5F5F5F5
310
F5F5F5F5F5F5F5F5F52DF5F5F5F5F5F5F5F5F5F5F5F5F5F5F5F5F5F5F5F5E2E2EFE2F5F5F5E2F5F5F5F5F5F5F5F5F5F5F5F5F5F5F5F52DF5F5F5F5F5F5F5F5F5F5F5F5F5F5F5F5F5F5F5F5F5F5F5F5F5F5F5F5F5F5F5F5F5F5F5F5F5F5F5F5F5F5F5F5F5F5F5F5F5F5F5F5F5F5F5F5F5F5F5F5F5F5F5F5F5F5F5F5F5F5F5F5
310
F5F5F5F5F5F5F5F5F5F5F5F5F5F5F5F5F5F5F5F5F5F5F5F5F5F5F5F5F5F5F5F5F5F5F5F5F5F5F5F5F5F5F5F5F5F5F5F5F5F5F5F5F5F5F5F5F5F5F5F5F5F52DF5F5F5F5F5F5F5F5F5F5F5F5F5F5F5F5E2F5F5F5E2E2EFE2F5F5F5E2F5F5F5F5F5F5F5F5F5F5F5F5F5F5F5F52DF5F5F5F5F5F5F5F5F5F5F5F5F5F5F5F5F5F5F5
310
F5F5F5F5F5F5F5F5F5F5F5F5F5F5F5F5F5F5F5F5F5F5F5F5F5F5F5F5F5F5F5F5F5F5F5F5F5F5F5F5F5F5F5F5F5F5F5F5F5F5F5F5F5F5F5F5F5F5F5F5F5F5F5F5F5F5F5F5F5F5F5F5F5F5F5F5F5F5F5F5F5F5F5F5F5F5F5F5F5F5F5F5F5F5F5F5F5F5F5F5F5F5F5F5F5F5F5F5F5F5F5F5F5F5F52DF5F5F5F5F5F5F5F5F5F5F5
310
F5F5F5F5F5E2F5F5F5E2E2EFE2F5F5F5E2F5F5F5F5F5F5F5F5F5F5F5F5F5F5F5F52DF5F5F5F5F5F5F5F5F5F5F5F5F5F5F5F5F5F5F5F5F5F5F5F5F5F5F5F5F5F5F5F5F5F5F5F5F5F5F5F5F5F5F5F5F5F5F5F5F5F5F5F5F5F5F5F5F5F5F5F5F5F5F5F5F5F5F5F5F5F5F5F5F5F5F5F5F5F5F5F5F5F5F5F5F5F5F5F5F5F5F5F5F5
310
F5F5F5F5F5F5F5F5F5F5F5F5F5F5F5F5F5F5F5F5F5F5F5F5F5F5F5F5F5F5F5F5F5F5F5F5F5F5F5F5F52DF5F5F5F5F5F5F5F5F5F5F5F5F5F5F5F5E2F5F5F5E2E2EFE2F5F5F5E2F5F5F5F5F5F5F5F5F5F5F5F5F5F5F5F52DF5F5F5F5F5F5F5F5F5F5F5F5F5F5F5F5F5F5F5F5F5F5F5F5F5F5F5F5F5F5F5F5F5F5F5F5F5F5F5F5
310
F5F5F5F5F5F5F5F5F5F5F5F5F5F5F5F5F5F5F5F5F5F5F5F5F5F5F5F5F5F5F5F5F5F5F5F5F5F5F5F5F5F5F5F5F5F5F5F5F5F5F5F5F5F5F5F5F5F5F5F5F5F5F5F5F5F5F5F5F5F5F5F5F5F5F5F5F5F5F5F5F5F5F5F5F5F5F5F5F5F5F5F5F5F52DF5F5F5F5F5F5F5F5F5F5F5F5F5F5F5F5E2F5F5F5E2E2EFE2F5F5F5E2F5F5F5F5
310
F5F5F5F5F5F5F5F5F5F5F5F52DF5F5F5F5F5F5F5F5F5F5F5F5F5F5F5F5F5F5F5F5F5F5F5F5F5F5F5F5F5F5F5F5F5F5F5F5F5F5F5F5F5F5F5F5F5F5F5F5F5F5F5F5F5F5F5F5F5F5F5F5F5F5F5F5F5F5F5F5F5F5F5F5F5F5F5F5F5F5F5F5F5F5F5F5F5F5F5F5F5F5F5F5F5F5F5F5F5F5F5F5F5F5F5F5F5F5F5F5F5F5F5F5F5F5
310
F5F5F5F5F5F5F5F5F5F5F5F5F5F5F5F5F5F5F5F52DF5F5F5F5F5F5F5F5F5F5F5F5F5F5F5F5E2F5F5F5E2E2EFE2F5F5F5E2F5F5F5F5F5F5F5F5F5F5F5F5F5F5F5F52DF5F5F5F5F5F5F5F5F5F5F5F5F5F5F5F5F5F5F5F5F5F5F5F5F5F5F5F5F5F5F5F5F5F5F5F5F5F5F5F5F5F5F5F5F5F5F5F5F5F5F5F5F5F5F5F5F5F5F5F5F5
310
F5F5F5F5F5F5F5F5F5F5F5F5F5F5F5F5F5F5F5F5F5F5F5F5F5F5F5F5F5F5F5F5F5F5F5F5F5F5F5F5F5F5F5F5F5F5F5F5F5F5F5F5F5F5F5F5F5F5F5F5F5F5F5F5F5F5F5F5F5F5F5F5F52DF5F5F5F5F5F5F5F5F5F5F5F5F5F5F5F5E2F5F5F5E2E2EFE2F5F5F5E2F5F5F5F5F5F5F5F5F5F5F5F5F5F5F5F52DF5F5F5F5F5F5F5F5
310
F5F5F5F5F5F5F5F5F5F5F5F5F5F5F5F5F5F5F5F5F5F5F5F5F5F5F5F5F5F5F5F5F5F5F5F5F5F5F5F5F5F5F5F5F5F5F5F5F5F5F5F5F5F5F5F5F5F5F5F5F5F5F5F5F5F5F5F5F5F5F5F5F5F5F5F5F5F5F5F5F5F5F5F5F5F5F5F5F5F5F5F5F5F5F5F5F5F5F5F5F5F5F5F5F5F5F5F5F5F5F5F5F5F5F5F5F5F5F5F5F5F5F5F5F5F52D
310
F5F5F5F5F5F5F5F5F5F5F5F5F5F5F5F5E2F5F5F5E2E2EFE2F5F5F5E2F5F5F5F5F5F5F5F5F5F5F5F5F5F5F5F52DF5F5F5F5F5F5F5F5F5F5F5F5F5F5F5F5F5F5F5F5F5F5F5F5F5F5F5F5F5F5F5F5F5F5F5F5F5F5F5F5F5F5F5F5F5F5F5F5F5F5F5F5F5F5F5F5F5F5F5F5F5F5F5F5F5F5F5F5F5F5F5F5F5F5F5F5F5F5F5F5F5F5
310
F5F5F5F5F5F5F5F5F5F5F5F5F5F5F5F5F5F5F5F5F5F5F5F5F5F5F5F5F5F5F5F5F5F5F5F5F5F5F5F5F5F5F5F5F5F5F5F5F5F5F5F52DF5F5F5F5F5F5F5F5F5F5F5F5F5F5F5F5E2F5F5F5E2E2EFE2F5F5F5E2F5F5F5F5F5F5F5F5F5F5F5F5F5F5F5F52DF5F5F5F5F5F5F5F5F5F5F5F5F5F5F5F5F5F5F5F5F5F5F5F5F5F5F5F5F5
310
F5F5F5F5F5F5F5F5F5F5F5F5F5F5F5F5F5F5F5F5F5F5F5F5F5F5F5F5F5F5F5F5F5F5F5F5F5F5F5F5F5F5F5F5F5F5F5F5F5F5F5F5F5F5F5F5F5F5F5F5F5F5F5F5F5F5F5F5F5F5F5F5F5F5F5F5F5F5F5F5F5F5F5F5F5F5F5F5F5F5F5F5F5F5F5F5F5F5F5F5F5F5F5F5F52DF5F5F5F5F5F5F5F5F5F5F5F5F5F5F5F5E2F5F5F5E2
310
E2EFE2F5F5F5E2F5F5F5F5F5F5F5F5F5F5F5F5F5F5F5F52DF5F5F5F5F5F5F5F5F5F5F5F5F5F5F5F5F5F5F5F5F5F5F5F5F5F5F5F5F5F5F5F5F5F5F5F5F5F5F5F5F5F5F5F5F5F5F5F5F5F5F5F5F5F5F5F5F5F5F5F5F5F5F5F5F5F5F5F5F5F5F5F5F5F5F5F5F5F5F5F5F5F5F5F5F5F5F5F5F5F5F5F5F5F5F5F5F5F5F5F5F5F5F5
310
F5F5F5F5F5F5F5F5F5F5F5F5F5F5F5F5F5F5F5F5F5F5F5F5F5F5F5F5F5F5F52DF5F5F5F5F5F5F5F5F5F5F5F5F5F5F5F5E2F5F5F5E2E2EFE2F5F5F5E2F5F5F5F5F5F5F5F5F5F5F5F5F5F5F5F52DF5F5F5F5F5F5F5F5F5F5F5F5F5F5F5F5F5F5F5F5F5F5F5F5F5F5F5F5F5F5F5F5F5F5F5F5F5F5F5F5F5F5F5F5F5F5F5F5F5F5
310
F5F5F5F5F5F5F5F5F5F5F5F5F5F5F5F5F5F5F5F5F5F5F5F5F5F5F5F5F5F5F5F5F5F5F5F5F5F5F5F5F5F5F5F5F5F5F5F5F5F5F5F5F5F5F5F5F5F5F5F5F5F5F5F5F5F5F5F5F5F5F5F5F5F5F5F5F5F5F5F5F5F5F5F52DF5F5F5F5F5F5F5F5F5F5F5F5F5F5F5F5E2F5F5F5E2E2EFE2F5F5F5E2F5F5F5F5F5F5F5F5F5F5F5F5F5F5
310
F5F52DF5F5F5F5F5F5F5F5F5F5F5F5F5F5F5F5F5F5F5F5F5F5F5F5F5F5F5F5F5F5F5F5F5F5F5F5F5F5F5F5F5F5F5F5F5F5F5F5F5F5F5F5F5F5F5F5F5F5F5F5F5F5F5F5F5F5F5F5F5F5F5F5F5F5F5F5F5F5F5F5F5F5F5F5F5F5F5F5F5F5F5F5F5F5F5F5F5F5F5F5F5F5F5F5F5F5F5F5F5F5F5F5F5F5F5F5F5F5F5F5F5F5F5F5
310
F5F5F5F5F5F5F5F5F5F52DF5F5F5F5F5F5F5F5F5F5F5F5F5F5F5F5E2F5F5F5E2E2EFE2F5F5F5E2F5F5F5F5F5F5F5F5F5F5F5F5F5F5F5F52DF5F5F5F5F5F5F5F5F5F5F5F5F5F5F5F5F5F5F5F5F5F5F5F5F5F5F5F5F5F5F5F5F5F5F5F5F5F5F5F5F5F5F5F5F5F5F5F5F5F5F5F5F5F5F5F5F5F5F5F5F5F5F5F5F5F5F5F5F5F5F5
310
F5F5F5F5F5F5F5F5F5F5F5F5F5F5F5F5F5F5F5F5F5F5F5F5F5F5F5F5F5F5F5F5F5F5F5F5F5F5F5F5F5F5F5F5F5F5F5F5F5F5F5F5F5F5F5F5F5F5F5F5F5F5F52DF5F5F5F5F5F5F5F5F5F5F5F5F5F5F5F5E2F5F5F5E2E2EFE2F5F5F5E2F5F5F5F5F5F5F5F5F5F5F5F5F5F5F5F52DF5F5F5F5F5F5F5F5F5F5F5F5F5F5F5F5F5F5
310
F5F5F5F5F5F5F5F5F5F5F5F5F5F5F5F5F5F5F5F5F5F5F5F5F5F5F5F5F5F5F5F5F5F5F5F5F5F5F5F5F5F5F5F5F5F5F5F5F5F5F5F5F5F5F5F5F5F5F5F5F5F5F5F5F5F5F5F5F5F5F5F5F5F5F5F5F5F5F5F5F5F5F5F5F5F5F5F5F5F5F5F5F5F5F5F5F5F5F5F5F5F5F5F5F5F5F5F5F5F5F5F5F5F5F5F52DF5F5F5F5F5F5F5F5F5F5
310
F5F5F5F5F5F5E2F5F5F5E2E2EFE2F5F5F5E2F5F5F5F5F5F5F5F5F5F5F5F5F5F5F5F52DF5F5F5F5F5F5F5F5F5F5F5F5F5F5F5F5F5F5F5F5F5F5F5F5F5F5F5F5F5F5F5F5F5F5F5F5F5F5F5F5F5F5F5F5F5F5F5F5F5F5F5F5F5F5F5F5F5F5F5F5F5F5F5F5F5F5F5F5F5F5F5F5F5F5F5F5F5F5F5F5F5F5F5F5F5F5F5F5F5F5F5F5
310
F5F5F5F5F5F5F5F5F5F5F5F5F5F5F5F5F5F5F5F5F5F5F5F5F5F5F5F5F5F5F5F5F5F5F5F5F5F5F5F5F5F52DF5F5F5F5F5F5F5F5F5F5F5F5F5F5F5F5E2F5F5F5E2E2EFE2F5F5F5E2F5F5F5F5F5F5F5F5F5F5F5F5F5F5F5F52DF5F5F5F5F5F5F5F5F5F5F5F5F5F5F5F5F5F5F5F5F5F5F5F5F5F5F5F5F5F5F5F5F5F5F5F5F5F5F5
310
F5F5F5F5F5F5F5F5F5F5F5F5F5F5F5F5F5F5F5F5F5F5F5F5F5F5F5F5F5F5F5F5F5F5F5F5F5F5F5F5F5F5F5F5F5F5F5F5F5F5F5F5F5F5F5F5F5F5F5F5F5F5F5F5F5F5F5F5F5F5F5F5F5F5F5F5F5F5F5F5F5F5F5F5F5F5F5F5F5F5F5F5F5F5F52DF5F5F5F5F5F5F5F5F5F5F5F5F5F5F5F5E2F5F5F5E2E2EFE2F5F5F5E2F5F5F5
310
F5F5F5F5F5F5F5F5F5F5F5F5F52DF5F5F5F5F5F5F5F5F5F5F5F5F5F5F5F5F5F5F5F5F5F5F5F5F5F5F5F5F5F5F5F5F5F5F5F5F5F5F5F5F5F5F5F5F5F5F5F5F5F5F5F5F5F5F5F5F5F5F5F5F5F5F5F5F5F5F5F5F5F5F5F5F5F5F5F5F5F5F5F5F5F5F5F5F5F5F5F5F5F5F5F5F5F5F5F5F5F5F5F5F5F5F5F5F5F5F5F5F5F5F5F5F5
310
F5F5F5F5F5F5F5F5F5F5F5F5F5F5F5F5F5F5F5F5F52DF5F5F5F5F5F5F5F5F5F5F5F5F5F5F5F5E2F5F5F5E2E2EFE2F5F5F5F5F5F5F5F5F5F5F5F5F5F5F5F5F5F5F5F52DF5F5F5F5F5F5F5F5F5F5F5F5F5F5F5F5F5F5F5F5F5F5F5F5F5F5F5F5F5F5F5F5F5F5F5F5F5F5F5F5F5F5F5F5F5F5F5F5F5F5F5F5F5F5F5F5F5F5F5F5
310
F5F5F5F5F5F5F5F5F5F5F5F5F5F5F5F5F5F5F5F5F5F5F5F5F5F5F5F5F5F5F5F5F5F5F5F5F5F5F5F5F5F5F5F5F5F5F5F5F5F5F5F5F5F5F5F5F5F5F5F5F5F5F5F5F5F5F5F5F5F5F5F5F5F52DF5F5F5F5F5F5F5F5F5F5F5F5F5F5F5F5F5F5F5F5E2E2EFE2F5F5F5F5F5F5F5F5F5F5F5F5F5F5F5F5F5F5F5F52DF5F5F5F5F5F5F5
310
F5F5F5F5F5F5F5F5F5F5F5F5F5F5F5F5F5F5F5F5F5F5F5F5F5F5F5F5F5F5F5F5F5F5F5F5F5F5F5F5F5F5F5F5F5F5F5F5F5F5F5F5F5F5F5F5F5F5F5F5F5F5F5F5F5F5F5F5F5F5F5F5F5F5F5F5F5F5F5F5F5F5F5F5F5F5F5F5F5F5F5F5F5F5F5F5F5F5F5F5F5F5F5F5F5F5F5F5F5F5F5F5F5F5F5F5F5F5F5F5F5F5F5F5F5F5F5
310
2DF5F5F5F5F5F5F5F5F5F5F5F5F5F5F5F5F5F5F5F5E2E2EFE2F5F5F5F5F5F5F5F5F5F5F5F5F5F5F5F5F5F5F5F52DF5F5F5F5F5F5F5F5F5F5F5F5F5F5F5F5F5F5F5F5F5F5F5F5F5F5F5F5F5F5F5F5F5F5F5F5F5F5F5F5F5F5F5F5F5F5F5F5F5F5F5F5F5F5F5F5F5F5F5F5F5F5F5F5F5F5F5F5F5F5F5F5F5F5F5F5F5F5F5F5F5
310
F5F5F5F5F5F5F5F5F5F5F5F5F5F5F5F5F5F5F5F5F5F5F5F5F5F5F5F5F5F5F5F5F5F5F5F5F5F5F5F5F5F5F5F5F5F5F5F5F5F5F5F5F52DF5F5F5F5F5F5F5F5F5F5F5F5F5F5F5F5F5F5F5F5E2E2EFE2F5F5F5F5F5F5F5F5F5F5F5F5F5F5F5F5F5F5F5F52DF5F5F5F5F5F5F5F5F5F5F5F5F5F5F5F5F5F5F5F5F5F5F5F5F5F5F5F5
310
F5F5F5F5F5F5F5F5F5F5F5F5F5F5F5F5F5F5F5F5F5F5F5F5F5F5F5F5F5F5F5F5F5F5F5F5F5F5F5F5F5F5F5F5F5F5F5F5F5F5F5F5F5F5F5F5F5F5F5F5F5F5F5F5F5F5F5F5F5F5F5F5F5F5F5F5F5F5F5F5F5F5F5F5F5F5F5F5F5F5F5F5F5F5F5F5F5F5F5F5F5F5F5F5F5F52DF5F5F5F5F5F5F5F5F5F5F5F5F5F5F5F5F5F5F5F5
310
E2E2EFE2F5F5F5F5F5F5F5F5F5F5F5F5F5F5F5F5F5F5F5F52DF5F5F5F5F5F5F5F5F5F5F5F5F5F5F5F5F5F5F5F5F5F5F5F5F5F5F5F5F5F5F5F5F5F5F5F5F5F5F5F5F5F5F5F5F5F5F5F5F5F5F5F5F5F5F5F5F5F5F5F5F5F5F5F5F5F5F5F5F5F5F5F5F5F5F5F5F5F5F5F5F5F5F5F5F5F5F5F5F5F5F5F5F5F5F5F5F5F5F5F5F5F5
310
F5F5F5F5F5F5F5F5F5F5F5F5F5F5F5F5F5F5F5F5F5F5F5F5F5F5F5F5F5F5F5F52DF5F5F5F5F5F5F5F5F5F5F5F5F5F5F5F5F5F5F5F5E2E2EFE2F5F5F5F5F5F5F5F5F5F5F5F5F5F5F5F5F5F5F5F52DF5F5F5F5F5F5F5F5F5F5F5F5F5F5F5F5F5F5F5F5F5F5F5F5F5F5F5F5F5F5F5F5F5F5F5F5F5F5F5F5F5F5F5F5F5F5F5F5F5
310
F5F5F5F5F5F5F5F5F5F5F5F5F5F5F5F5F5F5F5F5F5F5F5F5F5F5F5F5F5F5F5F5F5F5F5F5F5F5F5F5F5F5F5F5F5F5F5F5F5F5F5F5F5F5F5F5F5F5F5F5F5F5F5F5F5F5F5F5F5F5F5F5F5F5F5F5F5F5F5F5F5F5F5F5F52DF5F5F5F5F5F5F5F5F5F5F5F5F5F5F5F5F5F5F5F5E2E2EFE2F5F5F5F5F5F5F5F5F5F5F5F5F5F5F5F5F5
310
F5F5F52DF5F5F5F5F5F5F5F5F5F5F5F5F5F5F5F5F5F5F5F5F5F5F5F5F5F5F5F5F5F5F5F5F5F5F5F5F5F5F5F5F5F5F5F5F5F5F5F5F5F5F5F5F5F5F5F5F5F5F5F5F5F5F5F5F5F5F5F5F5F5F5F5F5F5F5F5F5F5F5F5F5F5F5F5F5F5F5F5F5F5F5F5F5F5F5F5F5F5F5F5F5F5F5F5F5F5F5F5F5F5F5F5F5F5F5F5F5F5F5F5F5F5F5
310
F5F5F5F5F5F5F5F5F5F5F52DF5F5F5F5F5F5F5F5F5F5F5F5F5F5F5F5F5F5F5F5E2E2EFE2F5F5F5F5F5F5F5F5F5F5F5F5F5F5F5F5F5F5F5F52DF5F5F5F5F5F5F5F5F5F5F5F5F5F5F5F5F5F5F5F5F5F5F5F5F5F5F5F5F5F5F5F5F5F5F5F5F5F5F5F5F5F5F5F5F5F5F5F5F5F5F5F5F5F5F5F5F5F5F5F5F5F5F5F5F5F5F5F5F5F5
310
F5F5F5F5F5F5F5F5F5F5F5F5F5F5F5F5F5F5F5F5F5F5F5F5F5F5F5F5F5F5F5F5F5F5F5F5F5F5F5F5F5F5F5F5F5F5F5F5F5F5F5F5F5F5F5F5F5F5F5F5F5F5F5F52DF5F5F5F5F5F5F5F5F5F5F5F5F5F5F5F5F5F5F5F5E2E2EFE2F5F5F5F5F5F5F5F5F5F5F5F5F5F5F5F5F5F5F5F52DF5F5F5F5F5F5F5F5F5F5F5F5F5F5F5F5F5
310
F5F5F5F5F5F5F5F5F5F5F5F5F5F5F5F5F5F5F5F5F5F5F5F5F5F5F5F5F5F5F5F5F5F5F5F5F5F5F5F5F5F5F5F5F5F5F5F5F5F5F5F5F5F5F5F5F5F5F5F5F5F5F5F5F5F5F5F5F5F5F5F5F5F5F5F5F5F5F5F5F5F5F5F5F5F5F5F5F5F5F5F5F5F5F5F5F5F5F5F5F5F5F5F5F5F5F5F5F5F5F5F5F5F5F5F5F52DF5F5F5F5F5F5F5F5F5
310
F5F5F5F5F5F5F5F5F5F5F5E2E2EFE2F5F5F5E2F5F5F5F5F5F5F5F5F5F5F5F5F5F5F5F52DF5F5F5F5F5F5F5F5F5F5F5F5F5F5F5F5F5F5F5F5F5F5F5F5F5F5F5F5F5F5F5F5F5F5F5F5F5F5F5F5F5F5F5F5F5F5F5F5F5F5F5F5F5F5F5F5F5F5F5F5F5F5F5F5F5F5F5F5F5F5F5F5F5F5F5F5F5F5F5F5F5F5F5F5F5F5F5F5F5F5F5
310
F5F5F5F5F5F5F5F5F5F5F5F5F5F5F5F5F5F5F5F5F5F5F5F5F5F5F5F5F5F5F5F5F5F5F5F5F5F5F5F5F5F5F52DF5F5F5F5F5F5F5F5F5F5F5F5F5F5F5F5E2F5F5F5E2E2EFE2F5F5F5E2F5F5F5F5F5F5F5F5F5F5F5F5F5F5F5F52DF5F5F5F5F5F5F5F5F5F5F5F5F5F5F5F5F5F5F5F5F5F5F5F5F5F5F5F5F5F5F5F5F5F5F5F5F5F5
310
F5F5F5F5F5F5F5F5F5F5F5F5F5F5F5F5F5F5F5F5F5F5F5F5F5F5F5F5F5F5F5F5F5F5F5F5F5F5F5F5F5F5F5F5F5F5F5F5F5F5F5F5F5F5F5F5F5F5F5F5F5F5F5F5F5F5F5F5F5F5F5F5F5F5F5F5F5F5F5F5F5F5F5F5F5F5F5F5F5F5F5F5F5F5F5F52DF5F5F5F5F5F5F5F5F5F5F5F5F5F5F5F5E2F5F5F5E2E2EFE2F5F5F5E2F5F5
310
F5F5F5F5F5F5F5F5F5F5F5F5F5F52DF5F5F5F5F5F5F5F5F5F5F5F5F5F5F5F5F5F5F5F5F5F5F5F5F5F5F5F5F5F5F5F5F5F5F5F5F5F5F5F5F5F5F5F5F5F5F5F5F5F5F5F5F5F5F5F5F5F5F5F5F5F5F5F5F5F5F5F5F5F5F5F5F5F5F5F5F5F5F5F5F5F5F5F5F5F5F5F5F5F5F5F5F5F5F5F5F5F5F5F5F5F5F5F5F5F5F5F5F5F5F5F5
310
F5F5F5F5F5F5F5F5F5F5F5F5F5F5F5F5F5F5F5F5F5F52DF5F5F5F5F5F5F5F5F5F5F5F5F5F5F5F5E2F5F5F5E2E2EFE2F5F5F5E2F5F5F5F5F5F5F5F5F5F5F5F5F5F5F5F52DF5F5F5F5F5F5F5F5F5F5F5F5F5F5F5F5F5F5F5F5F5F5F5F5F5F5F5F5F5F5F5F5F5F5F5F5F5F5F5F5F5F5F5F5F5F5F5F5F5F5F5F5F5F5F5F5F5F5F5
310
F5F5F5F5F5F5F5F5F5F5F5F5F5F5F5F5F5F5F5F5F5F5F5F5F5F5F5F5F5F5F5F5F5F5F5F5F5F5F5F5F5F5F5F5F5F5F5F5F5F5F5F5F5F5F5F5F5F5F5F5F5F5F5F5F5F5F5F5F5F5F5F5F5F5F52DF5F5F5F5F5F5F5F5F5F5F5F5F5F5F5F5E2F5F5F5E2E2EFE2F5F5F5E2F5F5F5F5F5F5F5F5F5F5F5F5F5F5F5F52DF5F5F5F5F5F5
310
F5F5F5F5F5F5F5F5F5F5F5F5F5F5F5F5F5F5F5F5F5F5F5F5F5F5F5F5F5F5F5F5F5F5F5F5F5F5F5F5F5F5F5F5F5F5F5F5F5F5F5F5F5F5F5F5F5F5F5F5F5F5F5F5F5F5F5F5F5F5F5F5F5F5F5F5F5F5F5F5F5F5F5F5F5F5F5F5F5F5F5F5F5F5F5F5F5F5F5F5F5F5F5F5F5F5F5F5F5F5F5F5F5F5F5F5F5F5F5F5F5F5F5F5F5F5F5
310
F52DF5F5F5F5F5F5F5F5F5F5F5F5F5F5F5F5E2F5F5F5E2E2EFE2F5F5F5E2F5F5F5F5F5F5F5F5F5F5F5F5F5F5F5F52DF5F5F5F5F5F5F5F5F5F5F5F5F5F5F5F5F5F5F5F5F5F5F5F5F5F5F5F5F5F5F5F5F5F5F5F5F5F5F5F5F5F5F5F5F5F5F5F5F5F5F5F5F5F5F5F5F5F5F5F5F5F5F5F5F5F5F5F5F5F5F5F5F5F5F5F5F5F5F5F5
310
F5F5F5F5F5F5F5F5F5F5F5F5F5F5F5F5F5F5F5F5F5F5F5F5F5F5F5F5F5F5F5F5F5F5F5F5F5F5F5F5F5F5F5F5F5F5F5F5F5F5F5F5F5F52DF5F5F5F5F5F5F5F5F5F5F5F5F5F5F5F5E2F5F5F5E2E2EFE2F5F5F5E2F5F5F5F5F5F5F5F5F5F5F5F5F5F5F5F52DF5F5F5F5F5F5F5F5F5F5F5F5F5F5F5F5F5F5F5F5F5F5F5F5F5F5F5
310
F5F5F5F5F5F5F5F5F5F5F5F5F5F5F5F5F5F5F5F5F5F5F5F5F5F5F5F5F5F5F5F5F5F5F5F5F5F5F5F5F5F5F5F5F5F5F5F5F5F5F5F5F5F5F5F5F5F5F5F5F5F5F5F5F5F5F5F5F5F5F5F5F5F5F5F5F5F5F5F5F5F5F5F5F5F5F5F5F5F5F5F5F5F5F5F5F5F5F5F5F5F5F5F5F5F5F52DF5F5F5F5F5F5F5F5F5F5F5F5F5F5F5F5E2F5F5
310
F5E2E2EFE2F5F5F5E2F5F5F5F5F5F5F5F5F5F5F5F5F5F5F5F52DF5F5F5F5F5F5F5F5F5F5F5F5F5F5F5F5F5F5F5F5F5F5F5F5F5F5F5F5F5F5F5F5F5F5F5F5F5F5F5F5F5F5F5F5F5F5F5F5F5F5F5F5F5F5F5F5F5F5F5F5F5F5F5F5F5F5F5F5F5F5F5F5F5F5F5F5F5F5F5F5F5F5F5F5F5F5F5F5F5F5F5F5F5F5F5F5F5F5F5F5F5
310
F5F5F5F5F5F5F5F5F5F5F5F5F5F5F5F5F5F5F5F5F5F5F5F5F5F5F5F5F5F5F5F5F52DF5F5F5F5F5F5F5F5F5F5F5F5F5F5F5F5E2F5F5F5E2E2EFE2F5F5F5E2F5F5F5F5F5F5F5F5F5F5F5F5F5F5F5F52DF5F5F5F5F5F5F5F5F5F5F5F5F5F5F5F5F5F5F5F5F5F5F5F5F5F5F5F5F5F5F5F5F5F5F5F5F5F5F5F5F5F5F5F5F5F5F5F5
310
F5F5F5F5F5F5F5F5F5F5F5F5F5F5F5F5F5F5F5F5F5F5F5F5F5F5F5F5F5F5F5F5F5F5F5F5F5F5F5F5F5F5F5F5F5F5F5F5F5F5F5F5F5F5F5F5F5F5F5F5F5F5F5F5F5F5F5F5F5F5F5F5F5F5F5F5F5F5F5F5F5F5F5F5F5F52DF5F5F5F5F5F5F5F5F5F5F5F5F5F5F5F5E2F5F5F5E2E2EFE2F5F5F5E2F5F5F5F5F5F5F5F5F5F5F5F5
310
F5F5F5F52DF5F5F5F5F5F5F5F5F5F5F5F5F5F5F5F5F5F5F5F5F5F5F5F5F5F5F5F5F5F5F5F5F5F5F5F5F5F5F5F5F5F5F5F5F5F5F5F5F5F5F5F5F5F5F5F5F5F5F5F5F5F5F5F5F5F5F5F5F5F5F5F5F5F5F5F5F5F5F5F5F5F5F5F5F5F5F5F5F5F5F5F5F5F5F5F5F5F5F5F5F5F5F5F5F5F5F5F5F5F5F5F5F5F5F5F5F5F5F5F5F5F5
310
F5F5F5F5F5F5F5F5F5F5F5F52DF5F5F5F5F5F5F5F5F5F5F5F5F5F5F5F5E2F5F5F5E2E2EFE2F5F5F5E2F5F5F5F5F5F5F5F5F5F5F5F5F5F5F5F52DF5F5F5F5F5F5F5F5F5F5F5F5F5F5F5F5F5F5F5F5F5F5F5F5F5F5F5F5F5F5F5F5F5F5F5F5F5F5F5F5F5F5F5F5F5F5F5F5F5F5F5F5F5F5F5F5F5F5F5F5F5F5F5F5F5F5F5F5F5
310
F5F5F5F5F5F5F5F5F5F5F5F5F5F5F5F5F5F5F5F5F5F5F5F5F5F5F5F5F5F5F5F5F5F5F5F5F5F5F5F5F5F5F5F5F5F5F5F5F5F5F5F5F5F5F5F5F5F5F5F5F5F5F5F5F52DF5F5F5F5F5F5F5F5F5F5F5F5F5F5F5F5E2F5F5F5E2E2EFE2F5F5F5E2F5F5F5F5F5F5F5F5F5F5F5F5F5F5F5F52DF5F5F5F5F5F5F5F5F5F5F5F5F5F5F5F5
310
F5F5F5F5F5F5F5F5F5F5F5F5F5F5F5F5F5F5F5F5F5F5F5F5F5F5F5F5F5F5F5F5F5F5F5F5F5F5F5F5F5F5F5F5F5F5F5F5F5F5F5F5F5F5F5F5F5F5F5F5F5F5F5F5F5F5F5F5F5F5F5F5F5F5F5F5F5F5F5F5F5F5F5F5F5F5F5F5F5F5F5F5F5F5F5F5F5F5F5F5F5F5F5F5F5F5F5F5F5F5F5F5F5F5F5F5F5F52DF5F5F5F5F5F5F5F5
310
F5F5F5F5F5F5F5F5E2F5F5F5E2E2EFE2F5F5F5E2F5F5F5F5F5F5F5F5F5F5F5F5F5F5F5F52DF5F5F5F5F5F5F5F5F5F5F5F5F5F5F5F5F5F5F5F5F5F5F5F5F5F5F5F5F5F5F5F5F5F5F5F5F5F5F5F5F5F5F5F5F5F5F5F5F5F5F5F5F5F5F5F5F5F5F5F5F5F5F5F5F5F5F5F5F5F5F5F5F5F5F5F5F5F5F5F5F5F5F5F5F5F5F5F5F5F5
310
F5F5F5F5F5F5F5F5F5F5F5F5F5F5F5F5F5F5F5F5F5F5F5F5F5F5F5F5F5F5F5F5F5F5F5F5F5F5F5F5F5F5F5F52DF5F5F5F5F5F5F5F5F5F5F5F5F5F5F5F5E2F5F5F5E2E2EFE2F5F5F5E2F5F5F5F5F5F5F5F5F5F5F5F5F5F5F5F52DF5F5F5F5F5F5F5F5F5F5F5F5F5F5F5F5F5F5F5F5F5F5F5F5F5F5F5F5F5F5F5F5F5F5F5F5F5
310
F5F5F5F5F5F5F5F5F5F5F5F5F5F5F5F5F5F5F5F5F5F5F5F5F5F5F5F5F5F5F5F5F5F5F5F5F5F5F5F5F5F5F5F5F5F5F5F5F5F5F5F5F5F5F5F5F5F5F5F5F5F5F5F5F5F5F5F5F5F5F5F5F5F5F5F5F5F5F5F5F5F5F5F5F5F5F5F5F5F5F5F5F5F5F5F5F52DF5F5F5F5F5F5F5F5F5F5F5F5F5F5F5F5E2F5F5F5E2E2EFE2F5F5F5E2F5
310
F5F5F5F5F5F5F5F5F5F5F5F5F5F5F52DF5F5F5F5F5F5F5F5F5F5F5F5F5F5F5F5F5F5F5F5F5F5F5F5F5F5F5F5F5F5F5F5F5F5F5F5F5F5F5F5F5F5F5F5F5F5F5F5F5F5F5F5F5F5F5F5F5F5F5F5F5F5F5F5F5F5F5F5F5F5F5F5F5F5F5F5F5F5F5F5F5F5F5F5F5F5F5F5F5F5F5F5F5F5F5F5F5F5F5F5F5F5F5F5F5F5F5F5F5F5F5
310
F5F5F5F5F5F5F5F5F5F5F5F5F5F5F5F5F5F5F5F5F5F5F52DF5F5F5F5F5F5F5F5F5F5F5F5F5F5F5F5E2F5F5F5E2E2EFE2F5F5F5E2F5F5F5F5F5F5F5F5F5F5F5F5F5F5F5F52DF5F5F5F5F5F5F5F5F5F5F5F5F5F5F5F5F5F5F5F5F5F5F5F5F5F5F5F5F5F5F5F5F5F5F5F5F5F5F5F5F5F5F5F5F5F5F5F5F5F5F5F5F5F5F5F5F5F5
310
F5F5F5F5F5F5F5F5F5F5F5F5F5F5F5F5F5F5F5F5F5F5F5F5F5F5F5F5F5F5F5F5F5F5F5F5F5F5F5F5F5F5F5F5F5F5F5F5F5F5F5F5F5F5F5F5F5F5F5F5F5F5F5F5F5F5F5F5F5F5F5F5F5F5F5F52DF5F5F5F5F5F5F5F5F5F5F5F5F5F5F5F5E2F5F5F5E2E2EFE2F5F5F5E2F5F5F5F5F5F5F5F5F5F5F5F5F5F5F5F52DF5F5F5F5F5
310
F5F5F5F5F5F5F5F5F5F5F5F5F5F5F5F5F5F5F5F5F5F5F5F5F5F5F5F5F5F5F5F5F5F5F5F5F5F5F5F5F5F5F5F5F5F5F5F5F5F5F5F5F5F5F5F5F5F5F5F5F5F5F5F5F5F5F5F5F5F5F5F5F5F5F5F5F5F5F5F5F5F5F5F5F5F5F5F5F5F5F5F5F5F5F5F5F5F5F5F5F5F5F5F5F5F5F5F5F5F5F5F5F5F5F5F5F5F5F5F5F5F5F5F5F5F5F5
310
F5F52DF5F5F5F5F5F5F5F5F5F5F5F5F5F5F5F5E2F5F5F5E2E2EFE2F5F5F5F5F5F5F5F5F5F5F5F5F5F5F5F5F5F5F5F52DF5F5F5F5F5F5F5F5F5F5F5F5F5F5F5F5F5F5F5F5F5F5F5F5F5F5F5F5F5F5F5F5F5F5F5F5F5F5F5F5F5F5F5F5F5F5F5F5F5F5F5F5F5F5F5F5F5F5F5F5F5F5F5F5F5F5F5F5F5F5F5F5F5F5F5F5F5F5F5
310
F5F5F5F5F5F5F5F5F5F5F5F5F5F5F5F5F5F5F5F5F5F5F5F5F5F5F5F5F5F5F5F5F5F5F5F5F5F5F5F5F5F5F5F5F5F5F5F5F5F5F5F5F5F5F52DF5F5F5F5F5F5F5F5F5F5F5F5F5F5F5F5F5F5F5F5E2E2EFE2F5F5F5F5F5F5F5F5F5F5F5F5F5F5F5F5F5F5F5F52DF5F5F5F5F5F5F5F5F5F5F5F5F5F5F5F5F5F5F5F5F5F5F5F5F5F5
310
F5F5F5F5F5F5F5F5F5F5F5F5F5F5F5F5F5F5F5F5F5F5F5F5F5F5F5F5F5F5F5F5F5F5F5F5F5F5F5F5F5F5F5F5F5F5F5F5F5F5F5F5F5F5F5F5F5F5F5F5F5F5F5F5F5F5F5F5F5F5F5F5F5F5F5F5F5F5F5F5F5F5F5F5F5F5F5F5F5F5F5F5F5F5F5F5F5F5F5F5F5F5F5F5F5F5F5F52DF5F5F5F5F5F5F5F5F5F5F5F5F5F5F5F5F5F5
310
F5F5E2E2EFE2F5F5F5F5F5F5F5F5F5F5F5F5F5F5F5F5F5F5F5F52DF5F5F5F5F5F5F5F5F5F5F5F5F5F5F5F5F5F5F5F5F5F5F5F5F5F5F5F5F5F5F5F5F5F5F5F5F5F5F5F5F5F5F5F5F5F5F5F5F5F5F5F5F5F5F5F5F5F5F5F5F5F5F5F5F5F5F5F5F5F5F5F5F5F5F5F5F5F5F5F5F5F5F5F5F5F5F5F5F5F5F5F5F5F5F5F5F5F5F5F5
310
F5F5F5F5F5F5F5F5F5F5F5F5F5F5F5F5F5F5F5F5F5F5F5F5F5F5F5F5F5F5F5F5F5F52DF5F5F5F5F5F5F5F5F5F5F5F5F5F5F5F5F5F5F5F5E2E2EFE2F5F5F5F5F5F5F5F5F5F5F5F5F5F5F5F5F5F5F5F52DF5F5F5F5F5F5F5F5F5F5F5F5F5F5F5F5F5F5F5F5F5F5F5F5F5F5F5F5F5F5F5F5F5F5F5F5F5F5F5F5F5F5F5F5F5F5F5
310
F5F5F5F5F5F5F5F5F5F5F5F5F5F5F5F5F5F5F5F5F5F5F5F5F5F5F5F5F5F5F5F5F5F5F5F5F5F5F5F5F5F5F5F5F5F5F5F5F5F5F5F5F5F5F5F5F5F5F5F5F5F5F5F5F5F5F5F5F5F5F5F5F5F5F5F5F5F5F5F5F5F5F5F5F5F5F52DF5F5F5F5F5F5F5F5F5F5F5F5F5F5F5F5F5F5F5F5E2E2EFE2F5F5F5F5F5F5F5F5F5F5F5F5F5F5F5
310
F5F5F5F5F52D2D2D2D2D2D2D2D2D2D2D2D2D2D2D2D2D2D2D2D2D2D2D2D2D2D2D2D2D2D2D2D2D2D2D2D2D2D2D2D2D2D2D2D2D2D2D2D2D2D2D2D2D2D2D2D2D2D2D2D2D2D2D2D2D2D2D2D2D2D2D2D2D2D2D2D2D2D2D2D2D2D2D2D2D2D2D2D2D2D2D2D2D2D2D2D2D2D2D2D2D2D2D2D2D2D2D2D2D2D2D2D2D2D2D2D2D2D2D2D2D2D
310
2D2D2D2D2D2D2D2D2D2D2D2D2D2DF5F5F5F5F5F5F5F5F5F5F5F5F5F5F5F5F5F5F5F5E2E2EFE2F5F5F5F5F5F5F5F5F5F5F5F5F5F5F5F5F5F5F5F5F5F5F5F5F5F5F5F5F5F5F5F5F5F5F5F5F5F5F5F5F5F5F5F5F5F5F5F5F5F5F5F5F5F5F5F5F5F5F5F5F5F5F5F5F5F5F5F5F5F5F5F5F5F5F5F5F5F5F5F5F5F5F5F5F5F5F5F5F5
310
F5F5F5F5F5F5F5F5F5F5F5F5F5F5F5F5F5F5F5F5F5F5F5F5F5F5F5F5F5F5F5F5F5F5F5F5F5F5F5F5F5F5F5F5F5F5F5F5F5F5F5F5F5F5F5F5F5F5F5F5F5F5F5F5F5F5F5F5F5F5F5F5F5F5F5F5F5F5F5F5F5F5F5F5F5F5F5E2E2EFE2F5F5F5F5F5F5F5F5F5F5F5F5F5F5F5F5F5F5F5F5F5F5F5F5F5F5F5F5F5F5F5F5F5F5F5F5
310
F5F5F5F5F5F5F5F5F5F5F5F5F5F5F5F5F5F5F5F5F5F5F5F5F5F5F5F5F5F5F5F5F5F5F5F5F5F5F5F5F5F5F5F5F5F5F5F5F5F5F5F5F5F5F5F5F5F5F5F5F5F5F5F5F5F5F5F5F5F5F5F5F5F5F5F5F5F5F5F5F5F5F5F5F5F5F5F5F5F5F5F5F5F5F5F5F5F5F5F5F5F5F5F5F5F5F5F5F5F5F5F5F5F5F5F5F5F5F5F5F5F5F5F5F5F5F5
310
F5F5F5F5F5F5F5F5F5F5F5F5F5E2E2EFE2F5F5F5F5F5F5F5F5F5F5F5F5F5F5F5F5F5F5F5F5F5F5F5F5F5F5F5F5F5F5F5F5F5F5F5F5F5F5F5F5F5F5F5F5F5F5F5F5F5F5F5F5F5F5F5F5F5F5F5F5F5F5F5F5F5F5F5F5F5F5F5F5F5F5F5F5F5F5F5F5F5F5F5F5F5F5F5F5F5F5F5F5F5F5F5F5F5F5F5F5F5F5F5F5F5F5F5F5F5F5
310
F5F5F5F5F5F5F5F5F5F5F5F5F5F5F5F5F5F5F5F5F5F5F5F5F5F5F5F5F5F5F5F5F5F5F5F5F5F5F5F5F5F5F5F5F5F5F5F5F5F5F5F5F5F5F5F5F5F5F5F5F5F5F5F5F5F5E2E2EFE2F5F5F5F5F5F5F5F5F5F5F5F5F5F5F5F5F5F5F5F5F5F5F5F5F5F5F5F5F5F5F5F5F5F5F5F5F5F5F5F5F5F5F5F5F5F5F5F5F5F5F5F5F5F5F5F5F5
310
F5F5F5F5F5F5F5F5F5F5F5F5F5F5F5F5F5F5F5F5F5F5F5F5F5F5F5F5F5F5F5F5F5F5F5F5F5F5F5F5F5F5F5F5F5F5F5F5F5F5F5F5F5F5F5F5F5F5F5F5F5F5F5F5F5F5F5F5F5F5F5F5F5F5F5F5F5F5F5F5F5F5F5F5F5F5F5F5F5F5F5F5F5F5F5F5F5F5F5F5F5F5F5F5F5F5F5F5F5F5F5F5F5F5F5F5F5F5F5E2E2EFE2F5F5F5E2
310
F5F5F5F5F5F5F5F5F5F5F5F5F5F5F5F5F5F5F5F5F5F5F5F5F5F5F5F5F5F5F5F5F5F5F5F5F5F5F5F5F5F5F5F5F5F5F5F5F5F5F5F5F5F5F5F5F5F5F5F5F5F5F5F5F5F5F5F5F5F5F5F5F5F5F5F5F5F5F5F5F5F5F5F5F5F5F5F5F5F5F5F5F5F5F5F5F5F5F5F5F5F5F5F5F5F5F5F5F5F5F5F5F5F5F5F5F5F5F5F5F5F5F5F5F5F5F5
310
F5F5F5F5F5F5F5F5F5F5F5F5F5F5F5F5F5F5F5F5F5F5F5F5F5F5F5F5F5F5F5F5F5F5F5F5F5F5F5F5F5E2F5F5F5E2E2EFE2F5F5F5E2F5F5F5F5F5F5F5F5F5F5F5F5F5F5F5F5F5F5F5F5F5F5F5F5F5F5F5F5F5F5F5F5F5F5F5F5F5F5F5F5F5F5F5F5F5F5F5F5F5F5F5F5F5F5F5F5F5F5F5F5F5F5F5F5F5F5F5F5F5F5F5F5F5F5
310
F5F5F5F5F5F5F5F5F5F5F5F5F5F5F5F5F5F5F5F5F5F5F5F5F5F5F5F5F5F5F5F5F5F5F5F5F5F5F5F5F5F5F5F5F5F5F5F5F5F5F5F5F5F5F5F5F5F5F5F5F5F5F5F5F5F5F5F5F5F5F5F5F5F5F5F5F5F5F5F5F5F5F5F5F5F5F5F5F5F5F5F5F5F5E2F5F5F5E2E2EFE2F5F5F5E2F5F5F5F5F5F5F5F5F5F5F5F5F5F5F5F5F5F5F5F5F5
310
F5F5F5F5F5F5F5F5F5F5F5F5F5F5F5F5F5F5F5F5F5F5F5F5F5F5F5F5F5F5F5F5F5F5F5F5F5F5F5F5F5F5F5F5F5F5F5F5F5F5F5F5F5F5F5F5F5F5F5F5F5F5F5F5F5F5F5F5F5F5F5F5F5F5F5F5F5F5F5F5F5F5F5F5F5F5F5F5F5F5F5F5F5F5F5F5F5F5F5F5F5F5F5F5F5F5F5F5F5F5F5F5F5F5F5F5F5F5F5F5F5F5F5F5F5F5F5
310
F5F5F5F5F5F5F5F5F5F5F5F5F5F5F5F5F5F5F5F5E2F5F5F5E2E2EFE2F5F5F5E2F5F5F5F5F5F5F5F5F5F5F5F5F5F5F5F5F5F5F5F5F5F5F5F5F5F5F5F5F5F5F5F5F5F5F5F5F5F5F5F5F5F5F5F5F5F5F5F5F5F5F5F5F5F5F5F5F5F5F5F5F5F5F5F5F5F5F5F5F5F5F5F5F5F5F5F5F5F5F5F5F5F5F5F5F5F5F5F5F5F5F5F5F5F5F5
310
F5F5F5F5F5F5F5F5F5F5F5F5F5F5F5F5F5F5F5F5F5F5F5F5F5F5F5F5F5F5F5F5F5F5F5F5F5F5F5F5F5F5F5F5F5F5F5F5F5F5F5F5F5F5F5F5F5F5F5F5F5F5F5F5F5F5F5F5F5F5F5F5F5E2F5F5F5E2E2EFE2F5F5F5E2F5F5F5F5F5F5F5F5F5F5F5F5F5F5F5F5F5F5F5F5F5F5F5F5F5F5F5F5F5F5F5F5F5F5F5F5F5F5F5F5F5F5
310
F5F5F5F5F5F5F5F5F5F5F5F5F5F5F5F5F5F5F5F5F5F5F5F5F5F5F5F5F5F5F5F5F5F5F5F5F5F5F5F5F5F5F5F5F5F5F5F5F5F5F5F5F5F5F5F5F5F5F5F5F5F5F5F5F5F5F5F5F5F5F5F5F5F5F5F5F5F5F5F5F5F5F5F5F5F5F5F5F5F5F5F5F5F5F5F5F5F5F5F5F5F5F5F5F5F5F5F5F5F5F5F5F5F5F5F5F5F5F5F5F5F5F5F5F5F5E2
310
F5F5F5E2E2EFE2F5F5F5E2F5F5F5F5F5F5F5F5F5F5F5F5F5F5F5F5F5F5F5F5F5F5F5F5F5F5F5F5F5F5F5F5F5F5F5F5F5F5F5F5F5F5F5F5F5F5F5F5F5F5F5F5F5F5F5F5F5F5F5F5F5F5F5F5F5F5F5F5F5F5F5F5F5F5F5F5F5F5F5F5F5F5F5F5F5F5F5F5F5F5F5F5F5F5F5F5F5F5F5F5F5F5F5F5F5F5F5F5F5F5F5F5F5F5F5F5
310
F5F5F5F5F5F5F5F5F5F5F5F5F5F5F5F5F5F5F5F5F5F5F5F5F5F5F5F5F5F5F5F5F5F5F5F5F5F5F5F5F5F5F5F5F5F5F5F5F5F5F5F5E2F5F5F5E2E2EFE2F5F5F5E2F5F5F5F5F5F5F5F5F5F5F5F5F5F5F5F5F5F5F5F5F5F5F5F5F5F5F5F5F5F5F5F5F5F5F5F5F5F5F5F5F5F5F5F5F5F5F5F5F5F5F5F5F5F5F5F5F5F5F5F5F5F5F5
310
F5F5F5F5F5F5F5F5F5F5F5F5F5F5F5F5F5F5F5F5F5F5F5F5F5F5F5F5F5F5F5F5F5F5F5F5F5F5F5F5F5F5F5F5F5F5F5F5F5F5F5F5F5F5F5F5F5F5F5F5F5F5F5F5F5F5F5F5F5F5F5F5F5F5F5F5F5F5F5F5F5F5F5F5F5F5F5F5F5F5F5F5F5F5F5F5F5F5F5F5F5F5F5F5F5E2F5F5F5E2E2EFE2F5F5F5E2F5F5F5F5F5F5F5F5F5F5
310
F5F5F5F5F5F5F5F5F5F5F5F5F5F5F5F5F5F5F5F5F5F5F5F5F5F5F5F5F5F5F5F5F5F5F5F5F5F5F5F5F5F5F5F5F5F5F5F5F5F5F5F5F5F5F5F5F5F5F5F5F5F5F5F5F5F5F5F5F5F5F5F5F5F5F5F5F5F5F5F5F5F5F5F5F5F5F5F5F5F5F5F5F5F5F5F5F5F5F5F5F5F5F5F5F5F5F5F5F5F5F5F5F5F5F5F5F5F5F5F5F5F5F5F5F5F5F5
310
F5F5F5F5F5F5F5F5F5F5F5F5F5F5F5F5F5F5F5F5F5F5F5F5F5F5F5F5F5F5F5E2F5F5F5E2E2EFE2F5F5F5E2E2E2E2E2E2E2E2F5F5F5F5F5F5F5F5F5E2E2E2E2E2E2E2E2E2E2E2E2E2E2E2F5F5F5F5F5F5F5F5F5E2E2E2E2E2E2E2E2E2E2E2E2E2E2E2E2F5F5F5F5F5F5F5F5E2E2E2E2E2E2E2E2E2E2E2E2E2E2E2E2F5F5F5F5
310
F5F5F5F5E2E2E2E2E2E2E2E2E2E2E2E2E2E2E2E2F5F5F5F5F5F5F5F5E2E2E2E2E2E2E2E2E2E2E2E2E2E2E2E2F5F5F5F5F5F5F5F5F5E2E2E2E2E2E2E2E2E2E2E2E2E2E2E2F5F5F5F5F5F5F5F5F5E2E2E2E2E2E2E2E2F5F5F5E2E2EFE2F5F5F5F5F5F5F5F5F5F5F5F5F5F5F5F5F5F5F5F5F5F5F5F5F5F5F5F5F5F5F5F5F5F5F5
310
F5F5F5F5F5F5F5F5F5F5F5F5F5F5F5F5F5F5F5F5F5F5F5F5F5F5F5F5F5F5F5F5F5F5F5F5F5F5F5F5F5F5F5F5F5F5F5F5F5F5F5F5F5F5F5F5F5F5F5F5F5F5F5F5F5F5F5F5F5F5F5F5F5F5F5F5F5F5F5F5F5F5F5F5F5F5F5F5F5F5F5F5F5F5F5F5F5F5F5F5F5F5F5F5F5F5F5F5F5F5F5F5F5F5F5F5F5F5F5F5F5F5F5F5F5F5F5
310
F5F5F5F5F5F5F5F5F5F5F5F5F5F5E2E2EFE2F5F5F5F5F5F5F5F5F5F5F5F5F5F5F5F5F5F5F5F5F5F5F5F5F5F5F5F5F5F5F5F5F5F5F5F5F5F5F5F5F5F5F5F5F5F5F5F5F5F5F5F5F5F5F5F5F5F5F5F5F5F5F5F5F5F5F5F5F5F5F5F5F5F5F5F5F5F5F5F5F5F5F5F5F5F5F5F5F5F5F5F5F5F5F5F5F5F5F5F5F5F5F5F5F5F5F5F5F5
310
F5F5F5F5F5F5F5F5F5F5F5F5F5F5F5F5F5F5F5F5F5F5F5F5F5F5F5F5F5F5F5F5F5F5F5F5F5F5F5F5F5F5F5F5F5F5F5F5F5F5F5F5F5F5F5F5F5F5F5F5F5F5F5F5F5F5F5E2EFEFE2F5F5F5F5F5F5F5F5F5F5F5F5F5F5F5F5F5F5F5F5F5F5F5F5F5F5F5F5F5F5F5F5F5F5F5F5F5F5F5F5F5F5F5F5F5F5F5F5F5F5F5F5F5F5F5F5
310
F5F5F5F5F5F5F5F5F5F5F5F5F5F5F5F5F5F5F5F5F5F5F5F5F5F5F5F5F5F5F5F5F5F5F5F5F5F5F5F5F5F5F5F5F5F5F5F5F5F5F5F5F5F5F5F5F5F5F5F5F5F5F5F5F5F5F5F5F5F5F5F5F5F5F5F5F5F5F5F5F5F5F5F5F5F5F5F5F5F5F5F5F5F5F5F5F5F5F5F5F5F5F5F5F5F5F5F5F5F5F5F5F5F5F5F5F5F5F5F5E2EFEFE2E2E2E2
310
E2E2E2E2E2E2E2E2E2E2E2E2E2E2E2E2E2E2E2E2E2E2E2E2E2E2E2E2E2E2E2E2E2E2E2E2E2E2E2E2E2E2E2E2E2E2E2E2E2E2E2E2E2E2E2E2E2E2E2E2E2E2E2E2E2E2E2E2E2E2E2E2E2E2E2E2E2E2E2E2E2E2E2E2E2E2E2E2E2E2E2E2E2E2E2E2E2E2E2E2E2E2E2E2E2E2E2E2E2E2E2E2E2E2E2E2E2E2E2E2E2E2E2E2E2E2E2
310
E2E2E2E2E2E2E2E2E2E2E2E2E2E2E2E2E2E2E2E2E2E2E2E2E2E2E2E2E2E2E2E2E2E2E2E2E2E2E2E2E2E2E2E2E2E2E2EFEF
  0
ENDSEC
  0
EOF
