  0
SECTION
  2
HEADER
  9
$ACADVER
  1
AC1015
  9
$ACADMAINTVER
 70
     6
  9
$DWGCODEPAGE
  3
ANSI_932
  9
$INSBASE
 10
0.0
 20
0.0
 30
0.0
  9
$EXTMIN
 10
16.48778772715153
 20
-6356.460973173736
 30
-0.0000000000000047
  9
$EXTMAX
 10
107.4877877271515
 20
-6259.133938312811
 30
0.0
  9
$LIMMIN
 10
0.0
 20
0.0
  9
$LIMMAX
 10
420.0
 20
297.0
  9
$ORTHOMODE
 70
     0
  9
$REGENMODE
 70
     1
  9
$FILLMODE
 70
     1
  9
$QTEXTMODE
 70
     0
  9
$MIRRTEXT
 70
     1
  9
$LTSCALE
 40
5.0
  9
$ATTMODE
 70
     0
  9
$TEXTSIZE
 40
3.0
  9
$TRACEWID
 40
1.0
  9
$TEXTSTYLE
  7
STANDARD
  9
$CLAYER
  8
0
  9
$CELTYPE
  6
BYLAYER
  9
$CECOLOR
 62
   256
  9
$CELTSCALE
 40
1.0
  9
$DISPSILH
 70
     0
  9
$DIMSCALE
 40
1.0
  9
$DIMASZ
 40
2.5
  9
$DIMEXO
 40
1.5
  9
$DIMDLI
 40
7.0
  9
$DIMRND
 40
0.0
  9
$DIMDLE
 40
0.0
  9
$DIMEXE
 40
1.0
  9
$DIMTP
 40
0.0
  9
$DIMTM
 40
0.0
  9
$DIMTXT
 40
3.0
  9
$DIMCEN
 40
0.0
  9
$DIMTSZ
 40
0.0
  9
$DIMTOL
 70
     0
  9
$DIMLIM
 70
     0
  9
$DIMTIH
 70
     0
  9
$DIMTOH
 70
     0
  9
$DIMSE1
 70
     0
  9
$DIMSE2
 70
     0
  9
$DIMTAD
 70
     3
  9
$DIMZIN
 70
     8
  9
$DIMBLK
  1
OPEN30
  9
$DIMASO
 70
     1
  9
$DIMSHO
 70
     0
  9
$DIMPOST
  1

  9
$DIMAPOST
  1

  9
$DIMALT
 70
     0
  9
$DIMALTD
 70
     0
  9
$DIMALTF
 40
25.4
  9
$DIMLFAC
 40
1.0
  9
$DIMTOFL
 70
     1
  9
$DIMTVP
 40
0.0
  9
$DIMTIX
 70
     0
  9
$DIMSOXD
 70
     0
  9
$DIMSAH
 70
     0
  9
$DIMBLK1
  1

  9
$DIMBLK2
  1

  9
$DIMSTYLE
  2
STANDARD
  9
$DIMCLRD
 70
     8
  9
$DIMCLRE
 70
     8
  9
$DIMCLRT
 70
   256
  9
$DIMTFAC
 40
0.6
  9
$DIMGAP
 40
1.0
  9
$DIMJUST
 70
     0
  9
$DIMSD1
 70
     0
  9
$DIMSD2
 70
     0
  9
$DIMTOLJ
 70
     1
  9
$DIMTZIN
 70
     0
  9
$DIMALTZ
 70
     0
  9
$DIMALTTZ
 70
     0
  9
$DIMUPT
 70
     0
  9
$DIMDEC
 70
     3
  9
$DIMTDEC
 70
     3
  9
$DIMALTU
 70
     2
  9
$DIMALTTD
 70
     0
  9
$DIMTXSTY
  7
STANDARD
  9
$DIMAUNIT
 70
     0
  9
$DIMADEC
 70
     3
  9
$DIMALTRND
 40
0.0
  9
$DIMAZIN
 70
     2
  9
$DIMDSEP
 70
    46
  9
$DIMATFIT
 70
     0
  9
$DIMFRAC
 70
     0
  9
$DIMLDRBLK
  1
OPEN30
  9
$DIMLUNIT
 70
     2
  9
$DIMLWD
 70
    -2
  9
$DIMLWE
 70
    -1
  9
$DIMTMOVE
 70
     0
  9
$LUNITS
 70
     2
  9
$LUPREC
 70
     2
  9
$SKETCHINC
 40
0.1
  9
$FILLETRAD
 40
23.0
  9
$AUNITS
 70
     0
  9
$AUPREC
 70
     1
  9
$MENU
  1
FM
  9
$ELEVATION
 40
0.0
  9
$PELEVATION
 40
0.0
  9
$THICKNESS
 40
0.0
  9
$LIMCHECK
 70
     0
  9
$CHAMFERA
 40
0.0
  9
$CHAMFERB
 40
0.0
  9
$CHAMFERC
 40
0.0
  9
$CHAMFERD
 40
0.0
  9
$SKPOLY
 70
     0
  9
$TDCREATE
 40
2448636.619629618
  9
$TDUCREATE
 40
2448636.244629618
  9
$TDUPDATE
 40
2458075.502606389
  9
$TDUUPDATE
 40
2458075.127606389
  9
$TDINDWG
 40
103.0674989468
  9
$TDUSRTIMER
 40
2458075.127495313
  9
$USRTIMER
 70
     1
  9
$ANGBASE
 50
0.0
  9
$ANGDIR
 70
     0
  9
$PDMODE
 70
     3
  9
$PDSIZE
 40
0.0
  9
$PLINEWID
 40
0.0
  9
$SPLFRAME
 70
     0
  9
$SPLINETYPE
 70
     6
  9
$SPLINESEGS
 70
     8
  9
$HANDSEED
  5
3A5902
  9
$SURFTAB1
 70
     6
  9
$SURFTAB2
 70
     6
  9
$SURFTYPE
 70
     6
  9
$SURFU
 70
     6
  9
$SURFV
 70
     6
  9
$UCSBASE
  2

  9
$UCSNAME
  2

  9
$UCSORG
 10
0.0
 20
0.0
 30
0.0
  9
$UCSXDIR
 10
1.0
 20
0.0
 30
0.0
  9
$UCSYDIR
 10
0.0
 20
1.0
 30
0.0
  9
$UCSORTHOREF
  2

  9
$UCSORTHOVIEW
 70
     0
  9
$UCSORGTOP
 10
0.0
 20
0.0
 30
0.0
  9
$UCSORGBOTTOM
 10
0.0
 20
0.0
 30
0.0
  9
$UCSORGLEFT
 10
0.0
 20
0.0
 30
0.0
  9
$UCSORGRIGHT
 10
0.0
 20
0.0
 30
0.0
  9
$UCSORGFRONT
 10
0.0
 20
0.0
 30
0.0
  9
$UCSORGBACK
 10
0.0
 20
0.0
 30
0.0
  9
$PUCSBASE
  2

  9
$PUCSNAME
  2

  9
$PUCSORG
 10
0.0
 20
0.0
 30
0.0
  9
$PUCSXDIR
 10
1.0
 20
0.0
 30
0.0
  9
$PUCSYDIR
 10
0.0
 20
1.0
 30
0.0
  9
$PUCSORTHOREF
  2

  9
$PUCSORTHOVIEW
 70
     0
  9
$PUCSORGTOP
 10
0.0
 20
0.0
 30
0.0
  9
$PUCSORGBOTTOM
 10
0.0
 20
0.0
 30
0.0
  9
$PUCSORGLEFT
 10
0.0
 20
0.0
 30
0.0
  9
$PUCSORGRIGHT
 10
0.0
 20
0.0
 30
0.0
  9
$PUCSORGFRONT
 10
0.0
 20
0.0
 30
0.0
  9
$PUCSORGBACK
 10
0.0
 20
0.0
 30
0.0
  9
$USERI1
 70
     0
  9
$USERI2
 70
     0
  9
$USERI3
 70
     0
  9
$USERI4
 70
     0
  9
$USERI5
 70
     0
  9
$USERR1
 40
0.0
  9
$USERR2
 40
0.0
  9
$USERR3
 40
0.0
  9
$USERR4
 40
0.0
  9
$USERR5
 40
0.0
  9
$WORLDVIEW
 70
     0
  9
$SHADEDGE
 70
     3
  9
$SHADEDIF
 70
    70
  9
$TILEMODE
 70
     1
  9
$MAXACTVP
 70
    16
  9
$PINSBASE
 10
0.0
 20
0.0
 30
0.0
  9
$PLIMCHECK
 70
     0
  9
$PEXTMIN
 10
1.000000000000000E+20
 20
1.000000000000000E+20
 30
1.000000000000000E+20
  9
$PEXTMAX
 10
-1.000000000000000E+20
 20
-1.000000000000000E+20
 30
-1.000000000000000E+20
  9
$PLIMMIN
 10
0.0
 20
0.0
  9
$PLIMMAX
 10
0.0
 20
0.0
  9
$UNITMODE
 70
     0
  9
$VISRETAIN
 70
     0
  9
$PLINEGEN
 70
     0
  9
$PSLTSCALE
 70
     0
  9
$TREEDEPTH
 70
  3020
  9
$CMLSTYLE
  2
STANDARD
  9
$CMLJUST
 70
     0
  9
$CMLSCALE
 40
1.0
  9
$PROXYGRAPHICS
 70
     1
  9
$MEASUREMENT
 70
     0
  9
$CELWEIGHT
370
    -1
  9
$ENDCAPS
280
     0
  9
$JOINSTYLE
280
     0
  9
$LWDISPLAY
290
     1
  9
$INSUNITS
 70
     0
  9
$HYPERLINKBASE
  1

  9
$STYLESHEET
  1
spax form.ctb
  9
$XEDIT
290
     1
  9
$CEPSNTYPE
380
     0
  9
$PSTYLEMODE
290
     1
  9
$FINGERPRINTGUID
  2
{E5B35D22-A717-11D3-9160-00E0294F7E09}
  9
$VERSIONGUID
  2
{AB21197C-5DB7-4718-8B16-8B620687FFAA}
  9
$EXTNAMES
290
     1
  9
$PSVPSCALE
 40
0.0
  9
$OLESTARTUP
290
     0
  0
ENDSEC
  0
SECTION
  2
CLASSES
  0
CLASS
  1
LWPOLYLINE
  2
AcDbPolyline
  3
ObjectDBX Classes
 90
        0
280
     0
281
     1
  0
CLASS
  1
ACDBDICTIONARYWDFLT
  2
AcDbDictionaryWithDefault
  3
ObjectDBX Classes
 90
        0
280
     0
281
     0
  0
CLASS
  1
ACDBPLACEHOLDER
  2
AcDbPlaceHolder
  3
ObjectDBX Classes
 90
        0
280
     0
281
     0
  0
CLASS
  1
LAYOUT
  2
AcDbLayout
  3
ObjectDBX Classes
 90
        0
280
     0
281
     0
  0
CLASS
  1
DICTIONARYVAR
  2
AcDbDictionaryVar
  3
ObjectDBX Classes
 90
        0
280
     0
281
     0
  0
CLASS
  1
MATERIAL
  2
AcDbMaterial
  3
ObjectDBX Classes
 90
     1153
280
     0
281
     0
  0
CLASS
  1
SORTENTSTABLE
  2
AcDbSortentsTable
  3
ObjectDBX Classes
 90
        0
280
     0
281
     0
  0
CLASS
  1
VISUALSTYLE
  2
AcDbVisualStyle
  3
ObjectDBX Classes
 90
     4095
280
     0
281
     0
  0
CLASS
  1
TABLESTYLE
  2
AcDbTableStyle
  3
ObjectDBX Classes
 90
     4095
280
     0
281
     0
  0
CLASS
  1
SCALE
  2
AcDbScale
  3
ObjectDBX Classes
 90
     1153
280
     0
281
     0
  0
CLASS
  1
MLEADERSTYLE
  2
AcDbMLeaderStyle
  3
ACDB_MLEADERSTYLE_CLASS
 90
     4095
280
     0
281
     0
  0
CLASS
  1
CELLSTYLEMAP
  2
AcDbCellStyleMap
  3
ObjectDBX Classes
 90
     1152
280
     0
281
     0
  0
CLASS
  1
MULTILEADER
  2
AcDbMLeader
  3
ACDB_MLEADER_CLASS
 90
     1025
280
     0
281
     1
  0
CLASS
  1
DIMASSOC
  2
AcDbDimAssoc
  3
"AcDbDimAssoc|Product Desc:     AcDim ARX App For Dimension|Company:          Autodesk, Inc.|WEB Address:      www.autodesk.com"
 90
        0
280
     0
281
     0
  0
CLASS
  1
LARGE_RADIAL_DIMENSION
  2
AcDbRadialDimensionLarge
  3
ObjectDBX Classes
 90
     1025
280
     0
281
     1
  0
CLASS
  1
RASTERVARIABLES
  2
AcDbRasterVariables
  3
ISM
 90
        0
280
     0
281
     0
  0
CLASS
  1
SUN
  2
AcDbSun
  3
SCENEOE
 90
     1153
280
     0
281
     0
  0
CLASS
  1
AEC_VARS_DWG_SETUP
  2
AecDbVarsDwgSetup
  3
AecBase60
 90
      129
280
     0
281
     0
  0
CLASS
  1
AEC_DISP_REP_2D_SECTION
  2
AecDbDispRep2dSection
  3
AecBase60
 90
      129
280
     0
281
     0
  0
CLASS
  1
AEC_DISP_PROPS_2D_SECTION
  2
AecDbDispProps2dSection
  3
AecBase60
 90
      129
280
     0
281
     0
  0
CLASS
  1
AEC_DISP_REP_CLIP_VOLUME_MODEL
  2
AecDbDispRepClipVolModel
  3
AecBase60
 90
      129
280
     0
281
     0
  0
CLASS
  1
AEC_DISP_PROPS_CLIP_VOLUME
  2
AecDbDispPropsClipVol
  3
AecBase60
 90
      129
280
     0
281
     0
  0
CLASS
  1
AEC_DISP_REP_CLIP_VOLUME_PLAN
  2
AecDbDispRepClipVolPlan
  3
AecBase60
 90
      129
280
     0
281
     0
  0
CLASS
  1
AEC_DISP_REP_CLIP_VOLUME_RESULT
  2
AecDbDispRepClipVolResult
  3
AecBase60
 90
      129
280
     0
281
     0
  0
CLASS
  1
AEC_DISP_REP_CLIP_VOLUME_RESULT_SUBDIV
  2
AecDbDispRepClipVolResSubDiv
  3
AecBase60
 90
      129
280
     0
281
     0
  0
CLASS
  1
AEC_DISP_PROPS_CLIP_VOLUME_RESULT
  2
AecDbDispPropsClipVolResSubDiv
  3
AecBase60
 90
      129
280
     0
281
     0
  0
CLASS
  1
AEC_DISP_REP_DISPLAYTHEME
  2
AecDbDispRepDisplayTheme
  3
AecBase60
 90
      129
280
     0
281
     0
  0
CLASS
  1
AEC_DISP_PROPS_DISPLAYTHEME
  2
AecDbDispPropsDisplayTheme
  3
AecBase60
 90
      129
280
     0
281
     0
  0
CLASS
  1
AEC_DISP_REP_ENT_REF
  2
AecDbDispRepEntRef
  3
AecBase60
 90
      129
280
     0
281
     0
  0
CLASS
  1
AEC_DISP_PROPS_ENT_REF
  2
AecDbDispPropsEntRef
  3
AecBase60
 90
      129
280
     0
281
     0
  0
CLASS
  1
AEC_DISP_REP_LAYOUT_CURVE
  2
AecDbDispRepLayoutCurve
  3
AecBase60
 90
      129
280
     0
281
     0
  0
CLASS
  1
AEC_DISP_PROPS_LAYOUT_CURVE
  2
AecDbDispPropsLayoutCurve
  3
AecBase60
 90
      129
280
     0
281
     0
  0
CLASS
  1
AEC_DISP_REP_LAYOUT_GRID2D
  2
AecDbDispRepLayoutGrid2d
  3
AecBase60
 90
      129
280
     0
281
     0
  0
CLASS
  1
AEC_DISP_PROPS_LAYOUT_GRID2D
  2
AecDbDispPropsLayoutGrid2d
  3
AecBase60
 90
      129
280
     0
281
     0
  0
CLASS
  1
AEC_DISP_REP_LAYOUT_GRID3D
  2
AecDbDispRepLayoutGrid3d
  3
AecBase60
 90
      129
280
     0
281
     0
  0
CLASS
  1
AEC_DISP_PROPS_LAYOUT_GRID3D
  2
AecDbDispPropsLayoutGrid3d
  3
AecBase60
 90
      129
280
     0
281
     0
  0
CLASS
  1
AEC_DISP_REP_MASKBLOCK_REF
  2
AecDbDispRepMaskBlockRef
  3
AecBase60
 90
      129
280
     0
281
     0
  0
CLASS
  1
AEC_DISP_PROPS_MASKBLOCK
  2
AecDbDispPropsMaskBlock
  3
AecBase60
 90
      129
280
     0
281
     0
  0
CLASS
  1
AEC_DISP_REP_MASKBLOCK_REF_RCP
  2
AecDbDispRepMaskBlockRefRcp
  3
AecArchBase60
 90
      129
280
     0
281
     0
  0
CLASS
  1
AEC_DISP_REP_MASS_ELEM_MODEL
  2
AecDbDispRepMassElemModel
  3
AecBase60
 90
      129
280
     0
281
     0
  0
CLASS
  1
AEC_DISP_PROPS_MASS_ELEM_MODEL
  2
AecDbDispPropsMassElem
  3
AecBase60
 90
      129
280
     0
281
     0
  0
CLASS
  1
AEC_DISP_REP_MASS_ELEM_SCHEM
  2
AecDbDispRepMassElemSchem
  3
AecBase60
 90
      129
280
     0
281
     0
  0
CLASS
  1
AEC_DISPREPAECDBDISPREPMASSELEMPLAN50
  2
AecDbDispRepMassElemPlan50
  3
AecArchDACHBase60
 90
      129
280
     0
281
     0
  0
CLASS
  1
AEC_DISPROPSMASSELEMPLANCOMMON
  2
AecDbDispPropsMassElemPlanCommon
  3
AecArchDACHBase60
 90
      129
280
     0
281
     0
  0
CLASS
  1
AEC_DISPREPAECDBDISPREPMASSELEMPLAN100
  2
AecDbDispRepMassElemPlan100
  3
AecArchDACHBase60
 90
      129
280
     0
281
     0
  0
CLASS
  1
AEC_DISP_REP_MASS_ELEM_RCP
  2
AecDbDispRepMassElemRcp
  3
AecArchBase60
 90
      129
280
     0
281
     0
  0
CLASS
  1
AEC_DISP_REP_MASS_GROUP_MODEL
  2
AecDbDispRepMassGroupModel
  3
AecBase60
 90
      129
280
     0
281
     0
  0
CLASS
  1
AEC_DISP_PROPS_MASS_GROUP
  2
AecDbDispPropsMassGroup
  3
AecBase60
 90
      129
280
     0
281
     0
  0
CLASS
  1
AEC_DISP_REP_MASS_GROUP_PLAN
  2
AecDbDispRepMassGroupPlan
  3
AecBase60
 90
      129
280
     0
281
     0
  0
CLASS
  1
AEC_DISPREPAECDBDISPREPMASSGROUPPLAN50
  2
AecDbDispRepMassGroupPlan50
  3
AecArchDACHBase60
 90
      129
280
     0
281
     0
  0
CLASS
  1
AEC_DISPROPSMASSGROUPPLANCOMMON
  2
AecDbDispPropsMassGroupPlanCommon
  3
AecArchDACHBase60
 90
      129
280
     0
281
     0
  0
CLASS
  1
AEC_DISPREPAECDBDISPREPMASSGROUPPLAN100
  2
AecDbDispRepMassGroupPlan100
  3
AecArchDACHBase60
 90
      129
280
     0
281
     0
  0
CLASS
  1
AEC_DISP_REP_MASS_GROUP_RCP
  2
AecDbDispRepMassGroupRcp
  3
AecArchBase60
 90
      129
280
     0
281
     0
  0
CLASS
  1
AEC_DISP_REP_MVBLOCK_REF
  2
AecDbDispRepMvBlockRef
  3
AecBase60
 90
      129
280
     0
281
     0
  0
CLASS
  1
AEC_DISP_REP_MVBLOCK_REF_MODEL
  2
AecDbDispRepMvBlockRefModel
  3
AecBase60
 90
      129
280
     0
281
     0
  0
CLASS
  1
AEC_AECDBDISPREPMVBLOCKREFPLAN100
  2
AecDbDispRepMvBlockRefPlan100
  3
AecBase60
 90
      129
280
     0
281
     0
  0
CLASS
  1
AEC_AECDBDISPREPMVBLOCKREFPLAN50
  2
AecDbDispRepMvBlockRefPlan50
  3
AecBase60
 90
      129
280
     0
281
     0
  0
CLASS
  1
AEC_DISP_REP_POLYGON_MODEL
  2
AecDbDispRepPolygonModel
  3
AecBase60
 90
      129
280
     0
281
     0
  0
CLASS
  1
AEC_DISP_PROPS_POLYGON_MODEL
  2
AecDbDispPropsPolygonModel
  3
AecBase60
 90
      129
280
     0
281
     0
  0
CLASS
  1
AEC_DISP_REP_POLYGON_TRUECOLOUR
  2
AecDbDispRepPolygonTrueColour
  3
AecBase60
 90
      129
280
     0
281
     0
  0
CLASS
  1
AEC_DISP_PROPS_POLYGON_TRUECOLOUR
  2
AecDbDispPropsPolygonTrueColour
  3
AecBase60
 90
      129
280
     0
281
     0
  0
CLASS
  1
AEC_DISP_REP_SLICE
  2
AecDbDispRepSlice
  3
AecBase60
 90
      129
280
     0
281
     0
  0
CLASS
  1
AEC_DISP_PROPS_SLICE
  2
AecDbDispPropsSlice
  3
AecBase60
 90
      129
280
     0
281
     0
  0
CLASS
  1
AEC_DISP_REP_ANCHOR
  2
AecDbDispRepAnchor
  3
AecBase60
 90
      129
280
     0
281
     0
  0
CLASS
  1
AEC_DISP_REP_ANCHOR_ENT_TO_NODE
  2
AecDbDispRepAnchorEntToNode
  3
AecBase60
 90
      129
280
     0
281
     0
  0
CLASS
  1
AEC_DISP_PROPS_ENT
  2
AecDbDispPropsEnt
  3
AecBase60
 90
      129
280
     0
281
     0
  0
CLASS
  1
AEC_DISP_REP_MATERIAL
  2
AecDbDispRepMaterial
  3
AecBase60
 90
      129
280
     0
281
     0
  0
CLASS
  1
AEC_DISP_PROPS_MATERIAL
  2
AecDbDispPropsMaterial
  3
AecBase60
 90
      129
280
     0
281
     0
  0
CLASS
  1
AEC_DISP_REP_EDITINPLACEPROFILE
  2
AecDbDispRepEditInPlaceProfile
  3
AecBase60
 90
      129
280
     0
281
     0
  0
CLASS
  1
AEC_DISP_PROPS_EDITINPLACEPROFILE_MODEL
  2
AecDbDispPropsEditInPlaceProfile
  3
AecBase60
 90
      129
280
     0
281
     0
  0
ENDSEC
  0
SECTION
  2
TABLES
  0
TABLE
  2
VPORT
  5
8
102
{ACAD_XDICTIONARY
360
38C252
102
}
330
0
100
AcDbSymbolTable
 70
     1
  0
VPORT
  5
3523F0
330
8
100
AcDbSymbolTableRecord
100
AcDbViewportTableRecord
  2
*Active
 70
     0
 10
0.0
 20
0.0
 11
1.0
 21
1.0
 12
61.98778772715152
 22
-6307.797455743274
 13
0.0
 23
0.0
 14
1.0
 24
1.0
 15
20.0
 25
20.0
 16
0.0
 26
0.0
 36
1.0
 17
0.0
 27
0.0
 37
0.0
 40
99.2735755581443
 41
2.262839879154078
 42
50.0
 43
0.0
 44
0.0
 50
0.0
 51
0.0
 71
    16
 72
   100
 73
     1
 74
     0
 75
     0
 76
     0
 77
     0
 78
     0
281
     0
 65
     1
110
0.0
120
0.0
130
0.0
111
1.0
121
0.0
131
0.0
112
0.0
122
1.0
132
0.0
 79
     0
146
0.0
  0
ENDTAB
  0
TABLE
  2
LTYPE
  5
5
330
0
100
AcDbSymbolTable
 70
     1
  0
LTYPE
  5
12
330
5
100
AcDbSymbolTableRecord
100
AcDbLinetypeTableRecord
  2
BYBLOCK
 70
     0
  3

 72
    65
 73
     0
 40
0.0
  0
LTYPE
  5
13
330
5
100
AcDbSymbolTableRecord
100
AcDbLinetypeTableRecord
  2
BYLAYER
 70
     0
  3

 72
    65
 73
     0
 40
0.0
  0
LTYPE
  5
14
330
5
100
AcDbSymbolTableRecord
100
AcDbLinetypeTableRecord
  2
CONTINUOUS
 70
     0
  3
Solid line
 72
    65
 73
     0
 40
0.0
  0
ENDTAB
  0
TABLE
  2
LAYER
  5
2
102
{ACAD_XDICTIONARY
360
559E
102
}
330
0
100
AcDbSymbolTable
 70
     5
  0
LAYER
  5
F
102
{ACAD_XDICTIONARY
360
CD7F
102
}
330
2
100
AcDbSymbolTableRecord
100
AcDbLayerTableRecord
  2
0
 70
     0
 62
     7
  6
CONTINUOUS
370
    -3
390
352
  0
LAYER
  5
36
330
2
100
AcDbSymbolTableRecord
100
AcDbLayerTableRecord
  2
DEFPOINTS
 70
     0
 62
     7
  6
CONTINUOUS
290
     0
370
    -3
390
352
  0
LAYER
  5
2F4
102
{ACAD_XDICTIONARY
360
CD8D
102
}
330
2
100
AcDbSymbolTableRecord
100
AcDbLayerTableRecord
  2
文字
 70
     0
 62
     7
  6
CONTINUOUS
370
    -3
390
352
  0
LAYER
  5
306B15
330
2
100
AcDbSymbolTableRecord
100
AcDbLayerTableRecord
  2
C-SUNPO
 70
     0
 62
     7
  6
CONTINUOUS
370
    -3
390
352
  0
LAYER
  5
31D3CB
330
2
100
AcDbSymbolTableRecord
100
AcDbLayerTableRecord
  2
姿図
 70
     0
 62
     8
  6
CONTINUOUS
370
    -3
390
352
  0
ENDTAB
  0
TABLE
  2
STYLE
  5
3
330
0
100
AcDbSymbolTable
 70
     1
  0
STYLE
  5
10
330
3
100
AcDbSymbolTableRecord
100
AcDbTextStyleTableRecord
  2
STANDARD
 70
     0
 40
0.0
 41
1.0
 50
0.0
 71
     0
 42
3.0
  3
MONOTXT
  4
BIGFONT
  0
ENDTAB
  0
TABLE
  2
VIEW
  5
6
330
0
100
AcDbSymbolTable
 70
     0
  0
ENDTAB
  0
TABLE
  2
UCS
  5
7
330
0
100
AcDbSymbolTable
 70
     0
  0
ENDTAB
  0
TABLE
  2
APPID
  5
9
330
0
100
AcDbSymbolTable
 70
    25
  0
APPID
  5
11
330
9
100
AcDbSymbolTableRecord
100
AcDbRegAppTableRecord
  2
ACAD
 70
     0
  0
APPID
  5
C058
330
9
100
AcDbSymbolTableRecord
100
AcDbRegAppTableRecord
  2
AcAecLayerStandard
 70
     0
  0
APPID
  5
CD77
330
9
100
AcDbSymbolTableRecord
100
AcDbRegAppTableRecord
  2
ACAD_MLEADERVER
 70
     0
  0
APPID
  5
D036
330
9
100
AcDbSymbolTableRecord
100
AcDbRegAppTableRecord
  2
ACAD_PSEXT
 70
     0
  0
APPID
  5
D28E
330
9
100
AcDbSymbolTableRecord
100
AcDbRegAppTableRecord
  2
ACAD_DSTYLE_DIMJAG
 70
     0
  0
APPID
  5
D28F
330
9
100
AcDbSymbolTableRecord
100
AcDbRegAppTableRecord
  2
ACAD_DSTYLE_DIMTALN
 70
     0
  0
APPID
  5
10E35
330
9
100
AcDbSymbolTableRecord
100
AcDbRegAppTableRecord
  2
ACAD_EXEMPT_FROM_CAD_STANDARDS
 70
     0
  0
APPID
  5
36B90
330
9
100
AcDbSymbolTableRecord
100
AcDbRegAppTableRecord
  2
ACAD_DSTYLE_DIMRADIAL_EXTENSION
 70
     0
  0
APPID
  5
4CBB9
330
9
100
AcDbSymbolTableRecord
100
AcDbRegAppTableRecord
  2
WACOM_STRING
 70
     0
  0
APPID
  5
4CBBA
330
9
100
AcDbSymbolTableRecord
100
AcDbRegAppTableRecord
  2
WACOM_DRSYM_ARROW
 70
     0
  0
APPID
  5
83B4C
330
9
100
AcDbSymbolTableRecord
100
AcDbRegAppTableRecord
  2
ACAD_DSTYLE_DIMRADIAL_EXTE
 70
     0
  0
APPID
  5
83B4D
330
9
100
AcDbSymbolTableRecord
100
AcDbRegAppTableRecord
  2
ACAD_DSTYLE_DIMBREAK
 70
     0
  0
APPID
  5
83B4E
330
9
100
AcDbSymbolTableRecord
100
AcDbRegAppTableRecord
  2
ACAD_DSTYLE_DIMARC_LENGTH_
 70
     0
  0
APPID
  5
8B472
330
9
100
AcDbSymbolTableRecord
100
AcDbRegAppTableRecord
  2
LAYER_SCALE
 70
     0
  0
APPID
  5
8B473
330
9
100
AcDbSymbolTableRecord
100
AcDbRegAppTableRecord
  2
KCAD_DIM_EXT
 70
     0
  0
APPID
  5
16ECBA
330
9
100
AcDbSymbolTableRecord
100
AcDbRegAppTableRecord
  2
GENIUS_GENDTOL_13
 70
     0
  0
APPID
  5
23CCFB
330
9
100
AcDbSymbolTableRecord
100
AcDbRegAppTableRecord
  2
AcadAnnotative
 70
     0
  0
APPID
  5
31A28D
330
9
100
AcDbSymbolTableRecord
100
AcDbRegAppTableRecord
  2
ACAD_DSTYLE_DIMFLIPARROW_WHICH_SYMBOL
 70
     0
  0
APPID
  5
35C75E
330
9
100
AcDbSymbolTableRecord
100
AcDbRegAppTableRecord
  2
AcadStringInfo
 70
     0
  0
APPID
  5
35C75F
330
9
100
AcDbSymbolTableRecord
100
AcDbRegAppTableRecord
  2
RAK
 70
     0
  0
APPID
  5
37501B
330
9
100
AcDbSymbolTableRecord
100
AcDbRegAppTableRecord
  2
ACAD_SPLINE_DATA
 70
     0
  0
APPID
  5
37501C
330
9
100
AcDbSymbolTableRecord
100
AcDbRegAppTableRecord
  2
ACAD_SPLINE_DATA2
 70
     0
  0
APPID
  5
37501D
330
9
100
AcDbSymbolTableRecord
100
AcDbRegAppTableRecord
  2
AECBASE
 70
     0
  0
APPID
  5
37501E
330
9
100
AcDbSymbolTableRecord
100
AcDbRegAppTableRecord
  2
AEC_2DSECTION_XDATA
 70
     0
  0
APPID
  5
37501F
330
9
100
AcDbSymbolTableRecord
100
AcDbRegAppTableRecord
  2
AEC_MASSGROUP_XDADA
 70
     0
  0
ENDTAB
  0
TABLE
  2
DIMSTYLE
  5
A
330
0
100
AcDbSymbolTable
 70
     1
100
AcDbDimStyleTable
  0
DIMSTYLE
105
1CC
330
A
100
AcDbSymbolTableRecord
100
AcDbDimStyleTableRecord
  2
STANDARD
 70
     0
 41
2.5
 42
1.5
 43
7.0
 44
1.0
 73
     0
 74
     0
 77
     3
 78
     8
 79
     2
140
3.0
141
0.0
146
0.6
147
1.0
171
     0
172
     1
176
     8
177
     8
271
     3
178
   256
179
     3
271
     3
272
     3
274
     0
289
     0
340
10
341
265D
342
265D
372
    -1
1001
ACAD_DSTYLE_DIMJAG
1070
   388
1040
1.5
1001
ACAD_DSTYLE_DIMTALN
1070
   392
1070
     0
  0
ENDTAB
  0
TABLE
  2
BLOCK_RECORD
  5
1
330
0
100
AcDbSymbolTable
 70
     1
  0
BLOCK_RECORD
  5
18
102
{ACAD_XDICTIONARY
360
D25F
102
}
330
1
100
AcDbSymbolTableRecord
100
AcDbBlockTableRecord
  2
*MODEL_SPACE
340
355
  0
BLOCK_RECORD
  5
15
330
1
100
AcDbSymbolTableRecord
100
AcDbBlockTableRecord
  2
*PAPER_SPACE
340
356
  0
BLOCK_RECORD
  5
265D
330
1
100
AcDbSymbolTableRecord
100
AcDbBlockTableRecord
  2
_OPEN30
340
0
  0
ENDTAB
  0
ENDSEC
  0
SECTION
  2
BLOCKS
  0
BLOCK
  5
39
330
18
100
AcDbEntity
  8
0
100
AcDbBlockBegin
  2
*MODEL_SPACE
 70
     0
 10
0.0
 20
0.0
 30
0.0
  3
*MODEL_SPACE
  1

  0
ENDBLK
  5
3A
330
18
100
AcDbEntity
  8
0
100
AcDbBlockEnd
  0
BLOCK
  5
37
330
15
100
AcDbEntity
 67
     1
  8
0
100
AcDbBlockBegin
  2
*PAPER_SPACE
 70
     0
 10
0.0
 20
0.0
 30
0.0
  3
*PAPER_SPACE
  1

  0
ENDBLK
  5
38
330
15
100
AcDbEntity
 67
     1
  8
0
100
AcDbBlockEnd
  0
BLOCK
  5
265E
330
265D
100
AcDbEntity
  8
0
100
AcDbBlockBegin
  2
_OPEN30
 70
     0
 10
0.0
 20
0.0
 30
0.0
  3
_OPEN30
  1

  0
LINE
  5
265F
330
265D
100
AcDbEntity
  8
0
  6
ByBlock
 62
     0
100
AcDbLine
 10
-1.0
 20
0.26794919
 30
0.0
 11
0.0
 21
0.0
 31
0.0
  0
LINE
  5
2660
330
265D
100
AcDbEntity
  8
0
  6
ByBlock
 62
     0
100
AcDbLine
 10
0.0
 20
0.0
 30
0.0
 11
-1.0
 21
-0.26794919
 31
0.0
  0
LINE
  5
2661
330
265D
100
AcDbEntity
  8
0
  6
ByBlock
 62
     0
100
AcDbLine
 10
0.0
 20
0.0
 30
0.0
 11
-1.0
 21
0.0
 31
0.0
  0
ENDBLK
  5
2662
330
265D
100
AcDbEntity
  8
0
100
AcDbBlockEnd
  0
ENDSEC
  0
SECTION
  2
ENTITIES
  0
MTEXT
  5
8182F
330
18
100
AcDbEntity
  8
0
100
AcDbMText
 10
5598.734167156057
 20
-2635.335630549191
 30
0.0
 40
3.0
 41
0.0
 71
     7
 72
     1
  1
\A1;
 73
     1
 44
1.0
  0
MTEXT
  5
3073B9
330
18
100
AcDbEntity
  8
C-SUNPO
 62
     7
100
AcDbMText
 10
8897.245354628267
 20
-2466.345110988795
 30
0.0
 40
2.0
 41
0.0
 71
     5
 72
     1
  1
\A1;\P\P 
 11
0.9999986675605709
 21
0.0016324451239504
 31
0.0
 73
     1
 44
1.0
  0
LINE
  5
3A493D
330
18
100
AcDbEntity
  8
姿図
100
AcDbLine
 10
60.99443812188664
 20
-6318.680011633727
 30
0.0
 11
60.99580766920546
 21
-6318.666065013037
 31
0.0
  0
LINE
  5
3A493E
330
18
100
AcDbEntity
  8
姿図
100
AcDbLine
 10
58.56521330710558
 20
-6318.427406423874
 30
0.0
 11
58.56384375978676
 21
-6318.441354264183
 31
0.0
  0
SPLINE
  5
3A493F
330
18
100
AcDbEntity
  8
姿図
100
AcDbSpline
210
0.0
220
0.0
230
1.0
 70
     8
 71
     3
 72
    20
 73
    16
 74
     0
 42
0.000000001
 43
0.0000000001
 40
0.0
 40
0.0
 40
0.0
 40
0.0
 40
0.0118965618982789
 40
0.1006687457334189
 40
0.18961236005882
 40
0.2787932961161068
 40
0.3683111963881258
 40
0.4583204790181862
 40
0.5490641198191275
 40
0.6409148382193148
 40
0.7343370855526256
 40
0.817860622278574
 40
0.890259761834206
 40
0.9555391983684298
 40
1.0
 40
1.0
 40
1.0
 40
1.0
 10
84.35994906582914
 20
-6331.889121603485
 30
0.0
 10
84.40027442471892
 20
-6331.881810970369
 30
0.0
 10
84.7415077436718
 20
-6331.819948368996
 30
0.0
 10
85.3201393271677
 20
-6331.697580651105
 30
0.0
 10
86.08936973402389
 20
-6331.521820915053
 30
0.0
 10
86.78251924779705
 20
-6331.339372649378
 30
0.0
 10
87.40689626408579
 20
-6331.150796908471
 30
0.0
 10
87.95975413025253
 20
-6330.955205827006
 30
0.0
 10
88.44185060455689
 20
-6330.751079502384
 30
0.0
 10
88.85396316883777
 20
-6330.535059260872
 30
0.0
 10
89.18228837507722
 20
-6330.310167176354
 30
0.0
 10
89.4259594848809
 20
-6330.077768628038
 30
0.0
 10
89.58538281036901
 20
-6329.838676776283
 30
0.0
 10
89.67572861159927
 20
-6329.610547533363
 30
0.0
 10
89.6733891845897
 20
-6329.463236106039
 30
0.0
 10
89.6724413754546
 20
-6329.40355349319
 30
0.0
  0
SPLINE
  5
3A4940
330
18
100
AcDbEntity
  8
姿図
100
AcDbSpline
210
0.0
220
0.0
230
1.0
 70
     8
 71
     3
 72
    19
 73
    15
 74
     0
 42
0.000000001
 43
0.0000000001
 40
0.0
 40
0.0
 40
0.0
 40
0.0
 40
0.0405273512616387
 40
0.1091202586534903
 40
0.1804509225840032
 40
0.2604818689933591
 40
0.3514365810531954
 40
0.4483811480122008
 40
0.5446467416027005
 40
0.6392938236205086
 40
0.7327751530766112
 40
0.8254913151234351
 40
0.9177015046933409
 40
1.0
 40
1.0
 40
1.0
 40
1.0
 10
29.23020363925791
 20
-6329.415197920702
 30
0.0
 10
29.22920361765451
 20
-6329.4679518503
 30
0.0
 10
29.22651105047125
 20
-6329.609992281359
 30
0.0
 10
29.31310744335809
 20
-6329.829930960613
 30
0.0
 10
29.46461354592877
 20
-6330.062000130316
 30
0.0
 10
29.68963642338825
 20
-6330.283890898556
 30
0.0
 10
29.99790983499963
 20
-6330.504188999395
 30
0.0
 10
30.39811295747425
 20
-6330.721746741822
 30
0.0
 10
30.88213059468038
 20
-6330.931925247759
 30
0.0
 10
31.43888632229934
 20
-6331.132275097517
 30
0.0
 10
32.06479748267275
 20
-6331.324093720787
 30
0.0
 10
32.76158723769412
 20
-6331.508435415918
 30
0.0
 10
33.49429107471583
 20
-6331.680467569616
 30
0.0
 10
34.0291210524598
 20
-6331.78808652992
 30
0.0
 10
34.28134748144446
 20
-6331.838839754642
 30
0.0
  0
LINE
  5
3A4941
330
18
100
AcDbEntity
  8
姿図
100
AcDbLine
 10
89.68272816855863
 20
-6329.410262212508
 30
0.0
 11
89.68272816766901
 21
-6328.820963344056
 31
0.0
  0
LINE
  5
3A4942
330
18
100
AcDbEntity
  8
姿図
100
AcDbLine
 10
29.21971947711997
 20
-6328.820963544633
 30
0.0
 11
29.21971947800935
 21
-6329.410262413087
 31
0.0
  0
SPLINE
  5
3A4943
330
18
100
AcDbEntity
  8
姿図
100
AcDbSpline
210
0.0
220
0.0
230
1.0
 70
     8
 71
     3
 72
    11
 73
     7
 74
     0
 42
0.000000001
 43
0.0000000001
 40
0.0
 40
0.0
 40
0.0
 40
0.0
 40
0.2420576974331833
 40
0.5076239858633596
 40
0.7728967761419334
 40
0.9999999999999998
 40
0.9999999999999998
 40
0.9999999999999998
 40
0.9999999999999998
 10
33.32991871739037
 20
-6315.158395502146
 30
0.0
 10
33.06789318210603
 20
-6316.160170774121
 30
0.0
 10
32.51839424846554
 20
-6318.261013514886
 30
0.0
 10
31.78304354809396
 20
-6321.485337687188
 30
0.0
 10
31.12442353103701
 20
-6324.661204442989
 30
0.0
 10
30.76178569868252
 20
-6326.736861659499
 30
0.0
 10
30.59452283766561
 20
-6327.694236576148
 30
0.0
  0
SPLINE
  5
3A4944
330
18
100
AcDbEntity
  8
姿図
100
AcDbSpline
210
0.0
220
0.0
230
1.0
 70
     8
 71
     3
 72
    12
 73
     8
 74
     0
 42
0.000000001
 43
0.0000000001
 40
0.0
 40
0.0
 40
0.0
 40
0.0
 40
0.0253968163824184
 40
0.2859091312744423
 40
0.546095897444623
 40
0.8059514587236298
 40
1.0
 40
1.0
 40
1.0
 40
1.0
 10
88.31025354733164
 20
-6327.69870746496
 30
0.0
 10
88.29310177132116
 20
-6327.591419879321
 30
0.0
 10
88.10001263348794
 20
-6326.383610997118
 30
0.0
 10
87.65752525701762
 20
-6324.089243294706
 30
0.0
 10
86.97499886960196
 20
-6320.8211821155
 30
0.0
 10
86.28084824636308
 20
-6317.846442469683
 30
0.0
 10
85.78351775405272
 20
-6315.970229309272
 30
0.0
 10
85.57090399704597
 20
-6315.168129427707
 30
0.0
  0
SPLINE
  5
3A4945
330
18
100
AcDbEntity
  8
姿図
100
AcDbSpline
210
0.0
220
0.0
230
1.0
 70
     8
 71
     3
 72
    17
 73
    13
 74
     0
 42
0.000000001
 43
0.0000000001
 40
0.0
 40
0.0
 40
0.0
 40
0.0
 40
0.0277605923815875
 40
0.1199842605505736
 40
0.2132659392255245
 40
0.3155203172447314
 40
0.4328179667393393
 40
0.5624412289414663
 40
0.693962504110052
 40
0.8231133042104188
 40
0.9503582112050848
 40
1.0
 40
1.0
 40
1.0
 40
1.0
 10
30.42046164585393
 20
-6312.229100957054
 30
0.0
 10
30.41744048502794
 20
-6312.255407564251
 30
0.0
 10
30.40438270359708
 20
-6312.369107544733
 30
0.0
 10
30.46169405120112
 20
-6312.570284737662
 30
0.0
 10
30.58521417767128
 20
-6312.80618186728
 30
0.0
 10
30.77922130284326
 20
-6313.026472595119
 30
0.0
 10
31.04951221023551
 20
-6313.242840750024
 30
0.0
 10
31.41124567377679
 20
-6313.457729698243
 30
0.0
 10
31.86012892957753
 20
-6313.667248363278
 30
0.0
 10
32.39009171216264
 20
-6313.866918218238
 30
0.0
 10
32.85580596858779
 20
-6314.020381610386
 30
0.0
 10
33.17079540135946
 20
-6314.105545550852
 30
0.0
 10
33.25919458154927
 20
-6314.129446106665
 30
0.0
  0
SPLINE
  5
3A4946
330
18
100
AcDbEntity
  8
姿図
100
AcDbSpline
210
0.0
220
0.0
230
1.0
 70
     8
 71
     3
 72
    16
 73
    12
 74
     0
 42
0.000000001
 43
0.0000000001
 40
0.0
 40
0.0
 40
0.0
 40
0.0
 40
0.0884782640570967
 40
0.2159705283397647
 40
0.3444326492743557
 40
0.4743709952934219
 40
0.6064898008038833
 40
0.7410421968831833
 40
0.844511498960179
 40
0.9370209404317698
 40
1.0
 40
1.0
 40
1.0
 40
1.0
 10
85.64843425448096
 20
-6314.128407619291
 30
0.0
 10
85.79916307208443
 20
-6314.086130701261
 30
0.0
 10
86.16708374413619
 20
-6313.98293509248
 30
0.0
 10
86.66833031474123
 20
-6313.811698410725
 30
0.0
 10
87.1647784487517
 20
-6313.614059528948
 30
0.0
 10
87.58858845155103
 20
-6313.405220272278
 30
0.0
 10
87.9436643902942
 20
-6313.179591439795
 30
0.0
 10
88.207422180187
 20
-6312.945804325249
 30
0.0
 10
88.38146706069588
 20
-6312.700514491808
 30
0.0
 10
88.47657425011587
 20
-6312.476141745306
 30
0.0
 10
88.48087700606347
 20
-6312.329427852874
 30
0.0
 10
88.48261979425249
 20
-6312.270002860613
 30
0.0
  0
LINE
  5
3A4947
330
18
100
AcDbEntity
  8
姿図
100
AcDbLine
 10
88.49021260122716
 20
-6312.245730520852
 30
0.0
 11
88.36254705964362
 21
-6300.594980680102
 31
0.0
  0
LINE
  5
3A4948
330
18
100
AcDbEntity
  8
姿図
100
AcDbLine
 10
30.41792779726501
 20
-6311.726179451744
 30
0.0
 11
30.41223545571865
 21
-6312.245730543903
 31
0.0
  0
SPLINE
  5
3A4949
330
18
100
AcDbEntity
  8
姿図
100
AcDbSpline
210
0.0
220
0.0
230
1.0
 70
     8
 71
     3
 72
    15
 73
    11
 74
     0
 42
0.000000001
 43
0.0000000001
 40
0.0
 40
0.0
 40
0.0
 40
0.0
 40
0.1087135350556403
 40
0.2499710904185036
 40
0.3921678081554055
 40
0.5276063371407133
 40
0.6582914366803545
 40
0.789435480795505
 40
0.925510182265114
 40
1.0
 40
1.0
 40
1.0
 40
1.0
 10
85.58397334946702
 20
-6315.165385751607
 30
0.0
 10
85.56300069374959
 20
-6315.080799779946
 30
0.0
 10
85.51477709752496
 20
-6314.886306540814
 30
0.0
 10
85.52312726856258
 20
-6314.53980431223
 30
0.0
 10
85.60149062704971
 20
-6314.20697998887
 30
0.0
 10
85.72050445243293
 20
-6313.952004579481
 30
0.0
 10
85.83760418380794
 20
-6313.783127556582
 30
0.0
 10
85.92619231377604
 20
-6313.686772638035
 30
0.0
 10
85.97443423236743
 20
-6313.646938683563
 30
0.0
 10
85.97089605104917
 20
-6313.649558571079
 30
0.0
 10
85.96964437539884
 20
-6313.650485388873
 30
0.0
  0
SPLINE
  5
3A494A
330
18
100
AcDbEntity
  8
姿図
100
AcDbSpline
210
0.0
220
0.0
230
1.0
 70
     8
 71
     3
 72
    16
 73
    12
 74
     0
 42
0.000000001
 43
0.0000000001
 40
0.0
 40
0.0
 40
0.0
 40
0.0
 40
0.0354688628487427
 40
0.1764244187325416
 40
0.3089098692144113
 40
0.4368979862918931
 40
0.5760778257012487
 40
0.7148697285090913
 40
0.8556817151366621
 40
0.9990388113421158
 40
1.0
 40
1.0
 40
1.0
 40
1.0
 10
32.93127150870911
 20
-6313.649095604064
 30
0.0
 10
32.92967298575567
 20
-6313.648020296501
 30
0.0
 10
32.92172182915744
 20
-6313.642671647104
 30
0.0
 10
32.95923142669689
 20
-6313.670986178156
 30
0.0
 10
33.03681976476527
 20
-6313.750318672919
 30
0.0
 10
33.14917913313231
 20
-6313.898777859304
 30
0.0
 10
33.27027417830702
 20
-6314.128271276828
 30
0.0
 10
33.36566732544266
 20
-6314.445840127238
 30
0.0
 10
33.38838579020434
 20
-6314.802549681249
 30
0.0
 10
33.36268317381519
 20
-6315.057591334112
 30
0.0
 10
33.32685335122793
 20
-6315.156044413066
 30
0.0
 10
33.32661471743934
 20
-6315.156700130274
 30
0.0
  0
LINE
  5
3A494B
330
18
100
AcDbEntity
  8
姿図
100
AcDbLine
 10
59.54580913000281
 20
-6297.453774079762
 30
0.0
 11
59.54274261926667
 21
-6297.572559959046
 31
0.0
  0
LINE
  5
3A494C
330
18
100
AcDbEntity
  8
姿図
100
AcDbLine
 10
49.64397083171111
 20
-6297.318939249596
 30
0.0
 11
49.33038404811528
 21
-6297.208872006866
 31
0.0
  0
LINE
  5
3A494D
330
18
100
AcDbEntity
  8
姿図
100
AcDbLine
 10
78.43052137265441
 20
-6297.852048632842
 30
0.0
 11
77.83396057689956
 21
-6297.941358678325
 31
0.0
  0
LINE
  5
3A494E
330
18
100
AcDbEntity
  8
姿図
100
AcDbLine
 10
35.03607769039819
 20
-6298.875641108853
 30
0.0
 11
34.23681641560829
 21
-6298.81684705763
 31
0.0
  0
LINE
  5
3A494F
330
18
100
AcDbEntity
  8
姿図
100
AcDbLine
 10
30.31046790591388
 20
-6327.807658428829
 30
0.0
 11
30.31046790680024
 21
-6328.39489370298
 31
0.0
  0
LINE
  5
3A4950
330
18
100
AcDbEntity
  8
姿図
100
AcDbLine
 10
30.70047077293236
 20
-6328.79471639933
 30
0.0
 11
31.27137222828691
 21
-6328.807689247909
 31
0.0
  0
LINE
  5
3A4951
330
18
100
AcDbEntity
  8
姿図
100
AcDbLine
 10
30.34232484233138
 20
-6328.514604572673
 30
0.0
 11
29.33598363334488
 21
-6328.491737032224
 31
0.0
  0
LINE
  5
3A4952
330
18
100
AcDbEntity
  8
姿図
100
AcDbLine
 10
88.01440729476337
 20
-6300.038714333808
 30
0.0
 11
87.10351999557123
 21
-6300.058637332
 31
0.0
  0
LINE
  5
3A4953
330
18
100
AcDbEntity
  8
姿図
100
AcDbLine
 10
32.69299170492049
 20
-6328.744095715893
 30
0.0
 11
32.76833533676909
 21
-6330.170195245241
 31
0.0
  0
LINE
  5
3A4954
330
18
100
AcDbEntity
  8
姿図
100
AcDbLine
 10
86.13411200159823
 20
-6330.170195193204
 30
0.0
 11
86.20945709389298
 21
-6328.744095649248
 31
0.0
  0
SPLINE
  5
3A4955
330
18
100
AcDbEntity
  8
姿図
100
AcDbSpline
210
0.0
220
0.0
230
1.0
 70
     8
 71
     3
 72
    17
 73
    13
 74
     0
 42
0.000000001
 43
0.0000000001
 40
0.0
 40
0.0
 40
0.0
 40
0.0
 40
0.0860348283586149
 40
0.1987239924264799
 40
0.3118767425836337
 40
0.4257262970454515
 40
0.5406491266549839
 40
0.6572145622201986
 40
0.7759209891082
 40
0.8718996105373125
 40
0.9566366006919356
 40
1.0
 40
1.0
 40
1.0
 40
1.0
 10
82.57065875799165
 20
-6332.066832902762
 30
0.0
 10
82.75368078925796
 20
-6332.024611491679
 30
0.0
 10
83.17642666379649
 20
-6331.927088110315
 30
0.0
 10
83.75523025587188
 20
-6331.767488552076
 30
0.0
 10
84.32048419177869
 20
-6331.588817456523
 30
0.0
 10
84.81199100807714
 20
-6331.402828144306
 30
0.0
 10
85.23318276237222
 20
-6331.207714655326
 30
0.0
 10
85.58351520913126
 20
-6330.998867324556
 30
0.0
 10
85.84625283680857
 20
-6330.783120403069
 30
0.0
 10
86.02014757446695
 20
-6330.55713239614
 30
0.0
 10
86.11493036340129
 20
-6330.359890012177
 30
0.0
 10
86.12131193278815
 20
-6330.23548205323
 30
0.0
 10
86.12347216463982
 20
-6330.193368582509
 30
0.0
  0
SPLINE
  5
3A4956
330
18
100
AcDbEntity
  8
姿図
100
AcDbSpline
210
0.0
220
0.0
230
1.0
 70
     8
 71
     3
 72
    18
 73
    14
 74
     0
 42
0.000000001
 43
0.0000000001
 40
0.0
 40
0.0
 40
0.0
 40
0.0
 40
0.0419767077980605
 40
0.1250539573968491
 40
0.2128719227451216
 40
0.3128383834919708
 40
0.4250777846351858
 40
0.5409371609174808
 40
0.6548900862644468
 40
0.7671524686699956
 40
0.8783082686806922
 40
0.9887559581304795
 40
0.9999999999999998
 40
0.9999999999999998
 40
0.9999999999999998
 40
0.9999999999999998
 10
32.77959593193984
 20
-6330.181176122882
 30
0.0
 10
32.78040427237427
 20
-6330.222997677177
 30
0.0
 10
32.78281242145393
 20
-6330.347589412533
 30
0.0
 10
32.87370124972007
 20
-6330.541171381462
 30
0.0
 10
33.03024251244757
 20
-6330.753252590495
 30
0.0
 10
33.2639675458349
 20
-6330.957988524135
 30
0.0
 10
33.58339830731666
 20
-6331.161764740185
 30
0.0
 10
33.99304100933508
 20
-6331.361817148302
 30
0.0
 10
34.48220989833249
 20
-6331.553701452477
 30
0.0
 10
35.04018554522418
 20
-6331.736809483429
 30
0.0
 10
35.67514564542377
 20
-6331.911752080135
 30
0.0
 10
36.150294799431
 20
-6332.031448599711
 30
0.0
 10
36.4336228797593
 20
-6332.091137836131
 30
0.0
 10
36.45980175619963
 20
-6332.096652987129
 30
0.0
  0
SPLINE
  5
3A4957
330
18
100
AcDbEntity
  8
姿図
100
AcDbSpline
210
0.0
220
0.0
230
1.0
 70
     8
 71
     3
 72
    12
 73
     8
 74
     0
 42
0.000000001
 43
0.0000000001
 40
0.0
 40
0.0
 40
0.0
 40
0.0
 40
0.075041754048149
 40
0.3114545445655271
 40
0.5483756808763927
 40
0.7906257871698711
 40
1.0
 40
1.0
 40
1.0
 40
1.0
 10
34.38412583313624
 20
-6329.982887112213
 30
0.0
 10
34.39258050916428
 20
-6329.972294383946
 30
0.0
 10
34.42767093722226
 20
-6329.9283301483
 30
0.0
 10
34.56319700838408
 20
-6329.821292744228
 30
0.0
 10
34.8012581169499
 20
-6329.677920350286
 30
0.0
 10
35.09996129132345
 20
-6329.532650064384
 30
0.0
 10
35.35338435196383
 20
-6329.436913016418
 30
0.0
 10
35.4708719441678
 20
-6329.392529071161
 30
0.0
  0
SPLINE
  5
3A4958
330
18
100
AcDbEntity
  8
姿図
100
AcDbSpline
210
0.0
220
0.0
230
1.0
 70
     8
 71
     3
 72
    12
 73
     8
 74
     0
 42
0.000000001
 43
0.0000000001
 40
0.0
 40
0.0
 40
0.0
 40
0.0
 40
0.0713985127494336
 40
0.3474857043059584
 40
0.6379145356905842
 40
0.949204709828172
 40
0.9999999999999998
 40
0.9999999999999998
 40
0.9999999999999998
 40
0.9999999999999998
 10
82.45370358134139
 20
-6331.794179039446
 30
0.0
 10
82.46761036366009
 20
-6331.779602035543
 30
0.0
 10
82.5352925584648
 20
-6331.708657974207
 30
0.0
 10
82.62643984672498
 20
-6331.63955063957
 30
0.0
 10
82.70894349350239
 20
-6331.578712709151
 30
0.0
 10
82.74379696196071
 20
-6331.560023763996
 30
0.0
 10
82.73505918407758
 20
-6331.564508151807
 30
0.0
 10
82.73383340175052
 20
-6331.56513724577
 30
0.0
  0
SPLINE
  5
3A4959
330
18
100
AcDbEntity
  8
姿図
100
AcDbSpline
210
0.0
220
0.0
230
1.0
 70
     8
 71
     3
 72
    11
 73
     7
 74
     0
 42
0.000000001
 43
0.0000000001
 40
0.0
 40
0.0
 40
0.0
 40
0.0
 40
0.1439598987093432
 40
0.699766448012574
 40
0.9682113941131385
 40
1.0
 40
1.0
 40
1.0
 40
1.0
 10
63.14090830371992
 20
-6327.273832700436
 30
0.0
 10
63.14722362188494
 20
-6327.275090761729
 30
0.0
 10
63.17792139119427
 20
-6327.281206000005
 30
0.0
 10
63.21428968235547
 20
-6327.289046968679
 30
0.0
 10
63.23168781649506
 20
-6327.298003703805
 30
0.0
 10
63.22840955004647
 20
-6327.295881341946
 30
0.0
 10
63.22806244853348
 20
-6327.295656627139
 30
0.0
  0
LINE
  5
3A495A
330
18
100
AcDbEntity
  8
姿図
100
AcDbLine
 10
82.0241117263139
 20
-6332.213776571897
 30
0.0
 11
82.45414873292087
 21
-6331.790672405923
 31
0.0
  0
SPLINE
  5
3A495B
330
18
100
AcDbEntity
  8
姿図
100
AcDbSpline
210
0.0
220
0.0
230
1.0
 70
     8
 71
     3
 72
    35
 73
    31
 74
     0
 42
0.000000001
 43
0.0000000001
 40
0.0
 40
0.0
 40
0.0
 40
0.0
 40
0.019818830400767
 40
0.0574955131517845
 40
0.0951682550248362
 40
0.132836875989003
 40
0.170505991900959
 40
0.208179085931049
 40
0.245861115166288
 40
0.283557439732218
 40
0.3212739008297519
 40
0.3590173215342062
 40
0.3967955888399773
 40
0.4346185108183483
 40
0.4724981523542589
 40
0.5104500245408864
 40
0.5484943414190129
 40
0.5866582531630231
 40
0.6249790491758175
 40
0.6635096878712266
 40
0.702327472357302
 40
0.7415501331218552
 40
0.7813651598506746
 40
0.8220884127657706
 40
0.8642869507929866
 40
0.9090216805186209
 40
0.9471639571728969
 40
0.9754134884259826
 40
0.9993226529455771
 40
1.0
 40
1.0
 40
1.0
 40
1.0
 10
55.62874748910346
 20
-6335.09592389691
 30
0.0
 10
55.85916237822843
 20
-6335.100865609407
 30
0.0
 10
56.52760859932996
 20
-6335.115201788189
 30
0.0
 10
57.6434356929482
 20
-6335.131084324848
 30
0.0
 10
58.97445952802297
 20
-6335.14010319708
 30
0.0
 10
60.30737977811089
 20
-6335.13859377856
 30
0.0
 10
61.63706690044683
 20
-6335.126738335344
 30
0.0
 10
62.95881047240039
 20
-6335.104533144894
 30
0.0
 10
64.2678484879834
 20
-6335.072053540697
 30
0.0
 10
65.55951782444876
 20
-6335.029402891499
 30
0.0
 10
66.82923769766843
 20
-6334.976713199933
 30
0.0
 10
68.07253629045431
 20
-6334.914134821307
 30
0.0
 10
69.28508431898484
 20
-6334.84184827668
 30
0.0
 10
70.46271668838376
 20
-6334.760048203989
 30
0.0
 10
71.60147890478548
 20
-6334.668932956042
 30
0.0
 10
72.69764830834885
 20
-6334.568700319124
 30
0.0
 10
73.74780290639373
 20
-6334.459536982367
 30
0.0
 10
74.74886464941972
 20
-6334.34156985988
 30
0.0
 10
75.69819896178753
 20
-6334.214851871472
 30
0.0
 10
76.5937335077471
 20
-6334.079267240537
 30
0.0
 10
77.43415450747138
 20
-6333.934451695209
 30
0.0
 10
78.21923221345912
 20
-6333.779511358605
 30
0.0
 10
78.95042032580056
 20
-6333.612682867101
 30
0.0
 10
79.6319504899457
 20
-6333.430169125619
 30
0.0
 10
80.27325023596661
 20
-6333.224520955291
 30
0.0
 10
80.8423200036182
 20
-6332.996329191668
 30
0.0
 10
81.31579702098392
 20
-6332.75729037199
 30
0.0
 10
81.69020386609606
 20
-6332.501983300332
 30
0.0
 10
81.91195139639656
 20
-6332.335314563569
 30
0.0
 10
82.01017241341845
 20
-6332.226683187077
 30
0.0
 10
82.01287835713738
 20
-6332.223690442756
 30
0.0
  0
SPLINE
  5
3A495C
330
18
100
AcDbEntity
  8
姿図
100
AcDbSpline
210
0.0
220
0.0
230
1.0
 70
     8
 71
     3
 72
    14
 73
    10
 74
     0
 42
0.000000001
 43
0.0000000001
 40
0.0
 40
0.0
 40
0.0
 40
0.0
 40
0.1621216741223573
 40
0.3871015419947634
 40
0.6035993925431022
 40
0.7232418247533898
 40
0.8373030416554009
 40
0.9585081333863307
 40
0.9999999999999998
 40
0.9999999999999998
 40
0.9999999999999998
 40
0.9999999999999998
 10
62.03650600068333
 20
-6329.802383152332
 30
0.0
 10
62.0375002674648
 20
-6329.825587469514
 30
0.0
 10
62.03987430046426
 20
-6329.880992935876
 30
0.0
 10
62.0508881447179
 20
-6329.955267681604
 30
0.0
 10
62.06667586262149
 20
-6330.01085290719
 30
0.0
 10
62.09734391275552
 20
-6330.058716003441
 30
0.0
 10
62.13559298602408
 20
-6330.088835927764
 30
0.0
 10
62.17311522321779
 20
-6330.104680798489
 30
0.0
 10
62.19600371706234
 20
-6330.102720624355
 30
0.0
 10
62.20184086572975
 20
-6330.102220730045
 30
0.0
  0
LINE
  5
3A495D
330
18
100
AcDbEntity
  8
姿図
100
AcDbLine
 10
62.20106351890592
 20
-6330.104379248836
 30
0.0
 11
62.7242003453169
 21
-6330.116266720431
 31
0.0
  0
SPLINE
  5
3A495E
330
18
100
AcDbEntity
  8
姿図
100
AcDbSpline
210
0.0
220
0.0
230
1.0
 70
     8
 71
     3
 72
    13
 73
     9
 74
     0
 42
0.000000001
 43
0.0000000001
 40
0.0
 40
0.0
 40
0.0
 40
0.0
 40
0.0965148277226142
 40
0.3097112513978569
 40
0.517943400702155
 40
0.7190008423020452
 40
0.9126195484490093
 40
1.0
 40
1.0
 40
1.0
 40
1.0
 10
76.8538605404003
 20
-6331.63677243714
 30
0.0
 10
76.91125210084948
 20
-6331.656922377574
 30
0.0
 10
77.09541874576603
 20
-6331.721582527878
 30
0.0
 10
77.32067045175046
 20
-6331.828254414052
 30
0.0
 10
77.52701525641788
 20
-6331.950079131137
 30
0.0
 10
77.64024686831132
 20
-6332.047760778333
 30
0.0
 10
77.66994842343912
 20
-6332.100108566065
 30
0.0
 10
77.66881358055885
 20
-6332.096624598053
 30
0.0
 10
77.6684606859661
 20
-6332.095541211537
 30
0.0
  0
LINE
  5
3A495F
330
18
100
AcDbEntity
  8
姿図
100
AcDbLine
 10
62.0194572680512
 20
-6329.145814225515
 30
0.0
 11
62.03650600068333
 21
-6329.802383152332
 31
0.0
  0
LINE
  5
3A4960
330
18
100
AcDbEntity
  8
姿図
100
AcDbLine
 10
61.96122433593211
 20
-6327.251032471377
 30
0.0
 11
62.0194577495624
 21
-6329.145824820155
 31
0.0
  0
SPLINE
  5
3A4961
330
18
100
AcDbEntity
  8
姿図
100
AcDbSpline
210
0.0
220
0.0
230
1.0
 70
     8
 71
     3
 72
    12
 73
     8
 74
     0
 42
0.000000001
 43
0.0000000001
 40
0.0
 40
0.0
 40
0.0
 40
0.0
 40
0.1580223681235299
 40
0.4718031501562131
 40
0.7258788924152788
 40
0.9154676551272946
 40
1.0
 40
1.0
 40
1.0
 40
1.0
 10
54.77698881753844
 20
-6334.593060435698
 30
0.0
 10
54.78745936557429
 20
-6334.63500832378
 30
0.0
 10
54.81872100027722
 20
-6334.760251009196
 30
0.0
 10
54.87583832905051
 20
-6334.908588386756
 30
0.0
 10
54.94818107906522
 20
-6335.016491508413
 30
0.0
 10
55.04215241183823
 20
-6335.087542403304
 30
0.0
 10
55.1020172203698
 20
-6335.077206510858
 30
0.0
 10
55.12047808493109
 20
-6335.074019170662
 30
0.0
  0
LINE
  5
3A4962
330
18
100
AcDbEntity
  8
姿図
100
AcDbLine
 10
55.1052583705421
 20
-6335.084028420022
 30
0.0
 11
55.62874748910346
 21
-6335.09592389691
 31
0.0
  0
LINE
  5
3A4963
330
18
100
AcDbEntity
  8
姿図
100
AcDbLine
 10
54.68913126739632
 20
-6334.216676417593
 30
0.0
 11
54.77698881753844
 21
-6334.593060435698
 31
0.0
  0
SPLINE
  5
3A4964
330
18
100
AcDbEntity
  8
姿図
100
AcDbSpline
210
0.0
220
0.0
230
1.0
 70
     8
 71
     3
 72
    13
 73
     9
 74
     0
 42
0.000000001
 43
0.0000000001
 40
0.0
 40
0.0
 40
0.0
 40
0.0
 40
0.0415932718925008
 40
0.2569656213919374
 40
0.4814980169608469
 40
0.7140047024012923
 40
0.9539566804551046
 40
1.0
 40
1.0
 40
1.0
 40
1.0
 10
54.43612698496884
 20
-6333.59593829446
 30
0.0
 10
54.43536401825641
 20
-6333.595850203844
 30
0.0
 10
54.43065036610889
 20
-6333.595305974959
 30
0.0
 10
54.46845216595962
 20
-6333.617781008455
 30
0.0
 10
54.53266767309554
 20
-6333.724117051302
 30
0.0
 10
54.60576068327937
 20
-6333.904219637487
 30
0.0
 10
54.65765501141174
 20
-6334.084212346922
 30
0.0
 10
54.68476650005427
 20
-6334.198307814608
 30
0.0
 10
54.68913126739632
 20
-6334.216676417593
 30
0.0
  0
LINE
  5
3A4965
330
18
100
AcDbEntity
  8
姿図
100
AcDbLine
 10
86.67937970487709
 20
-6310.456879431251
 30
0.0
 11
86.67937970403341
 21
-6309.897889213443
 31
0.0
  0
SPLINE
  5
3A4966
330
18
100
AcDbEntity
  8
姿図
100
AcDbSpline
210
0.0
220
0.0
230
1.0
 70
     8
 71
     3
 72
     9
 73
     5
 74
     0
 42
0.000000001
 43
0.0000000001
 40
0.0
 40
0.0
 40
0.0
 40
0.0
 40
0.5274299330061493
 40
0.9999999999999998
 40
0.9999999999999998
 40
0.9999999999999998
 40
0.9999999999999998
 10
86.4581274295956
 20
-6309.416162629246
 30
0.0
 10
86.41478534592335
 20
-6309.367986005418
 30
0.0
 10
86.33260934308394
 20
-6309.27664378001
 30
0.0
 10
86.20174708323441
 20
-6309.192417715471
 30
0.0
 10
86.13990549633036
 20
-6309.152614998509
 30
0.0
  0
LINE
  5
3A4967
330
18
100
AcDbEntity
  8
姿図
100
AcDbLine
 10
30.73789418562311
 20
-6309.897889318555
 30
0.0
 11
30.73789418740207
 21
-6311.076489123095
 31
0.0
  0
LINE
  5
3A4968
330
18
100
AcDbEntity
  8
姿図
100
AcDbLine
 10
58.44166187379141
 20
-6259.65502423984
 30
0.0
 11
57.82903769402223
 21
-6294.470419500592
 31
0.0
  0
LINE
  5
3A4969
330
18
100
AcDbEntity
  8
姿図
100
AcDbLine
 10
85.8705330744593
 20
-6309.005875798457
 30
0.0
 11
85.98620395066669
 21
-6303.555551767774
 31
0.0
  0
LINE
  5
3A496A
330
18
100
AcDbEntity
  8
姿図
100
AcDbLine
 10
69.91415702734534
 20
-6296.071549492295
 30
0.0
 11
69.27725334298333
 21
-6259.876374994053
 31
0.0
  0
LINE
  5
3A496B
330
18
100
AcDbEntity
  8
姿図
100
AcDbLine
 10
48.75411596928761
 20
-6259.921909284356
 30
0.0
 11
48.11491600967099
 21
-6296.247576183874
 31
0.0
  0
SPLINE
  5
3A496C
330
18
100
AcDbEntity
  8
姿図
100
AcDbSpline
210
0.0
220
0.0
230
1.0
 70
     8
 71
     3
 72
    19
 73
    15
 74
     0
 42
0.000000001
 43
0.0000000001
 40
0.0
 40
0.0
 40
0.0
 40
0.0
 40
0.0730188769820416
 40
0.1751133051508099
 40
0.2624695978593772
 40
0.3387476552157007
 40
0.4045658552736786
 40
0.4682608016109631
 40
0.568904229000385
 40
0.6474113995562683
 40
0.7449100159291547
 40
0.8696551298422871
 40
0.9894243822865657
 40
1.0
 40
1.0
 40
1.0
 40
1.0
 10
59.5048433701846
 20
-6259.609702155613
 30
0.0
 10
59.50250453303397
 20
-6259.571338787097
 30
0.0
 10
59.49689555189673
 20
-6259.479336053893
 30
0.0
 10
59.42628426869221
 20
-6259.356701170847
 30
0.0
 10
59.33191084411513
 20
-6259.254565216007
 30
0.0
 10
59.23013599509349
 20
-6259.189258422132
 30
0.0
 10
59.12930938417395
 20
-6259.150875958319
 30
0.0
 10
59.01066502632959
 20
-6259.129835023303
 30
0.0
 10
58.88227907758203
 20
-6259.136251749914
 30
0.0
 10
58.74390576657475
 20
-6259.179875895306
 30
0.0
 10
58.60833088997942
 20
-6259.264789949511
 30
0.0
 10
58.49965713463688
 20
-6259.407155370533
 30
0.0
 10
58.44279781937259
 20
-6259.536229163609
 30
0.0
 10
58.44683239351488
 20
-6259.604168262107
 30
0.0
 10
58.44715974137078
 20
-6259.609680546041
 30
0.0
  0
SPLINE
  5
3A496D
330
18
100
AcDbEntity
  8
姿図
100
AcDbSpline
210
0.0
220
0.0
230
1.0
 70
     8
 71
     3
 72
    11
 73
     7
 74
     0
 42
0.000000001
 43
0.0000000001
 40
0.0
 40
0.0
 40
0.0
 40
0.0
 40
0.0523077321478533
 40
0.4303203471716928
 40
0.7398071516752758
 40
1.0
 40
1.0
 40
1.0
 40
1.0
 10
58.46861052439404
 20
-6259.610116029686
 30
0.0
 10
58.4681871592963
 20
-6259.601908966383
 30
0.0
 10
58.46470425899939
 20
-6259.534391867392
 30
0.0
 10
58.51476546678006
 20
-6259.422903830337
 30
0.0
 10
58.59811580143682
 20
-6259.299265950768
 30
0.0
 10
58.67042808751877
 20
-6259.245679982559
 30
0.0
 10
58.70345566642415
 20
-6259.221205375418
 30
0.0
  0
LINE
  5
3A496E
330
18
100
AcDbEntity
  8
姿図
100
AcDbLine
 10
59.48844628875118
 20
-6259.57275340531
 30
0.0
 11
59.48869428822323
 21
-6259.610093789105
 31
0.0
  0
SPLINE
  5
3A496F
330
18
100
AcDbEntity
  8
姿図
100
AcDbSpline
210
0.0
220
0.0
230
1.0
 70
     8
 71
     3
 72
    11
 73
     7
 74
     0
 42
0.000000001
 43
0.0000000001
 40
0.0
 40
0.0
 40
0.0
 40
0.0
 40
0.2516716708143305
 40
0.6066659427533067
 40
0.9856956009589048
 40
1.0
 40
1.0
 40
1.0
 40
1.0
 10
59.20411060319242
 20
-6259.191715768337
 30
0.0
 10
59.24012646838082
 20
-6259.212581240109
 30
0.0
 10
59.32694434000665
 20
-6259.262878403319
 30
0.0
 10
59.42786843946837
 20
-6259.390460248999
 30
0.0
 10
59.48840648328098
 20
-6259.505866666746
 30
0.0
 10
59.48844489194157
 20
-6259.570406289663
 30
0.0
 10
59.48844628875118
 20
-6259.57275340531
 30
0.0
  0
LWPOLYLINE
  5
3A4970
330
18
100
AcDbEntity
  8
姿図
100
AcDbPolyline
 90
        3
 70
   128
 43
0.0
 10
59.81909477615551
 20
-6263.424076603142
 10
59.74632860794933
 20
-6262.510331016989
 10
59.51632976522626
 20
-6259.622185744621
  0
LINE
  5
3A4971
330
18
100
AcDbEntity
  8
姿図
100
AcDbLine
 10
78.27929672805976
 20
-6297.874688347635
 30
0.0
 11
77.62257319642815
 21
-6260.553151173517
 31
0.0
  0
LINE
  5
3A4972
330
18
100
AcDbEntity
  8
姿図
100
AcDbLine
 10
68.45537879582461
 20
-6259.435355427261
 30
0.0
 11
62.43923658840031
 21
-6263.092807173324
 31
0.0
  0
SPLINE
  5
3A4973
330
18
100
AcDbEntity
  8
姿図
100
AcDbSpline
210
0.0
220
0.0
230
1.0
 70
     8
 71
     3
 72
    15
 73
    11
 74
     0
 42
0.000000001
 43
0.0000000001
 40
0.0
 40
0.0
 40
0.0
 40
0.0
 40
0.1743300116400872
 40
0.3163955810061445
 40
0.438170681214507
 40
0.5416574163542344
 40
0.6332957080513101
 40
0.7212552399456355
 40
0.8691082169319965
 40
0.9999999999999998
 40
0.9999999999999998
 40
0.9999999999999998
 40
0.9999999999999998
 10
69.27660260809886
 20
-6259.875794480612
 30
0.0
 10
69.26865159692903
 20
-6259.810555891959
 30
0.0
 10
69.25422112236546
 20
-6259.692152864468
 30
0.0
 10
69.16558259317297
 20
-6259.550243685596
 30
0.0
 10
69.06509721209314
 20
-6259.455846721071
 30
0.0
 10
68.96129980300601
 20
-6259.397543769939
 30
0.0
 10
68.86015481482107
 20
-6259.365328216086
 30
0.0
 10
68.73886836965251
 20
-6259.350957762909
 30
0.0
 10
68.59937511134453
 20
-6259.363099445277
 30
0.0
 10
68.50619070866007
 20
-6259.410456051455
 30
0.0
 10
68.46243357177559
 20
-6259.432693565879
 30
0.0
  0
LINE
  5
3A4974
330
18
100
AcDbEntity
  8
姿図
100
AcDbLine
 10
40.61317945498747
 20
-6260.637429262653
 30
0.0
 11
39.95138076278002
 21
-6298.247391930754
 31
0.0
  0
SPLINE
  5
3A4975
330
18
100
AcDbEntity
  8
姿図
100
AcDbSpline
210
0.0
220
0.0
230
1.0
 70
     8
 71
     3
 72
    11
 73
     7
 74
     0
 42
0.000000001
 43
0.0000000001
 40
0.0
 40
0.0
 40
0.0
 40
0.0
 40
0.0568261155531628
 40
0.3926653450661655
 40
0.7339325200715493
 40
1.0
 40
1.0
 40
1.0
 40
1.0
 10
58.00557955052602
 20
-6284.437530635318
 30
0.0
 10
57.99949028897059
 20
-6284.446993561346
 30
0.0
 10
57.95741382524314
 20
-6284.512381861732
 30
0.0
 10
57.83812787520263
 20
-6284.60499282166
 30
0.0
 10
57.66493435986892
 20
-6284.689304264475
 30
0.0
 10
57.54213003274421
 20
-6284.692352608193
 30
0.0
 10
57.48833063635375
 20
-6284.693688058303
 30
0.0
  0
SPLINE
  5
3A4976
330
18
100
AcDbEntity
  8
姿図
100
AcDbSpline
210
0.0
220
0.0
230
1.0
 70
     8
 71
     3
 72
    16
 73
    12
 74
     0
 42
0.000000001
 43
0.0000000001
 40
0.0
 40
0.0
 40
0.0
 40
0.0
 40
0.2127652508156406
 40
0.396651711535812
 40
0.5532447995399749
 40
0.687465424320522
 40
0.7992165706441512
 40
0.8828513043403075
 40
0.9319099952282224
 40
0.9732548428909188
 40
1.0
 40
1.0
 40
1.0
 40
1.0
 10
60.68335717658232
 20
-6284.690856406766
 30
0.0
 10
60.6115373420681
 20
-6284.684618251173
 30
0.0
 10
60.47764583406522
 20
-6284.672988649611
 30
0.0
 10
60.3105814584375
 20
-6284.583071429159
 30
0.0
 10
60.19139632867039
 20
-6284.476241546222
 30
0.0
 10
60.11330489411037
 20
-6284.365057421018
 30
0.0
 10
60.06791156013581
 20
-6284.265371573376
 30
0.0
 10
60.04651439722946
 20
-6284.189374117067
 30
0.0
 10
60.03885231836533
 20
-6284.148573046461
 30
0.0
 10
60.03633587081046
 20
-6284.130991028167
 30
0.0
 10
60.03592213736919
 20
-6284.127313531431
 30
0.0
 10
60.03575962649961
 20
-6284.125869042945
 30
0.0
  0
SPLINE
  5
3A4977
330
18
100
AcDbEntity
  8
姿図
100
AcDbSpline
210
0.0
220
0.0
230
1.0
 70
     8
 71
     3
 72
    16
 73
    12
 74
     0
 42
0.000000001
 43
0.0000000001
 40
0.0
 40
0.0
 40
0.0
 40
0.0
 40
0.0467009852774878
 40
0.1352155744416181
 40
0.2319794472389877
 40
0.3310009136608927
 40
0.4253998338086329
 40
0.5655526781493045
 40
0.7519817955916713
 40
0.9234011990645162
 40
0.9999999999999998
 40
0.9999999999999998
 40
0.9999999999999998
 40
0.9999999999999998
 10
49.55317964550054
 20
-6259.470270128493
 30
0.0
 10
49.53843047703895
 20
-6259.461486569871
 30
0.0
 10
49.49572651106824
 20
-6259.436055116599
 30
0.0
 10
49.41303467379535
 20
-6259.412234176956
 30
0.0
 10
49.30945967602339
 20
-6259.398161273521
 30
0.0
 10
49.20242474697166
 20
-6259.404828436101
 30
0.0
 10
49.08352126387253
 20
-6259.435792298005
 30
0.0
 10
48.9452155712873
 20
-6259.510467836935
 30
0.0
 10
48.82311630631173
 20
-6259.649987173205
 30
0.0
 10
48.75651360348324
 20
-6259.802378502607
 30
0.0
 10
48.76120605203709
 20
-6259.893800957904
 30
0.0
 10
48.76265528409465
 20
-6259.922036185519
 30
0.0
  0
LWPOLYLINE
  5
3A4978
330
18
100
AcDbEntity
  8
姿図
100
AcDbPolyline
 90
        3
 70
   128
 43
0.0
 10
56.13740120869664
 20
-6263.097456030034
 10
54.55957970345301
 20
-6262.227459445028
 10
49.5563599444604
 20
-6259.468722894501
  0
LINE
  5
3A4979
330
18
100
AcDbEntity
  8
姿図
100
AcDbLine
 10
65.31504287496618
 20
-6284.771415221639
 30
0.0
 11
65.14897190236086
 21
-6284.792410221257
 31
0.0
  0
SPLINE
  5
3A497A
330
18
100
AcDbEntity
  8
姿図
100
AcDbSpline
210
0.0
220
0.0
230
1.0
 70
     8
 71
     3
 72
     9
 73
     5
 74
     0
 42
0.000000001
 43
0.0000000001
 40
0.0
 40
0.0
 40
0.0
 40
0.0
 40
0.5012989832082765
 40
1.0
 40
1.0
 40
1.0
 40
1.0
 10
53.05361503805277
 20
-6284.81358068302
 30
0.0
 10
53.02906938741877
 20
-6284.818061433724
 30
0.0
 10
52.98010529322327
 20
-6284.82699971378
 30
0.0
 10
52.94241777619802
 20
-6284.810955732779
 30
0.0
 10
52.92362297313714
 20
-6284.802954583141
 30
0.0
  0
SPLINE
  5
3A497B
330
18
100
AcDbEntity
  8
姿図
100
AcDbSpline
210
0.0
220
0.0
230
1.0
 70
     8
 71
     3
 72
    10
 73
     6
 74
     0
 42
0.000000001
 43
0.0000000001
 40
0.0
 40
0.0
 40
0.0
 40
0.0
 40
0.4078162274400892
 40
0.9041120633699119
 40
1.0
 40
1.0
 40
1.0
 40
1.0
 10
48.31062701614829
 20
-6285.12532506779
 30
0.0
 10
48.03830324736049
 20
-6285.149195220551
 30
0.0
 10
47.43457247860495
 20
-6285.202114382698
 30
0.0
 10
46.80398988611186
 20
-6285.267252164413
 30
0.0
 10
46.44216576399371
 20
-6285.307495914151
 30
0.0
 10
46.38357826109237
 20
-6285.314012286776
 30
0.0
  0
SPLINE
  5
3A497C
330
18
100
AcDbEntity
  8
姿図
100
AcDbSpline
210
0.0
220
0.0
230
1.0
 70
     8
 71
     3
 72
    10
 73
     6
 74
     0
 42
0.000000001
 43
0.0000000001
 40
0.0
 40
0.0
 40
0.0
 40
0.0
 40
0.211258902807259
 40
0.6771239914644376
 40
1.0
 40
1.0
 40
1.0
 40
1.0
 10
71.95719738020044
 20
-6285.253769123369
 30
0.0
 10
71.80694231242607
 20
-6285.238440464934
 30
0.0
 10
71.32534693406753
 20
-6285.18930926977
 30
0.0
 10
70.58558368606283
 20
-6285.12131340287
 30
0.0
 10
69.9716227392539
 20
-6285.073803963225
 30
0.0
 10
69.72029405788055
 20
-6285.054355682547
 30
0.0
  0
LINE
  5
3A497D
330
18
100
AcDbEntity
  8
姿図
100
AcDbLine
 10
76.93411368104005
 20
-6260.055015782356
 30
0.0
 11
69.3181531997876
 21
-6262.200717713202
 31
0.0
  0
LINE
  5
3A497E
330
18
100
AcDbEntity
  8
姿図
100
AcDbLine
 10
71.96399806169956
 20
-6285.253776235014
 30
0.0
 11
71.95785655263697
 21
-6285.253229379835
 31
0.0
  0
SPLINE
  5
3A497F
330
18
100
AcDbEntity
  8
姿図
100
AcDbSpline
210
0.0
220
0.0
230
1.0
 70
     8
 71
     3
 72
    15
 73
    11
 74
     0
 42
0.000000001
 43
0.0000000001
 40
0.0
 40
0.0
 40
0.0
 40
0.0
 40
0.1531130096893389
 40
0.3279343359114498
 40
0.473848737760402
 40
0.5970250787779874
 40
0.7031614209346195
 40
0.7994550851150914
 40
0.9076944614308334
 40
1.0
 40
1.0
 40
1.0
 40
1.0
 10
77.61678716055505
 20
-6260.553159931408
 30
0.0
 10
77.61405368757
 20
-6260.502761519178
 30
0.0
 10
77.60819919062067
 20
-6260.394819222966
 30
0.0
 10
77.53229576698082
 20
-6260.254479808544
 30
0.0
 10
77.43179877405268
 20
-6260.148597980371
 30
0.0
 10
77.32662908445121
 20
-6260.083463019558
 30
0.0
 10
77.22591156844327
 20
-6260.047178135453
 30
0.0
 10
77.12548960649465
 20
-6260.031816895235
 30
0.0
 10
77.02734916129867
 20
-6260.031191395786
 30
0.0
 10
76.96432770305246
 20
-6260.049855441875
 30
0.0
 10
76.9353205868752
 20
-6260.058446010364
 30
0.0
  0
LINE
  5
3A4980
330
18
100
AcDbEntity
  8
姿図
100
AcDbLine
 10
48.71548614350551
 20
-6262.11724701903
 30
0.0
 11
41.29432443801802
 21
-6260.136414675476
 31
0.0
  0
SPLINE
  5
3A4981
330
18
100
AcDbEntity
  8
姿図
100
AcDbSpline
210
0.0
220
0.0
230
1.0
 70
     8
 71
     3
 72
    15
 73
    11
 74
     0
 42
0.000000001
 43
0.0000000001
 40
0.0
 40
0.0
 40
0.0
 40
0.0
 40
0.0074501606872113
 40
0.1056549296997654
 40
0.2121067714197579
 40
0.3276091653036953
 40
0.4670933402542918
 40
0.6781931481621295
 40
0.8715012923116455
 40
1.0
 40
1.0
 40
1.0
 40
1.0
 10
41.29578883599148
 20
-6260.137512127659
 30
0.0
 10
41.29352443288673
 20
-6260.13666830939
 30
0.0
 10
41.26141165560783
 20
-6260.124701646709
 30
0.0
 10
41.19189349747503
 20
-6260.117606745109
 30
0.0
 10
41.0880594834131
 20
-6260.116571689399
 30
0.0
 10
40.97235689088338
 20
-6260.14103024217
 30
0.0
 10
40.83364161296815
 20
-6260.205437228825
 30
0.0
 10
40.70454196501204
 20
-6260.33059888067
 30
0.0
 10
40.62299972025354
 20
-6260.490346069114
 30
0.0
 10
40.62157647112615
 20
-6260.595604771511
 30
0.0
 10
40.62100816230196
 20
-6260.637634974266
 30
0.0
  0
LINE
  5
3A4982
330
18
100
AcDbEntity
  8
姿図
100
AcDbLine
 10
83.93575611010075
 20
-6298.655863732837
 30
0.0
 11
83.28339535790624
 21
-6261.582373045812
 31
0.0
  0
LINE
  5
3A4983
330
18
100
AcDbEntity
  8
姿図
100
AcDbLine
 10
35.25823780210571
 20
-6261.692560134291
 30
0.0
 11
34.60450806773692
 21
-6298.843894914148
 31
0.0
  0
LINE
  5
3A4984
330
18
100
AcDbEntity
  8
姿図
100
AcDbLine
 10
34.62531371294213
 20
-6297.66160028531
 30
0.0
 11
34.09209967319208
 21
-6298.844269071661
 31
0.0
  0
LINE
  5
3A4985
330
18
100
AcDbEntity
  8
姿図
100
AcDbLine
 10
82.65345900019992
 20
-6261.071803292305
 30
0.0
 11
77.64659375512113
 21
-6261.918246885963
 31
0.0
  0
LINE
  5
3A4986
330
18
100
AcDbEntity
  8
姿図
100
AcDbLine
 10
58.17818211236032
 20
-6274.628533804555
 30
0.0
 11
58.04840561005253
 21
-6274.632943814244
 31
0.0
  0
SPLINE
  5
3A4987
330
18
100
AcDbEntity
  8
姿図
100
AcDbSpline
210
0.0
220
0.0
230
1.0
 70
     8
 71
     3
 72
    10
 73
     6
 74
     0
 42
0.000000001
 43
0.0000000001
 40
0.0
 40
0.0
 40
0.0
 40
0.0
 40
0.4506427467967331
 40
0.9816069883650074
 40
1.0
 40
1.0
 40
1.0
 40
1.0
 10
60.49240632880792
 20
-6274.625965700189
 30
0.0
 10
60.40930894851934
 20
-6274.623909222057
 30
0.0
 10
60.22830310789304
 20
-6274.619429724005
 30
0.0
 10
60.04930685975856
 20
-6274.608932637725
 30
0.0
 10
59.97726283727274
 20
-6274.600887850642
 30
0.0
 10
59.97485073378999
 20
-6274.600618503397
 30
0.0
  0
SPLINE
  5
3A4988
330
18
100
AcDbEntity
  8
姿図
100
AcDbSpline
210
0.0
220
0.0
230
1.0
 70
     8
 71
     3
 72
     9
 73
     5
 74
     0
 42
0.000000001
 43
0.0000000001
 40
0.0
 40
0.0
 40
0.0
 40
0.0
 40
0.6785182885744088
 40
0.9999999999999998
 40
0.9999999999999998
 40
0.9999999999999998
 40
0.9999999999999998
 10
61.9096993913366
 20
-6274.651507672615
 30
0.0
 10
61.8082549133426
 20
-6274.652607766607
 30
0.0
 10
61.65874607960592
 20
-6274.654229084722
 30
0.0
 10
61.51614535128839
 20
-6274.649204964999
 30
0.0
 10
61.4703018250983
 20
-6274.647589802394
 30
0.0
  0
SPLINE
  5
3A4989
330
18
100
AcDbEntity
  8
姿図
100
AcDbSpline
210
0.0
220
0.0
230
1.0
 70
     8
 71
     3
 72
     9
 73
     5
 74
     0
 42
0.000000001
 43
0.0000000001
 40
0.0
 40
0.0
 40
0.0
 40
0.0
 40
0.9623575798345839
 40
1.0
 40
1.0
 40
1.0
 40
1.0
 10
62.01798275312275
 20
-6274.648110075722
 30
0.0
 10
61.9839251746
 20
-6274.649770559111
 30
0.0
 10
61.94853544084987
 20
-6274.65149599197
 30
0.0
 10
61.91110824169284
 20
-6274.651507248877
 30
0.0
 10
61.9096993913366
 20
-6274.651507672615
 30
0.0
  0
SPLINE
  5
3A498A
330
18
100
AcDbEntity
  8
姿図
100
AcDbSpline
210
0.0
220
0.0
230
1.0
 70
     8
 71
     3
 72
    10
 73
     6
 74
     0
 42
0.000000001
 43
0.0000000001
 40
0.0
 40
0.0
 40
0.0
 40
0.0
 40
0.4601576206019529
 40
0.9625422874072501
 40
1.0
 40
1.0
 40
1.0
 40
1.0
 10
57.11932902749963
 20
-6274.658496551179
 30
0.0
 10
57.02890389643404
 20
-6274.660861644214
 30
0.0
 10
56.83975563810216
 20
-6274.665808866554
 30
0.0
 10
56.62982987895938
 20
-6274.665154578457
 30
0.0
 10
56.52778350376476
 20
-6274.660670709155
 30
0.0
 10
56.52070287441985
 20
-6274.660359589661
 30
0.0
  0
SPLINE
  5
3A498B
330
18
100
AcDbEntity
  8
姿図
100
AcDbSpline
210
0.0
220
0.0
230
1.0
 70
     8
 71
     3
 72
     9
 73
     5
 74
     0
 42
0.000000001
 43
0.0000000001
 40
0.0
 40
0.0
 40
0.0
 40
0.0
 40
0.4622545152599978
 40
1.0
 40
1.0
 40
1.0
 40
1.0
 10
61.46817126306591
 20
-6274.648625286311
 30
0.0
 10
61.32333285484633
 20
-6274.644526666865
 30
0.0
 10
61.01000242012201
 20
-6274.635660080789
 30
0.0
 10
60.69202503971642
 20
-6274.630095440269
 30
0.0
 10
60.52103413915386
 20
-6274.627103079954
 30
0.0
  0
SPLINE
  5
3A498C
330
18
100
AcDbEntity
  8
姿図
100
AcDbSpline
210
0.0
220
0.0
230
1.0
 70
     8
 71
     3
 72
    15
 73
    11
 74
     0
 42
0.000000001
 43
0.0000000001
 40
0.0
 40
0.0
 40
0.0
 40
0.0
 40
0.061048120705051
 40
0.2724645338476034
 40
0.4415151775185027
 40
0.5838752896677502
 40
0.7034715040655792
 40
0.8067614752555003
 40
0.8996962558432294
 40
1.0
 40
1.0
 40
1.0
 40
1.0
 10
83.27622738819922
 20
-6261.582526155682
 30
0.0
 10
83.27797658578626
 20
-6261.563817433842
 30
0.0
 10
83.28578344862937
 20
-6261.480318333191
 30
0.0
 10
83.23242990150449
 20
-6261.348067202266
 30
0.0
 10
83.13826129575833
 20
-6261.217964169973
 30
0.0
 10
83.03201847476984
 20
-6261.136470702778
 30
0.0
 10
82.92964139269134
 20
-6261.089286656014
 30
0.0
 10
82.83512101249
 20
-6261.06721401284
 30
0.0
 10
82.74389762319576
 20
-6261.058593058158
 30
0.0
 10
82.68546790165784
 20
-6261.069979662
 30
0.0
 10
82.65513896053166
 20
-6261.075890072463
 30
0.0
  0
LINE
  5
3A498D
330
18
100
AcDbEntity
  8
姿図
100
AcDbLine
 10
56.60704041434903
 20
-6274.681571712601
 30
0.0
 11
56.41118700315401
 21
-6263.551233362366
 31
0.0
  0
LINE
  5
3A498E
330
18
100
AcDbEntity
  8
姿図
100
AcDbLine
 10
62.18468570246139
 20
-6263.535165375472
 30
0.0
 11
61.98883208573575
 21
-6274.66551343909
 31
0.0
  0
LINE
  5
3A498F
330
18
100
AcDbEntity
  8
姿図
100
AcDbLine
 10
40.59022091377356
 20
-6261.942122446662
 30
0.0
 11
35.88423018403663
 21
-6261.180399043255
 31
0.0
  0
SPLINE
  5
3A4990
330
18
100
AcDbEntity
  8
姿図
100
AcDbSpline
210
0.0
220
0.0
230
1.0
 70
     8
 71
     3
 72
    15
 73
    11
 74
     0
 42
0.000000001
 43
0.0000000001
 40
0.0
 40
0.0
 40
0.0
 40
0.0
 40
0.0496975451091876
 40
0.1482896492393029
 40
0.2492012891961976
 40
0.397976718538
 40
0.5663819098422856
 40
0.7452501139219163
 40
0.9434052576154199
 40
1.0
 40
1.0
 40
1.0
 40
1.0
 10
35.92798485163901
 20
-6261.189225960409
 30
0.0
 10
35.9124423108233
 20
-6261.185872500278
 30
0.0
 10
35.86606581635488
 20
-6261.175866303283
 30
0.0
 10
35.78597896103672
 20
-6261.170353515165
 30
0.0
 10
35.67457998368755
 20
-6261.180642090963
 30
0.0
 10
35.54603680339383
 20
-6261.223191169297
 30
0.0
 10
35.41272445970383
 20
-6261.315300703754
 30
0.0
 10
35.30947618994051
 20
-6261.457025302333
 30
0.0
 10
35.25530374821143
 20
-6261.592871163288
 30
0.0
 10
35.26378514293758
 20
-6261.674357056939
 30
0.0
 10
35.26566935319961
 20
-6261.692459805602
 30
0.0
  0
SPLINE
  5
3A4991
330
18
100
AcDbEntity
  8
姿図
100
AcDbSpline
210
0.0
220
0.0
230
1.0
 70
     8
 71
     3
 72
    12
 73
     8
 74
     0
 42
0.000000001
 43
0.0000000001
 40
0.0
 40
0.0
 40
0.0
 40
0.0
 40
0.0866486931158893
 40
0.4083546082137593
 40
0.6748954339875818
 40
0.9006687497258731
 40
1.0
 40
1.0
 40
1.0
 40
1.0
 10
56.40464908841273
 20
-6263.551395460484
 30
0.0
 10
56.4063541247048
 20
-6263.535370127421
 30
0.0
 10
56.41438955376904
 20
-6263.459846557828
 30
0.0
 10
56.36859493942164
 20
-6263.336534005773
 30
0.0
 10
56.28615434707737
 20
-6263.210872079808
 30
0.0
 10
56.20417078355586
 20
-6263.134666485659
 30
0.0
 10
56.15048163393618
 20
-6263.107165248636
 30
0.0
 10
56.13407764914061
 20
-6263.098762622087
 30
0.0
  0
SPLINE
  5
3A4992
330
18
100
AcDbEntity
  8
姿図
100
AcDbSpline
210
0.0
220
0.0
230
1.0
 70
     8
 71
     3
 72
    11
 73
     7
 74
     0
 42
0.000000001
 43
0.0000000001
 40
0.0
 40
0.0
 40
0.0
 40
0.0
 40
0.1139944446994695
 40
0.4530176800534462
 40
0.795441631694036
 40
1.0
 40
1.0
 40
1.0
 40
1.0
 10
62.44304181553644
 20
-6263.095651326586
 30
0.0
 10
62.42512968107971
 20
-6263.105191323948
 30
0.0
 10
62.35394626843386
 20
-6263.143103587861
 30
0.0
 10
62.26222600743934
 20
-6263.255339327333
 30
0.0
 10
62.19125913690522
 20
-6263.400847208576
 30
0.0
 10
62.19264166501222
 20
-6263.498741763341
 30
0.0
 10
62.19315869761705
 20
-6263.535351996722
 30
0.0
  0
LINE
  5
3A4993
330
18
100
AcDbEntity
  8
姿図
100
AcDbLine
 10
86.05711265770677
 20
-6300.26958163723
 30
0.0
 11
85.39737868243685
 21
-6262.7769212386
 31
0.0
  0
LINE
  5
3A4994
330
18
100
AcDbEntity
  8
姿図
100
AcDbLine
 10
33.50506890436832
 20
-6262.896149854074
 30
0.0
 11
32.86690271468494
 21
-6299.163009582813
 31
0.0
  0
LINE
  5
3A4995
330
18
100
AcDbEntity
  8
姿図
100
AcDbLine
 10
84.8038297229535
 20
-6262.29234762382
 30
0.0
 11
83.29871729339987
 21
-6262.453041605837
 31
0.0
  0
LINE
  5
3A4996
330
18
100
AcDbEntity
  8
姿図
100
AcDbLine
 10
35.2435439474815
 20
-6262.52757591677
 30
0.0
 11
34.09590451503685
 21
-6262.410390001734
 31
0.0
  0
SPLINE
  5
3A4997
330
18
100
AcDbEntity
  8
姿図
100
AcDbSpline
210
0.0
220
0.0
230
1.0
 70
     8
 71
     3
 72
    15
 73
    11
 74
     0
 42
0.000000001
 43
0.0000000001
 40
0.0
 40
0.0
 40
0.0
 40
0.0
 40
0.1723209088212201
 40
0.3576031089236185
 40
0.5101159432981843
 40
0.6407660055166624
 40
0.7527886933783017
 40
0.8437806656500566
 40
0.926504816371148
 40
1.0
 40
1.0
 40
1.0
 40
1.0
 10
85.39299373114493
 20
-6262.807887293639
 30
0.0
 10
85.38945337327112
 20
-6262.754711652796
 30
0.0
 10
85.38210636592864
 20
-6262.64436071155
 30
0.0
 10
85.30390782654484
 20
-6262.503679009416
 30
0.0
 10
85.20330646412069
 20
-6262.400031023686
 30
0.0
 10
85.09894610749939
 20
-6262.336428801223
 30
0.0
 10
85.00197210421433
 20
-6262.302344332783
 30
0.0
 10
84.91528882111419
 20
-6262.288364673817
 30
0.0
 10
84.8394311132761
 20
-6262.286854210876
 30
0.0
 10
84.79194227175209
 20
-6262.293097489561
 30
0.0
 10
84.76960059975185
 20
-6262.296034711867
 30
0.0
  0
LINE
  5
3A4998
330
18
100
AcDbEntity
  8
姿図
100
AcDbLine
 10
84.79943748608173
 20
-6262.296031409661
 30
0.0
 11
84.85304199884469
 21
-6262.291419940875
 31
0.0
  0
SPLINE
  5
3A4999
330
18
100
AcDbEntity
  8
姿図
100
AcDbSpline
210
0.0
220
0.0
230
1.0
 70
     8
 71
     3
 72
    14
 73
    10
 74
     0
 42
0.000000001
 43
0.0000000001
 40
0.0
 40
0.0
 40
0.0
 40
0.0
 40
0.0377041673011427
 40
0.141788597673048
 40
0.3544575026390486
 40
0.5321592383806067
 40
0.7278418360560214
 40
0.9290426591579922
 40
0.9999999999999998
 40
0.9999999999999998
 40
0.9999999999999998
 40
0.9999999999999998
 10
34.15512833363208
 20
-6262.419413568633
 30
0.0
 10
34.1435298373072
 20
-6262.417270442803
 30
0.0
 10
34.09991305309646
 20
-6262.409211100085
 30
0.0
 10
33.9885741527
 20
-6262.402545912943
 30
0.0
 10
33.83342415542444
 20
-6262.434975825561
 30
0.0
 10
33.67432628958411
 20
-6262.533952195815
 30
0.0
 10
33.56265773980152
 20
-6262.676732581926
 30
0.0
 10
33.50326252721477
 20
-6262.818824018982
 30
0.0
 10
33.51122097184739
 20
-6262.904186058532
 30
0.0
 10
33.51329590526183
 20
-6262.926441732393
 30
0.0
  0
LINE
  5
3A499A
330
18
100
AcDbEntity
  8
姿図
100
AcDbLine
 10
34.07119183348844
 20
-6262.411118323958
 30
0.0
 11
34.09197624701662
 21
-6262.412599780018
 31
0.0
  0
LINE
  5
3A499B
330
18
100
AcDbEntity
  8
姿図
100
AcDbLine
 10
56.87653260207865
 20
-6274.663650360164
 30
0.0
 11
56.71776192264792
 21
-6265.64072407161
 31
0.0
  0
SPLINE
  5
3A499C
330
18
100
AcDbEntity
  8
姿図
100
AcDbSpline
210
0.0
220
0.0
230
1.0
 70
     8
 71
     3
 72
    12
 73
     8
 74
     0
 42
0.000000001
 43
0.0000000001
 40
0.0
 40
0.0
 40
0.0
 40
0.0
 40
0.0676672889887253
 40
0.3946761588850513
 40
0.6567754506140041
 40
0.877697700981626
 40
1.0
 40
1.0
 40
1.0
 40
1.0
 10
56.71226865245178
 20
-6265.640870313661
 30
0.0
 10
56.71378100996019
 20
-6265.628367263847
 30
0.0
 10
56.7226019847794
 20
-6265.555441988597
 30
0.0
 10
56.67871887833584
 20
-6265.434465085828
 30
0.0
 10
56.59900698132918
 20
-6265.307756102298
 30
0.0
 10
56.51609266551948
 20
-6265.228806472915
 30
0.0
 10
56.4599777308388
 20
-6265.198477434942
 30
0.0
 10
56.43998211708387
 20
-6265.187670192052
 30
0.0
  0
SPLINE
  5
3A499D
330
18
100
AcDbEntity
  8
姿図
100
AcDbSpline
210
0.0
220
0.0
230
1.0
 70
     8
 71
     3
 72
    11
 73
     7
 74
     0
 42
0.000000001
 43
0.0000000001
 40
0.0
 40
0.0
 40
0.0
 40
0.0
 40
0.2463313386820966
 40
0.5947279530967448
 40
0.9588907931506266
 40
1.0
 40
1.0
 40
1.0
 40
1.0
 10
59.85243340334594
 20
-6265.264531461371
 30
0.0
 10
59.88967979267363
 20
-6265.285057775947
 30
0.0
 10
59.9796052930327
 20
-6265.334615307349
 30
0.0
 10
60.07693642722472
 20
-6265.469332146871
 30
0.0
 10
60.13445509970705
 20
-6265.592113255509
 30
0.0
 10
60.13132775514923
 20
-6265.661395942078
 30
0.0
 10
60.13101052958361
 20
-6265.668423706057
 30
0.0
  0
LINE
  5
3A499E
330
18
100
AcDbEntity
  8
姿図
100
AcDbLine
 10
60.33382835554682
 20
-6265.747815763523
 30
0.0
 11
60.02927789857783
 21
-6265.389021451341
 31
0.0
  0
SPLINE
  5
3A499F
330
18
100
AcDbEntity
  8
姿図
100
AcDbSpline
210
0.0
220
0.0
230
1.0
 70
     8
 71
     3
 72
    10
 73
     6
 74
     0
 42
0.000000001
 43
0.0000000001
 40
0.0
 40
0.0
 40
0.0
 40
0.0
 40
0.3597837735259594
 40
0.8124027638984145
 40
1.0
 40
1.0
 40
1.0
 40
1.0
 10
60.44854940218789
 20
-6266.035911252036
 30
0.0
 10
60.44478831900242
 20
-6265.993893045865
 30
0.0
 10
60.436295678144
 20
-6265.899014651289
 30
0.0
 10
60.37779320054063
 20
-6265.792287751331
 30
0.0
 10
60.32415597987657
 20
-6265.740359643201
 30
0.0
 10
60.30843911121163
 20
-6265.725143581568
 30
0.0
  0
CIRCLE
  5
3A49A0
330
18
100
AcDbEntity
  8
姿図
100
AcDbCircle
 10
59.78599573863245
 20
-6318.544930286126
 30
0.0
 40
1.216117675230308
  0
ARC
  5
3A49A1
330
18
100
AcDbEntity
  8
姿図
100
AcDbCircle
 10
59.78048278460228
 20
-6318.554517901991
 30
0.0
 40
1.221890553865824
100
AcDbArc
 50
174.6860185928922
 51
329.796189073627
  0
LWPOLYLINE
  5
3A49A2
330
18
100
AcDbEntity
  8
姿図
100
AcDbPolyline
 90
        3
 70
   128
 43
0.0
 10
60.99443812188664
 20
-6318.680011633727
 10
60.96206487522137
 20
-6318.863149688595
 10
60.83649111734802
 20
-6319.169223463052
  0
SPLINE
  5
3A49A3
330
18
100
AcDbEntity
  8
姿図
100
AcDbSpline
210
0.0
220
0.0
230
1.0
 70
     8
 71
     3
 72
    12
 73
     8
 74
     0
 42
0.000000001
 43
0.0000000001
 40
0.0
 40
0.0
 40
0.0
 40
0.0
 40
0.1439987643445465
 40
0.3586244819359287
 40
0.5725387690457041
 40
0.7862100194185415
 40
1.0
 40
1.0
 40
1.0
 40
1.0
 10
29.72282993186586
 20
-6329.483787935064
 30
0.0
 10
29.69334991436586
 20
-6329.481261097627
 30
0.0
 10
29.61993083989297
 20
-6329.474968086912
 30
0.0
 10
29.50945849833077
 20
-6329.425245847174
 30
0.0
 10
29.41044472579671
 20
-6329.334515614455
 30
0.0
 10
29.34324309688235
 20
-6329.21585423794
 30
0.0
 10
29.33462267032343
 20
-6329.127668688618
 30
0.0
 10
29.33031125985346
 20
-6329.083563666895
 30
0.0
  0
ARC
  5
3A49A4
330
18
100
AcDbEntity
  8
姿図
100
AcDbCircle
 10
45.97336491973341
 20
-6270.964394988193
 30
0.0
 40
61.97799772085655
100
AcDbArc
 50
259.2279616824245
 51
263.301507666936
  0
ARC
  5
3A49A5
330
18
100
AcDbEntity
  8
姿図
100
AcDbCircle
 10
74.30572977046728
 20
-6278.872732672946
 30
0.0
 40
53.95239074348925
100
AcDbArc
 50
278.2433090228835
 51
280.6617273837705
  0
LWPOLYLINE
  5
3A49A6
330
18
100
AcDbEntity
  8
姿図
100
AcDbPolyline
 90
       44
 70
   128
 43
0.0
 10
86.59416650842823
 20
-6328.236841262434
 10
86.265906991933
 20
-6328.148894946838
 10
85.50727412504862
 20
-6327.965228331578
 10
84.67004502577679
 20
-6327.787105344866
 10
83.7567482669178
 20
-6327.615063818107
 10
82.7701341274531
 20
-6327.449621820031
 10
81.71318209889031
 20
-6327.291279406919
 10
80.58907957633583
 20
-6327.140513399416
 10
79.401215401321
 20
-6326.997779289359
 10
78.15317626956632
 20
-6326.863506735114
 10
76.84872389007546
 20
-6326.738101569997
 10
75.49179337821175
 20
-6326.621941658652
 10
74.0864780347742
 20
-6326.515377498978
 10
72.6370176042817
 20
-6326.41873037566
 10
71.14778314864678
 20
-6326.332292016436
 10
69.62326729077137
 20
-6326.25632310669
 10
68.0680689180673
 20
-6326.191052625921
 10
66.486878226282
 20
-6326.136677823815
 10
64.88446552611263
 20
-6326.093362386249
 10
63.26566403695115
 20
-6326.061236992089
 10
61.63535659464469
 20
-6326.040398695216
 10
59.99846122477989
 20
-6326.030910280771
 10
58.35991529783663
 20
-6326.032800221035
 10
56.72466095115284
 20
-6326.046062976036
 10
55.09763071891311
 20
-6326.070658666997
 10
53.48373257597518
 20
-6326.106513052429
 10
51.88783588927359
 20
-6326.153517524815
 10
50.31475143202749
 20
-6326.211530867997
 10
48.76922767786671
 20
-6326.280377909226
 10
47.255924159455
 20
-6326.359851125308
 10
45.77940706296643
 20
-6326.449710226559
 10
44.34412914769555
 20
-6326.549684859828
 10
42.95442180481178
 20
-6326.659473164308
 10
41.6144732091096
 20
-6326.778743960498
 10
40.32832744920575
 20
-6326.907137362289
 10
39.09986497664738
 20
-6327.044266228295
 10
37.93278898269736
 20
-6327.189716958044
 10
36.83062102106699
 20
-6327.343050814204
 10
35.79668673234981
 20
-6327.503805177844
 10
34.83410333631594
 20
-6327.671495317779
 10
33.94577590699654
 20
-6327.845615253708
 10
33.13438200986488
 20
-6328.025639776612
 10
32.40236963605668
 20
-6328.211025902486
 10
32.07859027893981
 20
-6328.302122028055
  0
SPLINE
  5
3A49A7
330
18
100
AcDbEntity
  8
姿図
100
AcDbSpline
210
0.0
220
0.0
230
1.0
 70
     8
 71
     3
 72
    12
 73
     8
 74
     0
 42
0.000000001
 43
0.0000000001
 40
0.0
 40
0.0
 40
0.0
 40
0.0
 40
0.2137899805814586
 40
0.4274612309542961
 40
0.6413755180640714
 40
0.8560012356554535
 40
1.0
 40
1.0
 40
1.0
 40
1.0
 10
30.31525224059173
 20
-6328.390440332285
 30
0.0
 10
30.3195168421169
 20
-6328.434578294429
 30
0.0
 10
30.32804367678215
 20
-6328.522829706301
 30
0.0
 10
30.39451438123922
 20
-6328.642005449471
 30
0.0
 10
30.49244672065386
 20
-6328.733496709038
 30
0.0
 10
30.60170687900399
 20
-6328.784071987167
 30
0.0
 10
30.67431532506589
 20
-6328.790935453857
 30
0.0
 10
30.703469850316
 20
-6328.793691346922
 30
0.0
  0
LINE
  5
3A49A8
330
18
100
AcDbEntity
  8
姿図
100
AcDbLine
 10
29.33031125985346
 20
-6329.083563666895
 30
0.0
 11
29.33031125896403
 21
-6328.494264798443
 31
0.0
  0
LINE
  5
3A49A9
330
18
100
AcDbEntity
  8
姿図
100
AcDbLine
 10
30.31525223970226
 20
-6327.801141463831
 30
0.0
 11
30.31525224059173
 21
-6328.390440332285
 31
0.0
  0
LWPOLYLINE
  5
3A49AA
330
18
100
AcDbEntity
  8
姿図
100
AcDbPolyline
 90
        3
 70
   128
 43
0.0
 10
29.33031125896403
 20
-6328.494264798443
 10
29.23388737543216
 20
-6328.703929060573
 10
29.21971947711997
 20
-6328.820963544633
  0
LWPOLYLINE
  5
3A49AB
330
18
100
AcDbEntity
  8
姿図
100
AcDbPolyline
 90
       54
 70
   128
 43
0.0
 10
89.68272816766901
 20
-6328.820963344056
 10
89.67954841458841
 20
-6328.765517891749
 10
89.60985689829072
 20
-6328.555684362563
 10
89.44914417729888
 20
-6328.346651410937
 10
89.19789788215648
 20
-6328.139049895711
 10
88.85687632019267
 20
-6327.933506558678
 10
88.42710711430448
 20
-6327.730641466183
 10
87.90988861638616
 20
-6327.531067014476
 10
87.30678095929952
 20
-6327.335385435881
 10
86.61960559371651
 20
-6327.144187366573
 10
85.85043557901272
 20
-6326.958049888333
 10
85.00159071458728
 20
-6326.777534680303
 10
84.0756372941544
 20
-6326.60318643373
 10
83.07536620098008
 20
-6326.435531564402
 10
82.00379595218863
 20
-6326.275076070292
 10
80.86416211985518
 20
-6326.122304185421
 10
79.65990476678637
 20
-6325.977676672657
 10
78.39465678036011
 20
-6325.841630242692
 10
77.07223680108198
 20
-6325.714575497765
 10
75.6966367812206
 20
-6325.596896017092
 10
74.27200738797792
 20
-6325.488946761446
 10
72.80264919244236
 20
-6325.391053241079
 10
71.2929960684075
 20
-6325.303511770351
 10
69.7476042449024
 20
-6325.226585743718
 10
68.1711380684036
 20
-6325.160507523719
 10
66.5683548009524
 20
-6325.105476831819
 10
64.94409225446
 20
-6325.061659203679
 10
63.30325184910616
 20
-6325.029187499787
 10
61.65078600189831
 20
-6325.008159407356
 10
59.99168194142548
 20
-6324.998638336261
 10
58.33094684624237
 20
-6325.000653081342
 10
56.67359275635774
 20
-6325.014197479532
 10
55.0246212010486
 20
-6325.039231008346
 10
53.38900907470874
 20
-6325.075677517136
 10
51.77169352925893
 20
-6325.123427727179
 10
50.17755401174736
 20
-6325.182336927919
 10
48.61140350981717
 20
-6325.252227621412
 10
47.07796780974931
 20
-6325.332888735078
 10
45.58187364110802
 20
-6325.424076931948
 10
44.12763812609109
 20
-6325.525517002789
 10
42.71964845343063
 20
-6325.63690298388
 10
41.36215703797027
 20
-6325.757898047016
 10
40.05925672270325
 20
-6325.888137885161
 10
38.81488217807268
 20
-6326.027228848654
 10
37.6327899444353
 20
-6326.174751440842
 10
36.51654347588637
 20
-6326.330260294165
 10
35.4695153712786
 20
-6326.493286116427
 10
34.4948658380185
 20
-6326.663336781091
 10
33.59553238712259
 20
-6326.839899304623
 10
32.77423358638947
 20
-6327.022440721607
 10
32.03344369055586
 20
-6327.210410114688
 10
31.37540300275383
 20
-6327.403240113754
 10
30.80209508796734
 20
-6327.600348866091
 10
30.31525223970226
 20
-6327.801141463831
  0
LWPOLYLINE
  5
3A49AC
330
18
100
AcDbEntity
  8
姿図
100
AcDbPolyline
 90
       39
 70
   128
 43
0.0
 10
64.41012999554005
 20
-6326.313444632178
 10
62.82660962570632
 20
-6326.283336650225
 10
61.2320792272086
 20
-6326.264709642954
 10
59.63174046370369
 20
-6326.257623994664
 10
58.03081243419606
 20
-6326.26210320596
 10
56.43451785141384
 20
-6326.278132631867
 10
54.84806281030874
 20
-6326.30565965398
 10
53.27662324991696
 20
-6326.344594636549
 10
51.72532303907408
 20
-6326.394810744443
 10
50.19922325561201
 20
-6326.456144015469
 10
48.7033008203078
 20
-6326.528394770444
 10
47.24243726562399
 20
-6326.61132672613
 10
45.82139502500072
 20
-6326.704669615745
 10
44.44481094742316
 20
-6326.808119357535
 10
43.11717529071676
 20
-6326.92133789335
 10
41.84281725678681
 20
-6327.043956335209
 10
40.62589552821992
 20
-6327.175574592285
 10
39.47037663748348
 20
-6327.315763406831
 10
38.38003080710951
 20
-6327.464065523386
 10
37.35841602912119
 20
-6327.619997222583
 10
36.40886115180328
 20
-6327.783049674448
 10
35.53446734964399
 20
-6327.952691420274
 10
34.73808503672153
 20
-6328.128368795802
 10
34.02231215535652
 20
-6328.309508893681
 10
33.38948232075793
 20
-6328.495520873732
 10
32.8416618854412
 20
-6328.685798028778
 10
32.38063476667857
 20
-6328.879719671131
 10
32.00790686668839
 20
-6329.076653296466
 10
31.72469332029789
 20
-6329.27595652531
 10
31.53191788443886
 20
-6329.476979290806
 10
31.43021000256589
 20
-6329.679065904553
 10
31.41989935372758
 20
-6329.881557134382
 10
31.50102246192738
 20
-6330.083792585809
 10
31.67331259503934
 20
-6330.285112535932
 10
31.9362087943814
 20
-6330.484860369879
 10
32.28885293913334
 20
-6330.682384646634
 10
32.73009725268074
 20
-6330.877040849265
 10
33.25849775084338
 20
-6331.068194237396
 10
33.67454298744561
 20
-6331.198170317505
  0
LWPOLYLINE
  5
3A49AD
330
18
100
AcDbEntity
  8
姿図
100
AcDbPolyline
 90
       33
 70
   128
 43
0.0
 10
85.31823193484254
 20
-6331.17117337882
 10
85.512965326996
 20
-6331.110738015702
 10
86.06078576231268
 20
-6330.920460860657
 10
86.5218128810754
 20
-6330.726539218305
 10
86.89454078106549
 20
-6330.529605592968
 10
87.17775432745601
 20
-6330.330302364125
 10
87.3705297633151
 20
-6330.129279598629
 10
87.47223764518803
 20
-6329.927192984882
 10
87.48254829402634
 20
-6329.724701755054
 10
87.40142518582654
 20
-6329.522466303627
 10
87.22913505271462
 20
-6329.321146353503
 10
86.96623885337245
 20
-6329.121398519556
 10
86.61359470862057
 20
-6328.923874242802
 10
86.17235039507312
 20
-6328.729218040169
 10
85.64394989691054
 20
-6328.53806465204
 10
85.03011292867129
 20
-6328.351037629129
 10
84.33284314615995
 20
-6328.16874707061
 10
83.55441601712884
 20
-6327.991787610865
 10
82.69736811951627
 20
-6327.820736280719
 10
81.76449646083867
 20
-6327.65615122825
 10
80.7588438058066
 20
-6327.498568857927
 10
79.68368877802473
 20
-6327.348503763661
 10
78.54254096305402
 20
-6327.206445142275
 10
77.33912077150865
 20
-6327.072856019999
 10
76.07735382342568
 20
-6326.948172808932
 10
74.76135593557736
 20
-6326.832801806588
 10
73.39542015060788
 20
-6326.727119533015
 10
71.98400058979348
 20
-6326.631470468289
 10
70.53170260204212
 20
-6326.546166512732
 10
69.04326171940981
 20
-6326.471486192778
 10
67.52353359817012
 20
-6326.407673168673
 10
65.9774755269182
 20
-6326.354935182415
 10
64.41012999554005
 20
-6326.313444632178
  0
LINE
  5
3A49AE
330
18
100
AcDbEntity
  8
姿図
100
AcDbLine
 10
30.3104211711277
 20
-6329.497140033052
 30
0.0
 11
29.72282993186586
 21
-6329.483787935064
 31
0.0
  0
LINE
  5
3A49AF
330
18
100
AcDbEntity
  8
姿図
100
AcDbLine
 10
31.29106108957787
 20
-6328.807043444909
 30
0.0
 11
30.3104211711277
 21
-6329.497140033052
 31
0.0
  0
LINE
  5
3A49B0
330
18
100
AcDbEntity
  8
姿図
100
AcDbLine
 10
30.703469850316
 20
-6328.793691346922
 30
0.0
 11
31.29106108957787
 21
-6328.807043444909
 31
0.0
  0
ARC
  5
3A49B1
330
18
100
AcDbEntity
  8
姿図
100
AcDbCircle
 10
32.44395744658947
 20
-6328.551281333028
 30
0.0
 40
2.30215436415089
100
AcDbArc
 50
122.1050059568323
 51
128.1646810400444
  0
SPLINE
  5
3A49B2
330
18
100
AcDbEntity
  8
姿図
100
AcDbSpline
210
0.0
220
0.0
230
1.0
 70
     8
 71
     3
 72
     9
 73
     5
 74
     0
 42
0.000000001
 43
0.0000000001
 40
0.0
 40
0.0
 40
0.0
 40
0.0
 40
0.5044981328393896
 40
1.0
 40
1.0
 40
1.0
 40
1.0
 10
30.65961577521971
 20
-6327.669320446489
 30
0.0
 10
30.71732905171594
 20
-6327.462445567196
 30
0.0
 10
30.83172645527296
 20
-6327.052384823995
 30
0.0
 10
30.95855672306449
 20
-6326.844331175145
 30
0.0
 10
31.02140135756768
 20
-6326.74124020367
 30
0.0
  0
SPLINE
  5
3A49B3
330
18
100
AcDbEntity
  8
姿図
100
AcDbSpline
210
0.0
220
0.0
230
1.0
 70
     8
 71
     3
 72
     9
 73
     5
 74
     0
 42
0.000000001
 43
0.0000000001
 40
0.0
 40
0.0
 40
0.0
 40
0.0
 40
0.9175230971082109
 40
0.9999999999999998
 40
0.9999999999999998
 40
0.9999999999999998
 40
0.9999999999999998
 10
31.6134511135116
 20
-6327.076961955722
 30
0.0
 10
31.59924312323878
 20
-6327.161869654737
 30
0.0
 10
31.58375796508038
 20
-6327.254409776378
 30
0.0
 10
31.56856486052352
 20
-6327.347005280637
 30
0.0
 10
31.56731178031439
 20
-6327.35464227105
 30
0.0
  0
SPLINE
  5
3A49B4
330
18
100
AcDbEntity
  8
姿図
100
AcDbSpline
210
0.0
220
0.0
230
1.0
 70
     8
 71
     3
 72
     9
 73
     5
 74
     0
 42
0.000000001
 43
0.0000000001
 40
0.0
 40
0.0
 40
0.0
 40
0.0
 40
0.5415231394152729
 40
1.0
 40
1.0
 40
1.0
 40
1.0
 10
31.2204255020332
 20
-6326.601182797817
 30
0.0
 10
31.29509113519688
 20
-6326.624956332739
 30
0.0
 10
31.43297191577496
 20
-6326.668857568331
 30
0.0
 10
31.55671690111827
 20
-6326.948673037756
 30
0.0
 10
31.6134511135116
 20
-6327.076961955722
 30
0.0
  0
LWPOLYLINE
  5
3A49B5
330
18
100
AcDbEntity
  8
姿図
100
AcDbPolyline
 90
       43
 70
   128
 43
0.0
 10
85.6856672050885
 20
-6311.194130614993
 10
85.374544590356
 20
-6311.107469058126
 10
84.65071004098088
 20
-6310.926085481993
 10
83.84758616813411
 20
-6310.750119682936
 10
82.96770421913882
 20
-6310.580125191733
 10
82.01383058152037
 20
-6310.416636871584
 10
80.98896718965159
 20
-6310.260168873793
 10
79.89633622827284
 20
-6310.111213974249
 10
78.73937942362791
 20
-6309.97024055597
 10
77.52173384134102
 20
-6309.837692059149
 10
76.24723077090707
 20
-6309.713986008012
 10
74.91988269831563
 20
-6309.599510871406
 10
73.543864360211
 20
-6309.49462752788
 10
72.12350499184174
 20
-6309.39966593021
 10
70.66327424068741
 20
-6309.314924469381
 10
69.16776600017798
 20
-6309.240669923164
 10
67.64168593055082
 20
-6309.177135908822
 10
66.0898360111082
 20
-6309.124522216155
 10
64.51709822267331
 20
-6309.082994752633
 10
62.928421312132
 20
-6309.052683978925
 10
61.32880360508373
 20
-6309.03368546613
 10
59.72327842790462
 20
-6309.026058616726
 10
58.11689739307817
 20
-6309.029827548483
 10
56.51471495145377
 20
-6309.044980427493
 10
54.92177207470209
 20
-6309.071469413329
 10
53.34308029696429
 20
-6309.109211560125
 10
51.78360641837314
 20
-6309.158088153065
 10
50.24825754887833
 20
-6309.217944684458
 10
48.74186465817411
 20
-6309.288593639246
 10
47.26916884867423
 20
-6309.369812287489
 10
45.83480049991514
 20
-6309.461345053839
 10
44.44327554364112
 20
-6309.562904380695
 10
43.09897126168206
 20
-6309.674170178237
 10
41.80611731396877
 20
-6309.794792621907
 10
40.56877957225213
 20
-6309.924392100984
 10
39.39085487303401
 20
-6310.062561152904
 10
38.27604715574944
 20
-6310.208864552905
 10
37.22786311375531
 20
-6310.362842374511
 10
36.24960449879326
 20
-6310.524010130592
 10
35.3443432947721
 20
-6310.691860420752
 10
34.51493330345912
 20
-6310.86586532713
 10
33.76398376785251
 20
-6311.045477394685
 10
33.48784507403207
 20
-6311.11829446845
  0
LINE
  5
3A49B6
330
18
100
AcDbEntity
  8
姿図
100
AcDbLine
 10
30.41223545571865
 20
-6312.245730543903
 30
0.0
 11
30.4124342615421
 21
-6312.236305855303
 31
0.0
  0
LINE
  5
3A49B7
330
18
100
AcDbEntity
  8
姿図
100
AcDbLine
 10
88.49021260122716
 20
-6312.245730520852
 30
0.0
 11
88.49016358175729
 21
-6312.259255294087
 31
0.0
  0
SPLINE
  5
3A49B8
330
18
100
AcDbEntity
  8
姿図
100
AcDbSpline
210
0.0
220
0.0
230
1.0
 70
     8
 71
     3
 72
     9
 73
     5
 74
     0
 42
0.000000001
 43
0.0000000001
 40
0.0
 40
0.0
 40
0.0
 40
0.0
 40
0.5176239206946655
 40
1.0
 40
1.0
 40
1.0
 40
1.0
 10
30.95720479098765
 20
-6301.747091129255
 30
0.0
 10
30.9587004093476
 20
-6301.688223863757
 30
0.0
 10
30.96158980124033
 20
-6301.57449792656
 30
0.0
 10
30.97371604468489
 20
-6301.486420500779
 30
0.0
 10
30.97956545445438
 20
-6301.443934057457
 30
0.0
  0
LINE
  5
3A49B9
330
18
100
AcDbEntity
  8
姿図
100
AcDbLine
 10
30.87301672551681
 20
-6309.546047898911
 30
0.0
 11
30.95720479098765
 21
-6301.747091129255
 31
0.0
  0
ARC
  5
3A49BA
330
18
100
AcDbEntity
  8
姿図
100
AcDbCircle
 10
31.26752173820076
 20
-6311.845035980695
 30
0.0
 40
0.8578675532674992
100
AcDbArc
 50
117.1847128747093
 51
172.0361191435101
  0
LINE
  5
3A49BB
330
18
100
AcDbEntity
  8
姿図
100
AcDbLine
 10
30.98999442700172
 20
-6300.477131844332
 30
0.0
 11
30.87559584879346
 21
-6311.081929935535
 31
0.0
  0
SPLINE
  5
3A49BC
330
18
100
AcDbEntity
  8
姿図
100
AcDbSpline
210
0.0
220
0.0
230
1.0
 70
     8
 71
     3
 72
    12
 73
     8
 74
     0
 42
0.000000001
 43
0.0000000001
 40
0.0
 40
0.0
 40
0.0
 40
0.0
 40
0.2147212566684495
 40
0.429442938536405
 40
0.6441505422171888
 40
0.8588520876941294
 40
1.0
 40
1.0
 40
1.0
 40
1.0
 10
31.09378351688738
 20
-6299.88782212899
 30
0.0
 10
31.08226106946074
 20
-6299.900979542079
 30
0.0
 10
31.05921615179024
 20
-6299.92729439431
 30
0.0
 10
31.02891349879725
 20
-6300.037266270263
 30
0.0
 10
31.00586162548548
 20
-6300.185027643919
 30
0.0
 10
30.99305146665793
 20
-6300.340145223426
 30
0.0
 10
30.99086263031888
 20
-6300.4382274623
 30
0.0
 10
30.98999442700172
 20
-6300.477131844332
 30
0.0
  0
ARC
  5
3A49BD
330
18
100
AcDbEntity
  8
姿図
100
AcDbCircle
 10
36.11288618649825
 20
-6309.43236379449
 30
0.0
 40
10.78376869246357
100
AcDbArc
 50
100.2216502823662
 51
117.7381337408931
  0
SPLINE
  5
3A49BE
330
18
100
AcDbEntity
  8
姿図
100
AcDbSpline
210
0.0
220
0.0
230
1.0
 70
     8
 71
     3
 72
    12
 73
     8
 74
     0
 42
0.000000001
 43
0.0000000001
 40
0.0
 40
0.0
 40
0.0
 40
0.0
 40
0.2147008731777773
 40
0.4294009733731489
 40
0.6441014735368316
 40
0.8588035277655283
 40
1.0
 40
1.0
 40
1.0
 40
1.0
 10
34.45562768727821
 20
-6299.285178597255
 30
0.0
 10
34.45324747137437
 20
-6299.226963902134
 30
0.0
 10
34.44848704813625
 20
-6299.110534721478
 30
0.0
 10
34.40430544108191
 20
-6298.963622756451
 30
0.0
 10
34.3387086340296
 20
-6298.859937325479
 30
0.0
 10
34.26602211894944
 20
-6298.813555011349
 30
0.0
 10
34.21820542661426
 20
-6298.817989182095
 30
0.0
 10
34.19923499608529
 20
-6298.819748361243
 30
0.0
  0
LINE
  5
3A49BF
330
18
100
AcDbEntity
  8
姿図
100
AcDbLine
 10
34.35515996150838
 20
-6309.885185742314
 30
0.0
 11
34.45562768727821
 21
-6299.285178597255
 31
0.0
  0
ARC
  5
3A49C0
330
18
100
AcDbEntity
  8
姿図
100
AcDbCircle
 10
46.88434523733687
 20
-6371.358163051088
 30
0.0
 40
62.73681074840396
100
AcDbArc
 50
95.50881659876578
 51
101.5200167989838
  0
LINE
  5
3A49C1
330
18
100
AcDbEntity
  8
姿図
100
AcDbLine
 10
40.936098911759
 20
-6298.314998549636
 30
0.0
 11
40.86167905865633
 21
-6308.911106155017
 31
0.0
  0
SPLINE
  5
3A49C2
330
18
100
AcDbEntity
  8
姿図
100
AcDbSpline
210
0.0
220
0.0
230
1.0
 70
     8
 71
     3
 72
    12
 73
     8
 74
     0
 42
0.000000001
 43
0.0000000001
 40
0.0
 40
0.0
 40
0.0
 40
0.0
 40
0.2147205577184864
 40
0.4294432031314441
 40
0.6441507227609722
 40
0.8588519251611362
 40
1.0
 40
1.0
 40
1.0
 40
1.0
 10
41.34848595429041
 20
-6297.749446504784
 30
0.0
 10
41.30221667501459
 20
-6297.759944048586
 30
0.0
 10
41.20967766659397
 20
-6297.780939238255
 30
0.0
 10
41.08660476730041
 20
-6297.883851052016
 30
0.0
 10
40.99361643315076
 20
-6298.026272039017
 30
0.0
 10
40.94397214273914
 20
-6298.1785152586
 30
0.0
 10
40.93833492245598
 20
-6298.276237067916
 30
0.0
 10
40.936098911759
 20
-6298.314998549636
 30
0.0
  0
ARC
  5
3A49C3
330
18
100
AcDbEntity
  8
姿図
100
AcDbCircle
 10
56.03408819228096
 20
-6446.26082946347
 30
0.0
 40
149.2357121515962
100
AcDbArc
 50
92.6414172761263
 51
95.64735459092608
  0
SPLINE
  5
3A49C4
330
18
100
AcDbEntity
  8
姿図
100
AcDbSpline
210
0.0
220
0.0
230
1.0
 70
     8
 71
     3
 72
    12
 73
     8
 74
     0
 42
0.000000001
 43
0.0000000001
 40
0.0
 40
0.0
 40
0.0
 40
0.0
 40
0.2147008970233673
 40
0.4294009436569745
 40
0.6441019709528916
 40
0.8588042079312423
 40
1.0
 40
1.0
 40
1.0
 40
1.0
 10
49.6497680058825
 20
-6297.683609748243
 30
0.0
 10
49.64449333543547
 20
-6297.625042735212
 30
0.0
 10
49.63394401543367
 20
-6297.507908941123
 30
0.0
 10
49.54890869998229
 20
-6297.355049452669
 30
0.0
 10
49.4235340825276
 20
-6297.242574695602
 30
0.0
 10
49.28462182963696
 20
-6297.186453457246
 30
0.0
 10
49.19292461746952
 20
-6297.184466109524
 30
0.0
 10
49.15654548792744
 20
-6297.183677667014
 30
0.0
  0
LINE
  5
3A49C5
330
18
100
AcDbEntity
  8
姿図
100
AcDbLine
 10
49.61037139772905
 20
-6308.277179495529
 30
0.0
 11
49.6497680058825
 21
-6297.683609748243
 31
0.0
  0
ARC
  5
3A49C6
330
18
100
AcDbEntity
  8
姿図
100
AcDbCircle
 10
59.34095997927594
 20
-6525.924568742713
 30
0.0
 40
217.8647984421941
100
AcDbArc
 50
89.94607276932139
 51
92.55987744630919
  0
LINE
  5
3A49C7
330
18
100
AcDbEntity
  8
姿図
100
AcDbLine
 10
59.54563642606655
 20
-6297.467167156026
 30
0.0
 11
59.54601598178424
 21
-6308.059866800672
 31
0.0
  0
SPLINE
  5
3A49C8
330
18
100
AcDbEntity
  8
姿図
100
AcDbSpline
210
0.0
220
0.0
230
1.0
 70
     8
 71
     3
 72
    12
 73
     8
 74
     0
 42
0.000000001
 43
0.0000000001
 40
0.0
 40
0.0
 40
0.0
 40
0.0
 40
0.2147211836596055
 40
0.429442958297755
 40
0.6441504062763601
 40
0.8588521035011952
 40
1.0
 40
1.0
 40
1.0
 40
1.0
 10
60.07366057595866
 20
-6296.944898244237
 30
0.0
 10
60.01429406530355
 20
-6296.950533802925
 30
0.0
 10
59.89556088059839
 20
-6296.961804935811
 30
0.0
 10
59.73730826586915
 20
-6297.051768892076
 30
0.0
 10
59.61789078300346
 20
-6297.18441335775
 30
0.0
 10
59.55463883900654
 20
-6297.331460324305
 30
0.0
 10
59.54819312237784
 20
-6297.428626249452
 30
0.0
 10
59.54563642606655
 20
-6297.467167156026
 30
0.0
  0
ARC
  5
3A49C9
330
18
100
AcDbEntity
  8
姿図
100
AcDbCircle
 10
59.58272865173881
 20
-6513.541160641238
 30
0.0
 40
216.5968187635843
100
AcDbArc
 50
87.52639792705325
 51
89.87013497459921
  0
SPLINE
  5
3A49CA
330
18
100
AcDbEntity
  8
姿図
100
AcDbSpline
210
0.0
220
0.0
230
1.0
 70
     8
 71
     3
 72
    12
 73
     8
 74
     0
 42
0.000000001
 43
0.0000000001
 40
0.0
 40
0.0
 40
0.0
 40
0.0
 40
0.2147010274793175
 40
0.4294009883451816
 40
0.6441015357209418
 40
0.8588037958909801
 40
1.0
 40
1.0
 40
1.0
 40
1.0
 10
69.43011798643656
 20
-6297.691776642237
 30
0.0
 10
69.42441697047371
 20
-6297.632704376799
 30
0.0
 10
69.41301496687034
 20
-6297.514560139393
 30
0.0
 10
69.32691378563727
 20
-6297.353824093057
 30
0.0
 10
69.20042653696441
 20
-6297.229757051315
 30
0.0
 10
69.06028628710135
 20
-6297.160791955886
 30
0.0
 10
68.96761571404811
 20
-6297.15031905336
 30
0.0
 10
68.93085035970962
 20
-6297.146164120898
 30
0.0
  0
LINE
  5
3A49CB
330
18
100
AcDbEntity
  8
姿図
100
AcDbLine
 10
69.4702277470009
 20
-6308.285379094061
 30
0.0
 11
69.43011798643656
 21
-6297.691776642237
 31
0.0
  0
ARC
  5
3A49CC
330
18
100
AcDbEntity
  8
姿図
100
AcDbCircle
 10
62.98311377083111
 20
-6456.035465855101
 30
0.0
 40
147.8924297779805
100
AcDbArc
 50
84.0997477947077
 51
87.4859866434623
  0
LINE
  5
3A49CD
330
18
100
AcDbEntity
  8
姿図
100
AcDbLine
 10
78.11099735946979
 20
-6298.330346965868
 30
0.0
 11
78.18599934553524
 21
-6308.92651624347
 31
0.0
  0
SPLINE
  5
3A49CE
330
18
100
AcDbEntity
  8
姿図
100
AcDbSpline
210
0.0
220
0.0
230
1.0
 70
     8
 71
     3
 72
    12
 73
     8
 74
     0
 42
0.000000001
 43
0.0000000001
 40
0.0
 40
0.0
 40
0.0
 40
0.0
 40
0.2147218902481118
 40
0.4294423688640058
 40
0.6441500153094744
 40
0.8588519762260494
 40
1.0
 40
1.0
 40
1.0
 40
1.0
 10
78.50759008968508
 20
-6297.850634553672
 30
0.0
 10
78.46290444256162
 20
-6297.851480868808
 30
0.0
 10
78.37353344208903
 20
-6297.853173493519
 30
0.0
 10
78.25414880685321
 20
-6297.930359998181
 30
0.0
 10
78.16417879156016
 20
-6298.053367007448
 30
0.0
 10
78.1169183456401
 20
-6298.195326909926
 30
0.0
 10
78.11267892656367
 20
-6298.292001109865
 30
0.0
 10
78.11099735946979
 20
-6298.330346965868
 30
0.0
  0
ARC
  5
3A49CF
330
18
100
AcDbEntity
  8
姿図
100
AcDbCircle
 10
72.20802502319331
 20
-6358.802679376065
 30
0.0
 40
61.2767189726897
100
AcDbArc
 50
78.64796112366407
 51
84.09927085291471
  0
SPLINE
  5
3A49D0
330
18
100
AcDbEntity
  8
姿図
100
AcDbSpline
210
0.0
220
0.0
230
1.0
 70
     8
 71
     3
 72
    12
 73
     8
 74
     0
 42
0.000000001
 43
0.0000000001
 40
0.0
 40
0.0
 40
0.0
 40
0.0
 40
0.214701009377638
 40
0.4294017270670204
 40
0.6441021966254245
 40
0.8588043252805434
 40
0.9999999999999998
 40
0.9999999999999998
 40
0.9999999999999998
 40
0.9999999999999998
 10
84.54123303935452
 20
-6299.305857474578
 30
0.0
 10
84.53777296416555
 20
-6299.246363655118
 30
0.0
 10
84.5308528184883
 20
-6299.127376097024
 30
0.0
 10
84.48397390191924
 20
-6298.960519890047
 30
0.0
 10
84.415557866262
 20
-6298.827481888118
 30
0.0
 10
84.33976243787505
 20
-6298.74857842225
 30
0.0
 10
84.28948082919784
 20
-6298.731525876383
 30
0.0
 10
84.26953255866671
 20
-6298.72476060361
 30
0.0
  0
LINE
  5
3A49D1
330
18
100
AcDbEntity
  8
姿図
100
AcDbLine
 10
84.64208011940204
 20
-6309.905947748707
 30
0.0
 11
84.54123303935452
 21
-6299.305857474578
 31
0.0
  0
ARC
  5
3A49D2
330
18
100
AcDbEntity
  8
姿図
100
AcDbCircle
 10
83.01076366416308
 20
-6320.022019287886
 30
0.0
 40
10.24676030572173
100
AcDbArc
 50
60.47903900031742
 51
80.83935311924478
  0
LINE
  5
3A49D3
330
18
100
AcDbEntity
  8
姿図
100
AcDbLine
 10
87.94524277019053
 20
-6300.500646994659
 30
0.0
 11
88.05977218241769
 21
-6311.105539615644
 31
0.0
  0
SPLINE
  5
3A49D4
330
18
100
AcDbEntity
  8
姿図
100
AcDbSpline
210
0.0
220
0.0
230
1.0
 70
     8
 71
     3
 72
    12
 73
     8
 74
     0
 42
0.000000001
 43
0.0000000001
 40
0.0
 40
0.0
 40
0.0
 40
0.0
 40
0.2147217722712603
 40
0.4294427482907864
 40
0.6441507710985364
 40
0.8588521357439391
 40
1.0
 40
1.0
 40
1.0
 40
1.0
 10
88.02483362904935
 20
-6300.042851462813
 30
0.0
 10
88.01573766210775
 20
-6300.04122246409
 30
0.0
 10
87.9975457619553
 20
-6300.037964472686
 30
0.0
 10
87.97289335501122
 20
-6300.108521201641
 30
0.0
 10
87.95446729671966
 20
-6300.226538658495
 30
0.0
 10
87.94531015764159
 20
-6300.365902769732
 30
0.0
 10
87.9452619083202
 20
-6300.462379447763
 30
0.0
 10
87.94524277019053
 20
-6300.500646994659
 30
0.0
  0
ARC
  5
3A49D5
330
18
100
AcDbEntity
  8
姿図
100
AcDbCircle
 10
87.60402592240472
 20
-6300.679588154364
 30
0.0
 40
0.7632252225516492
100
AcDbArc
 50
6.36461564946543
 51
56.54000885123656
  0
SPLINE
  5
3A49D6
330
18
100
AcDbEntity
  8
姿図
100
AcDbSpline
210
0.0
220
0.0
230
1.0
 70
    11
 71
     3
 72
    26
 73
    22
 74
     0
 42
0.000000001
 43
0.0000000001
 40
0.0
 40
0.0
 40
0.0
 40
0.0
 40
0.0536853111088883
 40
0.107371647375469
 40
0.1610314036479431
 40
0.2146764106174738
 40
0.2683473360784924
 40
0.3220522092476634
 40
0.3757590133865687
 40
0.4294399854606011
 40
0.483104586283451
 40
0.5367777723024189
 40
0.5904638295310449
 40
0.6441478342578297
 40
0.6978246825430002
 40
0.7515050702117899
 40
0.8051916516641334
 40
0.8588708930613355
 40
0.9125374674554151
 40
0.9662109024902429
 40
1.0
 40
1.0
 40
1.0
 40
1.0
 10
65.13858037062889
 20
-6302.830424739363
 30
0.0
 10
65.06826389599472
 20
-6302.887548725223
 30
0.0
 10
64.92762960398518
 20
-6303.001797787765
 30
0.0
 10
64.65765058427849
 20
-6303.069904569497
 30
0.0
 10
64.38113207475374
 20
-6303.049694854844
 30
0.0
 10
64.12333044187638
 20
-6302.937473718027
 30
0.0
 10
63.91493171680997
 20
-6302.747352148642
 30
0.0
 10
63.77922743907717
 20
-6302.50002811476
 30
0.0
 10
63.7319491197976
 20
-6302.223353698518
 30
0.0
 10
63.77849255585139
 20
-6301.948542764149
 30
0.0
 10
63.91347478696302
 20
-6301.706644784234
 30
0.0
 10
64.12147637476983
 20
-6301.524996701751
 30
0.0
 10
64.37886628220546
 20
-6301.424234845683
 30
0.0
 10
64.65644892153792
 20
-6301.415877053933
 30
0.0
 10
64.92287216685213
 20
-6301.500869900253
 30
0.0
 10
65.14827335576565
 20
-6301.669559829747
 30
0.0
 10
65.30739523766415
 20
-6301.902690557432
 30
0.0
 10
65.38281054223296
 20
-6302.174156301307
 30
0.0
 10
65.36505036310922
 20
-6302.45188524317
 30
0.0
 10
65.27326789041636
 20
-6302.677808886662
 30
0.0
 10
65.17611363708806
 20
-6302.787895398305
 30
0.0
 10
65.13858037062889
 20
-6302.830424739363
 30
0.0
  0
LINE
  5
3A49D7
330
18
100
AcDbEntity
  8
姿図
100
AcDbLine
 10
59.53376453544405
 20
-6307.879596776242
 30
0.0
 11
59.53375443357803
 21
-6308.059861881873
 31
0.0
  0
LINE
  5
3A49D8
330
18
100
AcDbEntity
  8
姿図
100
AcDbLine
 10
59.53376453544405
 20
-6307.879596776242
 30
0.0
 11
59.54195411231046
 21
-6307.562411571747
 31
0.0
  0
LINE
  5
3A49D9
330
18
100
AcDbEntity
  8
姿図
100
AcDbLine
 10
59.54195411231046
 20
-6307.562411571747
 30
0.0
 11
59.54256849423578
 21
-6297.586002604231
 31
0.0
  0
LINE
  5
3A49DA
330
18
100
AcDbEntity
  8
姿図
100
AcDbLine
 10
59.54563642606655
 20
-6297.467167156026
 30
0.0
 11
59.54256849423578
 21
-6297.586002604231
 31
0.0
  0
SPLINE
  5
3A49DB
330
18
100
AcDbEntity
  8
姿図
100
AcDbSpline
210
0.0
220
0.0
230
1.0
 70
     8
 71
     3
 72
    16
 73
    12
 74
     0
 42
0.000000001
 43
0.0000000001
 40
0.0
 40
0.0
 40
0.0
 40
0.0
 40
0.0768475230870856
 40
0.1991437907043088
 40
0.321399633134947
 40
0.4436744423862023
 40
0.5659969415224312
 40
0.688321349188337
 40
0.810599375098693
 40
0.9328562688028874
 40
1.0
 40
1.0
 40
1.0
 40
1.0
 10
63.95750533344979
 20
-6301.688863142755
 30
0.0
 10
64.00951834464263
 20
-6301.664962224426
 30
0.0
 10
64.1443056194798
 20
-6301.603025036525
 30
0.0
 10
64.39146247443362
 20
-6301.604807153814
 30
0.0
 10
64.65648713666546
 20
-6301.686872584152
 30
0.0
 10
64.88197513434977
 20
-6301.856388988674
 30
0.0
 10
65.04057788146012
 20
-6302.089395634799
 30
0.0
 10
65.11619835471407
 20
-6302.361701821928
 30
0.0
 10
65.09624739539248
 20
-6302.638251709409
 30
0.0
 10
65.01289903212422
 20
-6302.862712252164
 30
0.0
 10
64.912789357019
 20
-6302.96076647844
 30
0.0
 10
64.87729983781071
 20
-6302.99552732791
 30
0.0
  0
LINE
  5
3A49DC
330
18
100
AcDbEntity
  8
姿図
100
AcDbLine
 10
50.88316562798564
 20
-6308.223361544683
 30
0.0
 11
50.88224543594034
 21
-6308.068822891025
 31
0.0
  0
LINE
  5
3A49DD
330
18
100
AcDbEntity
  8
姿図
100
AcDbLine
 10
49.96829551688875
 20
-6297.795411252543
 30
0.0
 11
49.6497680058825
 21
-6297.683609748243
 31
0.0
  0
LINE
  5
3A49DE
330
18
100
AcDbEntity
  8
姿図
100
AcDbLine
 10
50.03205912560021
 20
-6307.770412242287
 30
0.0
 11
50.88224543594034
 21
-6308.068822891025
 31
0.0
  0
LINE
  5
3A49DF
330
18
100
AcDbEntity
  8
姿図
100
AcDbLine
 10
49.96829551688875
 20
-6297.795411252543
 30
0.0
 11
50.03205912560021
 21
-6307.770412242287
 31
0.0
  0
SPLINE
  5
3A49E0
330
18
100
AcDbEntity
  8
姿図
100
AcDbSpline
210
0.0
220
0.0
230
1.0
 70
     8
 71
     3
 72
    11
 73
     7
 74
     0
 42
0.000000001
 43
0.0000000001
 40
0.0
 40
0.0
 40
0.0
 40
0.0
 40
0.259690897637604
 40
0.5378871822904082
 40
0.81620332868962
 40
1.0
 40
1.0
 40
1.0
 40
1.0
 10
49.64311876220887
 20
-6297.320600111444
 30
0.0
 10
49.69054668279205
 20
-6297.341804083717
 30
0.0
 10
49.78878220354586
 20
-6297.385723008112
 30
0.0
 10
49.8980210166043
 20
-6297.515389276856
 30
0.0
 10
49.9589407604542
 20
-6297.659147326595
 30
0.0
 10
49.96563357566808
 20
-6297.756636692896
 30
0.0
 10
49.96829551688875
 20
-6297.795411252543
 30
0.0
  0
LINE
  5
3A49E1
330
18
100
AcDbEntity
  8
姿図
100
AcDbLine
 10
75.76395742607068
 20
-6308.694155751609
 30
0.0
 11
75.76463669968463
 21
-6308.634236573401
 31
0.0
  0
LINE
  5
3A49E2
330
18
100
AcDbEntity
  8
姿図
100
AcDbLine
 10
75.76463669968463
 20
-6308.634236573401
 30
0.0
 11
77.38320003024202
 21
-6308.391924424622
 31
0.0
  0
LINE
  5
3A49E3
330
18
100
AcDbEntity
  8
姿図
100
AcDbLine
 10
77.38320003024202
 20
-6308.391924424622
 30
0.0
 11
77.5045923420714
 21
-6298.421130815504
 31
0.0
  0
LINE
  5
3A49E4
330
18
100
AcDbEntity
  8
姿図
100
AcDbLine
 10
78.11099735946979
 20
-6298.330346965868
 30
0.0
 11
77.5045923420714
 21
-6298.421130815504
 31
0.0
  0
SPLINE
  5
3A49E5
330
18
100
AcDbEntity
  8
姿図
100
AcDbSpline
210
0.0
220
0.0
230
1.0
 70
     8
 71
     3
 72
    12
 73
     8
 74
     0
 42
0.000000001
 43
0.0000000001
 40
0.0
 40
0.0
 40
0.0
 40
0.0
 40
0.2452728161214859
 40
0.4905473292457144
 40
0.735780654118684
 40
0.9809040671914312
 40
1.0
 40
1.0
 40
1.0
 40
1.0
 10
77.5045923420714
 20
-6298.421130815504
 30
0.0
 10
77.50977687303806
 20
-6298.362647949684
 30
0.0
 10
77.5201459708423
 20
-6298.24568181341
 30
0.0
 10
77.59147046834443
 20
-6298.095184636444
 30
0.0
 10
77.69502977349849
 20
-6297.990054123338
 30
0.0
 10
77.78281323453335
 20
-6297.943964051724
 30
0.0
 10
77.83061948819353
 20
-6297.942787596326
 30
0.0
 10
77.83407459101609
 20
-6297.94270257033
 30
0.0
  0
LINE
  5
3A49E6
330
18
100
AcDbEntity
  8
姿図
100
AcDbLine
 10
35.43054512803836
 20
-6309.309514151184
 30
0.0
 11
36.90567301396659
 21
-6309.418025327982
 31
0.0
  0
LINE
  5
3A49E7
330
18
100
AcDbEntity
  8
姿図
100
AcDbLine
 10
35.26793567184391
 20
-6299.34493241242
 30
0.0
 11
34.45562768727821
 21
-6299.285178597255
 31
0.0
  0
LINE
  5
3A49E8
330
18
100
AcDbEntity
  8
姿図
100
AcDbLine
 10
35.26793567184391
 20
-6299.34493241242
 30
0.0
 11
35.43054512803836
 21
-6309.309514151184
 31
0.0
  0
SPLINE
  5
3A49E9
330
18
100
AcDbEntity
  8
姿図
100
AcDbSpline
210
0.0
220
0.0
230
1.0
 70
     8
 71
     3
 72
    12
 73
     8
 74
     0
 42
0.000000001
 43
0.0000000001
 40
0.0
 40
0.0
 40
0.0
 40
0.0
 40
0.1338951073167874
 40
0.3704643666810244
 40
0.6070345832200019
 40
0.8437051968689472
 40
0.9999999999999998
 40
0.9999999999999998
 40
0.9999999999999998
 40
0.9999999999999998
 10
35.03545635806887
 20
-6298.882968651047
 30
0.0
 10
35.05184029371338
 20
-6298.883159206973
 30
0.0
 10
35.09717178090451
 20
-6298.883686441925
 30
0.0
 10
35.16501509775691
 20
-6298.950185338794
 30
0.0
 10
35.22691743870347
 20
-6299.06874229991
 30
0.0
 10
35.26114790543017
 20
-6299.209609953859
 30
0.0
 10
35.26600417821506
 20
-6299.306425715133
 30
0.0
 10
35.26793567184391
 20
-6299.34493241242
 30
0.0
  0
LINE
  5
3A49EA
330
18
100
AcDbEntity
  8
姿図
100
AcDbLine
 10
30.703469850316
 20
-6328.793691346922
 30
0.0
 11
30.70047077293236
 21
-6328.79471639933
 31
0.0
  0
LWPOLYLINE
  5
3A49EB
330
18
100
AcDbEntity
  8
姿図
100
AcDbPolyline
 90
        3
 70
   128
 43
0.0
 10
30.31525224059173
 20
-6328.390440332285
 10
30.31072228836017
 20
-6328.393856712708
 10
30.31046790680024
 20
-6328.39489370298
  0
ARC
  5
3A49EC
330
18
100
AcDbEntity
  8
姿図
100
AcDbCircle
 10
30.32211329418129
 20
-6327.816678469417
 30
0.0
 40
0.0169844814799177
100
AcDbArc
 50
113.8259841135619
 51
124.2681391150612
  0
ELLIPSE
  5
3A49ED
330
18
100
AcDbEntity
  8
姿図
100
AcDbEllipse
 10
30.31042209829792
 20
-6329.366184426625
 30
0.0
 11
-0.03920489479678169
 21
0.1289045857560881
 31
0.0
210
0.0
220
0.0
230
1.0
 40
0.7688895410651523
 41
1.194126850606121
 42
2.764923177400645
  0
LINE
  5
3A49EE
330
18
100
AcDbEntity
  8
姿図
100
AcDbLine
 10
30.20383576467366
 20
-6329.316412107078
 30
0.0
 11
30.20383576471954
 21
-6329.34680133829
 31
0.0
  0
ARC
  5
3A49EF
330
18
100
AcDbEntity
  8
姿図
100
AcDbCircle
 10
30.3334551675333
 20
-6329.316214254345
 30
0.0
 40
0.1296195538620107
100
AcDbArc
 50
149.9619979585624
 51
180.0874569506221
  0
LINE
  5
3A49F0
330
18
100
AcDbEntity
  8
姿図
100
AcDbLine
 10
30.51927655197842
 20
-6328.737837547645
 30
0.0
 11
30.22124435153043
 21
-6329.251330038118
 31
0.0
  0
LINE
  5
3A49F1
330
18
100
AcDbEntity
  8
姿図
100
AcDbLine
 10
31.2204255020332
 20
-6326.601182797817
 30
0.0
 11
31.02140135756768
 21
-6326.74124020367
 31
0.0
  0
LINE
  5
3A49F2
330
18
100
AcDbEntity
  8
姿図
100
AcDbLine
 10
86.744977811693
 20
-6310.479519292834
 30
0.0
 11
86.83387429701047
 21
-6310.477574942598
 31
0.0
  0
LINE
  5
3A49F3
330
18
100
AcDbEntity
  8
姿図
100
AcDbLine
 10
86.83387429701047
 20
-6310.477574942598
 30
0.0
 11
87.019242962945
 21
-6300.520900466016
 31
0.0
  0
LINE
  5
3A49F4
330
18
100
AcDbEntity
  8
姿図
100
AcDbLine
 10
87.94524277019053
 20
-6300.500646994659
 30
0.0
 11
87.019242962945
 21
-6300.520900466016
 31
0.0
  0
SPLINE
  5
3A49F5
330
18
100
AcDbEntity
  8
姿図
100
AcDbSpline
210
0.0
220
0.0
230
1.0
 70
     8
 71
     3
 72
    12
 73
     8
 74
     0
 42
0.000000001
 43
0.0000000001
 40
0.0
 40
0.0
 40
0.0
 40
0.0
 40
0.2135499259457444
 40
0.4270839383812489
 40
0.6410294509124393
 40
0.8558366102090296
 40
1.0
 40
1.0
 40
1.0
 40
1.0
 10
29.48519245012031
 20
-6329.068559457692
 30
0.0
 10
29.48806043880387
 20
-6329.097976419074
 30
0.0
 10
29.49379620245158
 20
-6329.156808149715
 30
0.0
 10
29.53849547568251
 20
-6329.236097416152
 30
0.0
 10
29.60433738582292
 20
-6329.296831833698
 30
0.0
 10
29.67777531072649
 20
-6329.330252319764
 30
0.0
 10
29.72657884988599
 20
-6329.334639775094
 30
0.0
 10
29.74617846232467
 20
-6329.336401787144
 30
0.0
  0
ARC
  5
3A49F6
330
18
100
AcDbEntity
  8
姿図
100
AcDbCircle
 10
29.44840353728772
 20
-6329.364771538227
 30
0.0
 40
0.2991233002581429
100
AcDbArc
 50
336.5540319044021
 51
5.44228355832561
  0
ARC
  5
3A49F7
330
18
100
AcDbEntity
  8
姿図
100
AcDbCircle
 10
29.44492966136039
 20
-6329.459830065167
 30
0.0
 40
0.3933367265236719
100
AcDbArc
 50
84.12479073475345
 51
106.9418026714816
  0
LINE
  5
3A49F8
330
18
100
AcDbEntity
  8
姿図
100
AcDbLine
 10
29.74617846232467
 20
-6329.336401787144
 30
0.0
 11
30.20383576471954
 21
-6329.34680133829
 31
0.0
  0
LINE
  5
3A49F9
330
18
100
AcDbEntity
  8
姿図
100
AcDbLine
 10
29.4851924494285
 20
-6328.610215893341
 30
0.0
 11
29.48519245012034
 21
-6329.068559457692
 31
0.0
  0
LINE
  5
3A49FA
330
18
100
AcDbEntity
  8
姿図
100
AcDbLine
 10
30.36267429580184
 20
-6328.630155304979
 30
0.0
 11
29.4851924494285
 21
-6328.610215893341
 31
0.0
  0
ELLIPSE
  5
3A49FB
330
18
100
AcDbEntity
  8
姿図
100
AcDbEllipse
 10
29.46184356479867
 20
-6328.626646401826
 30
0.0
 11
-0.1304670894400357
 21
0.1334654304636603
 31
0.0
210
0.0
220
0.0
230
1.0
 40
0.1510418146348022
 41
4.6878917859342
 42
6.258688112729785
  0
ARC
  5
3A49FC
330
18
100
AcDbEntity
  8
姿図
100
AcDbCircle
 10
29.33534972041274
 20
-6328.497943215565
 30
0.0
 40
0.0062383368213032
100
AcDbArc
 50
123.4622287842605
 51
143.8680317143469
  0
LINE
  5
3A49FD
330
18
100
AcDbEntity
  8
姿図
100
AcDbLine
 10
86.94705465967404
 20
-6303.9238066488
 30
0.0
 11
86.82507355026732
 21
-6310.477767323732
 31
0.0
  0
SPLINE
  5
3A49FE
330
18
100
AcDbEntity
  8
姿図
100
AcDbSpline
210
0.0
220
0.0
230
1.0
 70
     8
 71
     3
 72
    12
 73
     8
 74
     0
 42
0.000000001
 43
0.0000000001
 40
0.0
 40
0.0
 40
0.0
 40
0.0
 40
0.2339469328538034
 40
0.4678960453546665
 40
0.701804448005177
 40
0.9356081388732993
 40
1.0
 40
1.0
 40
1.0
 40
1.0
 10
87.019242962945
 20
-6300.520900466016
 30
0.0
 10
87.0213377806437
 20
-6300.462732254978
 30
0.0
 10
87.0255274355583
 20
-6300.34639529096
 30
0.0
 10
87.04383909446052
 20
-6300.200328467354
 30
0.0
 10
87.06808663241485
 20
-6300.099926069535
 30
0.0
 10
87.0894040118106
 20
-6300.058129475429
 30
0.0
 10
87.10106119872687
 20
-6300.061131917453
 30
0.0
 10
87.10357843265615
 20
-6300.061780259888
 30
0.0
  0
LINE
  5
3A49FF
330
18
100
AcDbEntity
  8
姿図
100
AcDbLine
 10
32.76874663385819
 20
-6330.176954226285
 30
0.0
 11
32.76833533676909
 21
-6330.170195245241
 31
0.0
  0
LINE
  5
3A4A00
330
18
100
AcDbEntity
  8
姿図
100
AcDbLine
 10
86.13411200159823
 20
-6330.170195193204
 30
0.0
 11
86.13315941898088
 21
-6330.183997160115
 31
0.0
  0
ARC
  5
3A4A01
330
18
100
AcDbEntity
  8
姿図
100
AcDbCircle
 10
54.90630890315663
 20
-6229.320853326888
 30
0.0
 40
104.4115240576016
100
AcDbArc
 50
259.8634534404404
 51
269.7887026103958
  0
LINE
  5
3A4A02
330
18
100
AcDbEntity
  8
姿図
100
AcDbLine
 10
82.07057263049309
 20
-6332.168061839209
 30
0.0
 11
82.50161114821914
 21
-6332.073407583422
 31
0.0
  0
LWPOLYLINE
  5
3A4A03
330
18
100
AcDbEntity
  8
姿図
100
AcDbPolyline
 90
       44
 70
   128
 43
0.0
 10
84.329103680325
 20
-6329.358260682017
 10
83.92461808105283
 20
-6329.221609109755
 10
83.30867491819015
 20
-6329.042114050235
 10
82.61048707857834
 20
-6328.867499506229
 10
81.83246695133062
 20
-6328.698367488513
 10
80.97729284791463
 20
-6328.53530077604
 10
80.0479143720739
 20
-6328.378861774226
 10
79.04753411712667
 20
-6328.229589571606
 10
77.97960248523646
 20
-6328.087999190242
 10
76.84779882695477
 20
-6327.95457815581
 10
75.65602660079729
 20
-6327.829786387599
 10
74.4083919033803
 20
-6327.714054604887
 10
73.10919709762746
 20
-6327.60778133877
 10
71.76291997621645
 20
-6327.511333090547
 10
70.37420305981793
 20
-6327.425042192951
 10
68.94783151265811
 20
-6327.349206308312
 10
67.48872321596215
 20
-6327.284086623338
 10
66.00190851756595
 20
-6327.229907704886
 10
64.49251196691347
 20
-6327.186856453058
 10
62.9657367160528
 20
-6327.155081430804
 10
61.42684684079799
 20
-6327.134691514403
 10
59.8811462960936
 20
-6327.125757626779
 10
58.33396344946037
 20
-6327.128310490458
 10
56.79063236212719
 20
-6327.142340834074
 10
55.25647285998158
 20
-6327.167800835098
 10
53.73677351652752
 20
-6327.204602469429
 10
52.23677300957385
 20
-6327.252618983343
 10
50.76164196964194
 20
-6327.311684481021
 10
49.31646618958985
 20
-6327.381596070467
 10
47.90622597725277
 20
-6327.462112130609
 10
46.53578515084925
 20
-6327.552955220539
 10
45.20986553215557
 20
-6327.653812447712
 10
43.93304024362264
 20
-6327.764335789527
 10
42.70970779490684
 20
-6327.884144505833
 10
41.544086372643
 20
-6328.012825641031
 10
40.44019692721491
 20
-6328.149935377375
 10
39.40184154195554
 20
-6328.295001070893
 10
38.43259862097874
 20
-6328.44752287966
 10
37.53581388893868
 20
-6328.606974823006
 10
36.71457426010906
 20
-6328.772807347047
 10
35.97171325069064
 20
-6328.944448790376
 10
35.30979066684239
 20
-6329.121307370974
 10
34.73108928856128
 20
-6329.302773519835
 10
34.35523327455822
 20
-6329.440594775714
  0
SPLINE
  5
3A4A04
330
18
100
AcDbEntity
  8
姿図
100
AcDbSpline
210
0.0
220
0.0
230
1.0
 70
     8
 71
     3
 72
     9
 73
     5
 74
     0
 42
0.000000001
 43
0.0000000001
 40
0.0
 40
0.0
 40
0.0
 40
0.0
 40
0.1785431371962014
 40
1.0
 40
1.0
 40
1.0
 40
1.0
 10
54.36252174468826
 20
-6333.621856584922
 30
0.0
 10
54.3622076507695
 20
-6333.621473071073
 30
0.0
 10
54.36044844611064
 20
-6333.619325053209
 30
0.0
 10
54.3586969156685
 20
-6333.617176935015
 30
0.0
 10
54.35725810896645
 20
-6333.615412348581
 30
0.0
  0
LINE
  5
3A4A05
330
18
100
AcDbEntity
  8
姿図
100
AcDbLine
 10
63.13851098241653
 20
-6327.262110368742
 30
0.0
 11
63.96579467639528
 21
-6327.280909105361
 31
0.0
  0
LINE
  5
3A4A06
330
18
100
AcDbEntity
  8
姿図
100
AcDbLine
 10
63.12859176012411
 20
-6327.269090730577
 30
0.0
 11
63.13851098241653
 21
-6327.262110368742
 31
0.0
  0
LWPOLYLINE
  5
3A4A07
330
18
100
AcDbEntity
  8
姿図
100
AcDbPolyline
 90
       17
 70
   128
 43
0.0
 10
54.35725810896645
 20
-6333.615412348581
 10
52.85702145682809
 20
-6333.570693241245
 10
51.38090833109949
 20
-6333.514586735546
 10
49.93431905236242
 20
-6333.447297687513
 10
48.52254601218096
 20
-6333.369072731036
 10
47.15075327160166
 20
-6333.280197602753
 10
45.82395922254424
 20
-6333.180997695857
 10
44.54701758544909
 20
-6333.071836048628
 10
43.32460160234234
 20
-6332.953111721534
 10
42.16118043976623
 20
-6332.825259261014
 10
41.06101177703168
 20
-6332.688746003612
 10
40.02812101696366
 20
-6332.544071761541
 10
39.06628562086114
 20
-6332.391765781299
 10
38.1790251819411
 20
-6332.232384938446
 10
37.36958535365433
 20
-6332.066512740546
 10
36.64092569211083
 20
-6331.894755575648
 10
36.17062483313403
 20
-6331.768595518682
  0
LWPOLYLINE
  5
3A4A08
330
18
100
AcDbEntity
  8
姿図
100
AcDbPolyline
 90
       24
 70
   128
 43
0.0
 10
35.35294751739235
 20
-6329.409856439374
 10
35.83066941506884
 20
-6329.248384443413
 10
36.45212889774696
 20
-6329.070017110878
 10
37.15772606060389
 20
-6328.89672707093
 10
37.94487868902823
 20
-6328.729148247115
 10
38.81070918518164
 20
-6328.567893870893
 10
39.75204848210747
 20
-6328.413553727201
 10
40.76545592079933
 20
-6328.26669247359
 10
41.84721899036489
 20
-6328.127847185857
 10
42.99338366114833
 20
-6327.997526230709
 10
44.19975653097838
 20
-6327.876205997257
 10
45.46192428146383
 20
-6327.764330391336
 10
46.77526904081235
 20
-6327.662308815119
 10
48.13498715951744
 20
-6327.570514382237
 10
49.53610305102353
 20
-6327.489282968574
 10
50.97349138028191
 20
-6327.418911662906
 10
52.44189332462706
 20
-6327.359657872683
 10
53.93593888518641
 20
-6327.311738567291
 10
55.45015995233959
 20
-6327.275328995292
 10
56.97901866765836
 20
-6327.250562065183
 10
58.51692194518
 20
-6327.237528675359
 10
60.0582424025575
 20
-6327.236276610096
 10
61.59734250651645
 20
-6327.246810140415
 10
63.12859176012411
 20
-6327.269090730577
  0
SPLINE
  5
3A4A09
330
18
100
AcDbEntity
  8
姿図
100
AcDbSpline
210
0.0
220
0.0
230
1.0
 70
     8
 71
     3
 72
     9
 73
     5
 74
     0
 42
0.000000001
 43
0.0000000001
 40
0.0
 40
0.0
 40
0.0
 40
0.0
 40
0.4476975888699419
 40
0.9999999999999998
 40
0.9999999999999998
 40
0.9999999999999998
 40
0.9999999999999998
 10
54.26416816989946
 20
-6333.580010157486
 30
0.0
 10
54.24814787859076
 20
-6333.569925086082
 30
0.0
 10
54.21236414486727
 20
-6333.547398560018
 30
0.0
 10
54.18733116787844
 20
-6333.506893592807
 30
0.0
 10
54.1735053943297
 20
-6333.484522601754
 30
0.0
  0
SPLINE
  5
3A4A0A
330
18
100
AcDbEntity
  8
姿図
100
AcDbSpline
210
0.0
220
0.0
230
1.0
 70
     8
 71
     3
 72
    10
 73
     6
 74
     0
 42
0.000000001
 43
0.0000000001
 40
0.0
 40
0.0
 40
0.0
 40
0.0
 40
0.0753451867193532
 40
0.4686272837230194
 40
1.0
 40
1.0
 40
1.0
 40
1.0
 10
54.35725810896645
 20
-6333.615412348581
 30
0.0
 10
54.35563417223415
 20
-6333.614899124017
 30
0.0
 10
54.34553371203296
 20
-6333.611707001947
 30
0.0
 10
54.30883253217347
 20
-6333.603215625377
 30
0.0
 10
54.28046828993188
 20
-6333.588478920787
 30
0.0
 10
54.26416816989946
 20
-6333.580010157486
 30
0.0
  0
LINE
  5
3A4A0B
330
18
100
AcDbEntity
  8
姿図
100
AcDbLine
 10
34.40695950702816
 20
-6329.954973417128
 30
0.0
 11
34.36370989752993
 21
-6330.000059717199
 31
0.0
  0
LINE
  5
3A4A0C
330
18
100
AcDbEntity
  8
姿図
100
AcDbLine
 10
54.16752499242583
 20
-6333.384421155466
 30
0.0
 11
54.18161954105101
 21
-6333.280226042236
 31
0.0
  0
LINE
  5
3A4A0D
330
18
100
AcDbEntity
  8
姿図
100
AcDbLine
 10
54.1735053943297
 20
-6333.484522601754
 30
0.0
 11
54.16752499242583
 21
-6333.384421155466
 31
0.0
  0
ARC
  5
3A4A0E
330
18
100
AcDbEntity
  8
姿図
100
AcDbCircle
 10
65.9480075045074
 20
-6328.628628033369
 30
0.0
 40
2.396980184491569
100
AcDbArc
 50
145.7879703470071
 51
177.6482394048917
  0
LINE
  5
3A4A0F
330
18
100
AcDbEntity
  8
姿図
100
AcDbLine
 10
63.55304621824501
 20
-6328.530269291259
 30
0.0
 11
63.00482536633186
 21
-6328.517811824154
 31
0.0
  0
ELLIPSE
  5
3A4A10
330
18
100
AcDbEntity
  8
姿図
100
AcDbEllipse
 10
63.48012692716153
 20
-6330.543762311103
 30
0.0
 11
-0.0156519224160739
 21
3.301550501395062
 31
0.0
210
0.0
220
0.0
230
1.0
 40
0.1787560552666476
 41
0.2619505124769677
 42
0.9092917696942397
  0
SPLINE
  5
3A4A11
330
18
100
AcDbEntity
  8
姿図
100
AcDbSpline
210
0.0
220
0.0
230
1.0
 70
     8
 71
     3
 72
     9
 73
     5
 74
     0
 42
0.000000001
 43
0.0000000001
 40
0.0
 40
0.0
 40
0.0
 40
0.0
 40
0.6348793624557145
 40
0.9999999999999998
 40
0.9999999999999998
 40
0.9999999999999998
 40
0.9999999999999998
 10
63.2934425540593
 20
-6327.309271355293
 30
0.0
 10
63.30522205285418
 20
-6327.317996173825
 30
0.0
 10
63.3237759695373
 20
-6327.331738656329
 30
0.0
 10
63.31527785729581
 20
-6327.349191181522
 30
0.0
 10
63.31217502113635
 20
-6327.355563458647
 30
0.0
  0
SPLINE
  5
3A4A12
330
18
100
AcDbEntity
  8
姿図
100
AcDbSpline
210
0.0
220
0.0
230
1.0
 70
     8
 71
     3
 72
    12
 73
     8
 74
     0
 42
0.000000001
 43
0.0000000001
 40
0.0
 40
0.0
 40
0.0
 40
0.0
 40
0.0305111538085951
 40
0.0331854054904681
 40
0.1641764332047702
 40
0.6846953887123254
 40
1.0
 40
1.0
 40
1.0
 40
1.0
 10
63.14427692689786
 20
-6327.269609142503
 30
0.0
 10
63.14504282679675
 20
-6327.270000483105
 30
0.0
 10
63.14587585654272
 20
-6327.270426124057
 30
0.0
 10
63.1533055662456
 20
-6327.272379032706
 30
0.0
 10
63.19254699108515
 20
-6327.279236097749
 30
0.0
 10
63.24854466082342
 20
-6327.29055326689
 30
0.0
 10
63.28114460753702
 20
-6327.304144298462
 30
0.0
 10
63.2934425540593
 20
-6327.309271355293
 30
0.0
  0
SPLINE
  5
3A4A13
330
18
100
AcDbEntity
  8
姿図
100
AcDbSpline
210
0.0
220
0.0
230
1.0
 70
     8
 71
     3
 72
     9
 73
     5
 74
     0
 42
0.000000001
 43
0.0000000001
 40
0.0
 40
0.0
 40
0.0
 40
0.0
 40
0.1663374741908549
 40
1.0
 40
1.0
 40
1.0
 40
1.0
 10
63.13851098241653
 20
-6327.262110368742
 30
0.0
 10
63.13883092876015
 20
-6327.262503854344
 30
0.0
 10
63.14075440598798
 20
-6327.264869440351
 30
0.0
 10
63.14267543609054
 20
-6327.267454268303
 30
0.0
 10
63.14427692689786
 20
-6327.269609142503
 30
0.0
  0
ARC
  5
3A4A14
330
18
100
AcDbEntity
  8
姿図
100
AcDbCircle
 10
63.14217387767553
 20
-6327.136164029393
 30
0.0
 40
0.1334616837493883
100
AcDbArc
 50
267.4532800571013
 51
270.9028870934943
  0
SPLINE
  5
3A4A15
330
18
100
AcDbEntity
  8
姿図
100
AcDbSpline
210
0.0
220
0.0
230
1.0
 70
     8
 71
     3
 72
     9
 73
     5
 74
     0
 42
0.000000001
 43
0.0000000001
 40
0.0
 40
0.0
 40
0.0
 40
0.0
 40
0.8315948079632168
 40
1.0
 40
1.0
 40
1.0
 40
1.0
 10
63.13624363941698
 20
-6327.269493895902
 30
0.0
 10
63.13687256790565
 20
-6327.267411021381
 30
0.0
 10
63.13762885989146
 20
-6327.264906346627
 30
0.0
 10
63.13838383986852
 20
-6327.262513360099
 30
0.0
 10
63.13851098241653
 20
-6327.262110368742
 30
0.0
  0
ARC
  5
3A4A16
330
18
100
AcDbEntity
  8
姿図
100
AcDbCircle
 10
63.12559826386958
 20
-6327.398721848073
 30
0.0
 40
0.1296656764246301
100
AcDbArc
 50
85.29079419472588
 51
88.67713688553997
  0
SPLINE
  5
3A4A17
330
18
100
AcDbEntity
  8
姿図
100
AcDbSpline
210
0.0
220
0.0
230
1.0
 70
     8
 71
     3
 72
     9
 73
     5
 74
     0
 42
0.000000001
 43
0.0000000001
 40
0.0
 40
0.0
 40
0.0
 40
0.0
 40
0.7465746143354237
 40
1.0
 40
1.0
 40
1.0
 40
1.0
 10
63.14103123701393
 20
-6327.273691948163
 30
0.0
 10
63.13873174059269
 20
-6327.273126392261
 30
0.0
 10
63.13565167816223
 20
-6327.272368857929
 30
0.0
 10
63.13612395298729
 20
-6327.270075173711
 30
0.0
 10
63.13624363941698
 20
-6327.269493895902
 30
0.0
  0
ELLIPSE
  5
3A4A18
330
18
100
AcDbEntity
  8
姿図
100
AcDbEllipse
 10
62.52809581400519
 20
-6327.787116413309
 30
0.0
 11
-0.006810803424766
 21
1.848825584224675
 31
0.0
210
0.0
220
0.0
230
1.0
 40
0.1786335387946587
 41
3.265678556593091
 42
4.051076719990417
  0
LINE
  5
3A4A19
330
18
100
AcDbEntity
  8
姿図
100
AcDbLine
 10
62.07871387352625
 20
-6329.971336642717
 30
0.0
 11
62.57573027545348
 21
-6329.621575923447
 31
0.0
  0
ELLIPSE
  5
3A4A1A
330
18
100
AcDbEntity
  8
姿図
100
AcDbEllipse
 10
62.07361012076431
 20
-6329.774787560374
 30
0.0
 11
-0.0007297289383929
 21
0.1980884554526921
 31
0.0
210
0.0
220
0.0
230
1.0
 40
0.1786335387946275
 41
1.694882229797643
 42
3.265678556591264
  0
LINE
  5
3A4A1B
330
18
100
AcDbEntity
  8
姿図
100
AcDbLine
 10
62.02153041192423
 20
-6329.142554020029
 30
0.0
 11
62.03858716150996
 21
-6329.799432912088
 31
0.0
  0
LINE
  5
3A4A1C
330
18
100
AcDbEntity
  8
姿図
100
AcDbLine
 10
62.79291752274689
 20
-6328.921618248493
 30
0.0
 11
62.85842607504813
 21
-6328.437307332816
 31
0.0
  0
ARC
  5
3A4A1D
330
18
100
AcDbEntity
  8
姿図
100
AcDbCircle
 10
62.99001427618934
 20
-6328.371378631284
 30
0.0
 40
0.1471803260126227
100
AcDbArc
 50
206.6119180604126
 51
275.7755804829107
  0
LINE
  5
3A4A1E
330
18
100
AcDbEntity
  8
姿図
100
AcDbLine
 10
63.00482536633186
 20
-6328.517811824154
 30
0.0
 11
62.93931688966225
 21
-6329.00212274155
 31
0.0
  0
ARC
  5
3A4A1F
330
18
100
AcDbEntity
  8
姿図
100
AcDbCircle
 10
62.92450587358858
 20
-6328.855689291769
 30
0.0
 40
0.1471805741665602
100
AcDbArc
 50
206.6119807751519
 51
275.7755417305933
  0
LINE
  5
3A4A20
330
18
100
AcDbEntity
  8
姿図
100
AcDbLine
 10
63.47636316767252
 20
-6329.014326283823
 30
0.0
 11
63.55304621824501
 21
-6328.530269291259
 31
0.0
  0
LINE
  5
3A4A21
330
18
100
AcDbEntity
  8
姿図
100
AcDbLine
 10
62.93931688966225
 20
-6329.00212274155
 30
0.0
 11
63.47636316767252
 21
-6329.014326283823
 31
0.0
  0
ELLIPSE
  5
3A4A22
330
18
100
AcDbEntity
  8
姿図
100
AcDbEllipse
 10
62.65798544639977
 20
-6327.78663993735
 30
0.0
 11
-0.0038079407498611
 21
1.980808152406915
 31
0.0
210
0.0
220
0.0
230
1.0
 40
0.1784284564926224
 41
3.265998458759035
 42
4.051396622156516
  0
ARC
  5
3A4A23
330
18
100
AcDbEntity
  8
姿図
100
AcDbCircle
 10
62.70966835169726
 20
-6329.618134538318
 30
0.0
 40
0.1339822801698339
100
AcDbArc
 50
181.4718254581301
 51
268.2684654676236
  0
ARC
  5
3A4A24
330
18
100
AcDbEntity
  8
姿図
100
AcDbCircle
 10
62.03938348169621
 20
-6328.955310363683
 30
0.0
 40
1.438191050152362
100
AcDbArc
 50
325.7880292502253
 51
357.6482173054893
  0
LINE
  5
3A4A25
330
18
100
AcDbEntity
  8
姿図
100
AcDbLine
 10
63.22871444070314
 20
-6329.763942150523
 30
0.0
 11
62.70561989237553
 21
-6329.752055639629
 31
0.0
  0
LWPOLYLINE
  5
3A4A26
330
18
100
AcDbEntity
  8
姿図
100
AcDbPolyline
 90
       49
 70
   128
 43
0.0
 10
55.67373321495698
 20
-6335.080538659882
 10
57.05670189982052
 20
-6335.106088784524
 10
58.44992359705351
 20
-6335.120146735158
 10
59.84743376460304
 20
-6335.122651536617
 10
61.24324702080389
 20
-6335.113592921052
 10
62.6313861870791
 20
-6335.093009460436
 10
64.00590793650802
 20
-6335.060989307352
 10
65.36092527538696
 20
-6335.017669758059
 10
66.6906373800232
 20
-6334.963236034893
 10
67.989347578176
 20
-6334.897921378942
 10
69.25149725106856
 20
-6334.822005608902
 10
70.47168054385739
 20
-6334.735813559749
 10
71.64467311517276
 20
-6334.639714630279
 10
72.76545001474727
 20
-6334.534119872064
 10
73.82921460311015
 20
-6334.419481856786
 10
74.83140960347879
 20
-6334.296291294156
 10
75.76774490594337
 20
-6334.165075926105
 10
76.63421093084746
 20
-6334.026397276218
 10
77.42709532456477
 20
-6333.880849449463
 10
78.1430054459749
 20
-6333.729055615032
 10
78.77887393970673
 20
-6333.571665842491
 10
79.3319781500492
 20
-6333.4093539887
 10
79.7999511869719
 20
-6333.242815184871
 10
80.18078536402294
 20
-6333.072762538177
 10
80.47285615367007
 20
-6332.899924339071
 10
80.67490472721818
 20
-6332.725040524968
 10
80.78607401121145
 20
-6332.54886016255
 10
80.80588181831529
 20
-6332.372137500176
 10
80.73424695105568
 20
-6332.195629421487
 10
80.57147443376317
 20
-6332.020091772797
 10
80.31826137068319
 20
-6331.846276119699
 10
79.9756934907236
 20
-6331.674926904145
 10
79.54523551881658
 20
-6331.506777671426
 10
79.02873190873943
 20
-6331.342548796325
 10
78.42839544661622
 20
-6331.182943196019
 10
77.74679490414893
 20
-6331.028644469867
 10
76.98685146051132
 20
-6330.880313263878
 10
76.15181568207512
 20
-6330.738585009978
 10
75.24526647324093
 20
-6330.604066268972
 10
74.27108433125007
 20
-6330.477333332967
 10
73.23344260147694
 20
-6330.358928709382
 10
72.1367817721947
 20
-6330.249359431081
 10
70.98579998291997
 20
-6330.149094945102
 10
69.7854252110133
 20
-6330.058564269116
 10
68.54079816004094
 20
-6329.978155286672
 10
67.25724764179289
 20
-6329.908212292187
 10
65.94027070412845
 20
-6329.849034591603
 10
64.59550654750689
 20
-6329.800876067643
 10
63.22871444070314
 20
-6329.763942150523
  0
LINE
  5
3A4A27
330
18
100
AcDbEntity
  8
姿図
100
AcDbLine
 10
62.70561989237553
 20
-6329.752055639629
 30
0.0
 11
62.20860349044824
 21
-6330.101816358899
 31
0.0
  0
ARC
  5
3A4A28
330
18
100
AcDbEntity
  8
姿図
100
AcDbCircle
 10
62.21265194977021
 20
-6329.967895257587
 30
0.0
 40
0.1339822801698648
100
AcDbArc
 50
181.471825458104
 51
268.26846546756
  0
LINE
  5
3A4A29
330
18
100
AcDbEntity
  8
姿図
100
AcDbLine
 10
55.15063866662938
 20
-6335.068652148989
 30
0.0
 11
55.67373321495698
 21
-6335.080538659882
 31
0.0
  0
LINE
  5
3A4A2A
330
18
100
AcDbEntity
  8
姿図
100
AcDbLine
 10
55.64765506855659
 20
-6334.71889142972
 30
0.0
 11
55.15063866662938
 21
-6335.068652148989
 31
0.0
  0
LINE
  5
3A4A2B
330
18
100
AcDbEntity
  8
姿図
100
AcDbLine
 10
56.1707496168842
 20
-6334.730777940613
 30
0.0
 11
55.64765506855659
 21
-6334.71889142972
 31
0.0
  0
LWPOLYLINE
  5
3A4A2C
330
18
100
AcDbEntity
  8
姿図
100
AcDbPolyline
 90
       17
 70
   128
 43
0.0
 10
62.73169803877607
 20
-6330.113702869791
 10
63.99716366105245
 20
-6330.148263689337
 10
65.2404818154734
 20
-6330.193903125032
 10
66.45559531142537
 20
-6330.250398709079
 10
67.63658452615695
 20
-6330.317475337829
 10
68.77769480232
 20
-6330.394806210271
 10
69.8733681186575
 20
-6330.482014495498
 10
70.9182656375996
 20
-6330.578675266756
 10
71.90729677606716
 20
-6330.684317899655
 10
72.83564322792165
 20
-6330.79842740787
 10
73.69878266484716
 20
-6330.920447983053
 10
74.49250873135809
 20
-6331.04978518681
 10
75.21295522788036
 20
-6331.18580871175
 10
75.8566115110423
 20
-6331.327856048698
 10
76.42034365149013
 20
-6331.475235179005
 10
76.90140328731994
 20
-6331.627228014017
 10
76.9761124874113
 20
-6331.653955794474
  0
LWPOLYLINE
  5
3A4A2D
330
18
100
AcDbEntity
  8
姿図
100
AcDbPolyline
 90
       21
 70
   128
 43
0.0
 10
76.40320534673373
 20
-6333.374141257365
 10
76.37108093415088
 20
-6333.38323737483
 10
75.79975110418806
 20
-6333.530147891938
 10
75.14877243506936
 20
-6333.671660757758
 10
74.4213169376013
 20
-6333.807086538438
 10
73.62092907637411
 20
-6333.935765549426
 10
72.75150783777033
 20
-6334.057070804773
 10
71.81728830871077
 20
-6334.170411310716
 10
70.82282390775143
 20
-6334.275234900221
 10
69.77295772522476
 20
-6334.371030820015
 10
68.67280475433783
 20
-6334.457332565118
 10
67.52772464474131
 20
-6334.533719471221
 10
66.3432971693183
 20
-6334.599819474497
 10
65.12529195248852
 20
-6334.655310635234
 10
63.8796436912894
 20
-6334.699922312398
 10
62.61242019137519
 20
-6334.733437438643
 10
61.32979617006168
 20
-6334.755692714864
 10
60.03801940161133
 20
-6334.766579578515
 10
58.74338425552936
 20
-6334.766045024001
 10
57.45219741646789
 20
-6334.754091771511
 10
56.1707496168842
 20
-6334.730777940613
  0
LINE
  5
3A4A2E
330
18
100
AcDbEntity
  8
姿図
100
AcDbLine
 10
62.20860349044824
 20
-6330.101816358899
 30
0.0
 11
62.73169803877607
 21
-6330.113702869791
 31
0.0
  0
LINE
  5
3A4A2F
330
18
100
AcDbEntity
  8
姿図
100
AcDbLine
 10
62.73169803877607
 20
-6330.113702869791
 30
0.0
 11
62.7242003453169
 21
-6330.116266720431
 31
0.0
  0
ARC
  5
3A4A30
330
18
100
AcDbEntity
  8
姿図
100
AcDbCircle
 10
55.484667035869
 20
-6334.433233616106
 30
0.0
 40
0.7478248010189159
100
AcDbArc
 50
336.5543035438272
 51
5.442011918869085
  0
ELLIPSE
  5
3A4A31
330
18
100
AcDbEntity
  8
姿図
100
AcDbEllipse
 10
59.45122278467046
 20
-5641.303481604484
 30
0.0
 11
3.213705084077893
 21
692.404166990302
 31
0.0
210
0.0
220
0.0
230
1.0
 40
0.0258987761760062
 41
3.141124399405456
 42
3.145773129504545
  0
LINE
  5
3A4A32
330
18
100
AcDbEntity
  8
姿図
100
AcDbLine
 10
56.35577765030418
 20
-6333.710354460315
 30
0.0
 11
56.31251162674939
 21
-6333.701945135947
 31
0.0
  0
LINE
  5
3A4A33
330
18
100
AcDbEntity
  8
姿図
100
AcDbLine
 10
56.22912115949353
 20
-6333.707534677665
 30
0.0
 11
56.22912116048175
 21
-6334.362311198168
 31
0.0
  0
LWPOLYLINE
  5
3A4A34
330
18
100
AcDbEntity
  8
姿図
100
AcDbPolyline
 90
       23
 70
   128
 43
0.0
 10
56.35577765030418
 20
-6333.710354460315
 10
57.63861529634538
 20
-6333.732421299401
 10
58.93060670927593
 20
-6333.742911590753
 10
60.22522726517983
 20
-6333.741772325711
 10
61.51593892139579
 20
-6333.729009427813
 10
62.79622364579442
 20
-6333.704686932761
 10
64.05961619360922
 20
-6333.668928207128
 10
65.29973529623204
 20
-6333.621913339793
 10
66.51031944442076
 20
-6333.563880113021
 10
67.68525362427243
 20
-6333.49512145069
 10
68.81860680225758
 20
-6333.415984532452
 10
69.90465229861493
 20
-6333.32686920314
 10
70.93790788179258
 20
-6333.228225250633
 10
71.91315449683489
 20
-6333.120551093816
 10
72.825467331326
 20
-6333.004390381399
 10
73.67023788108999
 20
-6332.880329649931
 10
74.44320293622565
 20
-6332.748995507238
 10
75.1404556329982
 20
-6332.611051250331
 10
75.75847662850725
 20
-6332.467193387731
 10
76.29414477204034
 20
-6332.318148525174
 10
76.74475413900544
 20
-6332.164669290156
 10
77.10803033096677
 20
-6332.007530772934
 10
77.37217105671124
 20
-6331.854478519431
  0
ELLIPSE
  5
3A4A35
330
18
100
AcDbEntity
  8
姿図
100
AcDbEllipse
 10
55.66051757913431
 20
-6333.709860210447
 30
0.0
 11
0.1319789281369824
 21
0.0031144853776467
 31
0.0
210
0.0
220
0.0
230
1.0
 40
0.1090423349939777
 41
1.390733510673997
 42
2.960829957573989
  0
ELLIPSE
  5
3A4A36
330
18
100
AcDbEntity
  8
姿図
100
AcDbEllipse
 10
56.35630877828346
 20
-6333.579024177158
 30
0.0
 11
-0.06343113527946918
 21
0.1158168805903281
 31
0.0
210
0.0
220
0.0
230
1.0
 40
0.9791391206916249
 41
1.082274923954722
 42
2.287795606568602
  0
LINE
  5
3A4A37
330
18
100
AcDbEntity
  8
姿図
100
AcDbLine
 10
55.68391071131862
 20
-6333.695145617308
 30
0.0
 11
56.22912115949353
 21
-6333.707534677665
 31
0.0
  0
ELLIPSE
  5
3A4A38
330
18
100
AcDbEntity
  8
姿図
100
AcDbEllipse
 10
55.79049628472874
 20
-6338.715517871865
 30
0.0
 11
-0.1067334713607391
 21
5.020373329025119
 31
0.0
210
0.0
220
0.0
230
1.0
 40
0.0258660634317706
 41
6.282047077454924
 42
6.282732309970389
  0
LINE
  5
3A4A39
330
18
100
AcDbEntity
  8
姿図
100
AcDbLine
 10
56.22640315885954
 20
-6333.579512228951
 30
0.0
 11
56.09230982381814
 21
-6327.2634785935
 31
0.0
  0
ELLIPSE
  5
3A4A3A
330
18
100
AcDbEntity
  8
姿図
100
AcDbEllipse
 10
54.32109583343811
 20
-6336.898232336672
 30
0.0
 11
-0.0126486349317238
 21
3.433533227845912
 31
0.0
210
0.0
220
0.0
230
1.0
 40
0.1786335387946495
 41
5.621873046785364
 42
6.269214304002785
  0
LINE
  5
3A4A3B
330
18
100
AcDbEntity
  8
姿図
100
AcDbLine
 10
55.54768476648852
 20
-6334.367215145399
 30
0.0
 11
55.53062801690287
 21
-6333.710336253341
 31
0.0
  0
ELLIPSE
  5
3A4A3C
330
18
100
AcDbEntity
  8
姿図
100
AcDbEllipse
 10
55.51266186100372
 20
-6334.391862517101
 30
0.0
 11
-0.0007297289383557
 21
0.1980884554526544
 31
0.0
210
0.0
220
0.0
230
1.0
 40
0.1786335387946636
 41
3.265678556593325
 42
4.836474883387967
  0
LINE
  5
3A4A3D
330
18
100
AcDbEntity
  8
姿図
100
AcDbLine
 10
55.02074904970725
 20
-6334.938172432806
 30
0.0
 11
55.51776545163446
 21
-6334.588411713538
 31
0.0
  0
ELLIPSE
  5
3A4A3E
330
18
100
AcDbEntity
  8
姿図
100
AcDbEllipse
 10
54.97311502132582
 20
-6333.103712617909
 30
0.0
 11
-0.0068108034247658
 21
1.848825584224713
 31
0.0
210
0.0
220
0.0
230
1.0
 40
0.178633538794655
 41
2.480280393195462
 42
3.265678556592991
  0
LINE
  5
3A4A3F
330
18
100
AcDbEntity
  8
姿図
100
AcDbLine
 10
54.68780071565392
 20
-6334.187145349222
 30
0.0
 11
54.7756582657962
 21
-6334.563529367329
 31
0.0
  0
ELLIPSE
  5
3A4A40
330
18
100
AcDbEntity
  8
姿図
100
AcDbEllipse
 10
55.64255149339823
 20
-6334.391386041143
 30
0.0
 11
0.0022717941798859
 21
0.330070536857294
 31
0.0
210
0.0
220
0.0
230
1.0
 40
0.1773865137081751
 41
3.26758666754499
 42
4.838382994339101
  0
ARC
  5
3A4A41
330
18
100
AcDbEntity
  8
姿図
100
AcDbCircle
 10
55.65170352787832
 20
-6334.584970328409
 30
0.0
 40
0.1339822801698348
100
AcDbArc
 50
181.4718254581562
 51
268.2684654676072
  0
ARC
  5
3A4A42
330
18
100
AcDbEntity
  8
姿図
100
AcDbCircle
 10
55.67577436551589
 20
-6334.82528541163
 30
0.0
 40
0.4756420021229967
100
AcDbArc
 50
86.9691910261101
 51
105.6225179464334
  0
LINE
  5
3A4A43
330
18
100
AcDbEntity
  8
姿図
100
AcDbLine
 10
55.70092295168524
 20
-6334.35030871452
 30
0.0
 11
56.22912116048175
 21
-6334.362311198168
 31
0.0
  0
LINE
  5
3A4A44
330
18
100
AcDbEntity
  8
姿図
100
AcDbLine
 10
55.68391071131862
 20
-6333.695145617308
 30
0.0
 11
55.70092295168524
 21
-6334.35030871452
 31
0.0
  0
ARC
  5
3A4A45
330
18
100
AcDbEntity
  8
姿図
100
AcDbCircle
 10
54.18451341512245
 20
-6333.531861607166
 30
0.0
 40
0.1484159469309968
100
AcDbArc
 50
26.7746213463484
 51
96.57276467094543
  0
ARC
  5
3A4A46
330
18
100
AcDbEntity
  8
姿図
100
AcDbCircle
 10
55.15468712595112
 20
-6334.934731047678
 30
0.0
 40
0.1339822801698732
100
AcDbArc
 50
181.4718254581562
 51
268.2684654675927
  0
LWPOLYLINE
  5
3A4A47
330
18
100
AcDbEntity
  8
姿図
100
AcDbPolyline
 90
        3
 70
   128
 43
0.0
 10
54.7756582657962
 20
-6334.563529367329
 10
54.77537550935386
 20
-6334.583617911068
 10
54.77698881753844
 20
-6334.593060435698
  0
LWPOLYLINE
  5
3A4A48
330
18
100
AcDbEntity
  8
姿図
100
AcDbPolyline
 90
        3
 70
   128
 43
0.0
 10
54.68780071565392
 20
-6334.187145349222
 10
54.68751795921182
 20
-6334.207233892963
 10
54.68913126739632
 20
-6334.216676417593
  0
SPLINE
  5
3A4A49
330
18
100
AcDbEntity
  8
姿図
100
AcDbSpline
210
0.0
220
0.0
230
1.0
 70
     8
 71
     3
 72
    11
 73
     7
 74
     0
 42
0.000000001
 43
0.0000000001
 40
0.0
 40
0.0
 40
0.0
 40
0.0
 40
0.2858172312818833
 40
0.7703133555375877
 40
0.9584143286284581
 40
1.0
 40
1.0
 40
1.0
 40
1.0
 10
54.31290084358813
 20
-6333.514980973276
 30
0.0
 10
54.31635336992217
 20
-6333.530613069229
 30
0.0
 10
54.32565836225409
 20
-6333.57274353223
 30
0.0
 10
54.34498150529714
 20
-6333.598026822054
 30
0.0
 10
54.36325445366801
 20
-6333.611520746607
 30
0.0
 10
54.36440203005931
 20
-6333.614910476665
 30
0.0
 10
54.36460980328357
 20
-6333.61552420064
 30
0.0
  0
LINE
  5
3A4A4A
330
18
100
AcDbEntity
  8
姿図
100
AcDbLine
 10
54.31701701206079
 20
-6333.465002874739
 30
0.0
 11
54.31290084358813
 21
-6333.514980973276
 31
0.0
  0
SPLINE
  5
3A4A4B
330
18
100
AcDbEntity
  8
姿図
100
AcDbSpline
210
0.0
220
0.0
230
1.0
 70
     8
 71
     3
 72
     9
 73
     5
 74
     0
 42
0.000000001
 43
0.0000000001
 40
0.0
 40
0.0
 40
0.0
 40
0.0
 40
0.819325010099636
 40
1.0
 40
1.0
 40
1.0
 40
1.0
 10
54.36460980328357
 20
-6333.61552420064
 30
0.0
 10
54.36403744300813
 20
-6333.617220776028
 30
0.0
 10
54.36333886763418
 20
-6333.619291474917
 30
0.0
 10
54.36264678644936
 20
-6333.621464054185
 30
0.0
 10
54.36252174468826
 20
-6333.621856584922
 30
0.0
  0
ARC
  5
3A4A4C
330
18
100
AcDbEntity
  8
姿図
100
AcDbCircle
 10
54.21955266069319
 20
-6333.607990215583
 30
0.0
 40
0.1317748170333298
100
AcDbArc
 50
44.89579248681297
 51
110.4530085134694
  0
ARC
  5
3A4A4D
330
18
100
AcDbEntity
  8
姿図
100
AcDbCircle
 10
54.35892798712941
 20
-6333.747314492801
 30
0.0
 40
0.1319127141052813
100
AcDbArc
 50
87.5313613053967
 51
90.72532452414053
  0
ARC
  5
3A4A4E
330
18
100
AcDbEntity
  8
姿図
100
AcDbCircle
 10
46.96283382766397
 20
-6363.011208342713
 30
0.0
 40
54.79128259082559
100
AcDbArc
 50
96.39070496348222
 51
101.6320196789017
  0
ARC
  5
3A4A4F
330
18
100
AcDbEntity
  8
姿図
100
AcDbCircle
 10
59.3745279842054
 20
-6513.173650009436
 30
0.0
 40
205.5403557461394
100
AcDbArc
 50
89.95383946017027
 51
92.552108871717
  0
ARC
  5
3A4A50
330
18
100
AcDbEntity
  8
姿図
100
AcDbCircle
 10
63.15223259123202
 20
-6441.586455547869
 30
0.0
 40
133.860727482538
100
AcDbArc
 50
84.05307892092631
 51
87.29539914449258
  0
ARC
  5
3A4A51
330
18
100
AcDbEntity
  8
姿図
100
AcDbCircle
 10
82.02550283245995
 20
-6318.460398697204
 30
0.0
 40
9.076071631792079
100
AcDbArc
 50
66.08208719042
 51
73.25271908328696
  0
ARC
  5
3A4A52
330
18
100
AcDbEntity
  8
姿図
100
AcDbCircle
 10
31.29257160871076
 20
-6311.082215199633
 30
0.0
 40
0.5518204434635386
100
AcDbArc
 50
138.4596228594256
 51
190.0209473313988
  0
ARC
  5
3A4A53
330
18
100
AcDbEntity
  8
姿図
100
AcDbCircle
 10
86.08805438286362
 20
-6309.928513728219
 30
0.0
 40
0.5921178061516236
100
AcDbArc
 50
2.964678062748733
 51
46.04709747924696
  0
ARC
  5
3A4A54
330
18
100
AcDbEntity
  8
姿図
100
AcDbCircle
 10
46.54339752314814
 20
-6357.966157820655
 30
0.0
 40
51.00962660129352
100
AcDbArc
 50
96.38216696344425
 51
102.6043552201173
  0
ARC
  5
3A4A55
330
18
100
AcDbEntity
  8
姿図
100
AcDbCircle
 10
59.37144392346779
 20
-6510.481656412385
 30
0.0
 40
204.141226100406
100
AcDbArc
 50
89.95280836889496
 51
92.6243592988687
  0
ARC
  5
3A4A56
330
18
100
AcDbEntity
  8
姿図
100
AcDbCircle
 10
63.27205007255514
 20
-6437.566021193429
 30
0.0
 40
131.1292893248503
100
AcDbArc
 50
83.81591652154
 51
87.29357135403156
  0
ARC
  5
3A4A57
330
18
100
AcDbEntity
  8
姿図
100
AcDbCircle
 10
83.0238268804335
 20
-6314.164601254294
 30
0.0
 40
5.887063291310175
100
AcDbArc
 50
58.78122791168876
 51
74.18025681928121
  0
ARC
  5
3A4A58
330
18
100
AcDbEntity
  8
姿図
100
AcDbCircle
 10
59.46853766140903
 20
-6187.195442860467
 30
0.0
 40
143.5319680508982
100
AcDbArc
 50
268.681179164096
 51
273.8052682268801
  0
SPLINE
  5
3A4A59
330
18
100
AcDbEntity
  8
姿図
100
AcDbSpline
210
0.0
220
0.0
230
1.0
 70
     8
 71
     3
 72
     9
 73
     5
 74
     0
 42
0.000000001
 43
0.0000000001
 40
0.0
 40
0.0
 40
0.0
 40
0.0
 40
0.3756775892783501
 40
1.0
 40
1.0
 40
1.0
 40
1.0
 10
56.22822845042384
 20
-6333.597829835539
 30
0.0
 10
56.24128508867795
 20
-6333.615946755812
 30
0.0
 10
56.27603999188956
 20
-6333.664171405857
 30
0.0
 10
56.33600581963152
 20
-6333.692740888359
 30
0.0
 10
56.3734438297682
 20
-6333.710577456547
 30
0.0
  0
ARC
  5
3A4A5A
330
18
100
AcDbEntity
  8
姿図
100
AcDbCircle
 10
31.32251058426485
 20
-6309.918195567582
 30
0.0
 40
0.5849689541423047
100
AcDbArc
 50
137.3262588899939
 51
178.0106702225712
  0
ARC
  5
3A4A5B
330
18
100
AcDbEntity
  8
姿図
100
AcDbCircle
 10
59.33713181070934
 20
-6505.302137211433
 30
0.0
 40
207.5531528325748
100
AcDbArc
 50
89.93943640102883
 51
92.58688768606905
  0
ARC
  5
3A4A5C
330
18
100
AcDbEntity
  8
姿図
100
AcDbCircle
 10
46.30489165914172
 20
-6351.037420111281
 30
0.0
 40
52.6662267363163
100
AcDbArc
 50
95.85343278078656
 51
102.0932741160469
  0
ARC
  5
3A4A5D
330
18
100
AcDbEntity
  8
姿図
100
AcDbCircle
 10
59.29051224477466
 20
-6504.988497528417
 30
0.0
 40
204.9394884983
100
AcDbArc
 50
89.92982373336102
 51
92.60274038092064
  0
ARC
  5
3A4A5E
330
18
100
AcDbEntity
  8
姿図
100
AcDbCircle
 10
46.28557553505922
 20
-6352.916295731633
 30
0.0
 40
52.24222449602702
100
AcDbArc
 50
95.89765952770794
 51
102.1291415596017
  0
LINE
  5
3A4A5F
330
18
100
AcDbEntity
  8
姿図
100
AcDbLine
 10
59.54152348358116
 20
-6300.049162750288
 30
0.0
 11
59.5378594637749
 21
-6300.191061538108
 31
0.0
  0
ARC
  5
3A4A60
330
18
100
AcDbEntity
  8
姿図
100
AcDbCircle
 10
59.27819393451184
 20
-6495.747726008407
 30
0.0
 40
195.5568368657471
100
AcDbArc
 50
89.92392112941472
 51
92.7238128550749
  0
ARC
  5
3A4A61
330
18
100
AcDbEntity
  8
姿図
100
AcDbCircle
 10
45.34209337868285
 20
-6341.842769626759
 30
0.0
 40
40.93737460937926
100
AcDbArc
 50
96.20656448171302
 51
104.1799324490141
  0
LINE
  5
3A4A62
330
18
100
AcDbEntity
  8
姿図
100
AcDbLine
 10
59.5378594637749
 20
-6300.191061538108
 30
0.0
 11
59.53743463678468
 21
-6306.340498460351
 31
0.0
  0
LINE
  5
3A4A63
330
18
100
AcDbEntity
  8
姿図
100
AcDbLine
 10
59.53958497093704
 20
-6306.34049936696
 30
0.0
 11
59.54152348358116
 21
-6300.049162750288
 31
0.0
  0
ARC
  5
3A4A64
330
18
100
AcDbEntity
  8
姿図
100
AcDbCircle
 10
59.62636662807837
 20
-6502.854867434385
 30
0.0
 40
200.3955808820133
100
AcDbArc
 50
88.43565949891101
 51
88.80559333195995
  0
LWPOLYLINE
  5
3A4A65
330
18
100
AcDbEntity
  8
姿図
100
AcDbPolyline
 90
        4
 70
   128
 43
0.0
 10
52.82526244044369
 20
-6285.146379662633
 10
52.63095732762325
 20
-6286.278513416896
 10
51.8535503480083
 20
-6290.807124213207
 10
51.15241638566786
 20
-6294.89030170325
  0
ARC
  5
3A4A66
330
18
100
AcDbEntity
  8
姿図
100
AcDbCircle
 10
59.27071522517462
 20
-6433.825088518578
 30
0.0
 40
148.8183534671416
100
AcDbArc
 50
90.67980440593078
 51
92.48230669912317
  0
LWPOLYLINE
  5
3A4A67
330
18
100
AcDbEntity
  8
姿図
100
AcDbPolyline
 90
        4
 70
   128
 43
0.0
 10
57.22482853666652
 20
-6294.722693189517
 10
57.25731152462225
 20
-6293.594978305261
 10
57.38742805510359
 20
-6289.084165237817
 10
57.50505290897891
 20
-6285.017209811649
  0
LINE
  5
3A4A68
330
18
100
AcDbEntity
  8
姿図
100
AcDbLine
 10
57.83072675713142
 20
-6294.389754830633
 30
0.0
 11
57.83253144182919
 21
-6294.470539967831
 31
0.0
  0
SPLINE
  5
3A4A69
330
18
100
AcDbEntity
  8
姿図
100
AcDbSpline
210
0.0
220
0.0
230
1.0
 70
     8
 71
     3
 72
    18
 73
    14
 74
     0
 42
0.000000001
 43
0.0000000001
 40
0.0
 40
0.0
 40
0.0
 40
0.0
 40
0.1249999999999996
 40
0.1249999999999996
 40
0.2499999999999991
 40
0.2499999999999991
 40
0.4999999999999982
 40
0.4999999999999982
 40
0.6249999999999973
 40
0.6249999999999973
 40
0.7499999999999963
 40
0.7499999999999963
 40
1.0
 40
1.0
 40
1.0
 40
1.0
 10
59.51784469953558
 20
-6259.653955684663
 30
0.0
 10
59.51652408238628
 20
-6259.644831618536
 30
0.0
 10
59.50111654551543
 20
-6259.635862178527
 30
0.0
 10
59.44484203077799
 20
-6259.619307806512
 30
0.0
 10
59.40370334994161
 20
-6259.611721278166
 30
0.0
 10
59.25231407665241
 20
-6259.592978278977
 30
0.0
 10
59.11100949505885
 20
-6259.585783800016
 30
0.0
 10
58.89886455332263
 20
-6259.586293516719
 30
0.0
 10
58.82899716545844
 20
-6259.588263561626
 30
0.0
 10
58.70014601230529
 20
-6259.595479398729
 30
0.0
 10
58.64102539470748
 20
-6259.600762639674
 30
0.0
 10
58.49510634209216
 20
-6259.620194192828
 30
0.0
 10
58.43911582527733
 20
-6259.638234892985
 30
0.0
 10
58.44175253586482
 20
-6259.6564830359
 30
0.0
  0
LINE
  5
3A4A6A
330
18
100
AcDbEntity
  8
姿図
100
AcDbLine
 10
60.12890113716082
 20
-6294.384861983433
 30
0.0
 11
59.51784467676543
 21
-6259.653957252741
 31
0.0
  0
SPLINE
  5
3A4A6B
330
18
100
AcDbEntity
  8
姿図
100
AcDbSpline
210
0.0
220
0.0
230
1.0
 70
     8
 71
     3
 72
     8
 73
     4
 74
     0
 42
0.000000001
 43
0.0000000001
 40
0.0
 40
0.0
 40
0.0
 40
0.0
 40
1.0
 40
1.0
 40
1.0
 40
1.0
 10
60.12890847525165
 20
-6294.384363395692
 30
0.0
 10
60.12890615071865
 20
-6294.3845294314
 30
0.0
 10
60.12890367547817
 20
-6294.384695467033
 30
0.0
 10
60.12890104952834
 20
-6294.384861502607
 30
0.0
  0
SPLINE
  5
3A4A6C
330
18
100
AcDbEntity
  8
姿図
100
AcDbSpline
210
0.0
220
0.0
230
1.0
 70
     8
 71
     3
 72
    10
 73
     6
 74
     0
 42
0.000000001
 43
0.0000000001
 40
0.0
 40
0.0
 40
0.0
 40
0.0
 40
0.5
 40
0.5
 40
1.0
 40
1.0
 40
1.0
 40
1.0
 10
57.22482886641831
 20
-6294.722693451779
 30
0.0
 10
57.3892025845314
 20
-6294.719081193141
 30
0.0
 10
57.54745454406246
 20
-6294.681938625048
 30
0.0
 10
57.76966344853338
 20
-6294.559839953638
 30
0.0
 10
57.83248084866269
 20
-6294.475509792099
 30
0.0
 10
57.83072631154546
 20
-6294.389755454179
 30
0.0
  0
SPLINE
  5
3A4A6D
330
18
100
AcDbEntity
  8
姿図
100
AcDbSpline
210
0.0
220
0.0
230
1.0
 70
     8
 71
     3
 72
    10
 73
     6
 74
     0
 42
0.000000001
 43
0.0000000001
 40
0.0
 40
0.0
 40
0.0
 40
0.0
 40
0.5
 40
0.5
 40
1.0
 40
1.0
 40
1.0
 40
1.0
 10
60.12890847525165
 20
-6294.384363395692
 30
0.0
 10
60.13274298364047
 20
-6294.470112853534
 30
0.0
 10
60.20112333483232
 20
-6294.554135195296
 30
0.0
 10
60.43152143346926
 20
-6294.675171947677
 30
0.0
 10
60.59235763569922
 20
-6294.711565862322
 30
0.0
 10
60.75713519529786
 20
-6294.714405857153
 30
0.0
  0
LWPOLYLINE
  5
3A4A6E
330
18
100
AcDbEntity
  8
姿図
100
AcDbPolyline
 90
        4
 70
   128
 43
0.0
 10
60.64870170355648
 20
-6285.009834023508
 10
60.66138869080143
 20
-6286.137399558258
 10
60.71188673275087
 20
-6290.64772592653
 10
60.75713525466479
 20
-6294.714405412076
  0
ARC
  5
3A4A6F
330
18
100
AcDbEntity
  8
姿図
100
AcDbCircle
 10
59.55097378198074
 20
-6437.107167052278
 30
0.0
 40
152.1012942780379
100
AcDbArc
 50
87.81004498429346
 51
89.58648791736155
  0
LWPOLYLINE
  5
3A4A70
330
18
100
AcDbEntity
  8
姿図
100
AcDbPolyline
 90
        4
 70
   128
 43
0.0
 10
66.87453582388333
 20
-6294.853413835572
 10
66.69886815920874
 20
-6293.722097557684
 10
65.99634051908875
 20
-6289.196886185534
 10
65.36316269204228
 20
-6285.116962824742
  0
ARC
  5
3A4A71
330
18
100
AcDbEntity
  8
姿図
100
AcDbCircle
 10
85.14568882927988
 20
-6302.15446860941
 30
0.0
 40
2.523969541656662
100
AcDbArc
 50
288.9487108406062
 51
315.8306166097308
  0
ARC
  5
3A4A72
330
18
100
AcDbEntity
  8
姿図
100
AcDbCircle
 10
83.51545543613572
 20
-6307.496511508549
 30
0.0
 40
5.51555587477291
100
AcDbArc
 50
51.22786700188544
 51
79.00238158398821
  0
ARC
  5
3A4A73
330
18
100
AcDbEntity
  8
姿図
100
AcDbCircle
 10
62.97907836379616
 20
-6438.932446603598
 30
0.0
 40
138.7976935272618
100
AcDbArc
 50
84.00535447603401
 51
87.33198891356813
  0
ARC
  5
3A4A74
330
18
100
AcDbEntity
  8
姿図
100
AcDbCircle
 10
83.47125430134196
 20
-6305.441443039015
 30
0.0
 40
5.777463505804211
100
AcDbArc
 50
52.1959956823168
 51
79.28322856244993
  0
ARC
  5
3A4A75
330
18
100
AcDbEntity
  8
姿図
100
AcDbCircle
 10
63.00178803584164
 20
-6436.769252233658
 30
0.0
 40
138.9339890651313
100
AcDbArc
 50
84.00906362060994
 51
87.34758073065358
  0
LWPOLYLINE
  5
3A4A76
330
18
100
AcDbEntity
  8
姿図
100
AcDbPolyline
 90
        8
 70
   128
 43
0.0
 10
85.98620395066669
 20
-6303.555551767774
 10
85.98339759286019
 20
-6303.496919747717
 10
85.91175779847802
 20
-6303.295206796089
 10
85.74430183986637
 20
-6303.094403851513
 10
85.4816426304335
 20
-6302.895238214337
 10
85.12472431789227
 20
-6302.698430889699
 10
84.67484259622793
 20
-6302.504694600618
 10
84.57129374066974
 20
-6302.465427570542
  0
ARC
  5
3A4A77
330
18
100
AcDbEntity
  8
姿図
100
AcDbCircle
 10
63.17486614611188
 20
-6428.653713891995
 30
0.0
 40
128.3688243787901
100
AcDbArc
 50
83.6053107501224
 51
87.20229610253199
  0
SPLINE
  5
3A4A78
330
18
100
AcDbEntity
  8
姿図
100
AcDbSpline
210
0.0
220
0.0
230
1.0
 70
     8
 71
     3
 72
    10
 73
     6
 74
     0
 42
0.000000001
 43
0.0000000001
 40
0.0
 40
0.0
 40
0.0
 40
0.0
 40
0.5
 40
0.5
 40
1.0
 40
1.0
 40
1.0
 40
1.0
 10
66.8745354647965
 20
-6294.853414273834
 30
0.0
 10
67.03173024403824
 20
-6294.85789060017
 30
0.0
 10
67.20571959591454
 20
-6294.82910507604
 30
0.0
 10
67.4970742716226
 20
-6294.719924344839
 30
0.0
 10
67.61294541096481
 20
-6294.640088831942
 30
0.0
 10
67.66897058334541
 20
-6294.555699592351
 30
0.0
  0
LINE
  5
3A4A79
330
18
100
AcDbEntity
  8
姿図
100
AcDbLine
 10
67.66892329467558
 20
-6294.553588239702
 30
0.0
 11
67.66897039605668
 21
-6294.555699139039
 31
0.0
  0
LINE
  5
3A4A7A
330
18
100
AcDbEntity
  8
姿図
100
AcDbLine
 10
67.66892389972861
 20
-6294.553588253451
 30
0.0
 11
68.23820609501696
 21
-6259.852116444834
 31
0.0
  0
SPLINE
  5
3A4A7B
330
18
100
AcDbEntity
  8
姿図
100
AcDbSpline
210
0.0
220
0.0
230
1.0
 70
     8
 71
     3
 72
    10
 73
     6
 74
     0
 42
0.000000001
 43
0.0000000001
 40
0.0
 40
0.0
 40
0.0
 40
0.0
 40
0.5
 40
0.5
 40
1.0
 40
1.0
 40
1.0
 40
1.0
 10
50.34611393585002
 20
-6294.596342956845
 30
0.0
 10
50.40728794472551
 20
-6294.680457220489
 30
0.0
 10
50.52736704684206
 20
-6294.759739140425
 30
0.0
 10
50.8230739388088
 20
-6294.867542491583
 30
0.0
 10
50.99718522112199
 20
-6294.895511292403
 30
0.0
 10
51.15241605232937
 20
-6294.89030194448
 30
0.0
  0
SPLINE
  5
3A4A7C
330
18
100
AcDbEntity
  8
姿図
100
AcDbSpline
210
0.0
220
0.0
230
1.0
 70
     8
 71
     3
 72
    14
 73
    10
 74
     0
 42
0.000000001
 43
0.0000000001
 40
0.0
 40
0.0
 40
0.0
 40
0.0
 40
0.25
 40
0.25
 40
0.5
 40
0.5
 40
0.75
 40
0.75
 40
1.0
 40
1.0
 40
1.0
 40
1.0
 10
60.03081658925566
 20
-6284.056735503668
 30
0.0
 10
60.0287003802298
 20
-6284.040565141495
 30
0.0
 10
60.02691589034857
 20
-6284.042989702352
 30
0.0
 10
60.02416200517008
 20
-6284.083362172264
 30
0.0
 10
60.02316173736126
 20
-6284.121980805337
 30
0.0
 10
60.02204962553996
 20
-6284.231478675117
 30
0.0
 10
60.02192388594877
 20
-6284.302801941335
 30
0.0
 10
60.02255740949053
 20
-6284.473259510776
 30
0.0
 10
60.02329849827031
 20
-6284.570355834886
 30
0.0
 10
60.02447383617202
 20
-6284.679597199149
 30
0.0
  0
LINE
  5
3A4A7D
330
18
100
AcDbEntity
  8
姿図
100
AcDbLine
 10
60.12890234726694
 20
-6294.384860791312
 30
0.0
 11
60.02447393666287
 21
-6284.679596598773
 31
0.0
  0
LINE
  5
3A4A7E
330
18
100
AcDbEntity
  8
姿図
100
AcDbLine
 10
59.51784327746534
 20
-6259.653846911642
 30
0.0
 11
59.51784467676543
 21
-6259.653957252741
 31
0.0
  0
LWPOLYLINE
  5
3A4A7F
330
18
100
AcDbEntity
  8
姿図
100
AcDbPolyline
 90
        3
 70
   128
 43
0.0
 10
59.82060796221884
 20
-6263.455737999698
 10
59.65558081891265
 20
-6261.383455688235
 10
59.51784327746534
 20
-6259.653846911642
  0
LINE
  5
3A4A80
330
18
100
AcDbEntity
  8
姿図
100
AcDbLine
 10
59.82061033490346
 20
-6263.455849645103
 30
0.0
 11
59.82060796221884
 21
-6263.455737999698
 31
0.0
  0
LINE
  5
3A4A81
330
18
100
AcDbEntity
  8
姿図
100
AcDbLine
 10
60.0168334555824
 20
-6274.608329524237
 30
0.0
 11
59.82061033490346
 21
-6263.455849645103
 31
0.0
  0
SPLINE
  5
3A4A82
330
18
100
AcDbEntity
  8
姿図
100
AcDbSpline
210
0.0
220
0.0
230
1.0
 70
     8
 71
     3
 72
    10
 73
     6
 74
     0
 42
0.000000001
 43
0.0000000001
 40
0.0
 40
0.0
 40
0.0
 40
0.0
 40
0.5
 40
0.5
 40
1.0
 40
1.0
 40
1.0
 40
1.0
 10
60.01683345521911
 20
-6274.608330459846
 30
0.0
 10
60.01445288865615
 20
-6274.625141893134
 30
0.0
 10
60.01322811696221
 20
-6274.694085768774
 30
0.0
 10
60.01210861302666
 20
-6274.878849393346
 30
0.0
 10
60.01220288253986
 20
-6274.995634770749
 30
0.0
 10
60.01232332544069
 20
-6275.111387384534
 30
0.0
  0
LINE
  5
3A4A83
330
18
100
AcDbEntity
  8
姿図
100
AcDbLine
 10
50.34571703409598
 20
-6294.596851793084
 30
0.0
 11
49.78551315549736
 21
-6259.895408155863
 31
0.0
  0
SPLINE
  5
3A4A84
330
18
100
AcDbEntity
  8
姿図
100
AcDbSpline
210
0.0
220
0.0
230
1.0
 70
     8
 71
     3
 72
     8
 73
     4
 74
     0
 42
0.000000001
 43
0.0000000001
 40
0.0
 40
0.0
 40
0.0
 40
0.0
 40
1.0
 40
1.0
 40
1.0
 40
1.0
 10
50.34611393585002
 20
-6294.596342956845
 30
0.0
 10
50.3459817586598
 20
-6294.596512375745
 30
0.0
 10
50.3458494420046
 20
-6294.596681801869
 30
0.0
 10
50.34571698593357
 20
-6294.596851235232
 30
0.0
  0
LWPOLYLINE
  5
3A4A85
330
18
100
AcDbEntity
  8
姿図
100
AcDbPolyline
 90
        9
 70
   128
 43
0.0
 10
60.02447393666287
 20
-6284.679596598773
 10
60.03867995540145
 20
-6284.743093002552
 10
60.07535467402721
 20
-6284.80393240156
 10
60.13322144795532
 20
-6284.860000454198
 10
60.21026757296029
 20
-6284.90934458814
 10
60.30381093469341
 20
-6284.950248273412
 10
60.41059732701935
 20
-6284.981288197673
 10
60.52690989045347
 20
-6285.001382187655
 10
60.64870170355648
 20
-6285.009834023508
  0
LWPOLYLINE
  5
3A4A86
330
18
100
AcDbEntity
  8
姿図
100
AcDbPolyline
 90
        4
 70
   128
 43
0.0
 10
46.01056566192203
 20
-6285.651126023545
 10
45.63884997026301
 20
-6286.797497282568
 10
44.15189096027008
 20
-6291.383064888479
 10
42.81111566375684
 20
-6295.517603680615
  0
SPLINE
  5
3A4A87
330
18
100
AcDbEntity
  8
姿図
100
AcDbSpline
210
0.0
220
0.0
230
1.0
 70
     8
 71
     3
 72
     9
 73
     5
 74
     0
 42
0.000000001
 43
0.0000000001
 40
0.0
 40
0.0
 40
0.0
 40
0.0
 40
0.3328996789180109
 40
1.0
 40
1.0
 40
1.0
 40
1.0
 10
69.89420312798768
 20
-6294.937583045381
 30
0.0
 10
69.91517171416771
 20
-6294.952076728524
 30
0.0
 10
69.97815941739472
 20
-6294.99561441889
 30
0.0
 10
70.0890597414894
 20
-6295.00825886239
 30
0.0
 10
70.16304138330112
 20
-6295.016693974709
 30
0.0
  0
LWPOLYLINE
  5
3A4A88
330
18
100
AcDbEntity
  8
姿図
100
AcDbPolyline
 90
        4
 70
   128
 43
0.0
 10
75.39410969201238
 20
-6295.441156519979
 10
75.03703693844426
 20
-6294.296439823309
 10
73.60881799981883
 20
-6289.717632746313
 10
72.32123287623577
 20
-6285.589395300429
  0
SPLINE
  5
3A4A89
330
18
100
AcDbEntity
  8
姿図
100
AcDbSpline
210
0.0
220
0.0
230
1.0
 70
     8
 71
     3
 72
     9
 73
     5
 74
     0
 42
0.000000001
 43
0.0000000001
 40
0.0
 40
0.0
 40
0.0
 40
0.0
 40
0.8255330889637276
 40
1.0
 40
1.0
 40
1.0
 40
1.0
 10
47.9140710781875
 20
-6295.068895164484
 30
0.0
 10
47.98823320674275
 20
-6295.061196926128
 30
0.0
 10
48.0780686470742
 20
-6295.051871753752
 30
0.0
 10
48.1279563295987
 20
-6295.017766442984
 30
0.0
 10
48.13666007946759
 20
-6295.011816194764
 30
0.0
  0
LINE
  5
3A4A8A
330
18
100
AcDbEntity
  8
姿図
100
AcDbLine
 10
62.22171085463182
 20
-6263.510299332399
 30
0.0
 11
62.22172611839963
 21
-6263.510401081951
 31
0.0
  0
LWPOLYLINE
  5
3A4A8B
330
18
100
AcDbEntity
  8
姿図
100
AcDbPolyline
 90
        4
 70
   128
 43
0.0
 10
68.23820791017594
 20
-6259.85200428119
 10
65.24984480046778
 20
-6261.669063347507
 10
62.22172800919032
 20
-6263.510288920025
 10
62.22171085463182
 20
-6263.510299332399
  0
LINE
  5
3A4A8C
330
18
100
AcDbEntity
  8
姿図
100
AcDbLine
 10
68.23820609501696
 20
-6259.852116444834
 30
0.0
 11
68.23820791017594
 21
-6259.85200428119
 31
0.0
  0
LINE
  5
3A4A8D
330
18
100
AcDbEntity
  8
姿図
100
AcDbLine
 10
66.15400581995276
 20
-6284.818880687534
 30
0.0
 11
67.66892389972861
 21
-6294.553588253451
 31
0.0
  0
SPLINE
  5
3A4A8E
330
18
100
AcDbEntity
  8
姿図
100
AcDbSpline
210
0.0
220
0.0
230
1.0
 70
     8
 71
     3
 72
    14
 73
    10
 74
     0
 42
0.000000001
 43
0.0000000001
 40
0.0
 40
0.0
 40
0.0
 40
0.0
 40
0.25
 40
0.25
 40
0.5
 40
0.5
 40
0.75
 40
0.75
 40
1.0
 40
1.0
 40
1.0
 40
1.0
 10
66.1540058784384
 20
-6284.818881291522
 30
0.0
 10
66.13694592163965
 20
-6284.709271463852
 30
0.0
 10
66.11354170596991
 20
-6284.609637635846
 30
0.0
 10
66.0569113493368
 20
-6284.439370804016
 30
0.0
 10
66.02290742047988
 20
-6284.366697608466
 30
0.0
 10
65.94792836618716
 20
-6284.255873764071
 30
0.0
 10
65.90647852677775
 20
-6284.216667787746
 30
0.0
 10
65.81906368759532
 20
-6284.174343873084
 30
0.0
 10
65.77397081972266
 20
-6284.171116428129
 30
0.0
 10
65.72746473309525
 20
-6284.186182982011
 30
0.0
  0
SPLINE
  5
3A4A8F
330
18
100
AcDbEntity
  8
姿図
100
AcDbSpline
210
0.0
220
0.0
230
1.0
 70
     8
 71
     3
 72
    10
 73
     6
 74
     0
 42
0.000000001
 43
0.0000000001
 40
0.0
 40
0.0
 40
0.0
 40
0.0
 40
0.5
 40
0.5
 40
1.0
 40
1.0
 40
1.0
 40
1.0
 10
62.03905132703271
 20
-6274.654325064351
 30
0.0
 10
62.10679158574859
 20
-6274.672936308134
 30
0.0
 10
62.16770787174701
 20
-6274.744631693822
 30
0.0
 10
62.2744678684916
 20
-6274.931669019086
 30
0.0
 10
62.32111924016606
 20
-6275.047301176
 30
0.0
 10
62.36791340798685
 20
-6275.164914509343
 30
0.0
  0
LINE
  5
3A4A90
330
18
100
AcDbEntity
  8
姿図
100
AcDbLine
 10
62.0390513008567
 20
-6274.654323940854
 30
0.0
 11
62.22172619403124
 21
-6263.51040108367
 31
0.0
  0
ARC
  5
3A4A91
330
18
100
AcDbEntity
  8
姿図
100
AcDbCircle
 10
65.44632674055045
 20
-6284.139469865184
 30
0.0
 40
0.981024334535411
100
AcDbArc
 50
265.1370475771977
 51
316.1675001377953
  0
SPLINE
  5
3A4A92
330
18
100
AcDbEntity
  8
姿図
100
AcDbSpline
210
0.0
220
0.0
230
1.0
 70
     8
 71
     3
 72
    14
 73
    10
 74
     0
 42
0.000000001
 43
0.0000000001
 40
0.0
 40
0.0
 40
0.0
 40
0.0
 40
0.2499999999999991
 40
0.2499999999999991
 40
0.4999999999999995
 40
0.4999999999999995
 40
0.7499999999999999
 40
0.7499999999999999
 40
1.0
 40
1.0
 40
1.0
 40
1.0
 10
52.49065832790011
 20
-6284.217239542652
 30
0.0
 10
52.43976791884553
 20
-6284.202402484457
 30
0.0
 10
52.38930345689159
 20
-6284.20614129131
 30
0.0
 10
52.29420186376673
 20
-6284.248975172719
 30
0.0
 10
52.24839603396382
 20
-6284.288771144751
 30
0.0
 10
52.16617265514215
 20
-6284.400365196977
 30
0.0
 10
52.12916224869357
 20
-6284.472622568664
 30
0.0
 10
52.06652725985087
 20
-6284.644639694339
 30
0.0
 10
52.04135854644083
 20
-6284.742350459644
 30
0.0
 10
52.02248239207171
 20
-6284.852037062081
 30
0.0
  0
LINE
  5
3A4A93
330
18
100
AcDbEntity
  8
姿図
100
AcDbLine
 10
50.3457182442021
 20
-6294.596850600962
 30
0.0
 11
52.02248223869348
 21
-6284.852036475783
 31
0.0
  0
LINE
  5
3A4A94
330
18
100
AcDbEntity
  8
姿図
100
AcDbLine
 10
49.78551780672794
 20
-6259.895297952251
 30
0.0
 11
49.78551315549736
 21
-6259.895408155863
 31
0.0
  0
LWPOLYLINE
  5
3A4A95
330
18
100
AcDbEntity
  8
姿図
100
AcDbPolyline
 90
        3
 70
   128
 43
0.0
 10
56.3665616140301
 20
-6263.524036813873
 10
52.7911456767813
 20
-6261.552580022559
 10
49.78551780672794
 20
-6259.895297952251
  0
LINE
  5
3A4A96
330
18
100
AcDbEntity
  8
姿図
100
AcDbLine
 10
56.36657699067168
 20
-6263.524148043927
 30
0.0
 11
56.3665616140301
 21
-6263.524036813873
 31
0.0
  0
LINE
  5
3A4A97
330
18
100
AcDbEntity
  8
姿図
100
AcDbLine
 10
56.54662053112956
 20
-6274.667163499781
 30
0.0
 11
56.36657699067168
 21
-6263.524148043927
 31
0.0
  0
SPLINE
  5
3A4A98
330
18
100
AcDbEntity
  8
姿図
100
AcDbSpline
210
0.0
220
0.0
230
1.0
 70
     8
 71
     3
 72
    10
 73
     6
 74
     0
 42
0.000000001
 43
0.0000000001
 40
0.0
 40
0.0
 40
0.0
 40
0.0
 40
0.5
 40
0.5
 40
1.0
 40
1.0
 40
1.0
 40
1.0
 10
56.54662064202553
 20
-6274.667164420755
 30
0.0
 10
56.47237335415387
 20
-6274.686027480269
 30
0.0
 10
56.40550270812681
 20
-6274.758015300868
 30
0.0
 10
56.28821081304393
 20
-6274.945616433566
 30
0.0
 10
56.23690127064389
 20
-6275.061523890232
 30
0.0
 10
56.18542961234658
 20
-6275.179420023516
 30
0.0
  0
ARC
  5
3A4A99
330
18
100
AcDbEntity
  8
姿図
100
AcDbCircle
 10
52.74445109489867
 20
-6284.124873994638
 30
0.0
 40
1.024697176397218
100
AcDbArc
 50
225.2053447522044
 51
274.5232505178179
  0
LINE
  5
3A4A9A
330
18
100
AcDbEntity
  8
姿図
100
AcDbLine
 10
59.51784327746534
 20
-6259.653846911642
 30
0.0
 11
59.51114921824451
 21
-6259.623280680272
 31
0.0
  0
LINE
  5
3A4A9B
330
18
100
AcDbEntity
  8
姿図
100
AcDbLine
 10
58.44175247054946
 20
-6259.656484313206
 30
0.0
 11
58.44175489076147
 21
-6259.656372163309
 31
0.0
  0
LINE
  5
3A4A9C
330
18
100
AcDbEntity
  8
姿図
100
AcDbLine
 10
59.82060796221884
 20
-6263.455737999698
 30
0.0
 11
59.81391430480538
 21
-6263.42517154051
 31
0.0
  0
SPLINE
  5
3A4A9D
330
18
100
AcDbEntity
  8
姿図
100
AcDbSpline
210
0.0
220
0.0
230
1.0
 70
     8
 71
     3
 72
    10
 73
     6
 74
     0
 42
0.000000001
 43
0.0000000001
 40
0.0
 40
0.0
 40
0.0
 40
0.0
 40
0.5
 40
0.5
 40
1.0
 40
1.0
 40
1.0
 40
1.0
 10
75.39411015099162
 20
-6295.441156779205
 30
0.0
 10
75.52019451119628
 20
-6295.452758577787
 30
0.0
 10
75.68343295380556
 20
-6295.432455525344
 30
0.0
 10
75.99957729248969
 20
-6295.338555542805
 30
0.0
 10
76.15086184043969
 20
-6295.265439940216
 30
0.0
 10
76.25613739767775
 20
-6295.185107984362
 30
0.0
  0
LINE
  5
3A4A9E
330
18
100
AcDbEntity
  8
姿図
100
AcDbLine
 10
76.69692143592766
 20
-6260.506930309033
 30
0.0
 11
76.69692264603368
 21
-6260.506818131641
 31
0.0
  0
LINE
  5
3A4A9F
330
18
100
AcDbEntity
  8
姿図
100
AcDbLine
 10
76.25600844705907
 20
-6295.182992077537
 30
0.0
 11
76.69692143592766
 21
-6260.506930309033
 31
0.0
  0
LINE
  5
3A4AA0
330
18
100
AcDbEntity
  8
姿図
100
AcDbLine
 10
73.18063631923607
 20
-6285.332822654416
 30
0.0
 11
76.25600844705907
 21
-6295.182992077537
 31
0.0
  0
SPLINE
  5
3A4AA1
330
18
100
AcDbEntity
  8
姿図
100
AcDbSpline
210
0.0
220
0.0
230
1.0
 70
     8
 71
     3
 72
    14
 73
    10
 74
     0
 42
0.000000001
 43
0.0000000001
 40
0.0
 40
0.0
 40
0.0
 40
0.0
 40
0.25
 40
0.25
 40
0.5
 40
0.5
 40
0.75
 40
0.75
 40
1.0
 40
1.0
 40
1.0
 40
1.0
 10
73.1806361784926
 20
-6285.332823234031
 30
0.0
 10
73.14600375919694
 20
-6285.221913160323
 30
0.0
 10
73.09943763879507
 20
-6285.120519330948
 30
0.0
 10
72.98808272320063
 20
-6284.946027075523
 30
0.0
 10
72.9217700862439
 20
-6284.870830563619
 30
0.0
 10
72.77647083880493
 20
-6284.754465941016
 30
0.0
 10
72.69655770695695
 20
-6284.712207256815
 30
0.0
 10
72.52877846333477
 20
-6284.663464308577
 30
0.0
 10
72.44257636507416
 20
-6284.65693433095
 30
0.0
 10
72.35401543817136
 20
-6284.668603471826
 30
0.0
  0
LINE
  5
3A4AA2
330
18
100
AcDbEntity
  8
姿図
100
AcDbLine
 10
76.25600844705907
 20
-6295.182992077537
 30
0.0
 11
76.25613738171526
 21
-6295.18510736386
 31
0.0
  0
SPLINE
  5
3A4AA3
330
18
100
AcDbEntity
  8
姿図
100
AcDbSpline
210
0.0
220
0.0
230
1.0
 70
     8
 71
     3
 72
    10
 73
     6
 74
     0
 42
0.000000001
 43
0.0000000001
 40
0.0
 40
0.0
 40
0.0
 40
0.0
 40
0.2246232204556687
 40
0.612311561874149
 40
1.0
 40
1.0
 40
1.0
 40
1.0
 10
68.46020660735566
 20
-6259.442802290302
 30
0.0
 10
68.42905952625807
 20
-6259.460486762191
 30
0.0
 10
68.34415415522814
 20
-6259.508693739998
 30
0.0
 10
68.25637915044565
 20
-6259.6557514293
 30
0.0
 10
68.2442659740063
 20
-6259.786586259554
 30
0.0
 10
68.23820938503113
 20
-6259.852003682841
 30
0.0
  0
SPLINE
  5
3A4AA4
330
18
100
AcDbEntity
  8
姿図
100
AcDbSpline
210
0.0
220
0.0
230
1.0
 70
     8
 71
     3
 72
    10
 73
     6
 74
     0
 42
0.000000001
 43
0.0000000001
 40
0.0
 40
0.0
 40
0.0
 40
0.0
 40
0.2258310180196888
 40
0.6129173001130923
 40
1.0
 40
1.0
 40
1.0
 40
1.0
 10
62.44434236499884
 20
-6263.100681481068
 30
0.0
 10
62.41297137809549
 20
-6263.118480337443
 30
0.0
 10
62.32782886417808
 20
-6263.166787372896
 30
0.0
 10
62.23987453995414
 20
-6263.314030028944
 30
0.0
 10
62.22776539772907
 20
-6263.444876433063
 30
0.0
 10
62.22171085463182
 20
-6263.510299332399
 30
0.0
  0
SPLINE
  5
3A4AA5
330
18
100
AcDbEntity
  8
姿図
100
AcDbSpline
210
0.0
220
0.0
230
1.0
 70
     8
 71
     3
 72
    10
 73
     6
 74
     0
 42
0.000000001
 43
0.0000000001
 40
0.0
 40
0.0
 40
0.0
 40
0.0
 40
0.5
 40
0.5
 40
1.0
 40
1.0
 40
1.0
 40
1.0
 10
41.94948983147457
 20
-6295.265599187999
 30
0.0
 10
42.05869015254418
 20
-6295.345427934635
 30
0.0
 10
42.212187050823
 20
-6295.417828450588
 30
0.0
 10
42.52818404242916
 20
-6295.510245285705
 30
0.0
 10
42.68906354042293
 20
-6295.529787883697
 30
0.0
 10
42.81111515635929
 20
-6295.517603901644
 30
0.0
  0
LINE
  5
3A4AA6
330
18
100
AcDbEntity
  8
姿図
100
AcDbLine
 10
39.96381977425061
 20
-6298.247741656782
 30
0.0
 11
39.96641167264781
 21
-6298.355654786902
 31
0.0
  0
LINE
  5
3A4AA7
330
18
100
AcDbEntity
  8
姿図
100
AcDbLine
 10
41.9487631826805
 20
-6295.266136341304
 30
0.0
 11
41.52469926397992
 21
-6260.589450629169
 31
0.0
  0
SPLINE
  5
3A4AA8
330
18
100
AcDbEntity
  8
姿図
100
AcDbSpline
210
0.0
220
0.0
230
1.0
 70
     8
 71
     3
 72
     8
 73
     4
 74
     0
 42
0.000000001
 43
0.0000000001
 40
0.0
 40
0.0
 40
0.0
 40
0.0
 40
1.0
 40
1.0
 40
1.0
 40
1.0
 10
41.94948983147457
 20
-6295.265599187999
 30
0.0
 10
41.94924792440587
 20
-6295.265778016443
 30
0.0
 10
41.94900591034683
 20
-6295.265956858311
 30
0.0
 10
41.94876378939047
 20
-6295.266135713612
 30
0.0
  0
ARC
  5
3A4AA9
330
18
100
AcDbEntity
  8
姿図
100
AcDbCircle
 10
72.37906153890484
 20
-6284.215500795546
 30
0.0
 40
1.375111000890754
100
AcDbArc
 50
267.5897831512882
 51
305.6559305429227
  0
LINE
  5
3A4AAA
330
18
100
AcDbEntity
  8
姿図
100
AcDbLine
 10
57.4897471885467
 20
-6284.709599438416
 30
0.0
 11
57.48557651853061
 21
-6284.706225199318
 31
0.0
  0
LINE
  5
3A4AAB
330
18
100
AcDbEntity
  8
姿図
100
AcDbLine
 10
53.096133647316
 20
-6284.827381084376
 30
0.0
 11
53.05392845127594
 21
-6284.823505772269
 31
0.0
  0
ARC
  5
3A4AAC
330
18
100
AcDbEntity
  8
姿図
100
AcDbCircle
 10
59.27529532935686
 20
-6429.121927345343
 30
0.0
 40
144.4267915580462
100
AcDbArc
 50
90.71002033523084
 51
92.45209341491746
  0
LINE
  5
3A4AAD
330
18
100
AcDbEntity
  8
姿図
100
AcDbLine
 10
60.03620662311201
 20
-6284.129581482721
 30
0.0
 11
60.03081678325187
 21
-6284.056735083043
 31
0.0
  0
LINE
  5
3A4AAE
330
18
100
AcDbEntity
  8
姿図
100
AcDbLine
 10
60.69070231523784
 20
-6284.698705267727
 30
0.0
 11
60.68287021022952
 21
-6284.693867089852
 31
0.0
  0
SPLINE
  5
3A4AAF
330
18
100
AcDbEntity
  8
姿図
100
AcDbSpline
210
0.0
220
0.0
230
1.0
 70
     8
 71
     3
 72
    10
 73
     6
 74
     0
 42
0.000000001
 43
0.0000000001
 40
0.0
 40
0.0
 40
0.0
 40
0.0
 40
0.3596108674172788
 40
0.719221117648848
 40
1.0
 40
1.0
 40
1.0
 40
1.0
 10
49.78551780672794
 20
-6259.895297952251
 30
0.0
 10
49.77996411270777
 20
-6259.829737540634
 30
0.0
 10
49.76885673419868
 20
-6259.698616829918
 30
0.0
 10
49.67463615132541
 20
-6259.542887642815
 30
0.0
 10
49.57984179441729
 20
-6259.490041964101
 30
0.0
 10
49.53827916908267
 20
-6259.466871754221
 30
0.0
  0
SPLINE
  5
3A4AB0
330
18
100
AcDbEntity
  8
姿図
100
AcDbSpline
210
0.0
220
0.0
230
1.0
 70
     8
 71
     3
 72
    10
 73
     6
 74
     0
 42
0.000000001
 43
0.0000000001
 40
0.0
 40
0.0
 40
0.0
 40
0.0
 40
0.256882661287561
 40
0.6284429098404313
 40
1.0
 40
1.0
 40
1.0
 40
1.0
 10
56.13282841023284
 20
-6263.104596665678
 30
0.0
 10
56.1695083817161
 20
-6263.125282081873
 30
0.0
 10
56.25924300178053
 20
-6263.175887300146
 30
0.0
 10
56.34974274352704
 20
-6263.327561180634
 30
0.0
 10
56.36095533974766
 20
-6263.458545121696
 30
0.0
 10
56.3665616140301
 20
-6263.524036813873
 30
0.0
  0
LINE
  5
3A4AB1
330
18
100
AcDbEntity
  8
姿図
100
AcDbLine
 10
65.1495134739337
 20
-6284.803742990447
 30
0.0
 11
65.1126640102972
 21
-6284.799187476966
 31
0.0
  0
ARC
  5
3A4AB2
330
18
100
AcDbEntity
  8
姿図
100
AcDbCircle
 10
59.54865130163738
 20
-6432.307191404219
 30
0.0
 40
147.6129041108015
100
AcDbArc
 50
87.8398231158677
 51
89.5567097857852
  0
LINE
  5
3A4AB3
330
18
100
AcDbEntity
  8
姿図
100
AcDbLine
 10
41.94876461023719
 20
-6295.266134996158
 30
0.0
 11
45.15144930187884
 21
-6285.398585444547
 31
0.0
  0
ARC
  5
3A4AB4
330
18
100
AcDbEntity
  8
姿図
100
AcDbCircle
 10
45.95520951841886
 20
-6284.251859953284
 30
0.0
 40
1.400360609987451
100
AcDbArc
 50
234.9727054372518
 51
272.2654878813369
  0
SPLINE
  5
3A4AB5
330
18
100
AcDbEntity
  8
姿図
100
AcDbSpline
210
0.0
220
0.0
230
1.0
 70
     8
 71
     3
 72
    14
 73
    10
 74
     0
 42
0.000000001
 43
0.0000000001
 40
0.0
 40
0.0
 40
0.0
 40
0.0
 40
0.25
 40
0.25
 40
0.5
 40
0.5
 40
0.75
 40
0.75
 40
1.0
 40
1.0
 40
1.0
 40
1.0
 10
46.01018305568054
 20
-6284.730412098685
 30
0.0
 10
45.91826605005304
 20
-6284.719167152083
 30
0.0
 10
45.82680437290167
 20
-6284.72647590333
 30
0.0
 10
45.65383342730193
 20
-6284.776052757273
 30
0.0
 10
45.57019555787376
 20
-6284.81910469619
 30
0.0
 10
45.41937867615213
 20
-6284.936560535249
 30
0.0
 10
45.35111810174671
 20
-6285.011465844458
 30
0.0
 10
45.23475020982739
 20
-6285.187985525738
 30
0.0
 10
45.18750340271343
 20
-6285.287517797531
 30
0.0
 10
45.15144947949006
 20
-6285.398586085717
 30
0.0
  0
LINE
  5
3A4AB6
330
18
100
AcDbEntity
  8
姿図
100
AcDbLine
 10
41.52470962543714
 20
-6260.58933992345
 30
0.0
 11
41.52469926397992
 21
-6260.589450629169
 31
0.0
  0
SPLINE
  5
3A4AB7
330
18
100
AcDbEntity
  8
姿図
100
AcDbSpline
210
0.0
220
0.0
230
1.0
 70
     8
 71
     3
 72
    11
 73
     7
 74
     0
 42
0.000000001
 43
0.0000000001
 40
0.0
 40
0.0
 40
0.0
 40
0.0
 40
0.0817661923929676
 40
0.3878474419408315
 40
0.693923458316969
 40
1.0
 40
1.0
 40
1.0
 40
1.0
 10
76.93555985126292
 20
-6260.061722154024
 30
0.0
 10
76.92280901276354
 20
-6260.062943524682
 30
0.0
 10
76.86232704644208
 20
-6260.068736939679
 30
0.0
 10
76.77778009909888
 20
-6260.155450148573
 30
0.0
 10
76.70102872917599
 20
-6260.308410061261
 30
0.0
 10
76.69829324460581
 20
-6260.440681902976
 30
0.0
 10
76.69692550114691
 20
-6260.506817880587
 30
0.0
  0
SPLINE
  5
3A4AB8
330
18
100
AcDbEntity
  8
姿図
100
AcDbSpline
210
0.0
220
0.0
230
1.0
 70
     8
 71
     3
 72
    11
 73
     7
 74
     0
 42
0.000000001
 43
0.0000000001
 40
0.0
 40
0.0
 40
0.0
 40
0.0
 40
0.3027507603040615
 40
0.605502749134587
 40
0.9082557996643771
 40
1.0
 40
1.0
 40
1.0
 40
1.0
 10
41.52470962543714
 20
-6260.58933992345
 30
0.0
 10
41.52375968692901
 20
-6260.523227335994
 30
0.0
 10
41.5218598060582
 20
-6260.391001892806
 30
0.0
 10
41.44889936460827
 20
-6260.238123711747
 30
0.0
 10
41.36646127887694
 20
-6260.151223830391
 30
0.0
 10
41.30651883766407
 20
-6260.145861069975
 30
0.0
 10
41.29257863574081
 20
-6260.144613907504
 30
0.0
  0
LINE
  5
3A4AB9
330
18
100
AcDbEntity
  8
姿図
100
AcDbLine
 10
82.53013620802199
 20
-6261.521236896383
 30
0.0
 11
82.53013599057132
 21
-6261.521124844517
 31
0.0
  0
LINE
  5
3A4ABA
330
18
100
AcDbEntity
  8
姿図
100
AcDbLine
 10
82.28471679222186
 20
-6296.180035051624
 30
0.0
 11
82.53013620802199
 21
-6261.521236896383
 31
0.0
  0
LINE
  5
3A4ABB
330
18
100
AcDbEntity
  8
姿図
100
AcDbLine
 10
78.1170882097565
 20
-6286.147678370915
 30
0.0
 11
82.28471679222186
 21
-6296.180035051624
 31
0.0
  0
SPLINE
  5
3A4ABC
330
18
100
AcDbEntity
  8
姿図
100
AcDbSpline
210
0.0
220
0.0
230
1.0
 70
     8
 71
     3
 72
    10
 73
     6
 74
     0
 42
0.000000001
 43
0.0000000001
 40
0.0
 40
0.0
 40
0.0
 40
0.0
 40
0.5
 40
0.5
 40
1.0
 40
1.0
 40
1.0
 40
1.0
 10
81.48652490916758
 20
-6296.396442499345
 30
0.0
 10
81.56230364945075
 20
-6296.413121868886
 30
0.0
 10
81.68993960965925
 20
-6296.400135336433
 30
0.0
 10
81.98274350158798
 20
-6296.321552555533
 30
0.0
 10
82.14640975710267
 20
-6296.25635907949
 30
0.0
 10
82.28490844991785
 20
-6296.182158908109
 30
0.0
  0
LINE
  5
3A4ABD
330
18
100
AcDbEntity
  8
姿図
100
AcDbLine
 10
82.28471679222186
 20
-6296.180035051624
 30
0.0
 11
82.28490799021903
 21
-6296.182158387341
 31
0.0
  0
SPLINE
  5
3A4ABE
330
18
100
AcDbEntity
  8
姿図
100
AcDbSpline
210
0.0
220
0.0
230
1.0
 70
     8
 71
     3
 72
    10
 73
     6
 74
     0
 42
0.000000001
 43
0.0000000001
 40
0.0
 40
0.0
 40
0.0
 40
0.0
 40
0.5
 40
0.5
 40
1.0
 40
1.0
 40
1.0
 40
1.0
 10
36.21734606642736
 20
-6296.290243894802
 30
0.0
 10
36.35794794072714
 20
-6296.363789232735
 30
0.0
 10
36.52149412387304
 20
-6296.428214993929
 30
0.0
 10
36.80967353768782
 20
-6296.505434655772
 30
0.0
 10
36.93282880617505
 20
-6296.517832774929
 30
0.0
 10
37.0031199547152
 20
-6296.500810692188
 30
0.0
  0
LINE
  5
3A4ABF
330
18
100
AcDbEntity
  8
姿図
100
AcDbLine
 10
36.21640194240757
 20
-6296.290823072233
 30
0.0
 11
35.99303359273426
 21
-6261.630422459993
 31
0.0
  0
SPLINE
  5
3A4AC0
330
18
100
AcDbEntity
  8
姿図
100
AcDbSpline
210
0.0
220
0.0
230
1.0
 70
     8
 71
     3
 72
     8
 73
     4
 74
     0
 42
0.000000001
 43
0.0000000001
 40
0.0
 40
0.0
 40
0.0
 40
0.0
 40
1.0
 40
1.0
 40
1.0
 40
1.0
 10
36.21734606642736
 20
-6296.290243894802
 30
0.0
 10
36.21703125763901
 20
-6296.290436726619
 30
0.0
 10
36.2167163906232
 20
-6296.290629576013
 30
0.0
 10
36.21640146550287
 20
-6296.290822442993
 30
0.0
  0
SPLINE
  5
3A4AC1
330
18
100
AcDbEntity
  8
姿図
100
AcDbSpline
210
0.0
220
0.0
230
1.0
 70
     8
 71
     3
 72
     9
 73
     5
 74
     0
 42
0.000000001
 43
0.0000000001
 40
0.0
 40
0.0
 40
0.0
 40
0.0
 40
0.4895165711446924
 40
1.0
 40
1.0
 40
1.0
 40
1.0
 10
85.33224761424177
 20
-6300.01083085903
 30
0.0
 10
85.15062526305297
 20
-6299.613348236153
 30
0.0
 10
84.77960135519223
 20
-6298.801358108939
 30
0.0
 10
84.41194635236587
 20
-6297.988690734658
 30
0.0
 10
84.22426456588732
 20
-6297.573837506917
 30
0.0
  0
LINE
  5
3A4AC2
330
18
100
AcDbEntity
  8
姿図
100
AcDbLine
 10
35.99304966441804
 20
-6261.630311252169
 30
0.0
 11
35.99303359273426
 21
-6261.630422459993
 31
0.0
  0
SPLINE
  5
3A4AC3
330
18
100
AcDbEntity
  8
姿図
100
AcDbSpline
210
0.0
220
0.0
230
1.0
 70
     8
 71
     3
 72
    11
 73
     7
 74
     0
 42
0.000000001
 43
0.0000000001
 40
0.0
 40
0.0
 40
0.0
 40
0.0
 40
0.2832538349218598
 40
0.5665088192539867
 40
0.8497647969127294
 40
1.0
 40
1.0
 40
1.0
 40
1.0
 10
82.53013884568458
 20
-6261.521124593464
 30
0.0
 10
82.52707231346623
 20
-6261.455057860715
 30
0.0
 10
82.52093923658595
 20
-6261.322924127125
 30
0.0
 10
82.55372874870946
 20
-6261.171039675418
 30
0.0
 10
82.60101332137073
 20
-6261.083210730895
 30
0.0
 10
82.64109923758986
 20
-6261.081291327426
 30
0.0
 10
82.6549918287925
 20
-6261.080626119039
 30
0.0
  0
SPLINE
  5
3A4AC4
330
18
100
AcDbEntity
  8
姿図
100
AcDbSpline
210
0.0
220
0.0
230
1.0
 70
     8
 71
     3
 72
    12
 73
     8
 74
     0
 42
0.000000001
 43
0.0000000001
 40
0.0
 40
0.0
 40
0.0
 40
0.0
 40
0.4999999999999999
 40
0.4999999999999999
 40
0.75
 40
0.75
 40
1.0
 40
1.0
 40
1.0
 40
1.0
 10
60.59154290462526
 20
-6275.196778689707
 30
0.0
 10
60.43389849999602
 20
-6275.191800235331
 30
0.0
 10
60.28681790514203
 20
-6275.180246149846
 30
0.0
 10
60.12868518020218
 20
-6275.156931112189
 30
0.0
 10
60.0868860527624
 20
-6275.148296462323
 30
0.0
 10
60.02906150225412
 20
-6275.130071213102
 30
0.0
 10
60.01362496917969
 20
-6275.120713672474
 30
0.0
 10
60.01232332544069
 20
-6275.111387384534
 30
0.0
  0
SPLINE
  5
3A4AC5
330
18
100
AcDbEntity
  8
姿図
100
AcDbSpline
210
0.0
220
0.0
230
1.0
 70
     8
 71
     3
 72
    12
 73
     8
 74
     0
 42
0.000000001
 43
0.0000000001
 40
0.0
 40
0.0
 40
0.0
 40
0.0
 40
0.5000000000000014
 40
0.5000000000000014
 40
0.7500000000000007
 40
0.7500000000000007
 40
1.0
 40
1.0
 40
1.0
 40
1.0
 10
62.36791340798685
 20
-6275.164914509343
 30
0.0
 10
62.31015371668076
 20
-6275.182202836631
 30
0.0
 10
62.19937292506992
 20
-6275.197402946356
 30
0.0
 10
61.98950132409013
 20
-6275.212386727714
 30
0.0
 10
61.91387334102628
 20
-6275.21601047794
 30
0.0
 10
61.75670996170666
 20
-6275.22023017845
 30
0.0
 10
61.67799820513867
 20
-6275.220768307634
 30
0.0
 10
61.60069677080532
 20
-6275.21971014342
 30
0.0
  0
SPLINE
  5
3A4AC6
330
18
100
AcDbEntity
  8
姿図
100
AcDbSpline
210
0.0
220
0.0
230
1.0
 70
     8
 71
     3
 72
    10
 73
     6
 74
     0
 42
0.000000001
 43
0.0000000001
 40
0.0
 40
0.0
 40
0.0
 40
0.0
 40
0.5
 40
0.5
 40
1.0
 40
1.0
 40
1.0
 40
1.0
 10
56.96703496461974
 20
-6275.230581768681
 30
0.0
 10
56.81404395629795
 20
-6275.233417447878
 30
0.0
 10
56.64800362574182
 20
-6275.229682897554
 30
0.0
 10
56.36488348912509
 20
-6275.211156993391
 30
0.0
 10
56.24858156168788
 20
-6275.196408462575
 30
0.0
 10
56.18542961234651
 20
-6275.179420023516
 30
0.0
  0
ARC
  5
3A4AC7
330
18
100
AcDbEntity
  8
姿図
100
AcDbCircle
 10
59.36362735564864
 20
-6343.898375545878
 30
0.0
 40
68.70960336784518
100
AcDbArc
 50
91.1632299653883
 51
91.99888336532123
  0
ARC
  5
3A4AC8
330
18
100
AcDbEntity
  8
姿図
100
AcDbCircle
 10
59.50089892706741
 20
-6345.409783320307
 30
0.0
 40
70.2214750705842
100
AcDbArc
 50
88.28645737312553
 51
89.11007552853107
  0
ARC
  5
3A4AC9
330
18
100
AcDbEntity
  8
姿図
100
AcDbCircle
 10
58.72858454836734
 20
-6275.044027027217
 30
0.0
 40
0.7762555294696585
100
AcDbArc
 50
148.1934734221652
 51
191.8123516281706
  0
LINE
  5
3A4ACA
330
18
100
AcDbEntity
  8
姿図
100
AcDbLine
 10
60.51452209307171
 20
-6274.629161507442
 30
0.0
 11
60.52099253911695
 21
-6274.627101826913
 31
0.0
  0
LINE
  5
3A4ACB
330
18
100
AcDbEntity
  8
姿図
100
AcDbLine
 10
62.01820546781895
 20
-6274.654790460783
 30
0.0
 11
62.0390513008567
 21
-6274.654323940854
 31
0.0
  0
SPLINE
  5
3A4ACC
330
18
100
AcDbEntity
  8
姿図
100
AcDbSpline
210
0.0
220
0.0
230
1.0
 70
     8
 71
     3
 72
     8
 73
     4
 74
     0
 42
0.000000001
 43
0.0000000001
 40
0.0
 40
0.0
 40
0.0
 40
0.0
 40
1.0
 40
1.0
 40
1.0
 40
1.0
 10
56.54662064202553
 20
-6274.667164420755
 30
0.0
 10
56.5716456389942
 20
-6274.660835703564
 30
0.0
 10
56.58921081089467
 20
-6274.659886117877
 30
0.0
 10
56.59887913679691
 20
-6274.667999828809
 30
0.0
  0
LINE
  5
3A4ACD
330
18
100
AcDbEntity
  8
姿図
100
AcDbLine
 10
57.1192544763701
 20
-6274.658864091698
 30
0.0
 11
57.1348249945354
 21
-6274.660681446646
 31
0.0
  0
ARC
  5
3A4ACE
330
18
100
AcDbEntity
  8
姿図
100
AcDbCircle
 10
59.36950927433585
 20
-6338.689229773684
 30
0.0
 40
64.06753323406677
100
AcDbArc
 50
91.16322099002087
 51
91.99889004430634
  0
SPLINE
  5
3A4ACF
330
18
100
AcDbEntity
  8
姿図
100
AcDbSpline
210
0.0
220
0.0
230
1.0
 70
     8
 71
     3
 72
    11
 73
     7
 74
     0
 42
0.000000001
 43
0.0000000001
 40
0.0
 40
0.0
 40
0.0
 40
0.0
 40
0.2818267115933505
 40
0.563653259022848
 40
0.8454835475586497
 40
1.0
 40
1.0
 40
1.0
 40
1.0
 10
35.99304966441804
 20
-6261.630311252169
 30
0.0
 10
35.99652264378051
 20
-6261.564235425534
 30
0.0
 10
36.00346860048241
 20
-6261.432083810752
 30
0.0
 10
35.97517928260541
 20
-6261.280248834474
 30
0.0
 10
35.93263603625207
 20
-6261.192309496686
 30
0.0
 10
35.89568142623942
 20
-6261.190672962584
 30
0.0
 10
35.8825952846362
 20
-6261.190093443087
 30
0.0
  0
LINE
  5
3A4AD0
330
18
100
AcDbEntity
  8
姿図
100
AcDbLine
 10
84.8497953829045
 20
-6262.740616938153
 30
0.0
 11
84.8497949480034
 21
-6262.74050503931
 31
0.0
  0
LINE
  5
3A4AD1
330
18
100
AcDbEntity
  8
姿図
100
AcDbLine
 10
84.83723411957567
 20
-6297.392926066348
 30
0.0
 11
84.8497953829045
 21
-6262.740616938153
 31
0.0
  0
LINE
  5
3A4AD2
330
18
100
AcDbEntity
  8
姿図
100
AcDbLine
 10
34.0213292649599
 20
-6297.514912747402
 30
0.0
 11
34.03266826212078
 21
-6262.859845494961
 31
0.0
  0
LINE
  5
3A4AD3
330
18
100
AcDbEntity
  8
姿図
100
AcDbLine
 10
34.03268300084479
 20
-6262.859733467019
 30
0.0
 11
34.03266826212078
 21
-6262.859845494961
 31
0.0
  0
SPLINE
  5
3A4AD4
330
18
100
AcDbEntity
  8
姿図
100
AcDbSpline
210
0.0
220
0.0
230
1.0
 70
     8
 71
     3
 72
    10
 73
     6
 74
     0
 42
0.000000001
 43
0.0000000001
 40
0.0
 40
0.0
 40
0.0
 40
0.0
 40
0.5
 40
0.5
 40
1.0
 40
1.0
 40
1.0
 40
1.0
 10
84.22426482026496
 20
-6297.573837843043
 30
0.0
 10
84.23820131435457
 20
-6297.592773868108
 30
0.0
 10
84.31080337423732
 20
-6297.584824030103
 30
0.0
 10
84.5356900811181
 20
-6297.519262998733
 30
0.0
 10
84.68682134041931
 20
-6297.461987793521
 30
0.0
 10
84.83745799830963
 20
-6297.395060398752
 30
0.0
  0
LINE
  5
3A4AD5
330
18
100
AcDbEntity
  8
姿図
100
AcDbLine
 10
84.83723411957567
 20
-6297.392926066348
 30
0.0
 11
84.83745902978094
 21
-6297.395059961992
 31
0.0
  0
SPLINE
  5
3A4AD6
330
18
100
AcDbEntity
  8
姿図
100
AcDbSpline
210
0.0
220
0.0
230
1.0
 70
     8
 71
     3
 72
    10
 73
     6
 74
     0
 42
0.000000001
 43
0.0000000001
 40
0.0
 40
0.0
 40
0.0
 40
0.0
 40
0.5
 40
0.5
 40
1.0
 40
1.0
 40
1.0
 40
1.0
 10
34.02234956692723
 20
-6297.514284209056
 30
0.0
 10
34.17294763366957
 20
-6297.580504838607
 30
0.0
 10
34.32164467786345
 20
-6297.637076578384
 30
0.0
 10
34.53813381050795
 20
-6297.701602041591
 30
0.0
 10
34.60481557627337
 20
-6297.709225088047
 30
0.0
 10
34.61264506724319
 20
-6297.690237995034
 30
0.0
  0
SPLINE
  5
3A4AD7
330
18
100
AcDbEntity
  8
姿図
100
AcDbSpline
210
0.0
220
0.0
230
1.0
 70
     8
 71
     3
 72
     8
 73
     4
 74
     0
 42
0.000000001
 43
0.0000000001
 40
0.0
 40
0.0
 40
0.0
 40
0.0
 40
1.0
 40
1.0
 40
1.0
 40
1.0
 10
34.02234956692723
 20
-6297.514284209056
 30
0.0
 10
34.02200978320293
 20
-6297.514493506191
 30
0.0
 10
34.02166999887894
 20
-6297.514702822383
 30
0.0
 10
34.02133021408878
 20
-6297.514912157634
 30
0.0
  0
SPLINE
  5
3A4AD8
330
18
100
AcDbEntity
  8
姿図
100
AcDbSpline
210
0.0
220
0.0
230
1.0
 70
     8
 71
     3
 72
    11
 73
     7
 74
     0
 42
0.000000001
 43
0.0000000001
 40
0.0
 40
0.0
 40
0.0
 40
0.0
 40
0.2724682640494378
 40
0.5449363693863115
 40
0.8174080916008563
 40
1.0
 40
1.0
 40
1.0
 40
1.0
 10
84.84979758566607
 20
-6262.740504941283
 30
0.0
 10
84.84273472168763
 20
-6262.674228015749
 30
0.0
 10
84.82860899784467
 20
-6262.541674203287
 30
0.0
 10
84.81288324798972
 20
-6262.389550035868
 30
0.0
 10
84.80400238567987
 20
-6262.300159806179
 30
0.0
 10
84.80447344981923
 20
-6262.30013700544
 30
0.0
 10
84.80466246184841
 20
-6262.300127856762
 30
0.0
  0
SPLINE
  5
3A4AD9
330
18
100
AcDbEntity
  8
姿図
100
AcDbSpline
210
0.0
220
0.0
230
1.0
 70
     8
 71
     3
 72
    11
 73
     7
 74
     0
 42
0.000000001
 43
0.0000000001
 40
0.0
 40
0.0
 40
0.0
 40
0.0
 40
0.1850045440954051
 40
0.4566722386683665
 40
0.7283360854514306
 40
0.9999999999999998
 40
0.9999999999999998
 40
0.9999999999999998
 40
0.9999999999999998
 10
34.0950477387662
 20
-6262.418959448995
 30
0.0
 10
34.0935229621749
 20
-6262.418943550134
 30
0.0
 10
34.08975914576263
 20
-6262.418904304785
 30
0.0
 10
34.07515597941661
 20
-6262.508554920518
 30
0.0
 10
34.05486586773959
 20
-6262.660810241306
 30
0.0
 10
34.04007729042452
 20
-6262.793425719601
 30
0.0
 10
34.03268300084479
 20
-6262.859733467019
 30
0.0
  0
LINE
  5
3A4ADA
330
18
100
AcDbEntity
  8
姿図
100
AcDbLine
 10
60.15244073525497
 20
-6265.717379862003
 30
0.0
 11
60.15244358054172
 21
-6265.717493097803
 31
0.0
  0
LWPOLYLINE
  5
3A4ADB
330
18
100
AcDbEntity
  8
姿図
100
AcDbPolyline
 90
        4
 70
   128
 43
0.0
 10
60.46069255493192
 20
-6266.079943495796
 10
60.30758547975189
 20
-6265.899862716112
 10
60.1524415053938
 20
-6265.717380924741
 10
60.15244073525497
 20
-6265.717379862003
  0
LINE
  5
3A4ADC
330
18
100
AcDbEntity
  8
姿図
100
AcDbLine
 10
60.46069497514439
 20
-6266.080055755683
 30
0.0
 11
60.46069255493192
 21
-6266.079943495796
 31
0.0
  0
LINE
  5
3A4ADD
330
18
100
AcDbEntity
  8
姿図
100
AcDbLine
 10
60.61109764699754
 20
-6274.628850355615
 30
0.0
 11
60.46069497514439
 21
-6266.080055755683
 31
0.0
  0
LINE
  5
3A4ADE
330
18
100
AcDbEntity
  8
姿図
100
AcDbLine
 10
60.3090831187627
 20
-6274.62050323391
 30
0.0
 11
60.1524434292784
 21
-6265.717493094367
 31
0.0
  0
SPLINE
  5
3A4ADF
330
18
100
AcDbEntity
  8
姿図
100
AcDbSpline
210
0.0
220
0.0
230
1.0
 70
     8
 71
     3
 72
    10
 73
     6
 74
     0
 42
0.000000001
 43
0.0000000001
 40
0.0
 40
0.0
 40
0.0
 40
0.0
 40
0.3532599729532751
 40
0.7065233635440104
 40
1.0
 40
1.0
 40
1.0
 40
1.0
 10
60.15244073525497
 20
-6265.717379862003
 30
0.0
 10
60.1431499762074
 20
-6265.649601791871
 30
0.0
 10
60.1245683682282
 20
-6265.514044995884
 30
0.0
 10
60.01144561129463
 20
-6265.346273000666
 30
0.0
 10
59.90198394883005
 20
-6265.285324588816
 30
0.0
 10
59.85231261386163
 20
-6265.257667517723
 30
0.0
  0
SPLINE
  5
3A4AE0
330
18
100
AcDbEntity
  8
姿図
100
AcDbSpline
210
0.0
220
0.0
230
1.0
 70
     8
 71
     3
 72
     9
 73
     5
 74
     0
 42
0.000000001
 43
0.0000000001
 40
0.0
 40
0.0
 40
0.0
 40
0.0
 40
0.5646649221768626
 40
1.0
 40
1.0
 40
1.0
 40
1.0
 10
60.46069333013701
 20
-6266.079943829343
 30
0.0
 10
60.45308353394188
 20
-6266.010648706412
 30
0.0
 10
60.4396068756683
 20
-6265.887929691633
 30
0.0
 10
60.36222481175101
 20
-6265.79284561078
 30
0.0
 10
60.32853768493345
 20
-6265.751452175043
 30
0.0
  0
SPLINE
  5
3A4AE1
330
18
100
AcDbEntity
  8
姿図
100
AcDbSpline
210
0.0
220
0.0
230
1.0
 70
     8
 71
     3
 72
    35
 73
    31
 74
     0
 42
0.000000001
 43
0.0000000001
 40
0.0
 40
0.0
 40
0.0
 40
0.0
 40
0.0000037398902278
 40
0.0000037398902278
 40
0.0000037398902278
 40
0.0000089563415312
 40
0.0000089563415312
 40
0.0000089563415312
 40
0.0000141425423168
 40
0.0000141425423168
 40
0.0000141425423168
 40
0.0000193133772336
 40
0.0000193133772336
 40
0.0000193133772336
 40
0.0000244828501916
 40
0.0000244828501916
 40
0.0000244828501916
 40
0.00002769184338
 40
0.00002769184338
 40
0.00002769184338
 40
0.0000328981796025
 40
0.0000328981796025
 40
0.0000328981796025
 40
0.0000381353299249
 40
0.0000381353299249
 40
0.0000381353299249
 40
0.0000433922357721
 40
0.0000433922357721
 40
0.0000433922357721
 40
0.0000480456798351
 40
0.0000480456798351
 40
0.0000480456798351
 40
0.0000480456798351
 10
59.93175909819223
 20
-6265.56250684214
 30
0.0
 10
59.93176261808153
 20
-6265.562524884541
 30
0.0
 10
59.93166608297207
 20
-6265.562543263523
 30
0.0
 10
59.93147347466704
 20
-6265.562561193373
 30
0.0
 10
59.93120664976732
 20
-6265.562586032026
 30
0.0
 10
59.93074666215119
 20
-6265.562610585305
 30
0.0
 10
59.9301301510162
 20
-6265.562632835611
 30
0.0
 10
59.92951719585019
 20
-6265.562654957579
 30
0.0
 10
59.92873275680643
 20
-6265.562675403858
 30
0.0
 10
59.92784007974832
 20
-6265.562692476606
 30
0.0
 10
59.92695009478642
 20
-6265.562709497869
 30
0.0
 10
59.92592810607432
 20
-6265.562723628993
 30
0.0
 10
59.92485799555286
 20
-6265.562733678553
 30
0.0
 10
59.92378824732064
 20
-6265.562743724713
 30
0.0
 10
59.9226408980975
 20
-6265.562749966822
 30
0.0
 10
59.92151140593039
 20
-6265.562751875908
 30
0.0
 10
59.92080407259329
 20
-6265.562753071455
 30
0.0
 10
59.92009370573893
 20
-6265.562752613624
 30
0.0
 10
59.91940379047756
 20
-6265.562750519901
 30
0.0
 10
59.91829440452602
 20
-6265.562747153188
 30
0.0
 10
59.91721340001686
 20
-6265.562739405502
 30
0.0
 10
59.91625104785153
 20
-6265.562727951526
 30
0.0
 10
59.91528303365329
 20
-6265.562716430164
 30
0.0
 10
59.91440795122712
 20
-6265.562700838803
 30
0.0
 10
59.91369809292056
 20
-6265.562682511824
 30
0.0
 10
59.9129855332723
 20
-6265.562664115101
 30
0.0
 10
59.91241950211023
 20
-6265.562642451573
 30
0.0
 10
59.91204602096637
 20
-6265.562619340159
 30
0.0
 10
59.91171437685007
 20
-6265.562598817665
 30
0.0
 10
59.91152593171581
 20
-6265.562576685615
 30
0.0
 10
59.91149266786692
 20
-6265.562554391799
 30
0.0
  0
LWPOLYLINE
  5
3A4AE2
330
18
100
AcDbEntity
  8
姿図
100
AcDbPolyline
 90
       13
 70
   128
 43
0.0
 10
29.72282993186586
 20
-6329.483787935064
 10
29.62902503950309
 20
-6329.690659758497
 10
29.62517388033143
 20
-6329.89787075707
 10
29.71128762894311
 20
-6330.104795956695
 10
29.88711140396856
 20
-6330.310811248572
 10
30.1521117603707
 20
-6330.515295158523
 10
30.50548876440075
 20
-6330.717630898498
 10
30.94617833334159
 20
-6330.917208236334
 10
31.47285016972829
 20
-6331.113424949496
 10
32.0839166006516
 20
-6331.305689395422
 10
32.77753369326737
 20
-6331.493421484655
 10
33.55160810878927
 20
-6331.676054890156
 10
34.38955857531448
 20
-6331.850252394175
  0
LWPOLYLINE
  5
3A4AE3
330
18
100
AcDbEntity
  8
姿図
100
AcDbPolyline
 90
       20
 70
   128
 43
0.0
 10
84.28747265320364
 20
-6331.893721686364
 10
85.12026082446197
 20
-6331.72614605321
 10
85.91643080848559
 20
-6331.545037733015
 10
86.63276937202222
 20
-6331.35867519206
 10
87.26712102379317
 20
-6331.167620619222
 10
87.81756544620808
 20
-6330.972450037993
 10
88.28244871241726
 20
-6330.773752436176
 10
88.66036468461476
 20
-6330.572127032947
 10
88.95017429311753
 20
-6330.368182018802
 10
89.1510033325276
 20
-6330.16253259016
 10
89.26224517986446
 20
-6329.955799036542
 10
89.28356827157577
 20
-6329.748604995155
 10
89.21490149964542
 20
-6329.541575420899
 10
89.0564591737171
 20
-6329.335334843353
 10
88.80871415305215
 20
-6329.13050517658
 10
88.47241459667094
 20
-6328.927704480601
 10
88.04857732681094
 20
-6328.727544599071
 10
87.53847613450918
 20
-6328.53062883999
 10
86.94365496791659
 20
-6328.337551485553
 10
86.59416650842823
 20
-6328.236841262434
  0
ARC
  5
3A4AE4
330
18
100
AcDbEntity
  8
姿図
100
AcDbCircle
 10
35.00518012472011
 20
-6338.658162533441
 30
0.0
 40
10.76162176786513
100
AcDbArc
 50
105.7801525706886
 51
113.5611100788763
  0
LWPOLYLINE
  5
3A4AE5
330
18
100
AcDbEntity
  8
姿図
100
AcDbPolyline
 90
       54
 70
   128
 43
0.0
 10
30.31525224059173
 20
-6328.390440332285
 10
30.80209508885683
 20
-6328.189647734543
 10
31.3754030036433
 20
-6327.992538982208
 10
32.03344369144533
 20
-6327.799708983142
 10
32.77423358727892
 20
-6327.611739590059
 10
33.59553238801208
 20
-6327.429198173076
 10
34.4948658389079
 20
-6327.252635649545
 10
35.46951537216803
 20
-6327.082584984879
 10
36.51654347677584
 20
-6326.919559162616
 10
37.63278994532477
 20
-6326.764050309296
 10
38.81488217896219
 20
-6326.616527717106
 10
40.05925672359272
 20
-6326.477436753614
 10
41.36215703885975
 20
-6326.347196915468
 10
42.71964845432011
 20
-6326.226201852332
 10
44.1276381269805
 20
-6326.114815871243
 10
45.58187364199771
 20
-6326.0133758004
 10
47.07796781063871
 20
-6325.922187603531
 10
48.6114035107067
 20
-6325.841526489865
 10
50.17755401263684
 20
-6325.77163579637
 10
51.77169353014839
 20
-6325.712726595631
 10
53.38900907559836
 20
-6325.664976385589
 10
55.02462120193808
 20
-6325.628529876798
 10
56.67359275724722
 20
-6325.603496347984
 10
58.33094684713177
 20
-6325.589951949794
 10
59.99168194231502
 20
-6325.587937204714
 10
61.65078600278778
 20
-6325.597458275808
 10
63.30325184999563
 20
-6325.61848636824
 10
64.94409225534947
 20
-6325.650958072131
 10
66.56835480184188
 20
-6325.694775700271
 10
68.171138069293
 20
-6325.749806392172
 10
69.74760424579188
 20
-6325.815884612169
 10
71.2929960692969
 20
-6325.892810638804
 10
72.80264919333176
 20
-6325.980352109532
 10
74.27200738886732
 20
-6326.078245629897
 10
75.69663678211009
 20
-6326.186194885544
 10
77.07223680197146
 20
-6326.303874366217
 10
78.39465678124958
 20
-6326.430929111143
 10
79.65990476767584
 20
-6326.566975541108
 10
80.86416212074467
 20
-6326.711603053873
 10
82.0037959530781
 20
-6326.864374938745
 10
83.07536620186949
 20
-6327.024830432854
 10
84.0756372950438
 20
-6327.192485302183
 10
85.00159071547677
 20
-6327.366833548755
 10
85.85043557990227
 20
-6327.547348756787
 10
86.61960559460591
 20
-6327.733486235025
 10
87.30678096018897
 20
-6327.924684304334
 10
87.90988861727567
 20
-6328.120365882929
 10
88.42710711519396
 20
-6328.319940334634
 10
88.85687632108208
 20
-6328.52280542713
 10
89.19789788304602
 20
-6328.728348764165
 10
89.44914417818833
 20
-6328.935950279388
 10
89.6098568991802
 20
-6329.144983231016
 10
89.67954841547788
 20
-6329.354816760202
 10
89.68271587189373
 20
-6329.406698307174
  0
LWPOLYLINE
  5
3A4AE6
330
18
100
AcDbEntity
  8
姿図
100
AcDbPolyline
 90
        3
 70
   128
 43
0.0
 10
29.21972767611155
 20
-6329.413127701218
 10
29.23388737632168
 20
-6329.293227929025
 10
29.33031125985346
 20
-6329.083563666895
  0
ARC
  5
3A4AE7
330
18
100
AcDbEntity
  8
姿図
100
AcDbCircle
 10
59.45122196813606
 20
-6544.556701446189
 30
0.0
 40
219.5721142567877
100
AcDbArc
 50
87.19773010228631
 51
92.80226903360594
  0
LWPOLYLINE
  5
3A4AE8
330
18
100
AcDbEntity
  8
姿図
100
AcDbPolyline
 90
       31
 70
   128
 43
0.0
 10
64.07478954522976
 20
-6312.02536059558
 10
62.55678704985058
 20
-6311.99665547222
 10
61.02807897249896
 20
-6311.979265427207
 10
59.49393479959508
 20
-6311.973250806354
 10
57.95964381660559
 20
-6311.978631650237
 10
56.43049468734907
 20
-6311.995389757621
 10
54.91175860710757
 20
-6312.023467354847
 10
53.40867001648295
 20
-6312.062767921307
 10
51.92641312007795
 20
-6312.113155567178
 10
50.47009464006524
 20
-6312.174456625796
 10
49.04473672570389
 20
-6312.246459808476
 10
47.65525118176344
 20
-6312.328917198549
 10
46.3064293527743
 20
-6312.421544337426
 10
45.00291971702243
 20
-6312.524021926972
 10
43.74921690099684
 20
-6312.635996527682
 10
42.54964268625244
 20
-6312.757082496561
 10
41.40833083578468
 20
-6312.886862116236
 10
40.32921712938988
 20
-6313.024888211899
 10
39.31602068257503
 20
-6313.170684990538
 10
38.37223429396535
 20
-6313.323749559216
 10
37.50111063289569
 20
-6313.483554612556
 10
36.70565620300818
 20
-6313.649549164379
 10
35.98860795771938
 20
-6313.821160938697
 10
35.35244290060116
 20
-6313.997798404466
 10
34.79934798383718
 20
-6314.178852619031
 10
34.33123444030306
 20
-6314.363699449384
 10
33.94971713183108
 20
-6314.551701798176
 10
33.65610449569319
 20
-6314.742211404138
 10
33.45141693564298
 20
-6314.934571723261
 10
33.33635458556396
 20
-6315.128119516403
 10
33.32395617894919
 20
-6315.167589282944
  0
LWPOLYLINE
  5
3A4AE9
330
18
100
AcDbEntity
  8
姿図
100
AcDbPolyline
 90
       25
 70
   128
 43
0.0
 10
85.57851429371748
 20
-6315.167671584399
 10
85.5698535293597
 20
-6315.138911039584
 10
85.45979453309072
 20
-6314.94531679159
 10
85.26007604621957
 20
-6314.752872917639
 10
84.97139154326587
 20
-6314.562242992963
 10
84.59473119772979
 20
-6314.374083986721
 10
84.1313964838339
 20
-6314.189044777195
 10
83.58298483765952
 20
-6314.00776288087
 10
82.95138601270004
 20
-6313.83086350082
 10
82.23877653057133
 20
-6313.658956399249
 10
81.44761481233016
 20
-6313.492634049245
 10
80.58062597659269
 20
-6313.33247002561
 10
79.64079970311238
 20
-6313.179016112935
 10
78.63137636385869
 20
-6313.032801516552
 10
77.55583455339375
 20
-6312.894330209695
 10
76.41788271272704
 20
-6312.764079795377
 10
75.22144281192382
 20
-6312.642498924073
 10
73.97064110415717
 20
-6312.530006767701
 10
72.66978670314315
 20
-6312.426990953165
 10
71.3233653624584
 20
-6312.333807105066
 10
69.93601831772355
 20
-6312.250776153408
 10
68.51252793548304
 20
-6312.178184323425
 10
67.05780190626824
 20
-6312.116281512661
 10
65.57685378830406
 20
-6312.065281796655
 10
64.07478954522976
 20
-6312.02536059558
  0
LWPOLYLINE
  5
3A4AEA
330
18
100
AcDbEntity
  8
姿図
100
AcDbPolyline
 90
       17
 70
   128
 43
0.0
 10
85.67291860445135
 20
-6314.105452667805
 10
85.80859325340334
 20
-6314.065779260904
 10
86.3957929087963
 20
-6313.876664215321
 10
86.89821536563805
 20
-6313.683683197965
 10
87.31428070044865
 20
-6313.487443444899
 10
87.64267692874776
 20
-6313.288562308805
 10
87.88237237685475
 20
-6313.087665585295
 10
88.03261127528926
 20
-6312.88538533947
 10
88.09292387344568
 20
-6312.68235806247
 10
88.06311944969475
 20
-6312.47922255781
 10
87.94329158563295
 20
-6312.276617987932
 10
87.73381859990896
 20
-6312.075181810762
 10
87.43535642241694
 20
-6311.875547761691
 10
87.04884384136663
 20
-6311.678343919258
 10
86.57550269247588
 20
-6311.484190813856
 10
86.01681583135392
 20
-6311.29369934753
 10
85.6856672050885
 20
-6311.194130614993
  0
LWPOLYLINE
  5
3A4AEB
330
18
100
AcDbEntity
  8
姿図
100
AcDbPolyline
 90
       17
 70
   128
 43
0.0
 10
33.48784507403207
 20
-6311.11829446845
 10
33.09385434256326
 20
-6311.230131412498
 10
32.50665468717041
 20
-6311.419246458082
 10
32.00423223032855
 20
-6311.612227475437
 10
31.58816689551803
 20
-6311.808467228503
 10
31.25977066721876
 20
-6312.007348364597
 10
31.02007521911179
 20
-6312.208245088108
 10
30.86983632067732
 20
-6312.410525333933
 10
30.80952372252087
 20
-6312.613552610933
 10
30.83932814627188
 20
-6312.816688115593
 10
30.9591560103336
 20
-6313.019292685471
 10
31.16862899605772
 20
-6313.220728862642
 10
31.46709117354958
 20
-6313.420362911711
 10
31.85360375459996
 20
-6313.617566754142
 10
32.32694490349068
 20
-6313.811719859547
 10
32.88563176461276
 20
-6314.002211325873
 10
33.20825204995796
 20
-6314.099316140864
  0
LWPOLYLINE
  5
3A4AEC
330
18
100
AcDbEntity
  8
姿図
100
AcDbPolyline
 90
       58
 70
   128
 43
0.0
 10
30.4124342615421
 20
-6312.236305855303
 10
30.41351729720009
 20
-6312.215940339449
 10
30.47466577701126
 20
-6312.010106051214
 10
30.62698265887407
 20
-6311.805029050397
 10
30.8699930581413
 20
-6311.601354715513
 10
31.20292886501605
 20
-6311.399723795803
 10
31.6247460655014
 20
-6311.200770771011
 10
32.13411301980162
 20
-6311.005121551225
 10
32.72943278678353
 20
-6310.813391831883
 10
33.40882650759102
 20
-6310.626184721876
 10
34.17016040744324
 20
-6310.444089323311
 10
35.01103888727913
 20
-6310.267678560471
 10
35.92881444816314
 20
-6310.097507470249
 10
36.92059998154056
 20
-6309.934111585844
 10
37.98327434248196
 20
-6309.778004772896
 10
39.11349586417292
 20
-6309.629678509804
 10
40.30770869223545
 20
-6309.489599188289
 10
41.56215333537931
 20
-6309.358207721272
 10
42.87288202822068
 20
-6309.235917522492
 10
44.2357727893984
 20
-6309.123113404258
 10
45.64653786406032
 20
-6309.02015003167
 10
47.10073812228289
 20
-6308.927351459978
 10
48.59379612453236
 20
-6308.845009851808
 10
50.12101644776092
 20
-6308.773384359399
 10
51.6775922654362
 20
-6308.712700010385
 10
53.25862756435248
 20
-6308.663147896711
 10
54.85914718482558
 20
-6308.624883823127
 10
56.47411480213304
 20
-6308.598028399855
 10
58.09844918739202
 20
-6308.582666148367
 10
59.7270403360622
 20
-6308.578844920086
 10
61.35476315719543
 20
-6308.586577471178
 10
62.97649740256211
 20
-6308.605838756099
 10
64.58713946503352
 20
-6308.636568723143
 10
66.18162234548537
 20
-6308.678670240712
 10
67.7549286235095
 20
-6308.732011287638
 10
69.30210864693537
 20
-6308.796423470928
 10
70.81829354031856
 20
-6308.871704848812
 10
72.29871396173915
 20
-6308.957617829509
 10
73.73871133390784
 20
-6309.053892585751
 10
75.13375501262345
 20
-6309.160226181184
 10
76.47945580587
 20
-6309.276283825363
 10
77.7715787554868
 20
-6309.401700427918
 10
79.00606024880591
 20
-6309.536081303328
 10
80.179013709837
 20
-6309.679003879889
 10
81.28675094627783
 20
-6309.830018500736
 10
82.32578525033314
 20
-6309.988649758019
 10
83.2928473758035
 20
-6310.154398435618
 10
84.18489425453426
 20
-6310.32674328687
 10
84.99912122033093
 20
-6310.505142102161
 10
85.73296566753449
 20
-6310.689033529686
 10
86.3841171950284
 20
-6310.87783872765
 10
86.95052644554166
 20
-6311.070963934607
 10
87.43041391669661
 20
-6311.267801301542
 10
87.82226846711221
 20
-6311.467731701306
 10
88.12485800403643
 20
-6311.670125998252
 10
88.33722875052705
 20
-6311.874347322087
 10
88.45871231689391
 20
-6312.079753124145
 10
88.49021260122716
 20
-6312.245730520852
  0
LWPOLYLINE
  5
3A4AED
330
18
100
AcDbEntity
  8
姿図
100
AcDbPolyline
 90
       70
 70
   128
 43
0.0
 10
33.14478425394208
 20
-6313.927076900073
 10
32.67573732155307
 20
-6313.760614970475
 10
32.22082766305137
 20
-6313.567275132264
 10
31.85314572193203
 20
-6313.370990460016
 10
31.57386904157366
 20
-6313.17238979762
 10
31.38389024126005
 20
-6312.972109099557
 10
31.28382139344714
 20
-6312.770790108666
 10
31.27398039839729
 20
-6312.569077637564
 10
31.35440096294717
 20
-6312.367617820817
 10
31.52482308167167
 20
-6312.167056022806
 10
31.78470112547464
 20
-6311.968034661909
 10
32.13320404437407
 20
-6311.771191309652
 10
32.56921357138407
 20
-6311.577156438378
 10
33.09133656713321
 20
-6311.386551766673
 10
33.69789622133207
 20
-6311.199987660338
 10
34.38695376565564
 20
-6311.018061917774
 10
35.15629724140814
 20
-6310.841357125509
 10
36.00346583647742
 20
-6310.670439355128
 10
36.9257450710158
 20
-6310.505856276764
 10
37.92017984877249
 20
-6310.348135007188
 10
38.98358400096056
 20
-6310.197780668058
 10
40.11255456182341
 20
-6310.055275130636
 10
41.30347018996789
 20
-6309.921074610445
 10
42.55251953030338
 20
-6309.795609048008
 10
43.85570096833458
 20
-6309.679280523626
 10
45.20884019574242
 20
-6309.572461444999
 10
46.60760054358435
 20
-6309.475494308136
 10
48.04750362043958
 20
-6309.388689480912
 10
49.52393623274118
 20
-6309.312324728456
 10
51.03216875381909
 20
-6309.246645472597
 10
52.56737002356098
 20
-6309.191861339256
 10
54.12462211539398
 20
-6309.14814807366
 10
55.69893746696336
 20
-6309.11564603403
 10
57.28527194559396
 20
-6309.094458908801
 10
58.87854498519262
 20
-6309.084654490151
 10
60.47365272726469
 20
-6309.086264656665
 10
62.06548515159288
 20
-6309.099283867023
 10
63.64894286638373
 20
-6309.123670805252
 10
65.21895439021128
 20
-6309.159346877848
 10
66.77049037068684
 20
-6309.206197800588
 10
68.29858022341935
 20
-6309.264073976638
 10
69.79832982989319
 20
-6309.332789634975
 10
71.26493360060009
 20
-6309.412125000092
 10
72.69369474439256
 20
-6309.501825488869
 10
74.08003718035229
 20
-6309.601603876828
 10
75.4195178090031
 20
-6309.711140892921
 10
76.70784751901677
 20
-6309.830085380934
 10
77.94089990366238
 20
-6309.958056077217
 10
79.11472317267541
 20
-6310.094643776945
 10
80.22555926824754
 20
-6310.239410188849
 10
81.26984832706388
 20
-6310.39189182778
 10
82.24424661444526
 20
-6310.551600580198
 10
83.14563170507601
 20
-6310.718024453769
 10
83.97111572783189
 20
-6310.890630563736
 10
84.71805439427733
 20
-6311.068865811982
 10
85.38405847563273
 20
-6311.252159359343
 10
85.96698920805652
 20
-6311.43992410086
 10
86.46498317537606
 20
-6311.631558494922
 10
86.87644420690597
 20
-6311.826448748638
 10
87.20005330400453
 20
-6312.023970623067
 10
87.43477361747951
 20
-6312.223491204957
 10
87.5798567579555
 20
-6312.424371498601
 10
87.63483308891784
 20
-6312.625967982388
 10
87.59953095358038
 20
-6312.827634901785
 10
87.47405886467276
 20
-6313.028726253867
 10
87.25882251495479
 20
-6313.228597881856
 10
86.95450937362575
 20
-6313.426609524198
 10
86.56209570340498
 20
-6313.622126909105
 10
86.08283867579956
 20
-6313.814523786891
 10
85.79254233717378
 20
-6313.915546442002
  0
LINE
  5
3A4AEE
330
18
100
AcDbEntity
  8
姿図
100
AcDbLine
 10
30.20383576471954
 20
-6329.34680133829
 30
0.0
 11
30.97935217432014
 21
-6328.80105440484
 31
0.0
  0
LINE
  5
3A4AEF
330
18
100
AcDbEntity
  8
姿図
100
AcDbLine
 10
30.93752054085704
 20
-6328.80010295905
 30
0.0
 11
30.20383576467366
 21
-6329.316412107078
 31
0.0
  0
LINE
  5
3A4AF0
330
18
100
AcDbEntity
  8
姿図
100
AcDbLine
 10
30.22124435153043
 20
-6329.251330038118
 30
0.0
 11
30.86479450663248
 21
-6328.798450486737
 31
0.0
  0
LINE
  5
3A4AF1
330
18
100
AcDbEntity
  8
姿図
100
AcDbLine
 10
30.97629862990117
 20
-6301.746673493282
 30
0.0
 11
30.95720479098765
 21
-6301.747091129255
 31
0.0
  0
LWPOLYLINE
  5
3A4AF2
330
18
100
AcDbEntity
  8
姿図
100
AcDbPolyline
 90
       57
 70
   128
 43
0.0
 10
32.76833533676909
 20
-6330.170195245241
 10
32.7678836007693
 20
-6330.136635368265
 10
32.81809165836783
 20
-6329.940458659344
 10
32.95842107090673
 20
-6329.744983141348
 10
33.18839187836076
 20
-6329.550870071484
 10
33.50722804044224
 20
-6329.358776328735
 10
33.91384857011568
 20
-6329.169351862645
 10
34.40688286923549
 20
-6328.983237692058
 10
34.98465664109814
 20
-6328.801063511694
 10
35.64521954459138
 20
-6328.62344581286
 10
36.3863335813215
 20
-6328.450985506758
 10
37.20549060683109
 20
-6328.284266150387
 10
38.0999226355433
 20
-6328.12385196917
 10
39.06659751570661
 20
-6327.970285626159
 10
40.10225101624942
 20
-6327.824086739624
 10
41.20337415383555
 20
-6327.685750252378
 10
42.36624053389135
 20
-6327.555743893745
 10
43.5869181113625
 20
-6327.434507814944
 10
44.86127651769151
 20
-6327.322452070169
 10
46.18500167668822
 20
-6327.219956000909
 10
47.55361579032252
 20
-6327.12736647859
 10
48.96248699131717
 20
-6327.044996386277
 10
50.40685056730359
 20
-6326.973124627078
 10
51.88181575830109
 20
-6326.911994856899
 10
53.382394090399
 20
-6326.861813126953
 10
54.90350705225345
 20
-6326.822749953773
 10
56.44000825538427
 20
-6326.7949370316
 10
57.98669846590667
 20
-6326.778468521741
 10
59.53834385071861
 20
-6326.773400519404
 10
61.0896952258669
 20
-6326.779749595495
 10
62.63550163231155
 20
-6326.797495000684
 10
64.17053389536964
 20
-6326.826576041462
 10
65.68959746305131
 20
-6326.866894583372
 10
67.18755258089584
 20
-6326.918313929812
 10
68.65933011779275
 20
-6326.980660761297
 10
70.0999504929332
 20
-6327.053723354025
 10
71.50453853723519
 20
-6327.137255076905
 10
72.86834228791851
 20
-6327.230972923029
 10
74.18674701805863
 20
-6327.334559724079
 10
75.45529087336958
 20
-6327.447665453424
 10
76.66968251333982
 20
-6327.569906679205
 10
77.82581283390584
 20
-6327.700870621889
 10
78.91976786276103
 20
-6327.840113551701
 10
79.94784882991839
 20
-6327.987164246052
 10
80.90657505108064
 20
-6328.141525476742
 10
81.79270384709316
 20
-6328.302674936502
 10
82.60323541262541
 20
-6328.470067087242
 10
83.3354267133497
 20
-6328.643135687372
 10
83.98680349240556
 20
-6328.821295012414
 10
84.55516020405977
 20
-6329.003942538914
 10
85.03857003485959
 20
-6329.190459804024
 10
85.43540354663935
 20
-6329.380215988443
 10
85.74431230691745
 20
-6329.572568887154
 10
85.96425488713626
 20
-6329.766867711708
 10
86.09448666644407
 20
-6329.962454991072
 10
86.13456404802461
 20
-6330.158668878958
 10
86.13411200159823
 20
-6330.170195193204
  0
LWPOLYLINE
  5
3A4AF3
330
18
100
AcDbEntity
  8
姿図
100
AcDbPolyline
 90
       13
 70
   128
 43
0.0
 10
33.51278019183023
 20
-6329.868495133512
 10
33.28394468015844
 20
-6330.062009701244
 10
33.14531199183665
 20
-6330.256888969983
 10
33.09736199889352
 20
-6330.452461195548
 10
33.14025826267049
 20
-6330.648052185065
 10
33.2738546160008
 20
-6330.842987697535
 10
33.49768931815196
 20
-6331.03659579898
 10
33.81099196318073
 20
-6331.228209033487
 10
34.21268016381312
 20
-6331.417166756826
 10
34.70137312244738
 20
-6331.602817893303
 10
35.27538252218781
 20
-6331.784522071473
 10
35.93272995974536
 20
-6331.961653179597
 10
36.5304378714029
 20
-6332.102630504826
  0
LWPOLYLINE
  5
3A4AF4
330
18
100
AcDbEntity
  8
姿図
100
AcDbPolyline
 90
       17
 70
   128
 43
0.0
 10
82.50161114821914
 20
-6332.073407583422
 10
82.56926812371714
 20
-6332.057873399135
 10
83.27196155372135
 20
-6331.883548257152
 10
83.89254195058945
 20
-6331.704308645132
 10
84.42886710013207
 20
-6331.520772460107
 10
84.87908869929475
 20
-6331.333572294536
 10
85.24165506069826
 20
-6331.143353533073
 10
85.51531709360226
 20
-6330.950771901775
 10
85.69913141616725
 20
-6330.756491277949
 10
85.79246367157306
 20
-6330.561181356532
 10
85.7949916402803
 20
-6330.365515459919
 10
85.70670638056997
 20
-6330.1701679772
 10
85.52791493308388
 20
-6329.975812460914
 10
85.25922949620968
 20
-6329.783118695671
 10
84.90157955324776
 20
-6329.592751196594
 10
84.456198953761
 20
-6329.405365993409
 10
84.329103680325
 20
-6329.358260682017
  0
ARC
  5
3A4AF5
330
18
100
AcDbEntity
  8
姿図
100
AcDbCircle
 10
35.91969803338339
 20
-6333.56398725048
 30
0.0
 40
4.410205832220995
100
AcDbArc
 50
110.7773484340294
 51
123.0766752518133
  0
LINE
  5
3A4AF6
330
18
100
AcDbEntity
  8
姿図
100
AcDbLine
 10
54.43553312059416
 20
-6333.623515655004
 30
0.0
 11
54.36252174468826
 21
-6333.621856584922
 31
0.0
  0
LWPOLYLINE
  5
3A4AF7
330
18
100
AcDbEntity
  8
姿図
100
AcDbPolyline
 90
       32
 70
   128
 43
0.0
 10
63.96579467639528
 20
-6327.280909105361
 10
65.47447499287112
 20
-6327.321174944166
 10
66.96117711147397
 20
-6327.372886408529
 10
68.4204761492356
 20
-6327.435854828639
 10
69.84704777808307
 20
-6327.509850221119
 10
71.23568569567024
 20
-6327.59460294975
 10
72.58132395567416
 20
-6327.689803285103
 10
73.87905164017985
 20
-6327.79510426539
 10
75.1241327886536
 20
-6327.910121517459
 10
76.31202678055422
 20
-6328.034435615547
 10
77.438396201022
 20
-6328.167592260015
 10
78.49913373717861
 20
-6328.309106205798
 10
79.49036646079637
 20
-6328.458460885833
 10
80.40847918887667
 20
-6328.61511131137
 10
81.25012056243621
 20
-6328.778485947726
 10
82.01222045115196
 20
-6328.947988531473
 10
82.69199736510708
 20
-6329.123000766308
 10
83.28697024380637
 20
-6329.302883696697
 10
83.79497182385548
 20
-6329.486981486876
 10
84.214144356293
 20
-6329.674621797441
 10
84.54295936510454
 20
-6329.865120341426
 10
84.7802162337952
 20
-6330.057781878966
 10
84.9250525951039
 20
-6330.251903454738
 10
84.9769360657328
 20
-6330.446776698093
 10
84.93568034628815
 20
-6330.641690558404
 10
84.80143418244101
 20
-6330.83593379886
 10
84.57468759374957
 20
-6331.028797645728
 10
84.25626820418186
 20
-6331.219578370625
 10
83.84733762700093
 20
-6331.407579834558
 10
83.34938784965013
 20
-6331.592116031956
 10
82.76423756427654
 20
-6331.772513672948
 10
82.36230601786136
 20
-6331.881031949877
  0
LWPOLYLINE
  5
3A4AF8
330
18
100
AcDbEntity
  8
姿図
100
AcDbPolyline
 90
       15
 70
   128
 43
0.0
 10
36.17062483313403
 20
-6331.768595518682
 10
35.99571326524473
 20
-6331.717741935213
 10
35.43631040064257
 20
-6331.536119608248
 10
34.96476144071623
 20
-6331.350552694921
 10
34.58278975060724
 20
-6331.161720195859
 10
34.29179458910984
 20
-6330.970312939708
 10
34.09284205191656
 20
-6330.777031165802
 10
33.98665876125176
 20
-6330.582581932309
 10
33.97363050465555
 20
-6330.387676557847
 10
34.0538082974918
 20
-6330.193028113321
 10
34.22689972032271
 20
-6329.999348727245
 10
34.49226780232465
 20
-6329.80734685521
 10
34.84894433084192
 20
-6329.61772494627
 10
35.295621392622
 20
-6329.431176604805
 10
35.35294751739235
 20
-6329.409856439374
  0
LWPOLYLINE
  5
3A4AF9
330
18
100
AcDbEntity
  8
姿図
100
AcDbPolyline
 90
       26
 70
   128
 43
0.0
 10
34.36370989752993
 20
-6330.000059717199
 10
34.29635135128737
 20
-6330.084716496173
 10
34.20992223309256
 20
-6330.276914379143
 10
34.21524067163854
 20
-6330.469421548972
 10
34.31228907997901
 20
-6330.661538331615
 10
34.50071569698022
 20
-6330.8525663845
 10
34.77983578544985
 20
-6331.041811369668
 10
35.14863084495406
 20
-6331.228585265892
 10
35.60576669706949
 20
-6331.412209465043
 10
36.14957657215423
 20
-6331.59201612539
 10
36.77808701299095
 20
-6331.767351919524
 10
37.48901206996344
 20
-6331.937579482125
 10
38.27976577067908
 20
-6332.102080062782
 10
39.14747787960511
 20
-6332.260255621741
 10
40.08899020141038
 20
-6332.411531431313
 10
41.10088354360416
 20
-6332.555357320426
 10
42.1794772152953
 20
-6332.691210664576
 10
43.32085356961894
 20
-6332.818597575383
 10
44.52086122741081
 20
-6332.937055027397
 10
45.77513957233572
 20
-6333.046152520465
 10
47.0791291123447
 20
-6333.145493578918
 10
48.42808997157168
 20
-6333.234716803615
 10
49.81711864262507
 20
-6333.313498148215
 10
51.24116657308158
 20
-6333.381551025592
 10
52.69505720141572
 20
-6333.438628274596
 10
54.1735053943297
 20
-6333.484522601754
  0
SPLINE
  5
3A4AFA
330
18
100
AcDbEntity
  8
姿図
100
AcDbSpline
210
0.0
220
0.0
230
1.0
 70
     8
 71
     3
 72
    11
 73
     7
 74
     0
 42
0.000000001
 43
0.0000000001
 40
0.0
 40
0.0
 40
0.0
 40
0.0
 40
0.0007713890791173
 40
0.1398836394375047
 40
0.6963320691967122
 40
1.0
 40
1.0
 40
1.0
 40
1.0
 10
54.18161954105101
 20
-6333.280226042236
 30
0.0
 10
54.18182798634515
 20
-6333.278685325407
 30
0.0
 10
54.21962744080765
 20
-6332.999291847914
 30
0.0
 10
54.40775241687219
 20
-6331.608520781423
 30
0.0
 10
54.67773467982185
 20
-6329.612873210234
 30
0.0
 10
54.91008831820455
 20
-6327.895768342036
 30
0.0
 10
54.99212181020343
 20
-6327.289536782906
 30
0.0
  0
LWPOLYLINE
  5
3A4AFB
330
18
100
AcDbEntity
  8
姿図
100
AcDbPolyline
 90
       26
 70
   128
 43
0.0
 10
82.4525291514494
 20
-6331.792262225036
 10
82.49026664937546
 20
-6331.75323325846
 10
82.61185474986715
 20
-6331.569634810133
 10
82.64203785462853
 20
-6331.385433263211
 10
82.58069746619233
 20
-6331.201355489341
 10
82.4280777601997
 20
-6331.018128071214
 10
82.18477535877433
 20
-6330.836473950348
 10
81.85175743972859
 20
-6330.657110232166
 10
81.43033303217071
 20
-6330.480744650863
 10
80.92216639401128
 20
-6330.308073187957
 10
80.32926564372322
 20
-6330.139777523484
 10
79.65396763892679
 20
-6329.976521612043
 10
78.89893926696578
 20
-6329.818949895519
 10
78.06715935965478
 20
-6329.66768420671
 10
77.16191062918031
 20
-6329.523321532533
 10
76.1867657709225
 20
-6329.386431486702
 10
75.14557368912973
 20
-6329.257554575054
 10
74.04244283922243
 20
-6329.137198973631
 10
72.88172752902447
 20
-6329.025840059436
 10
71.6680078009001
 20
-6328.923917425846
 10
70.4060744946218
 20
-6328.831832647582
 10
69.10090693596163
 20
-6328.749950037462
 10
67.75765672341757
 20
-6328.67859201289
 10
66.3816251520565
 20
-6328.618040478447
 10
64.97824192332351
 20
-6328.568534446515
 10
63.55304621824501
 20
-6328.530269291259
  0
ARC
  5
3A4AFC
330
18
100
AcDbEntity
  8
姿図
100
AcDbCircle
 10
63.28290655958787
 20
-6327.195474673896
 30
0.0
 40
0.1142833840786268
100
AcDbArc
 50
241.3278346498392
 51
275.2897141404042
  0
LINE
  5
3A4AFD
330
18
100
AcDbEntity
  8
姿図
100
AcDbLine
 10
61.96339857227141
 20
-6327.251060210887
 30
0.0
 11
62.02153041192423
 21
-6329.142554020029
 31
0.0
  0
ELLIPSE
  5
3A4AFE
330
18
100
AcDbEntity
  8
姿図
100
AcDbEllipse
 10
63.35023729476694
 20
-6330.544238787062
 30
0.0
 11
-0.0126486349317238
 21
3.433533227845912
 31
0.0
210
0.0
220
0.0
230
1.0
 40
0.1786335387946496
 41
0.3062208707300265
 42
0.9094840664006243
  0
ARC
  5
3A4AFF
330
18
100
AcDbEntity
  8
姿図
100
AcDbCircle
 10
63.31565945996226
 20
-6327.217915600909
 30
0.0
 40
0.1376919534824473
100
AcDbArc
 50
210.9523127176887
 51
268.5499156030193
  0
LWPOLYLINE
  5
3A4B00
330
18
100
AcDbEntity
  8
姿図
100
AcDbPolyline
 90
       25
 70
   128
 43
0.0
 10
63.47636316767252
 20
-6329.014326283823
 10
64.90325265435659
 20
-6329.052757879806
 10
66.30773845573125
 20
-6329.102671242844
 10
67.68404982590205
 20
-6329.16386099785
 10
69.02652992312102
 20
-6329.236076336476
 10
70.32966352889478
 20
-6329.319019751401
 10
71.58809555861725
 20
-6329.412350932197
 10
72.79665414818334
 20
-6329.515686342148
 10
73.95037311650702
 20
-6329.628600992392
 10
75.04451251828466
 20
-6329.75063112048
 10
76.07457631338741
 20
-6329.881275381706
 10
77.0363309816109
 20
-6330.019996693792
 10
77.92582443043142
 20
-6330.166225193988
 10
78.73940097943628
 20
-6330.319360001261
 10
79.47371888782224
 20
-6330.478771826099
 10
80.1257606212554
 20
-6330.643805415321
 10
80.69284566179732
 20
-6330.813782844526
 10
81.17264362987953
 20
-6330.988005711842
 10
81.5631842249875
 20
-6331.165757812287
 10
81.86286311525494
 20
-6331.346308904812
 10
82.07044736389899
 20
-6331.528917047119
 10
82.18508207989129
 20
-6331.712831827129
 10
82.20630207214064
 20
-6331.897297589653
 10
82.13401300638986
 20
-6332.081556147779
 10
82.0241117263139
 20
-6332.213776571897
  0
LWPOLYLINE
  5
3A4B01
330
18
100
AcDbEntity
  8
姿図
100
AcDbPolyline
 90
        3
 70
   128
 43
0.0
 10
55.62886969628825
 20
-6335.09592570971
 10
55.63940517332554
 20
-6335.095236652431
 10
55.67373321495698
 20
-6335.080538659882
  0
LWPOLYLINE
  5
3A4B02
330
18
100
AcDbEntity
  8
姿図
100
AcDbPolyline
 90
       12
 70
   128
 43
0.0
 10
76.9761124874113
 20
-6331.653955794474
 10
77.29744736846615
 20
-6331.783094082032
 10
77.60654701013233
 20
-6331.94207396778
 10
77.82719569387302
 20
-6332.103393210972
 10
77.95831795793723
 20
-6332.266265860535
 10
77.99927512377454
 20
-6332.429898356436
 10
77.94986954062172
 20
-6332.593493575265
 10
77.81033943464357
 20
-6332.756254455004
 10
77.58136565527577
 20
-6332.917388038231
 10
77.26406369643398
 20
-6333.076109328813
 10
76.85997842333909
 20
-6333.231645002744
 10
76.40320534673373
 20
-6333.374141257365
  0
LINE
  5
3A4B03
330
18
100
AcDbEntity
  8
姿図
100
AcDbLine
 10
62.036506066947
 20
-6329.802381732147
 30
0.0
 11
62.03858716150996
 21
-6329.799432912088
 31
0.0
  0
LWPOLYLINE
  5
3A4B04
330
18
100
AcDbEntity
  8
姿図
100
AcDbPolyline
 90
       26
 70
   128
 43
0.0
 10
56.22912116048175
 20
-6334.362311198168
 10
57.51650730084261
 20
-6334.385601371128
 10
58.81375270679836
 20
-6334.397218240245
 10
60.11424597682628
 20
-6334.397102875835
 10
61.41136097652974
 20
-6334.38525572444
 10
62.69848776253202
 20
-6334.361737153571
 10
63.96906692875869
 20
-6334.326667126402
 10
65.21662406620673
 20
-6334.280224247208
 10
66.43480236025388
 20
-6334.222645238342
 10
67.61739376993505
 20
-6334.15422343724
 10
68.75837271250435
 20
-6334.075307508278
 10
69.85192413236896
 20
-6333.986299711124
 10
70.89247568254089
 20
-6333.887653472689
 10
71.87472601102033
 20
-6333.779871502443
 10
72.79366858022979
 20
-6333.663503095386
 10
73.64462087049813
 20
-6333.53914116243
 10
74.4232469893889
 20
-6333.407419505877
 10
75.12557894806713
 20
-6333.269009274759
 10
75.7480386585097
 20
-6333.124615791994
 10
76.28745315934344
 20
-6332.974974872243
 10
76.74107368944973
 20
-6332.820849069239
 10
77.1065900570534
 20
-6332.663023717489
 10
77.3821373676349
 20
-6332.502303076765
 10
77.56631440387545
 20
-6332.339506188517
 10
77.6581797887902
 20
-6332.175462543347
 10
77.6692967681805
 20
-6332.099647278157
  0
LINE
  5
3A4B05
330
18
100
AcDbEntity
  8
姿図
100
AcDbLine
 10
55.5474840241531
 20
-6327.273397509443
 30
0.0
 11
55.68382165506978
 21
-6333.695143593645
 31
0.0
  0
LINE
  5
3A4B06
330
18
100
AcDbEntity
  8
姿図
100
AcDbLine
 10
55.53062801690287
 20
-6333.710336253341
 30
0.0
 11
55.39403287218431
 21
-6327.276466743223
 31
0.0
  0
LINE
  5
3A4B07
330
18
100
AcDbEntity
  8
姿図
100
AcDbLine
 10
55.15462490177006
 20
-6327.286479457518
 30
0.0
 11
54.31701701206079
 21
-6333.465002874739
 31
0.0
  0
ELLIPSE
  5
3A4B08
330
18
100
AcDbEntity
  8
姿図
100
AcDbEllipse
 10
55.10300465372033
 20
-6333.103236141951
 30
0.0
 11
-0.0038079407498238
 21
1.980808152406879
 31
0.0
210
0.0
220
0.0
230
1.0
 40
0.1784284564926446
 41
3.15290242784877
 42
3.26599845875912
  0
ELLIPSE
  5
3A4B09
330
18
100
AcDbEntity
  8
姿図
100
AcDbEllipse
 10
54.45098546583263
 20
-6336.897755860712
 30
0.0
 11
-0.0156519224160739
 21
3.301550501395062
 31
0.0
210
0.0
220
0.0
230
1.0
 40
0.1787560552666589
 41
6.278572760529365
 42
6.407078913476421
  0
ARC
  5
3A4B0A
330
18
100
AcDbEntity
  8
姿図
100
AcDbCircle
 10
83.57338103550305
 20
-6313.112393458996
 30
0.0
 40
4.646781643944913
100
AcDbArc
 50
50.97892303270225
 51
76.862587462239
  0
ARC
  5
3A4B0B
330
18
100
AcDbEntity
  8
姿図
100
AcDbCircle
 10
62.89877075785955
 20
-6443.426887174543
 30
0.0
 40
136.8884097523392
100
AcDbArc
 50
83.92049906009885
 51
87.25092618650994
  0
ARC
  5
3A4B0C
330
18
100
AcDbEntity
  8
姿図
100
AcDbCircle
 10
59.32811782949082
 20
-6509.718331441108
 30
0.0
 40
203.2636822931709
100
AcDbArc
 50
89.93970466832093
 51
92.62326779558846
  0
ARC
  5
3A4B0D
330
18
100
AcDbEntity
  8
姿図
100
AcDbCircle
 10
46.02514286290797
 20
-6355.649582492191
 30
0.0
 40
48.54300957467206
100
AcDbArc
 50
96.09327920454756
 51
102.6266814285361
  0
SPLINE
  5
3A4B0E
330
18
100
AcDbEntity
  8
姿図
100
AcDbSpline
210
0.0
220
0.0
230
1.0
 70
     8
 71
     3
 72
    11
 73
     7
 74
     0
 42
0.000000001
 43
0.0000000001
 40
0.0
 40
0.0
 40
0.0
 40
0.0
 40
0.1851309086917953
 40
0.2633326464479533
 40
0.6272690816826793
 40
0.9999999999999998
 40
0.9999999999999998
 40
0.9999999999999998
 40
0.9999999999999998
 10
57.88716137327092
 20
-6297.75502452776
 30
0.0
 10
57.78485548765047
 20
-6297.584449074543
 30
0.0
 10
57.63933424650267
 20
-6297.34182029995
 30
0.0
 10
57.42207902875349
 20
-6296.719247434605
 30
0.0
 10
57.23774261716899
 20
-6295.883841475291
 30
0.0
 10
57.22916735457083
 20
-6295.112810857656
 30
0.0
 10
57.22482853666652
 20
-6294.722693189517
 30
0.0
  0
SPLINE
  5
3A4B0F
330
18
100
AcDbEntity
  8
姿図
100
AcDbSpline
210
0.0
220
0.0
230
1.0
 70
     8
 71
     3
 72
    12
 73
     8
 74
     0
 42
0.000000001
 43
0.0000000001
 40
0.0
 40
0.0
 40
0.0
 40
0.0
 40
0.0599440331798306
 40
0.4026539455612307
 40
0.7513245185267978
 40
0.9140384694788068
 40
1.0
 40
1.0
 40
1.0
 40
1.0
 10
51.15241638566786
 20
-6294.89030170325
 30
0.0
 10
51.14133842123088
 20
-6294.952143505994
 30
0.0
 10
51.06692590921472
 20
-6295.367545082341
 30
0.0
 10
50.87009791935691
 20
-6296.145063297529
 30
0.0
 10
50.51925696925877
 20
-6297.01605850826
 30
0.0
 10
50.2034035061483
 20
-6297.61224085096
 30
0.0
 10
50.02929792659634
 20
-6297.843459944052
 30
0.0
 10
49.96911353687723
 20
-6297.923387193053
 30
0.0
  0
SPLINE
  5
3A4B10
330
18
100
AcDbEntity
  8
姿図
100
AcDbSpline
210
0.0
220
0.0
230
1.0
 70
     8
 71
     3
 72
    11
 73
     7
 74
     0
 42
0.000000001
 43
0.0000000001
 40
0.0
 40
0.0
 40
0.0
 40
0.0
 40
0.3233722033170303
 40
0.6741778505069305
 40
0.7468080069944703
 40
0.9999999999999998
 40
0.9999999999999998
 40
0.9999999999999998
 40
0.9999999999999998
 10
57.83253144182919
 20
-6294.470539967831
 30
0.0
 10
57.83302145106057
 20
-6294.833028084387
 30
0.0
 10
57.83404303970328
 20
-6295.58875617959
 30
0.0
 10
57.94490705074652
 20
-6296.416836568663
 30
0.0
 10
58.1081504194115
 20
-6297.154039464086
 30
0.0
 10
58.24910965279882
 20
-6297.492180020562
 30
0.0
 10
58.35864716978273
 20
-6297.754944481305
 30
0.0
  0
SPLINE
  5
3A4B11
330
18
100
AcDbEntity
  8
姿図
100
AcDbSpline
210
0.0
220
0.0
230
1.0
 70
     8
 71
     3
 72
    11
 73
     7
 74
     0
 42
0.000000001
 43
0.0000000001
 40
0.0
 40
0.0
 40
0.0
 40
0.0
 40
0.1176199472827127
 40
0.555499028547293
 40
0.9987099699673645
 40
1.0
 40
1.0
 40
1.0
 40
1.0
 10
59.82283101933231
 20
-6297.015607757106
 30
0.0
 10
59.85676509444721
 20
-6296.916518988599
 30
0.0
 10
60.01702996615001
 20
-6296.448539569144
 30
0.0
 10
60.09738124686598
 20
-6295.560480676389
 30
0.0
 10
60.13402878490926
 20
-6294.780269194447
 30
0.0
 10
60.12892335822137
 20
-6294.385508621702
 30
0.0
 10
60.12890854125995
 20
-6294.384362948177
 30
0.0
  0
SPLINE
  5
3A4B12
330
18
100
AcDbEntity
  8
姿図
100
AcDbSpline
210
0.0
220
0.0
230
1.0
 70
     8
 71
     3
 72
    10
 73
     6
 74
     0
 42
0.000000001
 43
0.0000000001
 40
0.0
 40
0.0
 40
0.0
 40
0.0
 40
0.0815796173634553
 40
0.5479851464967879
 40
1.0
 40
1.0
 40
1.0
 40
1.0
 10
60.75713525466479
 20
-6294.714405412076
 30
0.0
 10
60.7572881720006
 20
-6294.775965006586
 30
0.0
 10
60.75831534559398
 20
-6295.189472013687
 30
0.0
 10
60.71037703917411
 20
-6295.945593221312
 30
0.0
 10
60.5220869899291
 20
-6296.617294457462
 30
0.0
 10
60.42941711822925
 20
-6296.947882651709
 30
0.0
  0
SPLINE
  5
3A4B13
330
18
100
AcDbEntity
  8
姿図
100
AcDbSpline
210
0.0
220
0.0
230
1.0
 70
     8
 71
     3
 72
     9
 73
     5
 74
     0
 42
0.000000001
 43
0.0000000001
 40
0.0
 40
0.0
 40
0.0
 40
0.0
 40
0.4799691871417624
 40
1.0
 40
1.0
 40
1.0
 40
1.0
 10
67.55357709392437
 20
-6297.096406566986
 30
0.0
 10
67.40211251163596
 20
-6296.741399435884
 30
0.0
 10
67.08654104091222
 20
-6296.00175376568
 30
0.0
 10
66.94706675181521
 20
-6295.246282284185
 30
0.0
 10
66.87453582388333
 20
-6294.853413835572
 30
0.0
  0
SPLINE
  5
3A4B14
330
18
100
AcDbEntity
  8
姿図
100
AcDbSpline
210
0.0
220
0.0
230
1.0
 70
     8
 71
     3
 72
    10
 73
     6
 74
     0
 42
0.000000001
 43
0.0000000001
 40
0.0
 40
0.0
 40
0.0
 40
0.0
 40
0.4571800777837214
 40
0.9137919210262042
 40
1.0
 40
1.0
 40
1.0
 40
1.0
 10
67.66897039605668
 20
-6294.555699139039
 30
0.0
 10
67.71359653439404
 20
-6294.948354406804
 30
0.0
 10
67.80279334471182
 20
-6295.733176906441
 30
0.0
 10
68.00674541745339
 20
-6296.589872699167
 30
0.0
 10
68.16075538255663
 20
-6297.046678738222
 30
0.0
 10
68.18521451290717
 20
-6297.119226501263
 30
0.0
  0
SPLINE
  5
3A4B15
330
18
100
AcDbEntity
  8
姿図
100
AcDbSpline
210
0.0
220
0.0
230
1.0
 70
     8
 71
     3
 72
    16
 73
    12
 74
     0
 42
0.000000001
 43
0.0000000001
 40
0.0
 40
0.0
 40
0.0
 40
0.0
 40
0.1037281901749364
 40
0.2264270860459638
 40
0.3487288352020431
 40
0.4248604451248609
 40
0.5464786512330311
 40
0.6679340423592374
 40
0.7894236985290536
 40
0.911276317396544
 40
1.0
 40
1.0
 40
1.0
 40
1.0
 10
69.27320049914427
 20
-6259.876509619182
 30
0.0
 10
69.27043921713478
 20
-6259.869889808085
 30
0.0
 10
69.26441164605589
 20
-6259.855439497767
 30
0.0
 10
69.18195530010317
 20
-6259.835328043498
 30
0.0
 10
69.06724828535755
 20
-6259.820902894054
 30
0.0
 10
68.92737845903787
 20
-6259.81125154716
 30
0.0
 10
68.77072724156044
 20
-6259.806722582242
 30
0.0
 10
68.58819118469047
 20
-6259.80945268408
 30
0.0
 10
68.42332703509231
 20
-6259.819770611809
 30
0.0
 10
68.30232793247251
 20
-6259.834882021518
 30
0.0
 10
68.25721420011902
 20
-6259.847007518722
 30
0.0
 10
68.23820609501696
 20
-6259.852116444834
 30
0.0
  0
SPLINE
  5
3A4B16
330
18
100
AcDbEntity
  8
姿図
100
AcDbSpline
210
0.0
220
0.0
230
1.0
 70
     8
 71
     3
 72
    10
 73
     6
 74
     0
 42
0.000000001
 43
0.0000000001
 40
0.0
 40
0.0
 40
0.0
 40
0.0
 40
0.0581087095498784
 40
0.5368232877390487
 40
1.0
 40
1.0
 40
1.0
 40
1.0
 10
69.68296319229079
 20
-6298.002636940155
 30
0.0
 10
69.69689536362881
 20
-6297.968972076834
 30
0.0
 10
69.8256043657903
 20
-6297.657967362579
 30
0.0
 10
69.90699512185442
 20
-6297.003884922071
 30
0.0
 10
69.90473768564092
 20
-6296.379106146614
 30
0.0
 10
69.90362758737994
 20
-6296.071870075912
 30
0.0
  0
SPLINE
  5
3A4B17
330
18
100
AcDbEntity
  8
姿図
100
AcDbSpline
210
0.0
220
0.0
230
1.0
 70
     8
 71
     3
 72
    11
 73
     7
 74
     0
 42
0.000000001
 43
0.0000000001
 40
0.0
 40
0.0
 40
0.0
 40
0.0
 40
0.1525716330811469
 40
0.5754027645490427
 40
0.9987612566167055
 40
1.0
 40
1.0
 40
1.0
 40
1.0
 10
49.71039371088337
 20
-6297.356811989807
 30
0.0
 10
49.76942082004042
 20
-6297.220437313519
 30
0.0
 10
49.99203337983535
 20
-6296.706119126284
 30
0.0
 10
50.18763816666747
 20
-6295.77556218996
 30
0.0
 10
50.3060623274666
 20
-6294.991075987064
 30
0.0
 10
50.34599779160103
 20
-6294.597490612727
 30
0.0
 10
50.34611430152586
 20
-6294.596342345058
 30
0.0
  0
ELLIPSE
  5
3A4B18
330
18
100
AcDbEntity
  8
姿図
100
AcDbEllipse
 10
69.1820307629205
 20
-6788.237698894764
 30
0.0
 11
-15.87020597192034
 21
901.9784272243695
 31
0.0
210
0.0
220
0.0
230
1.0
 40
0.000190436914166
 41
0.9656377018900582
 42
0.9781617818784772
  0
LINE
  5
3A4B19
330
18
100
AcDbEntity
  8
姿図
100
AcDbLine
 10
60.03081678325187
 20
-6284.056735083043
 30
0.0
 11
60.04853026215892
 21
-6284.192089854284
 31
0.0
  0
ARC
  5
3A4B1A
330
18
100
AcDbEntity
  8
姿図
100
AcDbCircle
 10
57.52572658927739
 20
-6284.165250040285
 30
0.0
 40
0.8522105685099866
100
AcDbArc
 50
268.6099317674091
 51
303.6447474026435
  0
SPLINE
  5
3A4B1B
330
18
100
AcDbEntity
  8
姿図
100
AcDbSpline
210
0.0
220
0.0
230
1.0
 70
     8
 71
     3
 72
     9
 73
     5
 74
     0
 42
0.000000001
 43
0.0000000001
 40
0.0
 40
0.0
 40
0.0
 40
0.0
 40
0.7950503978332238
 40
1.0
 40
1.0
 40
1.0
 40
1.0
 10
48.12957371695143
 20
-6296.247947788918
 30
0.0
 10
48.12166795306552
 20
-6296.514409818293
 30
0.0
 10
48.1117242263437
 20
-6296.849560935882
 30
0.0
 10
48.14369717315277
 20
-6297.173990721995
 30
0.0
 10
48.1502500158815
 20
-6297.24048247759
 30
0.0
  0
SPLINE
  5
3A4B1C
330
18
100
AcDbEntity
  8
姿図
100
AcDbSpline
210
0.0
220
0.0
230
1.0
 70
     8
 71
     3
 72
    16
 73
    12
 74
     0
 42
0.000000001
 43
0.0000000001
 40
0.0
 40
0.0
 40
0.0
 40
0.0
 40
0.1239519869586945
 40
0.2484838413210582
 40
0.3728824250345124
 40
0.4968689530036618
 40
0.5740206258985201
 40
0.6973453117174336
 40
0.8204986984813217
 40
0.9436945028809763
 40
1.0
 40
1.0
 40
1.0
 40
1.0
 10
49.78551315549736
 20
-6259.895408155863
 30
0.0
 10
49.75577861621679
 20
-6259.888560102619
 30
0.0
 10
49.69617043468097
 20
-6259.874831959832
 30
0.0
 10
49.5456480057075
 20
-6259.860488223232
 30
0.0
 10
49.37034370854167
 20
-6259.853017497857
 30
0.0
 10
49.20829241035862
 20
-6259.853482012687
 30
0.0
 10
49.05662162365394
 20
-6259.859409897018
 30
0.0
 10
48.92081865191762
 20
-6259.870506688374
 30
0.0
 10
48.81110044888707
 20
-6259.889001859529
 30
0.0
 10
48.75495531696543
 20
-6259.907230784753
 30
0.0
 10
48.76007595857349
 20
-6259.918495316892
 30
0.0
 10
48.76168218799271
 20
-6259.922028745767
 30
0.0
  0
LWPOLYLINE
  5
3A4B1D
330
18
100
AcDbEntity
  8
姿図
100
AcDbPolyline
 90
        3
 70
   128
 43
0.0
 10
47.9140710781875
 20
-6295.068895164484
 10
48.14975836746254
 20
-6293.934434681731
 10
48.15616107009792
 20
-6293.903622654553
  0
SPLINE
  5
3A4B1E
330
18
100
AcDbEntity
  8
姿図
100
AcDbSpline
210
0.0
220
0.0
230
1.0
 70
     8
 71
     3
 72
     9
 73
     5
 74
     0
 42
0.000000001
 43
0.0000000001
 40
0.0
 40
0.0
 40
0.0
 40
0.0
 40
0.4746998141956363
 40
1.0
 40
1.0
 40
1.0
 40
1.0
 10
47.76044327970308
 20
-6297.262486394775
 30
0.0
 10
47.74328230094456
 20
-6296.923544168387
 30
0.0
 10
47.70713107811828
 20
-6296.209530351124
 30
0.0
 10
47.84280273278354
 20
-6295.461720053022
 30
0.0
 10
47.9140710781875
 20
-6295.068895164484
 30
0.0
  0
SPLINE
  5
3A4B1F
330
18
100
AcDbEntity
  8
姿図
100
AcDbSpline
210
0.0
220
0.0
230
1.0
 70
     8
 71
     3
 72
    10
 73
     6
 74
     0
 42
0.000000001
 43
0.0000000001
 40
0.0
 40
0.0
 40
0.0
 40
0.0
 40
0.0860673553694117
 40
0.5781291979566213
 40
0.9999999999999998
 40
0.9999999999999998
 40
0.9999999999999998
 40
0.9999999999999998
 10
42.81111566375684
 20
-6295.517603680615
 30
0.0
 10
42.79041709876581
 20
-6295.580238221496
 30
0.0
 10
42.65138128517823
 20
-6296.000965182706
 30
0.0
 10
42.37658653184062
 20
-6296.734693188777
 30
0.0
 10
42.03227162347943
 20
-6297.395728651957
 30
0.0
 10
41.87333605268089
 20
-6297.700862255259
 30
0.0
  0
ARC
  5
3A4B20
330
18
100
AcDbEntity
  8
姿図
100
AcDbCircle
 10
54.95531206688425
 20
-6365.867821922781
 30
0.0
 40
80.71385747961564
100
AcDbArc
 50
94.7259583563613
 51
96.3626133493036
  0
SPLINE
  5
3A4B21
330
18
100
AcDbEntity
  8
姿図
100
AcDbSpline
210
0.0
220
0.0
230
1.0
 70
     8
 71
     3
 72
    12
 73
     8
 74
     0
 42
0.000000001
 43
0.0000000001
 40
0.0
 40
0.0
 40
0.0
 40
0.0
 40
0.0590820252105344
 40
0.3968638632633421
 40
0.7405204330811245
 40
0.900894774936866
 40
1.0
 40
1.0
 40
1.0
 40
1.0
 10
70.16304138330112
 20
-6295.016693974709
 30
0.0
 10
70.17447963676126
 20
-6295.078555128704
 30
0.0
 10
70.25131230187385
 20
-6295.494086865699
 30
0.0
 10
70.33892594066374
 20
-6296.265772753249
 30
0.0
 10
70.30995089240479
 20
-6297.117283435519
 30
0.0
 10
70.20962414174603
 20
-6297.705111417452
 30
0.0
 10
70.1138672229511
 20
-6297.934989103385
 30
0.0
 10
70.07729397326821
 20
-6298.022788231739
 30
0.0
  0
SPLINE
  5
3A4B22
330
18
100
AcDbEntity
  8
姿図
100
AcDbSpline
210
0.0
220
0.0
230
1.0
 70
     8
 71
     3
 72
    11
 73
     7
 74
     0
 42
0.000000001
 43
0.0000000001
 40
0.0
 40
0.0
 40
0.0
 40
0.0
 40
0.1694853638671916
 40
0.249188636893883
 40
0.620112583193134
 40
1.0
 40
1.0
 40
1.0
 40
1.0
 10
76.8860067421525
 20
-6298.531819143587
 30
0.0
 10
76.76515076613072
 20
-6298.367382912917
 30
0.0
 10
76.58746028455651
 20
-6298.125617846943
 30
0.0
 10
76.22297862960481
 20
-6297.491301193003
 30
0.0
 10
75.79764310924327
 20
-6296.624177626783
 30
0.0
 10
75.5296871510054
 20
-6295.838622971943
 30
0.0
 10
75.39410969201238
 20
-6295.441156519979
 30
0.0
  0
LINE
  5
3A4B23
330
18
100
AcDbEntity
  8
姿図
100
AcDbLine
 10
69.86860858112811
 20
-6293.483058622028
 30
0.0
 11
70.16304138330112
 21
-6295.016693974709
 31
0.0
  0
ARC
  5
3A4B24
330
18
100
AcDbEntity
  8
姿図
100
AcDbCircle
 10
63.13591147113378
 20
-6374.575242425072
 30
0.0
 40
89.45865591324991
100
AcDbArc
 50
84.10667108533573
 51
85.77561934493755
  0
LINE
  5
3A4B25
330
18
100
AcDbEntity
  8
姿図
100
AcDbLine
 10
63.95631419362795
 20
-6284.759981380186
 30
0.0
 11
65.72746465708121
 21
-6284.18618255525
 31
0.0
  0
ELLIPSE
  5
3A4B26
330
18
100
AcDbEntity
  8
姿図
100
AcDbEllipse
 10
50.38524965018983
 20
-6787.810571248677
 30
0.0
 11
14.79278784278022
 21
901.2816579414538
 31
0.0
210
0.0
220
0.0
230
1.0
 40
0.004813015429683
 41
5.30467764215438
 42
5.317509563447049
  0
ELLIPSE
  5
3A4B27
330
18
100
AcDbEntity
  8
姿図
100
AcDbEllipse
 10
68.37969115851325
 20
-6787.768352192225
 30
0.0
 11
-14.5691247731075
 21
901.212769492737
 31
0.0
210
0.0
220
0.0
230
1.0
 40
0.005270748007816
 41
0.9656931974681111
 42
0.9785156594165412
  0
LINE
  5
3A4B28
330
18
100
AcDbEntity
  8
姿図
100
AcDbLine
 10
52.49065806284129
 20
-6284.217239223483
 30
0.0
 11
54.41045895997257
 21
-6284.776955478436
 31
0.0
  0
SPLINE
  5
3A4B29
330
18
100
AcDbEntity
  8
姿図
100
AcDbSpline
210
0.0
220
0.0
230
1.0
 70
     8
 71
     3
 72
    11
 73
     7
 74
     0
 42
0.000000001
 43
0.0000000001
 40
0.0
 40
0.0
 40
0.0
 40
0.0
 40
0.3465152699222637
 40
0.6925996825404725
 40
0.7646363985570028
 40
1.0
 40
1.0
 40
1.0
 40
1.0
 10
76.25613738171526
 20
-6295.18510736386
 30
0.0
 10
76.33846604810725
 20
-6295.581083621375
 30
0.0
 10
76.50302101337608
 20
-6296.372543779281
 30
0.0
 10
76.77746042151865
 20
-6297.247479648774
 30
0.0
 10
77.05351449687801
 20
-6297.98824342326
 30
0.0
 10
77.22415905477892
 20
-6298.325901441515
 30
0.0
 10
77.35481447519655
 20
-6298.584432102411
 30
0.0
  0
LWPOLYLINE
  5
3A4B2A
330
18
100
AcDbEntity
  8
姿図
100
AcDbPolyline
 90
        3
 70
   128
 43
0.0
 10
76.69692264603368
 20
-6260.506818131641
 10
71.02204056543789
 20
-6262.105966080187
 10
69.32490138912505
 20
-6262.584208826563
  0
LINE
  5
3A4B2B
330
18
100
AcDbEntity
  8
姿図
100
AcDbLine
 10
69.71961426299808
 20
-6285.015722218655
 30
0.0
 11
72.35401551317022
 21
-6284.668603160384
 31
0.0
  0
SPLINE
  5
3A4B2C
330
18
100
AcDbEntity
  8
姿図
100
AcDbSpline
210
0.0
220
0.0
230
1.0
 70
     8
 71
     3
 72
    15
 73
    11
 74
     0
 42
0.000000001
 43
0.0000000001
 40
0.0
 40
0.0
 40
0.0
 40
0.0
 40
0.0980204687195046
 40
0.2405549774635204
 40
0.3292842790431411
 40
0.4710203576094548
 40
0.6125677999582108
 40
0.7541540331275858
 40
0.8961624102370503
 40
1.0
 40
1.0
 40
1.0
 40
1.0
 10
77.61591238160104
 20
-6260.55332288741
 30
0.0
 10
77.61567613204542
 20
-6260.54797161881
 30
0.0
 10
77.6150963449128
 20
-6260.534838909751
 30
0.0
 10
77.55345285406904
 20
-6260.518191491237
 30
0.0
 10
77.4548447420026
 20
-6260.502494820032
 30
0.0
 10
77.32355100079803
 20
-6260.490714379746
 30
0.0
 10
77.14737187047739
 20
-6260.484393622443
 30
0.0
 10
76.9645768196794
 20
-6260.485943943522
 30
0.0
 10
76.80774171249209
 20
-6260.494061489771
 30
0.0
 10
76.72982921839844
 20
-6260.503108947834
 30
0.0
 10
76.69692143592766
 20
-6260.506930309033
 30
0.0
  0
SPLINE
  5
3A4B2D
330
18
100
AcDbEntity
  8
姿図
100
AcDbSpline
210
0.0
220
0.0
230
1.0
 70
     8
 71
     3
 72
     9
 73
     5
 74
     0
 42
0.000000001
 43
0.0000000001
 40
0.0
 40
0.0
 40
0.0
 40
0.0
 40
0.3146605401179554
 40
1.0
 40
1.0
 40
1.0
 40
1.0
 10
40.84847349334739
 20
-6298.657055605141
 30
0.0
 10
40.85943810114215
 20
-6298.638974894783
 30
0.0
 10
40.89428393147942
 20
-6298.581513891408
 30
0.0
 10
40.91842076671243
 20
-6298.51928797894
 30
0.0
 10
40.93496269233428
 20
-6298.476642105698
 30
0.0
  0
SPLINE
  5
3A4B2E
330
18
100
AcDbEntity
  8
姿図
100
AcDbSpline
210
0.0
220
0.0
230
1.0
 70
     8
 71
     3
 72
    11
 73
     7
 74
     0
 42
0.000000001
 43
0.0000000001
 40
0.0
 40
0.0
 40
0.0
 40
0.0
 40
0.0574023516600193
 40
0.5277189259014402
 40
0.9986221651938082
 40
1.0
 40
1.0
 40
1.0
 40
1.0
 10
41.23551145571454
 20
-6297.785445941036
 30
0.0
 10
41.256351646376
 20
-6297.73820389199
 30
0.0
 10
41.44794245604511
 20
-6297.303892009997
 30
0.0
 10
41.67906771951393
 20
-6296.45488419818
 30
0.0
 10
41.87038210403197
 20
-6295.663343035503
 30
0.0
 10
41.94926021920244
 20
-6295.266755694832
 30
0.0
 10
41.94949033854975
 20
-6295.265598689244
 30
0.0
  0
LINE
  5
3A4B2F
330
18
100
AcDbEntity
  8
姿図
100
AcDbLine
 10
39.96641167264781
 20
-6298.355654786902
 30
0.0
 11
39.97628631474042
 21
-6298.766910327111
 31
0.0
  0
SPLINE
  5
3A4B30
330
18
100
AcDbEntity
  8
姿図
100
AcDbSpline
210
0.0
220
0.0
230
1.0
 70
     8
 71
     3
 72
    15
 73
    11
 74
     0
 42
0.000000001
 43
0.0000000001
 40
0.0
 40
0.0
 40
0.0
 40
0.0
 40
0.1380023119775099
 40
0.2834669292438591
 40
0.4287973858245535
 40
0.5736556696628684
 40
0.663831546832935
 40
0.8078783834903124
 40
0.951733508547559
 40
1.0
 40
1.0
 40
1.0
 40
1.0
 10
41.52469926397992
 20
-6260.589450629169
 30
0.0
 10
41.47930973667039
 20
-6260.584761242532
 30
0.0
 10
41.38607629918732
 20
-6260.575128896445
 30
0.0
 10
41.20824272655653
 20
-6260.568864722955
 30
0.0
 10
41.02407109202133
 20
-6260.570054593295
 30
0.0
 10
40.87528564321104
 20
-6260.578002237015
 30
0.0
 10
40.7509058315736
 20
-6260.59058454814
 30
0.0
 10
40.66046675708569
 20
-6260.607173446526
 30
0.0
 10
40.61091788660472
 20
-6260.624669422476
 30
0.0
 10
40.61812202791948
 20
-6260.634924654379
 30
0.0
 10
40.61993191600753
 20
-6260.637501064425
 30
0.0
  0
SPLINE
  5
3A4B31
330
18
100
AcDbEntity
  8
姿図
100
AcDbSpline
210
0.0
220
0.0
230
1.0
 70
     8
 71
     3
 72
     9
 73
     5
 74
     0
 42
0.000000001
 43
0.0000000001
 40
0.0
 40
0.0
 40
0.0
 40
0.0
 40
0.3873431593472341
 40
1.0
 40
1.0
 40
1.0
 40
1.0
 10
82.41994975302445
 20
-6298.380444437706
 30
0.0
 10
82.28609223058878
 20
-6298.124748983638
 30
0.0
 10
81.9405135900333
 20
-6297.464622561117
 30
0.0
 10
81.6589971835811
 20
-6296.802249585787
 30
0.0
 10
81.4865242314122
 20
-6296.396442251388
 30
0.0
  0
SPLINE
  5
3A4B32
330
18
100
AcDbEntity
  8
姿図
100
AcDbSpline
210
0.0
220
0.0
230
1.0
 70
     8
 71
     3
 72
     9
 73
     5
 74
     0
 42
0.000000001
 43
0.0000000001
 40
0.0
 40
0.0
 40
0.0
 40
0.0
 40
0.1289260522153333
 40
1.0
 40
1.0
 40
1.0
 40
1.0
 10
78.26157806160631
 20
-6296.867736570042
 30
0.0
 10
78.27447127402287
 20
-6296.912536669156
 30
0.0
 10
78.37447598366124
 20
-6297.26002345203
 30
0.0
 10
78.41552142029127
 20
-6297.589156717098
 30
0.0
 10
78.45127503081504
 20
-6297.87585612965
 30
0.0
  0
LWPOLYLINE
  5
3A4B33
330
18
100
AcDbEntity
  8
姿図
100
AcDbPolyline
 90
        4
 70
   128
 43
0.0
 10
81.4865242314122
 20
-6296.396442251388
 10
81.00240694313796
 20
-6295.230566463246
 10
79.06593017804944
 20
-6290.567125474661
 10
78.11021242447043
 20
-6288.265619717568
  0
SPLINE
  5
3A4B34
330
18
100
AcDbEntity
  8
姿図
100
AcDbSpline
210
0.0
220
0.0
230
1.0
 70
     8
 71
     3
 72
    11
 73
     7
 74
     0
 42
0.000000001
 43
0.0000000001
 40
0.0
 40
0.0
 40
0.0
 40
0.0
 40
0.1333720482161217
 40
0.461822753429857
 40
0.7919983715029879
 40
1.0
 40
1.0
 40
1.0
 40
1.0
 10
57.50505290897891
 20
-6285.017209811649
 30
0.0
 10
57.50528837478357
 20
-6284.992109131914
 30
0.0
 10
57.50610371403758
 20
-6284.905193881062
 30
0.0
 10
57.50427655754318
 20
-6284.788597349044
 30
0.0
 10
57.49870352506139
 20
-6284.707030728448
 30
0.0
 10
57.4922438185676
 20
-6284.708883395823
 30
0.0
 10
57.4897471885467
 20
-6284.709599438416
 30
0.0
  0
SPLINE
  5
3A4B35
330
18
100
AcDbEntity
  8
姿図
100
AcDbSpline
210
0.0
220
0.0
230
1.0
 70
     8
 71
     3
 72
    11
 73
     7
 74
     0
 42
0.000000001
 43
0.0000000001
 40
0.0
 40
0.0
 40
0.0
 40
0.0
 40
0.0047484046645852
 40
0.3379203527838199
 40
0.6693814834383907
 40
1.0
 40
1.0
 40
1.0
 40
1.0
 10
53.05392845127594
 20
-6284.823505772269
 30
0.0
 10
53.05343514176517
 20
-6284.823459091754
 30
0.0
 10
53.01832875643071
 20
-6284.820137071601
 30
0.0
 10
52.95284158014919
 20
-6284.857044873258
 30
0.0
 10
52.87068644788902
 20
-6284.965833602765
 30
0.0
 10
52.84039092411153
 20
-6285.086248725896
 30
0.0
 10
52.82526244044369
 20
-6285.146379662633
 30
0.0
  0
SPLINE
  5
3A4B36
330
18
100
AcDbEntity
  8
姿図
100
AcDbSpline
210
0.0
220
0.0
230
1.0
 70
     8
 71
     3
 72
    11
 73
     7
 74
     0
 42
0.000000001
 43
0.0000000001
 40
0.0
 40
0.0
 40
0.0
 40
0.0
 40
0.0127666928617975
 40
0.3432556446617587
 40
0.6720451853649353
 40
1.0
 40
1.0
 40
1.0
 40
1.0
 10
60.68287021022952
 20
-6284.693867089852
 30
0.0
 10
60.68260578056663
 20
-6284.693693906326
 30
0.0
 10
60.67549611047417
 20
-6284.689037553827
 30
0.0
 10
60.66397999837594
 20
-6284.723938648022
 30
0.0
 10
60.65183574422842
 20
-6284.830547956556
 30
0.0
 10
60.64974549820863
 20
-6284.95012266125
 30
0.0
 10
60.64870170355648
 20
-6285.009834023508
 30
0.0
  0
SPLINE
  5
3A4B37
330
18
100
AcDbEntity
  8
姿図
100
AcDbSpline
210
0.0
220
0.0
230
1.0
 70
     8
 71
     3
 72
    11
 73
     7
 74
     0
 42
0.000000001
 43
0.0000000001
 40
0.0
 40
0.0
 40
0.0
 40
0.0
 40
0.134092120666783
 40
0.4643132270020186
 40
0.79627076920555
 40
1.0
 40
1.0
 40
1.0
 40
1.0
 10
65.36316269204228
 20
-6285.116962824742
 30
0.0
 10
65.3582295857191
 20
-6285.091742923714
 30
0.0
 10
65.34114799654962
 20
-6285.004415394162
 30
0.0
 10
65.29206320870333
 20
-6284.886600590505
 30
0.0
 10
65.22119559662147
 20
-6284.803378562212
 30
0.0
 10
65.16926384942188
 20
-6284.803642580551
 30
0.0
 10
65.1495134739337
 20
-6284.803742990447
 30
0.0
  0
SPLINE
  5
3A4B38
330
18
100
AcDbEntity
  8
姿図
100
AcDbSpline
210
0.0
220
0.0
230
1.0
 70
     8
 71
     3
 72
    10
 73
     6
 74
     0
 42
0.000000001
 43
0.0000000001
 40
0.0
 40
0.0
 40
0.0
 40
0.0
 40
0.28600591821511
 40
0.4273861951277782
 40
1.0
 40
1.0
 40
1.0
 40
1.0
 10
39.7638466557042
 20
-6298.794508006724
 30
0.0
 10
39.75577980148853
 20
-6298.65356416372
 30
0.0
 10
39.74372528824141
 20
-6298.442948057718
 30
0.0
 10
39.80391020350683
 20
-6297.900799493184
 30
0.0
 10
39.89630723040156
 20
-6297.493011320004
 30
0.0
 10
39.97040842322491
 20
-6297.165970601623
 30
0.0
  0
SPLINE
  5
3A4B39
330
18
100
AcDbEntity
  8
姿図
100
AcDbSpline
210
0.0
220
0.0
230
1.0
 70
     8
 71
     3
 72
    12
 73
     8
 74
     0
 42
0.000000001
 43
0.0000000001
 40
0.0
 40
0.0
 40
0.0
 40
0.0
 40
0.0638218728714482
 40
0.4287022142218086
 40
0.799928586916254
 40
0.9731689391432851
 40
1.0
 40
1.0
 40
1.0
 40
1.0
 10
37.00312030798584
 20
-6296.50081036986
 30
0.0
 10
36.97601459757124
 20
-6296.564650164564
 30
0.0
 10
36.79394099881924
 20
-6296.993472762746
 30
0.0
 10
36.42804820504766
 20
-6297.800971066638
 30
0.0
 10
35.96059420812731
 20
-6298.712961137653
 30
0.0
 10
35.64772201123864
 20
-6299.282606128365
 30
0.0
 10
35.53011771509446
 20
-6299.471155648756
 30
0.0
 10
35.51434610645626
 20
-6299.49644153832
 30
0.0
  0
LWPOLYLINE
  5
3A4B3A
330
18
100
AcDbEntity
  8
姿図
100
AcDbPolyline
 90
        3
 70
   128
 43
0.0
 10
40.11185168065028
 20
-6289.127755213343
 10
38.77941612041482
 20
-6292.287866179413
 10
37.00312030798584
 20
-6296.50081036986
  0
ARC
  5
3A4B3B
330
18
100
AcDbEntity
  8
姿図
100
AcDbCircle
 10
65.11869821008243
 20
-6284.196377334793
 30
0.0
 40
0.6088518050573335
100
AcDbArc
 50
288.8419686144437
 51
0.9594208876105307
  0
LINE
  5
3A4B3C
330
18
100
AcDbEntity
  8
姿図
100
AcDbLine
 10
48.70863028255546
 20
-6262.506852356357
 30
0.0
 11
41.52470962543714
 21
-6260.58933992345
 31
0.0
  0
LINE
  5
3A4B3D
330
18
100
AcDbEntity
  8
姿図
100
AcDbLine
 10
46.0101824157212
 20
-6284.730411771477
 30
0.0
 11
48.31261931754726
 21
-6285.012087312974
 31
0.0
  0
ARC
  5
3A4B3E
330
18
100
AcDbEntity
  8
姿図
100
AcDbCircle
 10
53.10022939689395
 20
-6284.226278628628
 30
0.0
 40
0.609638353570475
100
AcDbArc
 50
179.1504164052669
 51
252.9834480925842
  0
SPLINE
  5
3A4B3F
330
18
100
AcDbEntity
  8
姿図
100
AcDbSpline
210
0.0
220
0.0
230
1.0
 70
     8
 71
     3
 72
    10
 73
     6
 74
     0
 42
0.000000001
 43
0.0000000001
 40
0.0
 40
0.0
 40
0.0
 40
0.0
 40
0.3166280898131798
 40
0.6587486863053137
 40
1.0
 40
1.0
 40
1.0
 40
1.0
 10
46.38410868073329
 20
-6285.316594201808
 30
0.0
 10
46.33293625472792
 20
-6285.327442167218
 30
0.0
 10
46.2264713847729
 20
-6285.350011494429
 30
0.0
 10
46.09158167433796
 20
-6285.468964226041
 30
0.0
 10
46.03754808826461
 20
-6285.590456939286
 30
0.0
 10
46.01056566192203
 20
-6285.651126023545
 30
0.0
  0
SPLINE
  5
3A4B40
330
18
100
AcDbEntity
  8
姿図
100
AcDbSpline
210
0.0
220
0.0
230
1.0
 70
     8
 71
     3
 72
    11
 73
     7
 74
     0
 42
0.000000001
 43
0.0000000001
 40
0.0
 40
0.0
 40
0.0
 40
0.0
 40
0.1381976610915557
 40
0.4785304145244963
 40
0.8206514937607897
 40
1.0
 40
1.0
 40
1.0
 40
1.0
 10
72.32123287623577
 20
-6285.589395300429
 30
0.0
 10
72.31188375326924
 20
-6285.563809318025
 30
0.0
 10
72.27951099346063
 20
-6285.475213963594
 30
0.0
 10
72.19055768111582
 20
-6285.354306724435
 30
0.0
 10
72.06975667438611
 20
-6285.267811663877
 30
0.0
 10
71.98528659151481
 20
-6285.264142793614
 30
0.0
 10
71.95623488148834
 20
-6285.262880962782
 30
0.0
  0
ARC
  5
3A4B41
330
18
100
AcDbEntity
  8
姿図
100
AcDbCircle
 10
71.82403152493752
 20
-6284.737976096298
 30
0.0
 40
0.5345050346071196
100
AcDbArc
 50
285.1893788511227
 51
7.457406308309982
  0
ARC
  5
3A4B42
330
18
100
AcDbEntity
  8
姿図
100
AcDbCircle
 10
46.53157101448267
 20
-6284.806474651946
 30
0.0
 40
0.5269076130630033
100
AcDbArc
 50
171.6999451459731
 51
254.6365966819796
  0
LINE
  5
3A4B43
330
18
100
AcDbEntity
  8
姿図
100
AcDbLine
 10
82.53013599057132
 20
-6261.521124844517
 30
0.0
 11
77.6541139756858
 21
-6262.345659811959
 31
0.0
  0
LINE
  5
3A4B44
330
18
100
AcDbEntity
  8
姿図
100
AcDbLine
 10
78.1170882097565
 20
-6286.147678370915
 30
0.0
 11
78.07132802346122
 21
-6286.055835153367
 31
0.0
  0
SPLINE
  5
3A4B45
330
18
100
AcDbEntity
  8
姿図
100
AcDbSpline
210
0.0
220
0.0
230
1.0
 70
     8
 71
     3
 72
     9
 73
     5
 74
     0
 42
0.000000001
 43
0.0000000001
 40
0.0
 40
0.0
 40
0.0
 40
0.0
 40
0.523141691866011
 40
1.0
 40
1.0
 40
1.0
 40
1.0
 10
82.28490799021903
 20
-6296.182158387341
 30
0.0
 10
82.39192431171438
 20
-6296.58311264581
 30
0.0
 10
82.59648900835256
 20
-6297.349547943748
 30
0.0
 10
82.85946418638756
 20
-6298.117983443866
 30
0.0
 10
82.98486608486645
 20
-6298.484418296361
 30
0.0
  0
SPLINE
  5
3A4B46
330
18
100
AcDbEntity
  8
姿図
100
AcDbSpline
210
0.0
220
0.0
230
1.0
 70
     8
 71
     3
 72
    14
 73
    10
 74
     0
 42
0.000000001
 43
0.0000000001
 40
0.0
 40
0.0
 40
0.0
 40
0.0
 40
0.0980033154454293
 40
0.2042613658449383
 40
0.3741117422471206
 40
0.5437261950077373
 40
0.7133990679569245
 40
0.8835914894785419
 40
1.0
 40
1.0
 40
1.0
 40
1.0
 10
83.2758862119871
 20
-6261.582525603745
 30
0.0
 10
83.27696506153404
 20
-6261.578082871189
 30
0.0
 10
83.27921363119734
 20
-6261.568823198539
 30
0.0
 10
83.23513470547444
 20
-6261.552737194626
 30
0.0
 10
83.14975958031911
 20
-6261.535703560273
 30
0.0
 10
83.00413446307411
 20
-6261.521629042995
 30
0.0
 10
82.83057110549441
 20
-6261.51458967503
 30
0.0
 10
82.66490456867396
 20
-6261.514863134416
 30
0.0
 10
82.56906379251994
 20
-6261.519395847369
 30
0.0
 10
82.53013620802199
 20
-6261.521236896383
 30
0.0
  0
LINE
  5
3A4B47
330
18
100
AcDbEntity
  8
姿図
100
AcDbLine
 10
78.07334414137463
 20
-6286.170437429871
 30
0.0
 11
78.1170882097565
 21
-6286.147678370915
 31
0.0
  0
SPLINE
  5
3A4B48
330
18
100
AcDbEntity
  8
姿図
100
AcDbSpline
210
0.0
220
0.0
230
1.0
 70
     8
 71
     3
 72
    11
 73
     7
 74
     0
 42
0.000000001
 43
0.0000000001
 40
0.0
 40
0.0
 40
0.0
 40
0.0
 40
0.1889353436658169
 40
0.5936224934528604
 40
0.9988145327681724
 40
1.0
 40
1.0
 40
1.0
 40
1.0
 10
35.26148312369341
 20
-6299.257359798303
 30
0.0
 10
35.33532212578164
 20
-6299.073135795425
 30
0.0
 10
35.56731944128235
 20
-6298.494316026604
 30
0.0
 10
35.88228016296691
 20
-6297.495489874518
 30
0.0
 10
36.1114296709078
 20
-6296.692670376624
 30
0.0
 10
36.21703687149703
 20
-6296.291413937416
 30
0.0
 10
36.2173449443449
 20
-6296.290243409146
 30
0.0
  0
SPLINE
  5
3A4B49
330
18
100
AcDbEntity
  8
姿図
100
AcDbSpline
210
0.0
220
0.0
230
1.0
 70
     8
 71
     3
 72
    14
 73
    10
 74
     0
 42
0.000000001
 43
0.0000000001
 40
0.0
 40
0.0
 40
0.0
 40
0.0
 40
0.1664294819226035
 40
0.3413001296498383
 40
0.5160046678603711
 40
0.6901437296422505
 40
0.7985435457968383
 40
0.9717093463958498
 40
0.9999999999999998
 40
0.9999999999999998
 40
0.9999999999999998
 40
0.9999999999999998
 10
35.99303359273426
 20
-6261.630422459993
 30
0.0
 10
35.93707227396663
 20
-6261.628273319824
 30
0.0
 10
35.82231132458368
 20
-6261.623866036871
 30
0.0
 10
35.63976392608292
 20
-6261.626688605233
 30
0.0
 10
35.47439103265937
 20
-6261.636698982652
 30
0.0
 10
35.36030843523443
 20
-6261.651262804896
 30
0.0
 10
35.28709394133007
 20
-6261.668866989274
 30
0.0
 10
35.25186878982188
 20
-6261.682478985452
 30
0.0
 10
35.26107703419164
 20
-6261.691332013541
 30
0.0
 10
35.26237015360445
 20
-6261.692575249713
 30
0.0
  0
LINE
  5
3A4B4A
330
18
100
AcDbEntity
  8
姿図
100
AcDbLine
 10
84.22426456588732
 20
-6297.573837506917
 30
0.0
 11
83.90423137461904
 21
-6296.864308051212
 31
0.0
  0
LINE
  5
3A4B4B
330
18
100
AcDbEntity
  8
姿図
100
AcDbLine
 10
36.21640215985806
 20
-6296.29082169959
 30
0.0
 11
40.14990681478964
 21
-6286.965118293113
 31
0.0
  0
LINE
  5
3A4B4C
330
18
100
AcDbEntity
  8
姿図
100
AcDbLine
 10
40.58263541398022
 20
-6262.373192464508
 30
0.0
 11
35.99304966441804
 21
-6261.630311252169
 31
0.0
  0
LWPOLYLINE
  5
3A4B4D
330
18
100
AcDbEntity
  8
姿図
100
AcDbPolyline
 90
        4
 70
   128
 43
0.0
 10
57.81118673442597
 20
-6284.608743353714
 10
57.82059120009852
 20
-6284.047700439555
 10
57.90825118530768
 20
-6278.816243364434
 10
57.96876756376274
 20
-6275.202932020651
  0
LINE
  5
3A4B4E
330
18
100
AcDbEntity
  8
姿図
100
AcDbLine
 10
58.16827734762819
 20
-6275.191437741247
 30
0.0
 11
57.96876756376274
 21
-6275.202932020651
 31
0.0
  0
LWPOLYLINE
  5
3A4B4F
330
18
100
AcDbEntity
  8
姿図
100
AcDbPolyline
 90
        4
 70
   128
 43
0.0
 10
60.59154289760499
 20
-6275.196778422224
 10
60.60238849107244
 20
-6275.858004824892
 10
60.68823139402744
 20
-6281.089004043907
 10
60.74748543857103
 20
-6284.696878508082
  0
LWPOLYLINE
  5
3A4B50
330
18
100
AcDbEntity
  8
姿図
100
AcDbPolyline
 90
        4
 70
   128
 43
0.0
 10
61.48589049040144
 20
-6284.711937716779
 10
61.49383351719312
 20
-6284.058063138718
 10
61.55714664096741
 20
-6278.830403508724
 10
61.60069677142306
 20
-6275.219709876111
  0
LWPOLYLINE
  5
3A4B51
330
18
100
AcDbEntity
  8
姿図
100
AcDbPolyline
 90
        4
 70
   128
 43
0.0
 10
56.96703504234759
 20
-6275.23058149182
 10
56.97462800754483
 20
-6275.891344124358
 10
57.03488389966086
 20
-6281.118668398145
 10
57.07653156236493
 20
-6284.713895797317
  0
ARC
  5
3A4B52
330
18
100
AcDbEntity
  8
姿図
100
AcDbCircle
 10
59.48873161474288
 20
-6275.04414681066
 30
0.0
 40
1.113323463534714
100
AcDbArc
 50
352.12019130614
 51
21.99926032006312
  0
ARC
  5
3A4B53
330
18
100
AcDbEntity
  8
姿図
100
AcDbCircle
 10
60.92125823124071
 20
-6275.074661429894
 30
0.0
 40
0.6947487183404016
100
AcDbArc
 50
347.9492337391486
 51
37.81087084857284
  0
LWPOLYLINE
  5
3A4B54
330
18
100
AcDbEntity
  8
姿図
100
AcDbPolyline
 90
        9
 70
   128
 43
0.0
 10
56.96703504234759
 20
-6275.23058149182
 10
56.9705499205243
 20
-6275.109269765007
 10
56.9802133944371
 20
-6274.995411997569
 10
56.9956809852285
 20
-6274.893070726872
 10
57.01640117315031
 20
-6274.805894442129
 10
57.04163604922394
 20
-6274.736984871118
 10
57.07048573881007
 20
-6274.688802135169
 10
57.10192225540571
 20
-6274.663061862156
 10
57.1192544763701
 20
-6274.658864091698
  0
SPLINE
  5
3A4B55
330
18
100
AcDbEntity
  8
姿図
100
AcDbSpline
210
0.0
220
0.0
230
1.0
 70
     8
 71
     3
 72
     9
 73
     5
 74
     0
 42
0.000000001
 43
0.0000000001
 40
0.0
 40
0.0
 40
0.0
 40
0.0
 40
0.5247995309085471
 40
1.0
 40
1.0
 40
1.0
 40
1.0
 10
56.40419482747957
 20
-6263.551398317967
 30
0.0
 10
56.40494838518882
 20
-6263.546462638796
 30
0.0
 10
56.40638428149774
 20
-6263.53705775392
 30
0.0
 10
56.37939995519089
 20
-6263.528306597542
 30
0.0
 10
56.36657699067168
 20
-6263.524148043927
 30
0.0
  0
SPLINE
  5
3A4B56
330
18
100
AcDbEntity
  8
姿図
100
AcDbSpline
210
0.0
220
0.0
230
1.0
 70
     8
 71
     3
 72
     9
 73
     5
 74
     0
 42
0.000000001
 43
0.0000000001
 40
0.0
 40
0.0
 40
0.0
 40
0.0
 40
0.3433793652865052
 40
1.0
 40
1.0
 40
1.0
 40
1.0
 10
62.22172619403124
 20
-6263.51040108367
 30
0.0
 10
62.21389032191559
 20
-6263.513148901174
 30
0.0
 10
62.19107045296656
 20
-6263.521151180232
 30
0.0
 10
62.19093501206228
 20
-6263.52971177323
 30
0.0
 10
62.19084607876971
 20
-6263.535332835236
 30
0.0
  0
LINE
  5
3A4B57
330
18
100
AcDbEntity
  8
姿図
100
AcDbLine
 10
84.8497949480034
 20
-6262.74050503931
 30
0.0
 11
83.30667478291949
 21
-6262.905318414849
 31
0.0
  0
LINE
  5
3A4B58
330
18
100
AcDbEntity
  8
姿図
100
AcDbLine
 10
83.87603728538818
 20
-6295.262161857413
 30
0.0
 11
84.83723411957567
 21
-6297.392926066348
 31
0.0
  0
LINE
  5
3A4B59
330
18
100
AcDbEntity
  8
姿図
100
AcDbLine
 10
34.02132948241035
 20
-6297.51491137476
 30
0.0
 11
34.65253027220109
 21
-6296.114849144603
 31
0.0
  0
LINE
  5
3A4B5A
330
18
100
AcDbEntity
  8
姿図
100
AcDbLine
 10
35.23553875738755
 20
-6262.982557374756
 30
0.0
 11
34.03268300084479
 21
-6262.859733467019
 31
0.0
  0
SPLINE
  5
3A4B5B
330
18
100
AcDbEntity
  8
姿図
100
AcDbSpline
210
0.0
220
0.0
230
1.0
 70
     8
 71
     3
 72
    11
 73
     7
 74
     0
 42
0.000000001
 43
0.0000000001
 40
0.0
 40
0.0
 40
0.0
 40
0.0
 40
0.4510399855327951
 40
0.901519353786767
 40
0.9952855328236937
 40
1.0
 40
1.0
 40
1.0
 40
1.0
 10
84.83745902978094
 20
-6297.395059961992
 30
0.0
 10
84.95492034414146
 20
-6297.801783538715
 30
0.0
 10
85.18969697506947
 20
-6298.614725157682
 30
0.0
 10
85.45926481682874
 20
-6299.515041652295
 30
0.0
 10
85.60975381677254
 20
-6300.013589751079
 30
0.0
 10
85.63629578006866
 20
-6300.100795715324
 30
0.0
 10
85.6375663973886
 20
-6300.104970440732
 30
0.0
  0
SPLINE
  5
3A4B5C
330
18
100
AcDbEntity
  8
姿図
100
AcDbSpline
210
0.0
220
0.0
230
1.0
 70
     8
 71
     3
 72
    10
 73
     6
 74
     0
 42
0.000000001
 43
0.0000000001
 40
0.0
 40
0.0
 40
0.0
 40
0.0
 40
0.1565677864311521
 40
0.9975521923328085
 40
1.0
 40
1.0
 40
1.0
 40
1.0
 10
33.59888351566131
 20
-6298.97578669375
 30
0.0
 10
33.62131696627458
 20
-6298.899314617539
 30
0.0
 10
33.76424890873199
 20
-6298.412082288236
 30
0.0
 10
33.90470030177383
 20
-6297.924418963352
 30
0.0
 10
34.02200947264096
 20
-6297.515470557079
 30
0.0
 10
34.02234992713542
 20
-6297.514283707645
 30
0.0
  0
SPLINE
  5
3A4B5D
330
18
100
AcDbEntity
  8
姿図
100
AcDbSpline
210
0.0
220
0.0
230
1.0
 70
     8
 71
     3
 72
    12
 73
     8
 74
     0
 42
0.000000001
 43
0.0000000001
 40
0.0
 40
0.0
 40
0.0
 40
0.0
 40
0.203565114019286
 40
0.4151910516879628
 40
0.6268663836783172
 40
0.8391666241576727
 40
0.9999999999999998
 40
0.9999999999999998
 40
0.9999999999999998
 40
0.9999999999999998
 10
85.3967743315283
 20
-6262.807468525598
 30
0.0
 10
85.39166179737163
 20
-6262.800142918369
 30
0.0
 10
85.3812342816179
 20
-6262.785201622635
 30
0.0
 10
85.2917066143897
 20
-6262.765181221112
 30
0.0
 10
85.15738279031547
 20
-6262.749866207175
 30
0.0
 10
85.00164979297045
 20
-6262.741402235707
 30
0.0
 10
84.895534647252
 20
-6262.74085347348
 30
0.0
 10
84.8497953829045
 20
-6262.740616938153
 30
0.0
  0
SPLINE
  5
3A4B5E
330
18
100
AcDbEntity
  8
姿図
100
AcDbSpline
210
0.0
220
0.0
230
1.0
 70
     8
 71
     3
 72
    13
 73
     9
 74
     0
 42
0.000000001
 43
0.0000000001
 40
0.0
 40
0.0
 40
0.0
 40
0.0
 40
0.2021552963235451
 40
0.4212702973734256
 40
0.6402000535657822
 40
0.8584297587281025
 40
0.9943111819659989
 40
1.0
 40
1.0
 40
1.0
 40
1.0
 10
34.03266826212078
 20
-6262.859845494961
 30
0.0
 10
33.97656195462881
 20
-6262.860517490157
 30
0.0
 10
33.85964233257833
 20
-6262.861917857208
 30
0.0
 10
33.70172343843596
 20
-6262.87300941053
 30
0.0
 10
33.57646753183975
 20
-6262.890117325149
 30
0.0
 10
33.520872754404
 20
-6262.908894453798
 30
0.0
 10
33.4987045248263
 20
-6262.921568591544
 30
0.0
 10
33.50504850977607
 20
-6262.926462217741
 30
0.0
 10
33.50530343465057
 20
-6262.926658861815
 30
0.0
  0
SPLINE
  5
3A4B5F
330
18
100
AcDbEntity
  8
姿図
100
AcDbSpline
210
0.0
220
0.0
230
1.0
 70
     8
 71
     3
 72
    12
 73
     8
 74
     0
 42
0.000000001
 43
0.0000000001
 40
0.0
 40
0.0
 40
0.0
 40
0.0
 40
0.0858949418075544
 40
0.4096127206543472
 40
0.6138487548527976
 40
0.933954994873394
 40
1.0
 40
1.0
 40
1.0
 40
1.0
 10
56.71178443322801
 20
-6265.640773051015
 30
0.0
 10
56.71352302890544
 20
-6265.638779492782
 30
0.0
 10
56.72181398167343
 20
-6265.629272683706
 30
0.0
 10
56.68235259779499
 20
-6265.615027692307
 30
0.0
 10
56.6022437883901
 20
-6265.598254759201
 30
0.0
 10
56.52470227190891
 20
-6265.587431709086
 30
0.0
 10
56.45830097201457
 20
-6265.583915621969
 30
0.0
 10
56.44694408984207
 20
-6265.583314251407
 30
0.0
  0
SPLINE
  5
3A4B60
330
18
100
AcDbEntity
  8
姿図
100
AcDbSpline
210
0.0
220
0.0
230
1.0
 70
     8
 71
     3
 72
    12
 73
     8
 74
     0
 42
0.000000001
 43
0.0000000001
 40
0.0
 40
0.0
 40
0.0
 40
0.0
 40
0.0299714654028492
 40
0.3449186069771746
 40
0.6600066587790191
 40
0.8591686020115566
 40
0.9999999999999998
 40
0.9999999999999998
 40
0.9999999999999998
 40
0.9999999999999998
 10
60.1524434292784
 20
-6265.717493094367
 30
0.0
 10
60.15227757336433
 20
-6265.716777055367
 30
0.0
 10
60.15036886486221
 20
-6265.708536711751
 30
0.0
 10
60.12217320019273
 20
-6265.692730387639
 30
0.0
 10
60.03523042629097
 20
-6265.675882999989
 30
0.0
 10
59.94424948011641
 20
-6265.664709751475
 30
0.0
 10
59.88424726018806
 20
-6265.661451278853
 30
0.0
 10
59.85939325426968
 20
-6265.660101560492
 30
0.0
  0
TEXT
  5
3A582F
330
18
100
AcDbEntity
  8
文字
100
AcDbText
 10
16.48778772715153
 20
-6356.460973173736
 30
-0.0000000000000047
 40
9.75
  1
MSP-100W/FLF
 41
0.8
100
AcDbText
  0
ENDSEC
  0
SECTION
  2
OBJECTS
  0
DICTIONARY
  5
C
330
0
100
AcDbDictionary
281
     1
  3
ACAD_GROUP
350
D
  3
ACAD_IMAGE_VARS
350
2F1759
  3
ACAD_LAYOUT
350
353
  3
ACAD_MLINESTYLE
350
E
  3
ACAD_PLOTSETTINGS
350
354
  3
ACAD_PLOTSTYLENAME
350
351
  3
ACAD_SCALELIST
350
CD53
  3
AcadDim
350
5182D
  3
AcDbVariableDictionary
350
E0D
  3
AEC_DISP_REPS
350
375022
  3
AEC_DISPLAY_PROPS_DEFAULTS
350
375024
  3
AEC_VARS
350
375020
  3
APPDATA
350
2F1758
  3
DWGPROPS
350
3A5901
  0
DICTIONARY
  5
38C252
330
8
100
AcDbDictionary
280
     1
281
     1
  0
DICTIONARY
  5
559E
330
2
100
AcDbDictionary
280
     1
281
     1
  3
ACAD_LAYERFILTERS
360
29A509
  3
ACAD_LAYERSTATES
360
559F
  3
ACLYDICTIONARY
360
29A508
  0
DICTIONARY
  5
CD7F
330
F
100
AcDbDictionary
280
     1
281
     1
  3
ADSK_XREC_LAYER_RECONCILED
360
CD80
  0
DICTIONARY
  5
CD8D
330
2F4
100
AcDbDictionary
280
     1
281
     1
  3
ADSK_XREC_LAYER_RECONCILED
360
CD8E
  0
DICTIONARY
  5
D25F
330
18
100
AcDbDictionary
280
     1
281
     1
  3
ACAD_SORTENTS
360
D260
  0
DICTIONARY
  5
D
102
{ACAD_REACTORS
330
C
102
}
330
C
100
AcDbDictionary
281
     1
  3
*A1264
350
2F2756
  3
*A137
350
2F2742
  3
*A1521
350
2F2755
  3
*A1529
350
2F2757
  3
*A1683
350
2F273B
  3
*A1700
350
2F2748
  3
*A1745
350
2F2758
  3
*A2142
350
2F2747
  3
*A2285
350
2F274E
  3
*A2350
350
2F2752
  3
*A2689
350
2F2741
  3
*A2731
350
2F2740
  3
*A3135
350
2F274D
  3
*A3241
350
2F274C
  3
*A3288
350
2F2743
  3
*A3408
350
2F274B
  3
*A3421
350
2F2746
  3
*A3944
350
2F274F
  3
*A395
350
2F2751
  3
*A4156
350
2F2754
  3
*A4189
350
2F273F
  3
*A4238
350
2F275A
  3
*A437
350
2F273E
  3
*A4397
350
2F2759
  3
*A4614
350
2F274A
  3
*A4714
350
2F2744
  3
*A4802
350
2F273C
  3
*A4868
350
2F2750
  3
*A5175
350
2F273D
  3
*A5215
350
2F2745
  3
*A5252
350
2F2739
  3
*A5295
350
2F273A
  3
*A5516
350
2F2749
  3
*A874
350
2F2753
  0
RASTERVARIABLES
  5
2F1759
102
{ACAD_REACTORS
330
C
102
}
330
C
100
AcDbRasterVariables
 90
        0
 70
     1
 71
     1
 72
     0
  0
DICTIONARY
  5
353
102
{ACAD_REACTORS
330
C
102
}
330
C
100
AcDbDictionary
281
     1
  3
Model
350
355
  3
ﾚｲｱｳﾄ1
350
356
  0
DICTIONARY
  5
E
102
{ACAD_REACTORS
330
C
102
}
330
C
100
AcDbDictionary
281
     1
  3
STANDARD
350
1B
  0
DICTIONARY
  5
354
102
{ACAD_REACTORS
330
C
102
}
330
C
100
AcDbDictionary
281
     1
  0
ACDBDICTIONARYWDFLT
  5
351
102
{ACAD_REACTORS
330
C
102
}
330
C
100
AcDbDictionary
281
     1
  3
Normal
350
352
100
AcDbDictionaryWithDefault
340
352
  0
DICTIONARY
  5
CD53
102
{ACAD_REACTORS
330
C
102
}
330
C
100
AcDbDictionary
281
     1
  3
A0
350
CD54
  3
A1
350
35DF8
  3
A2
350
35DF9
  3
A3
350
35DFA
  3
A4
350
35DFB
  3
A5
350
35DFC
  3
A6
350
35DFD
  3
A7
350
35DFE
  3
A8
350
35DFF
  3
A9
350
35E00
  3
B0
350
35E01
  3
B1
350
35E02
  3
B2
350
35E03
  3
B3
350
35E04
  3
B4
350
35E05
  3
B5
350
35E06
  3
B6
350
35E07
  3
B7
350
35E08
  3
B8
350
35E09
  3
B9
350
35E0A
  3
C0
350
35E0B
  3
C1
350
35E0C
  3
C2
350
35E0D
  3
C3
350
35E0E
  3
C4
350
35E0F
  3
C5
350
35E10
  3
C6
350
35E11
  3
C7
350
35E12
  3
C8
350
35E13
  3
C9
350
35E14
  3
D0
350
35E15
  3
D1
350
35E16
  3
D2
350
35E17
  0
XRECORD
  5
5182D
102
{ACAD_REACTORS
330
C
102
}
330
C
100
AcDbXrecord
280
     1
 90
   990106
  3
OPEN30
 60
     0
 61
     0
 62
     4
 63
     4
 64
     1
 65
     0
 66
     0
 67
     3
 68
     1
 69
     0
 70
     0
 71
     0
 72
     0
 40
0.0
170
     0
340
0
  0
DICTIONARY
  5
E0D
102
{ACAD_REACTORS
330
C
102
}
330
C
100
AcDbDictionary
281
     1
  3
DIMASSOC
350
E0E
  3
INDEXCTL
350
D04A
  3
PROJECTNAME
350
E0F
  3
SORTENTS
350
D049
  0
DICTIONARY
  5
375022
102
{ACAD_REACTORS
330
C
102
}
330
C
100
AcDbDictionary
281
     1
  3
AecDbDispRep2dSection
350
375023
  3
AecDbDispRepAnchor
350
37505D
  3
AecDbDispRepAnchorEntToNode
350
37505E
  3
AecDbDispRepClipVolModel
350
37502A
  3
AecDbDispRepClipVolPlan
350
37502C
  3
AecDbDispRepClipVolResSubDiv
350
37502F
  3
AecDbDispRepClipVolResult
350
37502E
  3
AecDbDispRepDisplayTheme
350
375031
  3
AecDbDispRepEditInPlaceProfile
350
375062
  3
AecDbDispRepEntRef
350
375033
  3
AecDbDispRepLayoutCurve
350
375035
  3
AecDbDispRepLayoutGrid2d
350
375037
  3
AecDbDispRepLayoutGrid3d
350
375039
  3
AecDbDispRepMaskBlockRef
350
37503B
  3
AecDbDispRepMaskBlockRefRcp
350
37503D
  3
AecDbDispRepMassElemModel
350
37503F
  3
AecDbDispRepMassElemPlan100
350
375045
  3
AecDbDispRepMassElemPlan50
350
375043
  3
AecDbDispRepMassElemRcp
350
375047
  3
AecDbDispRepMassElemSchem
350
375041
  3
AecDbDispRepMassGroupModel
350
375049
  3
AecDbDispRepMassGroupPlan
350
37504B
  3
AecDbDispRepMassGroupPlan100
350
37504F
  3
AecDbDispRepMassGroupPlan50
350
37504D
  3
AecDbDispRepMassGroupRcp
350
375051
  3
AecDbDispRepMaterial
350
375060
  3
AecDbDispRepMvBlockRef
350
375053
  3
AecDbDispRepMvBlockRefModel
350
375054
  3
AecDbDispRepMvBlockRefPlan100
350
375055
  3
AecDbDispRepMvBlockRefPlan50
350
375056
  3
AecDbDispRepPolygonModel
350
375057
  3
AecDbDispRepPolygonTrueColour
350
375059
  3
AecDbDispRepSlice
350
37505B
  0
DICTIONARY
  5
375024
102
{ACAD_REACTORS
330
C
102
}
330
C
100
AcDbDictionary
281
     1
  3
*A1
350
375025
  3
*A10
350
375040
  3
*A11
350
375050
  3
*A12
350
375058
  3
*A13
350
375052
  3
*A14
350
37505A
  3
*A15
350
37505F
  3
*A16
350
37505C
  3
*A17
350
375061
  3
*A18
350
37502B
  3
*A19
350
375063
  3
*A2
350
375030
  3
*A20
350
37502D
  3
*A21
350
375032
  3
*A22
350
375036
  3
*A23
350
375034
  3
*A24
350
375038
  3
*A25
350
37503C
  3
*A26
350
37503A
  3
*A27
350
37503E
  3
*A3
350
375042
  3
*A4
350
375046
  3
*A5
350
375044
  3
*A6
350
375048
  3
*A7
350
37504C
  3
*A8
350
37504A
  3
*A9
350
37504E
  0
DICTIONARY
  5
375020
102
{ACAD_REACTORS
330
C
102
}
330
C
100
AcDbDictionary
281
     1
  3
AEC_VARS_DWG_SETUP
350
375021
  0
DICTIONARY
  5
2F1758
102
{ACAD_REACTORS
330
C
102
}
330
C
100
AcDbDictionary
281
     1
  0
XRECORD
  5
3A5901
102
{ACAD_REACTORS
330
C
102
}
330
C
100
AcDbXrecord
280
     1
  1
DWGPROPS COOKIE
  2

  3

  4

  6

  7

  8
SPAX
  9

300
=
301
=
302
=
303
=
304
=
305
=
306
=
307
=
308
=
309
=
 40
0.0
 41
2448636.244629618
 42
2458075.127606389
  1

 90
        0
  0
DICTIONARY
  5
29A509
102
{ACAD_REACTORS
330
559E
102
}
330
559E
100
AcDbDictionary
281
     1
  0
DICTIONARY
  5
559F
102
{ACAD_REACTORS
330
559E
102
}
330
559E
100
AcDbDictionary
281
     1
  0
DICTIONARY
  5
29A508
102
{ACAD_REACTORS
330
559E
102
}
330
559E
100
AcDbDictionary
281
     1
1001
ACAD
1000
<All
  0
XRECORD
  5
CD80
102
{ACAD_REACTORS
330
CD7F
102
}
330
CD7F
100
AcDbXrecord
280
     1
290
     1
  0
XRECORD
  5
CD8E
102
{ACAD_REACTORS
330
CD8D
102
}
330
CD8D
100
AcDbXrecord
280
     1
290
     1
  0
SORTENTSTABLE
  5
D260
102
{ACAD_REACTORS
330
D25F
102
}
330
D25F
100
AcDbSortentsTable
330
18
331
8182F
  5
2FEC53
331
3073B9
  5
307455
  0
GROUP
  5
2F2756
102
{ACAD_REACTORS
330
D
102
}
330
D
100
AcDbGroup
300

 70
     0
 71
     1
  0
GROUP
  5
2F2742
102
{ACAD_REACTORS
330
D
102
}
330
D
100
AcDbGroup
300

 70
     0
 71
     1
  0
GROUP
  5
2F2755
102
{ACAD_REACTORS
330
D
102
}
330
D
100
AcDbGroup
300

 70
     0
 71
     1
  0
GROUP
  5
2F2757
102
{ACAD_REACTORS
330
D
102
}
330
D
100
AcDbGroup
300

 70
     0
 71
     1
  0
GROUP
  5
2F273B
102
{ACAD_REACTORS
330
D
102
}
330
D
100
AcDbGroup
300

 70
     0
 71
     1
  0
GROUP
  5
2F2748
102
{ACAD_REACTORS
330
D
102
}
330
D
100
AcDbGroup
300

 70
     0
 71
     1
  0
GROUP
  5
2F2758
102
{ACAD_REACTORS
330
D
102
}
330
D
100
AcDbGroup
300

 70
     0
 71
     1
  0
GROUP
  5
2F2747
102
{ACAD_REACTORS
330
D
102
}
330
D
100
AcDbGroup
300

 70
     0
 71
     1
  0
GROUP
  5
2F274E
102
{ACAD_REACTORS
330
D
102
}
330
D
100
AcDbGroup
300

 70
     0
 71
     1
  0
GROUP
  5
2F2752
102
{ACAD_REACTORS
330
D
102
}
330
D
100
AcDbGroup
300

 70
     0
 71
     1
  0
GROUP
  5
2F2741
102
{ACAD_REACTORS
330
D
102
}
330
D
100
AcDbGroup
300

 70
     0
 71
     1
  0
GROUP
  5
2F2740
102
{ACAD_REACTORS
330
D
102
}
330
D
100
AcDbGroup
300

 70
     0
 71
     1
  0
GROUP
  5
2F274D
102
{ACAD_REACTORS
330
D
102
}
330
D
100
AcDbGroup
300

 70
     0
 71
     1
  0
GROUP
  5
2F274C
102
{ACAD_REACTORS
330
D
102
}
330
D
100
AcDbGroup
300

 70
     0
 71
     1
  0
GROUP
  5
2F2743
102
{ACAD_REACTORS
330
D
102
}
330
D
100
AcDbGroup
300

 70
     0
 71
     1
  0
GROUP
  5
2F274B
102
{ACAD_REACTORS
330
D
102
}
330
D
100
AcDbGroup
300

 70
     0
 71
     1
  0
GROUP
  5
2F2746
102
{ACAD_REACTORS
330
D
102
}
330
D
100
AcDbGroup
300

 70
     0
 71
     1
  0
GROUP
  5
2F274F
102
{ACAD_REACTORS
330
D
102
}
330
D
100
AcDbGroup
300

 70
     0
 71
     1
  0
GROUP
  5
2F2751
102
{ACAD_REACTORS
330
D
102
}
330
D
100
AcDbGroup
300

 70
     0
 71
     1
  0
GROUP
  5
2F2754
102
{ACAD_REACTORS
330
D
102
}
330
D
100
AcDbGroup
300

 70
     0
 71
     1
  0
GROUP
  5
2F273F
102
{ACAD_REACTORS
330
D
102
}
330
D
100
AcDbGroup
300

 70
     0
 71
     1
  0
GROUP
  5
2F275A
102
{ACAD_REACTORS
330
D
102
}
330
D
100
AcDbGroup
300

 70
     0
 71
     1
  0
GROUP
  5
2F273E
102
{ACAD_REACTORS
330
D
102
}
330
D
100
AcDbGroup
300

 70
     0
 71
     1
  0
GROUP
  5
2F2759
102
{ACAD_REACTORS
330
D
102
}
330
D
100
AcDbGroup
300

 70
     0
 71
     1
  0
GROUP
  5
2F274A
102
{ACAD_REACTORS
330
D
102
}
330
D
100
AcDbGroup
300

 70
     0
 71
     1
  0
GROUP
  5
2F2744
102
{ACAD_REACTORS
330
D
102
}
330
D
100
AcDbGroup
300

 70
     0
 71
     1
  0
GROUP
  5
2F273C
102
{ACAD_REACTORS
330
D
102
}
330
D
100
AcDbGroup
300

 70
     0
 71
     1
  0
GROUP
  5
2F2750
102
{ACAD_REACTORS
330
D
102
}
330
D
100
AcDbGroup
300

 70
     0
 71
     1
  0
GROUP
  5
2F273D
102
{ACAD_REACTORS
330
D
102
}
330
D
100
AcDbGroup
300

 70
     0
 71
     1
  0
GROUP
  5
2F2745
102
{ACAD_REACTORS
330
D
102
}
330
D
100
AcDbGroup
300

 70
     0
 71
     1
  0
GROUP
  5
2F2739
102
{ACAD_REACTORS
330
D
102
}
330
D
100
AcDbGroup
300

 70
     0
 71
     1
  0
GROUP
  5
2F273A
102
{ACAD_REACTORS
330
D
102
}
330
D
100
AcDbGroup
300

 70
     0
 71
     1
  0
GROUP
  5
2F2749
102
{ACAD_REACTORS
330
D
102
}
330
D
100
AcDbGroup
300

 70
     0
 71
     1
  0
GROUP
  5
2F2753
102
{ACAD_REACTORS
330
D
102
}
330
D
100
AcDbGroup
300

 70
     0
 71
     1
  0
LAYOUT
  5
355
102
{ACAD_REACTORS
330
353
102
}
330
353
100
AcDbPlotSettings
  1

  2
JUST PDF 3
  4
A4
  6

 40
3.174999952316284
 41
3.174999952316284
 42
3.175003051757812
 43
3.17498779296875
 44
209.8886566162109
 45
297.0530090332031
 46
14.27171755861522
 47
9.855173166722437
 48
-1.883998741805498
 49
-6978.5561827733
140
523.1016567429137
141
-6165.57815790988
142
1.0
143
3.0
 70
  3748
 72
     1
 73
     0
 74
     4
  7
spax form.ctb
 75
    16
147
1.0
148
1.883998741805498
149
6978.5561827733
100
AcDbLayout
  1
Model
 70
     1
 71
     0
 10
0.0
 20
0.0
 11
12.0
 21
9.0
 12
0.0
 22
0.0
 32
0.0
 14
16.48778772715153
 24
-6356.460973173736
 34
-0.0000000000000047
 15
107.4877877271515
 25
-6259.133938312811
 35
0.0
146
0.0
 13
0.0
 23
0.0
 33
0.0
 16
1.0
 26
0.0
 36
0.0
 17
0.0
 27
1.0
 37
0.0
 76
     0
330
18
331
3523F0
1001
ACAD_PSEXT
1000
JUST PDF 3
1000
JUST PDF 3
1000
JUST PDF 3 Port:
1000

1070
     0
  0
LAYOUT
  5
356
102
{ACAD_REACTORS
330
353
102
}
330
353
100
AcDbPlotSettings
  1

  2
Canon LASER SHOT LBP-750
  4

  6

 40
0.0
 41
0.0
 42
0.0
 43
0.0
 44
0.0
 45
0.0
 46
0.0
 47
0.0
 48
0.0
 49
0.0
140
0.0
141
0.0
142
1.0
143
1.0
 70
   688
 72
     0
 73
     0
 74
     5
  7
spax form.ctb
 75
    16
147
1.0
148
0.0
149
0.0
100
AcDbLayout
  1
ﾚｲｱｳﾄ1
 70
     0
 71
     1
 10
0.0
 20
0.0
 11
12.0
 21
9.0
 12
0.0
 22
0.0
 32
0.0
 14
1.000000000000000E+20
 24
1.000000000000000E+20
 34
1.000000000000000E+20
 15
-1.000000000000000E+20
 25
-1.000000000000000E+20
 35
-1.000000000000000E+20
146
0.0
 13
0.0
 23
0.0
 33
0.0
 16
1.0
 26
0.0
 36
0.0
 17
0.0
 27
1.0
 37
0.0
 76
     0
330
15
  0
MLINESTYLE
  5
1B
102
{ACAD_REACTORS
330
E
102
}
330
E
100
AcDbMlineStyle
  2
STANDARD
 70
     0
  3

 62
     0
 51
90.0
 52
90.0
 71
     2
 49
0.5
 62
   256
  6
BYLAYER
 49
-0.5
 62
   256
  6
BYLAYER
  0
ACDBPLACEHOLDER
  5
352
102
{ACAD_REACTORS
330
351
102
}
330
351
  0
SCALE
  5
CD54
102
{ACAD_REACTORS
330
CD53
102
}
330
CD53
100
AcDbScale
 70
     0
300
1:1
140
1.0
141
1.0
290
     1
1001
ACAD
1000
AcRTDxfName
1000
SCALE
1000
AcRTDxfName
1000
SCALE
  0
SCALE
  5
35DF8
102
{ACAD_REACTORS
330
CD53
102
}
330
CD53
100
AcDbScale
 70
     0
300
1:2
140
1.0
141
2.0
290
     0
1001
ACAD
1000
AcRTDxfName
1000
SCALE
1000
AcRTDxfName
1000
SCALE
  0
SCALE
  5
35DF9
102
{ACAD_REACTORS
330
CD53
102
}
330
CD53
100
AcDbScale
 70
     0
300
1:4
140
1.0
141
4.0
290
     0
1001
ACAD
1000
AcRTDxfName
1000
SCALE
1000
AcRTDxfName
1000
SCALE
  0
SCALE
  5
35DFA
102
{ACAD_REACTORS
330
CD53
102
}
330
CD53
100
AcDbScale
 70
     0
300
1:5
140
1.0
141
5.0
290
     0
1001
ACAD
1000
AcRTDxfName
1000
SCALE
1000
AcRTDxfName
1000
SCALE
  0
SCALE
  5
35DFB
102
{ACAD_REACTORS
330
CD53
102
}
330
CD53
100
AcDbScale
 70
     0
300
1:8
140
1.0
141
8.0
290
     0
1001
ACAD
1000
AcRTDxfName
1000
SCALE
1000
AcRTDxfName
1000
SCALE
  0
SCALE
  5
35DFC
102
{ACAD_REACTORS
330
CD53
102
}
330
CD53
100
AcDbScale
 70
     0
300
1:10
140
1.0
141
10.0
290
     0
1001
ACAD
1000
AcRTDxfName
1000
SCALE
1000
AcRTDxfName
1000
SCALE
  0
SCALE
  5
35DFD
102
{ACAD_REACTORS
330
CD53
102
}
330
CD53
100
AcDbScale
 70
     0
300
1:16
140
1.0
141
16.0
290
     0
1001
ACAD
1000
AcRTDxfName
1000
SCALE
1000
AcRTDxfName
1000
SCALE
  0
SCALE
  5
35DFE
102
{ACAD_REACTORS
330
CD53
102
}
330
CD53
100
AcDbScale
 70
     0
300
1:20
140
1.0
141
20.0
290
     0
1001
ACAD
1000
AcRTDxfName
1000
SCALE
1000
AcRTDxfName
1000
SCALE
  0
SCALE
  5
35DFF
102
{ACAD_REACTORS
330
CD53
102
}
330
CD53
100
AcDbScale
 70
     0
300
1:30
140
1.0
141
30.0
290
     0
1001
ACAD
1000
AcRTDxfName
1000
SCALE
1000
AcRTDxfName
1000
SCALE
  0
SCALE
  5
35E00
102
{ACAD_REACTORS
330
CD53
102
}
330
CD53
100
AcDbScale
 70
     0
300
1:40
140
1.0
141
40.0
290
     0
1001
ACAD
1000
AcRTDxfName
1000
SCALE
1000
AcRTDxfName
1000
SCALE
  0
SCALE
  5
35E01
102
{ACAD_REACTORS
330
CD53
102
}
330
CD53
100
AcDbScale
 70
     0
300
1:50
140
1.0
141
50.0
290
     0
1001
ACAD
1000
AcRTDxfName
1000
SCALE
1000
AcRTDxfName
1000
SCALE
  0
SCALE
  5
35E02
102
{ACAD_REACTORS
330
CD53
102
}
330
CD53
100
AcDbScale
 70
     0
300
1:100
140
1.0
141
100.0
290
     0
1001
ACAD
1000
AcRTDxfName
1000
SCALE
1000
AcRTDxfName
1000
SCALE
  0
SCALE
  5
35E03
102
{ACAD_REACTORS
330
CD53
102
}
330
CD53
100
AcDbScale
 70
     0
300
2:1
140
2.0
141
1.0
290
     0
1001
ACAD
1000
AcRTDxfName
1000
SCALE
1000
AcRTDxfName
1000
SCALE
  0
SCALE
  5
35E04
102
{ACAD_REACTORS
330
CD53
102
}
330
CD53
100
AcDbScale
 70
     0
300
4:1
140
4.0
141
1.0
290
     0
1001
ACAD
1000
AcRTDxfName
1000
SCALE
1000
AcRTDxfName
1000
SCALE
  0
SCALE
  5
35E05
102
{ACAD_REACTORS
330
CD53
102
}
330
CD53
100
AcDbScale
 70
     0
300
8:1
140
8.0
141
1.0
290
     0
1001
ACAD
1000
AcRTDxfName
1000
SCALE
1000
AcRTDxfName
1000
SCALE
  0
SCALE
  5
35E06
102
{ACAD_REACTORS
330
CD53
102
}
330
CD53
100
AcDbScale
 70
     0
300
10:1
140
10.0
141
1.0
290
     0
1001
ACAD
1000
AcRTDxfName
1000
SCALE
1000
AcRTDxfName
1000
SCALE
  0
SCALE
  5
35E07
102
{ACAD_REACTORS
330
CD53
102
}
330
CD53
100
AcDbScale
 70
     0
300
100:1
140
100.0
141
1.0
290
     0
1001
ACAD
1000
AcRTDxfName
1000
SCALE
1000
AcRTDxfName
1000
SCALE
  0
SCALE
  5
35E08
102
{ACAD_REACTORS
330
CD53
102
}
330
CD53
100
AcDbScale
 70
     0
300
1/128" = 1'-0"
140
0.0078125
141
12.0
290
     0
1001
ACAD
1000
AcRTDxfName
1000
SCALE
1000
AcRTDxfName
1000
SCALE
  0
SCALE
  5
35E09
102
{ACAD_REACTORS
330
CD53
102
}
330
CD53
100
AcDbScale
 70
     0
300
1/64" = 1'-0"
140
0.015625
141
12.0
290
     0
1001
ACAD
1000
AcRTDxfName
1000
SCALE
1000
AcRTDxfName
1000
SCALE
  0
SCALE
  5
35E0A
102
{ACAD_REACTORS
330
CD53
102
}
330
CD53
100
AcDbScale
 70
     0
300
1/32" = 1'-0"
140
0.03125
141
12.0
290
     0
1001
ACAD
1000
AcRTDxfName
1000
SCALE
1000
AcRTDxfName
1000
SCALE
  0
SCALE
  5
35E0B
102
{ACAD_REACTORS
330
CD53
102
}
330
CD53
100
AcDbScale
 70
     0
300
1/16" = 1'-0"
140
0.0625
141
12.0
290
     0
1001
ACAD
1000
AcRTDxfName
1000
SCALE
1000
AcRTDxfName
1000
SCALE
  0
SCALE
  5
35E0C
102
{ACAD_REACTORS
330
CD53
102
}
330
CD53
100
AcDbScale
 70
     0
300
3/32" = 1'-0"
140
0.09375
141
12.0
290
     0
1001
ACAD
1000
AcRTDxfName
1000
SCALE
1000
AcRTDxfName
1000
SCALE
  0
SCALE
  5
35E0D
102
{ACAD_REACTORS
330
CD53
102
}
330
CD53
100
AcDbScale
 70
     0
300
1/8" = 1'-0"
140
0.125
141
12.0
290
     0
1001
ACAD
1000
AcRTDxfName
1000
SCALE
1000
AcRTDxfName
1000
SCALE
  0
SCALE
  5
35E0E
102
{ACAD_REACTORS
330
CD53
102
}
330
CD53
100
AcDbScale
 70
     0
300
3/16" = 1'-0"
140
0.1875
141
12.0
290
     0
1001
ACAD
1000
AcRTDxfName
1000
SCALE
1000
AcRTDxfName
1000
SCALE
  0
SCALE
  5
35E0F
102
{ACAD_REACTORS
330
CD53
102
}
330
CD53
100
AcDbScale
 70
     0
300
1/4" = 1'-0"
140
0.25
141
12.0
290
     0
1001
ACAD
1000
AcRTDxfName
1000
SCALE
1000
AcRTDxfName
1000
SCALE
  0
SCALE
  5
35E10
102
{ACAD_REACTORS
330
CD53
102
}
330
CD53
100
AcDbScale
 70
     0
300
3/8" = 1'-0"
140
0.375
141
12.0
290
     0
1001
ACAD
1000
AcRTDxfName
1000
SCALE
1000
AcRTDxfName
1000
SCALE
  0
SCALE
  5
35E11
102
{ACAD_REACTORS
330
CD53
102
}
330
CD53
100
AcDbScale
 70
     0
300
1/2" = 1'-0"
140
0.5
141
12.0
290
     0
1001
ACAD
1000
AcRTDxfName
1000
SCALE
1000
AcRTDxfName
1000
SCALE
  0
SCALE
  5
35E12
102
{ACAD_REACTORS
330
CD53
102
}
330
CD53
100
AcDbScale
 70
     0
300
3/4" = 1'-0"
140
0.75
141
12.0
290
     0
1001
ACAD
1000
AcRTDxfName
1000
SCALE
1000
AcRTDxfName
1000
SCALE
  0
SCALE
  5
35E13
102
{ACAD_REACTORS
330
CD53
102
}
330
CD53
100
AcDbScale
 70
     0
300
1" = 1'-0"
140
1.0
141
12.0
290
     0
1001
ACAD
1000
AcRTDxfName
1000
SCALE
1000
AcRTDxfName
1000
SCALE
  0
SCALE
  5
35E14
102
{ACAD_REACTORS
330
CD53
102
}
330
CD53
100
AcDbScale
 70
     0
300
1-1/2" = 1'-0"
140
1.5
141
12.0
290
     0
1001
ACAD
1000
AcRTDxfName
1000
SCALE
1000
AcRTDxfName
1000
SCALE
  0
SCALE
  5
35E15
102
{ACAD_REACTORS
330
CD53
102
}
330
CD53
100
AcDbScale
 70
     0
300
3" = 1'-0"
140
3.0
141
12.0
290
     0
1001
ACAD
1000
AcRTDxfName
1000
SCALE
1000
AcRTDxfName
1000
SCALE
  0
SCALE
  5
35E16
102
{ACAD_REACTORS
330
CD53
102
}
330
CD53
100
AcDbScale
 70
     0
300
6" = 1'-0"
140
6.0
141
12.0
290
     0
1001
ACAD
1000
AcRTDxfName
1000
SCALE
1000
AcRTDxfName
1000
SCALE
  0
SCALE
  5
35E17
102
{ACAD_REACTORS
330
CD53
102
}
330
CD53
100
AcDbScale
 70
     0
300
1'-0" = 1'-0"
140
12.0
141
12.0
290
     0
1001
ACAD
1000
AcRTDxfName
1000
SCALE
1000
AcRTDxfName
1000
SCALE
  0
DICTIONARYVAR
  5
E0E
102
{ACAD_REACTORS
330
E0D
102
}
330
E0D
100
DictionaryVariables
280
     0
  1
1
  0
DICTIONARYVAR
  5
D04A
102
{ACAD_REACTORS
330
E0D
102
}
330
E0D
100
DictionaryVariables
280
     0
  1
0
  0
DICTIONARYVAR
  5
E0F
102
{ACAD_REACTORS
330
E0D
102
}
330
E0D
100
DictionaryVariables
280
     0
  1

  0
DICTIONARYVAR
  5
D049
102
{ACAD_REACTORS
330
E0D
102
}
330
E0D
100
DictionaryVariables
280
     0
  1
127
  0
ACAD_PROXY_OBJECT
  5
375021
102
{ACAD_REACTORS
330
375020
102
}
330
375020
100
AcDbProxyObject
 90
      499
 91
      517
 95
  6881311
 70
     0
 93
     1888
310
51B4D146518005194651A8FC812095550000000000000B08000000000000008200000000000001807E8F2048F205000200001204000000000000581F8000000000000B0807EC3FA6DEBC0E99F8000000000001C07FE8FCC028FE07000041A4E2520CA600E2005C008C00E8005C008321803A80170023003A00170020898006
310
20064006001202DA008C2080248020801000140019001A801B00100021803780360037803900148010001000100010002080220019001A801B0021082008600820088008200A4008600900087A08032803180260030803C803280390029803A003200170032003B80338049C09
330
0
 94
        0
1001
ACAD
1000
AcRTDxfName
1000
AEC_VARS_DWG_SETUP
1000
AcRTDxfName
1000
AEC_VARS_DWG_SETUP
1000
AcRTDxfName
1000
AEC_VARS_DWG_SETUP
1000
AcRTDxfName
1000
AEC_VARS_DWG_SETUP
1000
AcRTDxfName
1000
AEC_VARS_DWG_SETUP
1000
AcRTDxfName
1000
AEC_VARS_DWG_SETUP
1000
AcRTDxfName
1000
AEC_VARS_DWG_SETUP
1000
AcRTDxfName
1000
AEC_VARS_DWG_SETUP
1000
AcRTDxfName
1000
AEC_VARS_DWG_SETUP
1000
AcRTDxfName
1000
AEC_VARS_DWG_SETUP
1000
AcRTDxfName
1000
AEC_VARS_DWG_SETUP
1000
AcRTDxfName
1000
AEC_VARS_DWG_SETUP
1000
AcRTDxfName
1000
AEC_VARS_DWG_SETUP
1000
AcRTDxfName
1000
AEC_VARS_DWG_SETUP
1000
AcRTDxfName
1000
AEC_VARS_DWG_SETUP
1000
AcRTDxfName
1000
AEC_VARS_DWG_SETUP
1000
AcRTDxfName
1000
AEC_VARS_DWG_SETUP
1000
AcRTDxfName
1000
AEC_VARS_DWG_SETUP
1000
AcRTDxfName
1000
AEC_VARS_DWG_SETUP
1000
AcRTDxfName
1000
AEC_VARS_DWG_SETUP
1000
AcRTDxfName
1000
AEC_VARS_DWG_SETUP
1000
AcRTDxfName
1000
AEC_VARS_DWG_SETUP
1000
AcRTDxfName
1000
AEC_VARS_DWG_SETUP
  0
ENDSEC
  0
EOF
