  0
SECTION
  2
HEADER
  9
$ACADVER
  1
AC1015
  9
$ACADMAINTVER
 70
     6
  9
$DWGCODEPAGE
  3
ANSI_932
  9
$INSBASE
 10
0.0
 20
0.0
 30
0.0
  9
$EXTMIN
 10
1655.993032088339
 20
1911.355180967779
 30
0.0
  9
$EXTMAX
 10
1681.575770912816
 20
1946.387689875932
 30
0.0
  9
$LIMMIN
 10
0.0
 20
0.0
  9
$LIMMAX
 10
840.0
 20
594.0
  9
$ORTHOMODE
 70
     1
  9
$REGENMODE
 70
     1
  9
$FILLMODE
 70
     1
  9
$QTEXTMODE
 70
     0
  9
$MIRRTEXT
 70
     1
  9
$LTSCALE
 40
7.0
  9
$ATTMODE
 70
     0
  9
$TEXTSIZE
 40
6.0
  9
$TRACEWID
 40
1.0
  9
$TEXTSTYLE
  7
STANDARD
  9
$CLAYER
  8
0
  9
$CELTYPE
  6
BYLAYER
  9
$CECOLOR
 62
   256
  9
$CELTSCALE
 40
1.0
  9
$DISPSILH
 70
     0
  9
$DIMSCALE
 40
1.0
  9
$DIMASZ
 40
2.5
  9
$DIMEXO
 40
1.5
  9
$DIMDLI
 40
3.6
  9
$DIMRND
 40
0.0
  9
$DIMDLE
 40
0.0
  9
$DIMEXE
 40
1.0
  9
$DIMTP
 40
0.0
  9
$DIMTM
 40
0.0
  9
$DIMTXT
 40
2.5
  9
$DIMCEN
 40
0.0
  9
$DIMTSZ
 40
0.0
  9
$DIMTOL
 70
     0
  9
$DIMLIM
 70
     0
  9
$DIMTIH
 70
     0
  9
$DIMTOH
 70
     0
  9
$DIMSE1
 70
     0
  9
$DIMSE2
 70
     0
  9
$DIMTAD
 70
     3
  9
$DIMZIN
 70
     8
  9
$DIMBLK
  1
OPEN
  9
$DIMASO
 70
     1
  9
$DIMSHO
 70
     0
  9
$DIMPOST
  1

  9
$DIMAPOST
  1

  9
$DIMALT
 70
     0
  9
$DIMALTD
 70
     2
  9
$DIMALTF
 40
25.4
  9
$DIMLFAC
 40
1.0
  9
$DIMTOFL
 70
     0
  9
$DIMTVP
 40
0.0
  9
$DIMTIX
 70
     0
  9
$DIMSOXD
 70
     0
  9
$DIMSAH
 70
     0
  9
$DIMBLK1
  1

  9
$DIMBLK2
  1

  9
$DIMSTYLE
  2
STANDARD
  9
$DIMCLRD
 70
     8
  9
$DIMCLRE
 70
     8
  9
$DIMCLRT
 70
     0
  9
$DIMTFAC
 40
1.0
  9
$DIMGAP
 40
1.0
  9
$DIMJUST
 70
     0
  9
$DIMSD1
 70
     0
  9
$DIMSD2
 70
     0
  9
$DIMTOLJ
 70
     1
  9
$DIMTZIN
 70
     0
  9
$DIMALTZ
 70
     0
  9
$DIMALTTZ
 70
     0
  9
$DIMUPT
 70
     1
  9
$DIMDEC
 70
     2
  9
$DIMTDEC
 70
     2
  9
$DIMALTU
 70
     2
  9
$DIMALTTD
 70
     2
  9
$DIMTXSTY
  7
STANDARD
  9
$DIMAUNIT
 70
     0
  9
$DIMADEC
 70
     2
  9
$DIMALTRND
 40
0.0
  9
$DIMAZIN
 70
     2
  9
$DIMDSEP
 70
    46
  9
$DIMATFIT
 70
     3
  9
$DIMFRAC
 70
     0
  9
$DIMLDRBLK
  1
OPEN
  9
$DIMLUNIT
 70
     2
  9
$DIMLWD
 70
    -2
  9
$DIMLWE
 70
    -2
  9
$DIMTMOVE
 70
     0
  9
$LUNITS
 70
     2
  9
$LUPREC
 70
     2
  9
$SKETCHINC
 40
0.1
  9
$FILLETRAD
 40
0.0
  9
$AUNITS
 70
     0
  9
$AUPREC
 70
     2
  9
$MENU
  1
ACAD
  9
$ELEVATION
 40
0.0
  9
$PELEVATION
 40
0.0
  9
$THICKNESS
 40
0.0
  9
$LIMCHECK
 70
     0
  9
$CHAMFERA
 40
0.0
  9
$CHAMFERB
 40
0.0
  9
$CHAMFERC
 40
0.0
  9
$CHAMFERD
 40
0.0
  9
$SKPOLY
 70
     0
  9
$TDCREATE
 40
2449505.922222222
  9
$TDUCREATE
 40
2449505.547222222
  9
$TDUPDATE
 40
2456826.401745868
  9
$TDUUPDATE
 40
2456826.026745868
  9
$TDINDWG
 40
2.4122778472
  9
$TDUSRTIMER
 40
2456826.025423761
  9
$USRTIMER
 70
     1
  9
$ANGBASE
 50
0.0
  9
$ANGDIR
 70
     0
  9
$PDMODE
 70
     3
  9
$PDSIZE
 40
0.0
  9
$PLINEWID
 40
0.0
  9
$SPLFRAME
 70
     0
  9
$SPLINETYPE
 70
     6
  9
$SPLINESEGS
 70
     8
  9
$HANDSEED
  5
161A7
  9
$SURFTAB1
 70
     6
  9
$SURFTAB2
 70
     6
  9
$SURFTYPE
 70
     6
  9
$SURFU
 70
     6
  9
$SURFV
 70
     6
  9
$UCSBASE
  2

  9
$UCSNAME
  2

  9
$UCSORG
 10
0.0
 20
0.0
 30
0.0
  9
$UCSXDIR
 10
1.0
 20
0.0
 30
0.0
  9
$UCSYDIR
 10
0.0
 20
1.0
 30
0.0
  9
$UCSORTHOREF
  2

  9
$UCSORTHOVIEW
 70
     0
  9
$UCSORGTOP
 10
0.0
 20
0.0
 30
0.0
  9
$UCSORGBOTTOM
 10
0.0
 20
0.0
 30
0.0
  9
$UCSORGLEFT
 10
0.0
 20
0.0
 30
0.0
  9
$UCSORGRIGHT
 10
0.0
 20
0.0
 30
0.0
  9
$UCSORGFRONT
 10
0.0
 20
0.0
 30
0.0
  9
$UCSORGBACK
 10
0.0
 20
0.0
 30
0.0
  9
$PUCSBASE
  2

  9
$PUCSNAME
  2

  9
$PUCSORG
 10
0.0
 20
0.0
 30
0.0
  9
$PUCSXDIR
 10
1.0
 20
0.0
 30
0.0
  9
$PUCSYDIR
 10
0.0
 20
1.0
 30
0.0
  9
$PUCSORTHOREF
  2

  9
$PUCSORTHOVIEW
 70
     0
  9
$PUCSORGTOP
 10
0.0
 20
0.0
 30
0.0
  9
$PUCSORGBOTTOM
 10
0.0
 20
0.0
 30
0.0
  9
$PUCSORGLEFT
 10
0.0
 20
0.0
 30
0.0
  9
$PUCSORGRIGHT
 10
0.0
 20
0.0
 30
0.0
  9
$PUCSORGFRONT
 10
0.0
 20
0.0
 30
0.0
  9
$PUCSORGBACK
 10
0.0
 20
0.0
 30
0.0
  9
$USERI1
 70
     0
  9
$USERI2
 70
     0
  9
$USERI3
 70
     0
  9
$USERI4
 70
     0
  9
$USERI5
 70
     0
  9
$USERR1
 40
0.0
  9
$USERR2
 40
0.0
  9
$USERR3
 40
0.0
  9
$USERR4
 40
0.0
  9
$USERR5
 40
0.0
  9
$WORLDVIEW
 70
     0
  9
$SHADEDGE
 70
     3
  9
$SHADEDIF
 70
    70
  9
$TILEMODE
 70
     1
  9
$MAXACTVP
 70
    16
  9
$PINSBASE
 10
0.0
 20
0.0
 30
0.0
  9
$PLIMCHECK
 70
     0
  9
$PEXTMIN
 10
1.000000000000000E+20
 20
1.000000000000000E+20
 30
1.000000000000000E+20
  9
$PEXTMAX
 10
-1.000000000000000E+20
 20
-1.000000000000000E+20
 30
-1.000000000000000E+20
  9
$PLIMMIN
 10
0.0
 20
0.0
  9
$PLIMMAX
 10
0.0
 20
0.0
  9
$UNITMODE
 70
     0
  9
$VISRETAIN
 70
     0
  9
$PLINEGEN
 70
     0
  9
$PSLTSCALE
 70
     0
  9
$TREEDEPTH
 70
  3020
  9
$CMLSTYLE
  2
STANDARD
  9
$CMLJUST
 70
     0
  9
$CMLSCALE
 40
1.0
  9
$PROXYGRAPHICS
 70
     1
  9
$MEASUREMENT
 70
     0
  9
$CELWEIGHT
370
    -1
  9
$ENDCAPS
280
     0
  9
$JOINSTYLE
280
     0
  9
$LWDISPLAY
290
     0
  9
$INSUNITS
 70
     0
  9
$HYPERLINKBASE
  1

  9
$STYLESHEET
  1
spax form.ctb
  9
$XEDIT
290
     1
  9
$CEPSNTYPE
380
     0
  9
$PSTYLEMODE
290
     1
  9
$FINGERPRINTGUID
  2
{C1CFCF3E-DF91-11D3-B30C-0060B0FA8DFC}
  9
$VERSIONGUID
  2
{E39D631E-3C5F-4A30-A005-83513EADE552}
  9
$EXTNAMES
290
     1
  9
$PSVPSCALE
 40
0.0
  9
$OLESTARTUP
290
     0
  0
ENDSEC
  0
SECTION
  2
CLASSES
  0
CLASS
  1
LWPOLYLINE
  2
AcDbPolyline
  3
ObjectDBX Classes
 90
        0
280
     0
281
     1
  0
CLASS
  1
ACDBDICTIONARYWDFLT
  2
AcDbDictionaryWithDefault
  3
ObjectDBX Classes
 90
        0
280
     0
281
     0
  0
CLASS
  1
ACDBPLACEHOLDER
  2
AcDbPlaceHolder
  3
ObjectDBX Classes
 90
        0
280
     0
281
     0
  0
CLASS
  1
LAYOUT
  2
AcDbLayout
  3
ObjectDBX Classes
 90
        0
280
     0
281
     0
  0
CLASS
  1
DICTIONARYVAR
  2
AcDbDictionaryVar
  3
ObjectDBX Classes
 90
        0
280
     0
281
     0
  0
CLASS
  1
LONG_TRANSACTION
  2
AcDbLongTransaction
  3
ObjectDBX Classes
 90
        0
280
     0
281
     0
  0
CLASS
  1
LWPOLYLINE
  2
AcDbPolyline
  3
ObjectDBX Classes
 90
        0
280
     0
281
     1
  0
CLASS
  1
HATCH
  2
AcDbHatch
  3
ObjectDBX Classes
 90
        0
280
     0
281
     1
  0
CLASS
  1
XRECORD
  2
AcDbXrecord
  3
ObjectDBX Classes
 90
        0
280
     0
281
     0
  0
CLASS
  1
MATERIAL
  2
AcDbMaterial
  3
ObjectDBX Classes
 90
     1153
280
     0
281
     0
  0
CLASS
  1
VISUALSTYLE
  2
AcDbVisualStyle
  3
ObjectDBX Classes
 90
     4095
280
     0
281
     0
  0
CLASS
  1
TABLESTYLE
  2
AcDbTableStyle
  3
ObjectDBX Classes
 90
     4095
280
     0
281
     0
  0
CLASS
  1
SCALE
  2
AcDbScale
  3
ObjectDBX Classes
 90
     1153
280
     0
281
     0
  0
CLASS
  1
MLEADERSTYLE
  2
AcDbMLeaderStyle
  3
ACDB_MLEADERSTYLE_CLASS
 90
     4095
280
     0
281
     0
  0
CLASS
  1
SORTENTSTABLE
  2
AcDbSortentsTable
  3
ObjectDBX Classes
 90
        0
280
     0
281
     0
  0
CLASS
  1
CELLSTYLEMAP
  2
AcDbCellStyleMap
  3
ObjectDBX Classes
 90
     1152
280
     0
281
     0
  0
CLASS
  1
SUN
  2
AcDbSun
  3
SCENEOE
 90
     1153
280
     0
281
     0
  0
CLASS
  1
RASTERVARIABLES
  2
AcDbRasterVariables
  3
ISM
 90
        0
280
     0
281
     0
  0
ENDSEC
  0
SECTION
  2
TABLES
  0
TABLE
  2
VPORT
  5
8
330
0
100
AcDbSymbolTable
 70
     1
  0
VPORT
  5
FF53
330
8
100
AcDbSymbolTableRecord
100
AcDbViewportTableRecord
  2
*Active
 70
     0
 10
0.0
 20
0.0
 11
1.0
 21
1.0
 12
1668.784401500578
 22
1928.871435421855
 13
0.0
 23
0.0
 14
1.0
 24
1.0
 15
20.0
 25
20.0
 16
0.0
 26
0.0
 36
1.0
 17
0.0
 27
0.0
 37
0.0
 40
35.73315908631627
 41
2.027568922305764
 42
50.0
 43
0.0
 44
0.0
 50
0.0
 51
0.0
 71
    16
 72
  2000
 73
     1
 74
     0
 75
     0
 76
     0
 77
     0
 78
     1
281
     0
 65
     1
110
0.0
120
0.0
130
0.0
111
1.0
121
0.0
131
0.0
112
0.0
122
1.0
132
0.0
 79
     0
146
0.0
  0
ENDTAB
  0
TABLE
  2
LTYPE
  5
5
330
0
100
AcDbSymbolTable
 70
     4
  0
LTYPE
  5
12
330
5
100
AcDbSymbolTableRecord
100
AcDbLinetypeTableRecord
  2
BYBLOCK
 70
     0
  3

 72
    65
 73
     0
 40
0.0
  0
LTYPE
  5
13
330
5
100
AcDbSymbolTableRecord
100
AcDbLinetypeTableRecord
  2
BYLAYER
 70
     0
  3

 72
    65
 73
     0
 40
0.0
  0
LTYPE
  5
14
330
5
100
AcDbSymbolTableRecord
100
AcDbLinetypeTableRecord
  2
CONTINUOUS
 70
     0
  3
Solid line
 72
    65
 73
     0
 40
0.0
  0
LTYPE
  5
3D
330
5
100
AcDbSymbolTableRecord
100
AcDbLinetypeTableRecord
  2
PHANTOM
 70
     0
  3
_____ _ _ _____ _ _ _____ _ _ _____ _ _ ____
 72
    65
 73
     6
 40
2.5
 49
1.25
 74
     0
 49
-0.25
 74
     0
 49
0.25
 74
     0
 49
-0.25
 74
     0
 49
0.25
 74
     0
 49
-0.25
 74
     0
  0
LTYPE
  5
40D2
330
5
100
AcDbSymbolTableRecord
100
AcDbLinetypeTableRecord
  2
CENTER
 70
     0
  3
____ _ ____ _ ____ _ ____ _ ____ _ ____ _ ____ 
 72
    65
 73
     4
 40
2.0
 49
1.25
 74
     0
 49
-0.25
 74
     0
 49
0.25
 74
     0
 49
-0.25
 74
     0
  0
LTYPE
  5
A244
330
5
100
AcDbSymbolTableRecord
100
AcDbLinetypeTableRecord
  2
HIDDEN
 70
     0
  3
_ _ _ _ _ _ _ _ _ _ _ _ _ _ _ _ _ _ _ _ _ _ _
 72
    65
 73
     2
 40
0.375
 49
0.25
 74
     0
 49
-0.125
 74
     0
  0
ENDTAB
  0
TABLE
  2
LAYER
  5
2
102
{ACAD_XDICTIONARY
360
10E0C
102
}
330
0
100
AcDbSymbolTable
 70
    13
  0
LAYER
  5
F
102
{ACAD_XDICTIONARY
360
11225
102
}
330
2
100
AcDbSymbolTableRecord
100
AcDbLayerTableRecord
  2
0
 70
     0
 62
     7
  6
CONTINUOUS
370
    -3
390
40CA
  0
LAYER
  5
44
102
{ACAD_XDICTIONARY
360
11227
102
}
330
2
100
AcDbSymbolTableRecord
100
AcDbLayerTableRecord
  2
中心線
 70
     0
 62
     1
  6
CENTER
370
    -3
390
40CA
  0
LAYER
  5
46
102
{ACAD_XDICTIONARY
360
11229
102
}
330
2
100
AcDbSymbolTableRecord
100
AcDbLayerTableRecord
  2
実線
 70
     0
 62
     4
  6
CONTINUOUS
370
    -3
390
40CA
  0
LAYER
  5
4C
102
{ACAD_XDICTIONARY
360
1122D
102
}
330
2
100
AcDbSymbolTableRecord
100
AcDbLayerTableRecord
  2
寸法線
 70
     0
 62
     7
  6
CONTINUOUS
370
    -3
390
40CA
  0
LAYER
  5
4D
102
{ACAD_XDICTIONARY
360
1122F
102
}
330
2
100
AcDbSymbolTableRecord
100
AcDbLayerTableRecord
  2
姿図
 70
     0
 62
     8
  6
CONTINUOUS
370
    -3
390
40CA
  0
LAYER
  5
4E
330
2
100
AcDbSymbolTableRecord
100
AcDbLayerTableRecord
  2
DEFPOINTS
 70
     0
 62
     7
  6
CONTINUOUS
290
     0
370
    -3
390
40CA
  0
LAYER
  5
40D3
102
{ACAD_XDICTIONARY
360
11231
102
}
330
2
100
AcDbSymbolTableRecord
100
AcDbLayerTableRecord
  2
輪郭線
 70
     0
 62
     6
  6
CONTINUOUS
370
    -3
390
40CA
  0
LAYER
  5
40D4
102
{ACAD_XDICTIONARY
360
11233
102
}
330
2
100
AcDbSymbolTableRecord
100
AcDbLayerTableRecord
  2
文字
 70
     0
 62
     7
  6
CONTINUOUS
370
    -3
390
40CA
  0
LAYER
  5
A245
102
{ACAD_XDICTIONARY
360
11239
102
}
330
2
100
AcDbSymbolTableRecord
100
AcDbLayerTableRecord
  2
破線
 70
     0
 62
     3
  6
HIDDEN
370
    -3
390
40CA
  0
LAYER
  5
15170
330
2
100
AcDbSymbolTableRecord
100
AcDbLayerTableRecord
  2
ロゴ
 70
     0
 62
     8
  6
CONTINUOUS
370
    -3
390
40CA
1001
AcAecLayerStandard
1000

1000

  0
ENDTAB
  0
TABLE
  2
STYLE
  5
3
330
0
100
AcDbSymbolTable
 70
     1
  0
STYLE
  5
10
330
3
100
AcDbSymbolTableRecord
100
AcDbTextStyleTableRecord
  2
STANDARD
 70
     0
 40
0.0
 41
1.0
 50
0.0
 71
     0
 42
6.0
  3
MONOTXT
  4
BIGFONT
  0
ENDTAB
  0
TABLE
  2
VIEW
  5
6
330
0
100
AcDbSymbolTable
 70
     1
  0
VIEW
  5
41
330
6
100
AcDbSymbolTableRecord
100
AcDbViewTableRecord
  2
CUT1
 70
     0
 40
612.7795527156796
 10
420.0000000000169
 20
306.3897763578398
 41
840.0000000000338
 11
0.0
 21
0.0
 31
1.0
 12
0.0
 22
0.0
 32
0.0
 42
50.0
 43
0.0
 44
0.0
 50
0.0
 71
     0
281
     0
 72
     0
  0
ENDTAB
  0
TABLE
  2
UCS
  5
7
330
0
100
AcDbSymbolTable
 70
     0
  0
ENDTAB
  0
TABLE
  2
APPID
  5
9
330
0
100
AcDbSymbolTable
 70
     8
  0
APPID
  5
11
330
9
100
AcDbSymbolTableRecord
100
AcDbRegAppTableRecord
  2
ACAD
 70
     0
  0
APPID
  5
FFAC
330
9
100
AcDbSymbolTableRecord
100
AcDbRegAppTableRecord
  2
ACAD_MLEADERVER
 70
     0
  0
APPID
  5
10056
330
9
100
AcDbSymbolTableRecord
100
AcDbRegAppTableRecord
  2
Layer_Scale
 70
     0
  0
APPID
  5
11216
330
9
100
AcDbSymbolTableRecord
100
AcDbRegAppTableRecord
  2
ACAD_EXEMPT_FROM_CAD_STANDARDS
 70
     0
  0
APPID
  5
11B75
330
9
100
AcDbSymbolTableRecord
100
AcDbRegAppTableRecord
  2
ACAD_DSTYLE_DIMJAG
 70
     0
  0
APPID
  5
11B76
330
9
100
AcDbSymbolTableRecord
100
AcDbRegAppTableRecord
  2
ACAD_DSTYLE_DIMTALN
 70
     0
  0
APPID
  5
11C74
330
9
100
AcDbSymbolTableRecord
100
AcDbRegAppTableRecord
  2
ACAD_PSEXT
 70
     0
  0
APPID
  5
15172
330
9
100
AcDbSymbolTableRecord
100
AcDbRegAppTableRecord
  2
AcAecLayerStandard
 70
     0
  0
ENDTAB
  0
TABLE
  2
DIMSTYLE
  5
A
330
0
100
AcDbSymbolTable
 70
     2
100
AcDbDimStyleTable
  0
DIMSTYLE
105
1B3A
330
A
100
AcDbSymbolTableRecord
100
AcDbDimStyleTableRecord
  2
STANDARD
 70
     0
 41
2.5
 42
1.5
 43
3.6
 44
1.0
 73
     0
 74
     0
 77
     3
 78
     8
 79
     2
140
2.5
141
0.0
147
1.0
176
     8
177
     8
178
     0
179
     2
271
     2
272
     2
288
     1
340
10
341
49C3
342
49C3
1001
ACAD_DSTYLE_DIMJAG
1070
   388
1040
1.5
1001
ACAD_DSTYLE_DIMTALN
1070
   392
1070
     0
  0
DIMSTYLE
105
15171
102
{ACAD_REACTORS
330
155E8
330
1553A
102
}
330
A
100
AcDbSymbolTableRecord
100
AcDbDimStyleTableRecord
  2
STANDARD$0
 70
     0
 41
2.5
 42
1.5
 43
5.0
 44
0.9999999999999991
 73
     0
 74
     0
 77
     3
 78
     8
140
3.0
145
1.0
147
1.0
171
     0
172
     1
176
     8
177
     8
271
     2
178
   256
271
     2
272
     2
274
     0
284
     8
340
10
341
1514A
342
15150
  0
ENDTAB
  0
TABLE
  2
BLOCK_RECORD
  5
1
330
0
100
AcDbSymbolTable
 70
    10
  0
BLOCK_RECORD
  5
18
102
{ACAD_XDICTIONARY
360
9FD5
102
}
330
1
100
AcDbSymbolTableRecord
100
AcDbBlockTableRecord
  2
*MODEL_SPACE
340
40CD
  0
BLOCK_RECORD
  5
15
330
1
100
AcDbSymbolTableRecord
100
AcDbBlockTableRecord
  2
*PAPER_SPACE
340
40CE
  0
BLOCK_RECORD
  5
49C3
330
1
100
AcDbSymbolTableRecord
100
AcDbBlockTableRecord
  2
_OPEN
340
0
102
{BLKREFS
331
15074
331
15075
331
1507D
331
1507E
331
1608B
331
1608C
331
16094
331
16095
102
}
  0
BLOCK_RECORD
  5
1514A
330
1
100
AcDbSymbolTableRecord
100
AcDbBlockTableRecord
  2
SUN
340
0
  0
BLOCK_RECORD
  5
15150
330
1
100
AcDbSymbolTableRecord
100
AcDbBlockTableRecord
  2
_Open30
340
0
102
{BLKREFS
331
1515D
331
1515E
331
15169
331
1516A
102
}
  0
BLOCK_RECORD
  5
15156
330
1
100
AcDbSymbolTableRecord
100
AcDbBlockTableRecord
  2
*D5
340
0
  0
BLOCK_RECORD
  5
15164
330
1
100
AcDbSymbolTableRecord
100
AcDbBlockTableRecord
  2
*D6
340
0
  0
ENDTAB
  0
ENDSEC
  0
SECTION
  2
BLOCKS
  0
BLOCK
  5
52
330
18
100
AcDbEntity
  8
0
100
AcDbBlockBegin
  2
*MODEL_SPACE
 70
     0
 10
0.0
 20
0.0
 30
0.0
  3
*MODEL_SPACE
  1
*MODEL_SPACE
  0
ENDBLK
  5
53
330
18
100
AcDbEntity
  8
0
100
AcDbBlockEnd
  0
BLOCK
  5
50
330
15
100
AcDbEntity
 67
     1
  8
0
100
AcDbBlockBegin
  2
*PAPER_SPACE
 70
     0
 10
0.0
 20
0.0
 30
0.0
  3
*PAPER_SPACE
  1
*PAPER_SPACE
  0
ENDBLK
  5
51
330
15
100
AcDbEntity
 67
     1
  8
0
100
AcDbBlockEnd
  0
BLOCK
  5
49C7
330
49C3
100
AcDbEntity
  8
0
100
AcDbBlockBegin
  2
_OPEN
 70
     0
 10
0.0
 20
0.0
 30
0.0
  3
_OPEN
  1
_OPEN
  0
LINE
  5
49C4
330
49C3
100
AcDbEntity
  8
0
  6
ByBlock
 62
     0
100
AcDbLine
 10
-1.0
 20
0.1666666666666667
 30
0.0
 11
0.0
 21
0.0
 31
0.0
  0
LINE
  5
49C5
330
49C3
100
AcDbEntity
  8
0
  6
ByBlock
 62
     0
100
AcDbLine
 10
0.0
 20
0.0
 30
0.0
 11
-1.0
 21
-0.1666666666666667
 31
0.0
  0
LINE
  5
49C6
330
49C3
100
AcDbEntity
  8
0
  6
ByBlock
 62
     0
100
AcDbLine
 10
0.0
 20
0.0
 30
0.0
 11
-1.0
 21
0.0
 31
0.0
  0
ENDBLK
  5
49C8
330
49C3
100
AcDbEntity
  8
0
100
AcDbBlockEnd
  0
BLOCK
  5
1514B
330
1514A
100
AcDbEntity
  8
0
100
AcDbBlockBegin
  2
SUN
 70
     0
 10
0.0
 20
0.0
 30
0.0
  3
SUN
  1
SUN
  0
LINE
  5
1514C
330
1514A
100
AcDbEntity
  8
0
100
AcDbLine
 10
-0.0000000000000568
 20
0.0
 30
0.0
 11
-1.500000000000057
 21
0.0
 31
0.0
  0
LINE
  5
1514D
330
1514A
100
AcDbEntity
  8
0
100
AcDbLine
 10
-0.0000000000000568
 20
0.0000000000000284
 30
0.0
 11
-1.500000000000057
 21
0.401923788646684
 31
0.0
  0
LINE
  5
1514E
330
1514A
100
AcDbEntity
  8
0
100
AcDbLine
 10
-0.0000000000000568
 20
0.0000000000000284
 30
0.0
 11
-1.500000000000057
 21
-0.4019237886466556
 31
0.0
  0
ENDBLK
  5
1514F
330
1514A
100
AcDbEntity
  8
0
100
AcDbBlockEnd
  0
BLOCK
  5
15151
330
15150
100
AcDbEntity
  8
0
100
AcDbBlockBegin
  2
_Open30
 70
     0
 10
0.0
 20
0.0
 30
0.0
  3
_Open30
  1
_Open30
  0
LINE
  5
15152
330
15150
100
AcDbEntity
  8
0
  6
ByBlock
 62
     0
370
    -2
100
AcDbLine
 10
-1.0
 20
0.26794919
 30
0.0
 11
0.0
 21
0.0
 31
0.0
  0
LINE
  5
15153
330
15150
100
AcDbEntity
  8
0
  6
ByBlock
 62
     0
370
    -2
100
AcDbLine
 10
0.0
 20
0.0
 30
0.0
 11
-1.0
 21
-0.26794919
 31
0.0
  0
LINE
  5
15154
330
15150
100
AcDbEntity
  8
0
  6
ByBlock
 62
     0
370
    -2
100
AcDbLine
 10
0.0
 20
0.0
 30
0.0
 11
-1.0
 21
0.0
 31
0.0
  0
ENDBLK
  5
15155
330
15150
100
AcDbEntity
  8
0
100
AcDbBlockEnd
  0
BLOCK
  5
15157
330
15156
100
AcDbEntity
  8
0
100
AcDbBlockBegin
  2
*D5
 70
     1
 10
0.0
 20
0.0
 30
0.0
  3
*D5
  1
*D5
  0
LINE
  5
15158
330
15156
100
AcDbEntity
  8
寸法線
 62
     8
370
    -2
100
AcDbLine
 10
1524.905506878965
 20
-3968.629038966817
 30
0.0
 11
1524.905506878965
 21
-3952.049304271376
 31
0.0
  0
LINE
  5
15159
330
15156
100
AcDbEntity
  8
寸法線
 62
     8
370
    -2
100
AcDbLine
 10
1529.905506878968
 20
-3967.829038966809
 30
0.0
 11
1529.905506878968
 21
-3952.049304271376
 31
0.0
  0
LINE
  5
1515A
330
15156
100
AcDbEntity
  8
寸法線
 62
     8
370
    -2
100
AcDbLine
 10
1522.405506878965
 20
-3953.049304271376
 30
0.0
 11
1519.905506878965
 21
-3953.049304271376
 31
0.0
  0
LINE
  5
1515B
330
15156
100
AcDbEntity
  8
寸法線
 62
     8
370
    -2
100
AcDbLine
 10
1532.405506878968
 20
-3953.049304271376
 30
0.0
 11
1534.905506878968
 21
-3953.049304271376
 31
0.0
  0
LINE
  5
1515C
330
15156
100
AcDbEntity
  8
寸法線
 62
     8
370
    -2
100
AcDbLine
 10
1524.905506878965
 20
-3953.049304271376
 30
0.0
 11
1529.905506878968
 21
-3953.049304271376
 31
0.0
  0
INSERT
  5
1515D
330
15156
100
AcDbEntity
  8
寸法線
 62
     8
370
    -2
100
AcDbBlockReference
  2
_Open30
 10
1524.905506878965
 20
-3953.049304271376
 30
0.0
 41
2.5
 42
2.5
 43
2.5
  0
INSERT
  5
1515E
330
15156
100
AcDbEntity
  8
寸法線
 62
     8
370
    -2
100
AcDbBlockReference
  2
_Open30
 10
1529.905506878968
 20
-3953.049304271376
 30
0.0
 41
2.5
 42
2.5
 43
2.5
 50
180.0
  0
MTEXT
  5
1515F
330
15156
100
AcDbEntity
  8
寸法線
100
AcDbMText
 10
1527.405506878966
 20
-3950.549304271376
 30
0.0
 40
3.0
 41
0.0
 71
     5
 72
     1
  1
\A1;5
 73
     1
 44
1.0
  0
POINT
  5
15160
330
15156
100
AcDbEntity
  8
DEFPOINTS
 62
     0
100
AcDbPoint
 10
1524.905506878965
 20
-3970.129038966817
 30
0.0
  0
POINT
  5
15161
330
15156
100
AcDbEntity
  8
DEFPOINTS
 62
     0
100
AcDbPoint
 10
1529.905506878968
 20
-3969.329038966809
 30
0.0
  0
POINT
  5
15162
330
15156
100
AcDbEntity
  8
DEFPOINTS
 62
     0
100
AcDbPoint
 10
1529.905506878968
 20
-3953.049304271376
 30
0.0
  0
ENDBLK
  5
15163
330
15156
100
AcDbEntity
  8
0
100
AcDbBlockEnd
  0
BLOCK
  5
15165
330
15164
100
AcDbEntity
  8
0
100
AcDbBlockBegin
  2
*D6
 70
     1
 10
0.0
 20
0.0
 30
0.0
  3
*D6
  1
*D6
  0
LINE
  5
15166
330
15164
100
AcDbEntity
  8
寸法線
 62
     8
370
    -2
100
AcDbLine
 10
1413.567385200487
 20
-4001.329038966802
 30
0.0
 11
1413.567385200487
 21
-3952.049304271376
 31
0.0
  0
LINE
  5
15167
330
15164
100
AcDbEntity
  8
寸法線
 62
     8
370
    -2
100
AcDbLine
 10
1480.567385200475
 20
-4001.329038966803
 30
0.0
 11
1480.567385200475
 21
-3952.049304271376
 31
0.0
  0
LINE
  5
15168
330
15164
100
AcDbEntity
  8
寸法線
 62
     8
370
    -2
100
AcDbLine
 10
1416.067385200487
 20
-3953.049304271376
 30
0.0
 11
1478.067385200475
 21
-3953.049304271376
 31
0.0
  0
INSERT
  5
15169
330
15164
100
AcDbEntity
  8
寸法線
 62
     8
370
    -2
100
AcDbBlockReference
  2
_Open30
 10
1413.567385200487
 20
-3953.049304271376
 30
0.0
 41
2.5
 42
2.5
 43
2.5
 50
180.0
  0
INSERT
  5
1516A
330
15164
100
AcDbEntity
  8
寸法線
 62
     8
370
    -2
100
AcDbBlockReference
  2
_Open30
 10
1480.567385200475
 20
-3953.049304271376
 30
0.0
 41
2.5
 42
2.5
 43
2.5
  0
MTEXT
  5
1516B
330
15164
100
AcDbEntity
  8
寸法線
100
AcDbMText
 10
1447.067385200481
 20
-3950.549304271376
 30
0.0
 40
3.0
 41
0.0
 71
     5
 72
     1
  1
\A1;%%c67
 73
     1
 44
1.0
  0
POINT
  5
1516C
330
15164
100
AcDbEntity
  8
DEFPOINTS
 62
     0
100
AcDbPoint
 10
1413.567385200487
 20
-4002.829038966802
 30
0.0
  0
POINT
  5
1516D
330
15164
100
AcDbEntity
  8
DEFPOINTS
 62
     0
100
AcDbPoint
 10
1480.567385200475
 20
-4002.829038966803
 30
0.0
  0
POINT
  5
1516E
330
15164
100
AcDbEntity
  8
DEFPOINTS
 62
     0
100
AcDbPoint
 10
1480.567385200475
 20
-3953.049304271376
 30
0.0
  0
ENDBLK
  5
1516F
330
15164
100
AcDbEntity
  8
0
100
AcDbBlockEnd
  0
ENDSEC
  0
SECTION
  2
ENTITIES
  0
LINE
  5
1582F
330
18
100
AcDbEntity
  8
姿図
100
AcDbLine
 10
1671.348496932866
 20
1945.493295755685
 30
0.0
 11
1670.662168782444
 21
1944.884405908489
 31
0.0
  0
LINE
  5
15830
330
18
100
AcDbEntity
  8
姿図
100
AcDbLine
 10
1679.391903531833
 20
1934.288951995239
 30
0.0
 11
1680.120844904953
 21
1934.846121479833
 31
0.0
  0
LINE
  5
15831
330
18
100
AcDbEntity
  8
姿図
100
AcDbLine
 10
1660.692652210901
 20
1944.823307075513
 30
0.0
 11
1659.246943986847
 21
1943.8904553088
 31
0.0
  0
LINE
  5
15832
330
18
100
AcDbEntity
  8
姿図
100
AcDbLine
 10
1670.385641067093
 20
1942.030159228794
 30
0.0
 11
1668.566712696661
 21
1940.456571982323
 31
0.0
  0
LINE
  5
15833
330
18
100
AcDbEntity
  8
姿図
100
AcDbLine
 10
1666.603591086708
 20
1938.758240923311
 30
0.0
 11
1664.163147793455
 21
1936.646969983937
 31
0.0
  0
LINE
  5
15834
330
18
100
AcDbEntity
  8
姿図
100
AcDbLine
 10
1670.063318883684
 20
1929.485813976059
 30
0.0
 11
1670.361317334918
 21
1929.719537307395
 31
0.0
  0
LINE
  5
15835
330
18
100
AcDbEntity
  8
姿図
100
AcDbLine
 10
1672.434708016702
 20
1931.345719236362
 30
0.0
 11
1676.537471452459
 21
1934.563559376815
 31
0.0
  0
LINE
  5
15836
330
18
100
AcDbEntity
  8
姿図
100
AcDbLine
 10
1676.232535778099
 20
1923.274702220974
 30
0.0
 11
1677.188955421381
 21
1924.269916867109
 31
0.0
  0
LINE
  5
15837
330
18
100
AcDbEntity
  8
姿図
100
AcDbLine
 10
1671.361307264371
 20
1944.858902850738
 30
0.0
 11
1670.80810862127
 21
1944.403115167507
 31
0.0
  0
LINE
  5
15838
330
18
100
AcDbEntity
  8
姿図
100
AcDbLine
 10
1678.947420811525
 20
1934.524269245983
 30
0.0
 11
1679.500619454625
 21
1934.980056929213
 31
0.0
  0
LINE
  5
15839
330
18
100
AcDbEntity
  8
姿図
100
AcDbLine
 10
1679.358108985198
 20
1936.998643165346
 30
0.0
 11
1679.908989612977
 21
1937.452521005075
 31
0.0
  0
ARC
  5
1583A
330
18
100
AcDbEntity
  8
姿図
100
AcDbCircle
 10
1674.9532126486
 20
1941.730354547117
 30
0.0
 40
5.552846598574877
100
AcDbArc
 50
170.8550556560221
 51
185.4831718916973
  0
LWPOLYLINE
  5
1583B
330
18
100
AcDbEntity
  8
姿図
100
AcDbPolyline
 90
       45
 70
   128
 43
0.0
 10
1670.256171490007
 20
1944.454854957391
 10
1670.402567189068
 20
1944.62751341672
 10
1670.674373705012
 20
1944.895180672706
 10
1670.974293939009
 20
1945.129776171163
 10
1671.300432161304
 20
1945.329816836298
 10
1671.650726658827
 20
1945.494037730986
 10
1672.022962061807
 20
1945.621400757255
 10
1672.414785612372
 20
1945.711100895015
 10
1672.823719576848
 20
1945.762570503935
 10
1673.247178925909
 20
1945.775484815678
 10
1673.682486199587
 20
1945.749761733686
 10
1674.126889299013
 20
1945.685563855744
 10
1674.577578617268
 20
1945.583297576804
 10
1675.031704671327
 20
1945.443608914631
 10
1675.486396424898
 20
1945.267380996749
 10
1675.938779027845
 20
1945.055728603822
 10
1676.385992482752
 20
1944.809989304798
 10
1676.82520941436
 20
1944.531716741843
 10
1677.253652681637
 20
1944.222670840629
 10
1677.668613994468
 20
1943.884804588588
 10
1678.067469259878
 20
1943.520254942174
 10
1678.447697465234
 20
1943.13132608779
 10
1678.806893984234
 20
1942.720477228989
 10
1679.142788082931
 20
1942.290305958715
 10
1679.453256621253
 20
1941.843531552589
 10
1679.73633618806
 20
1941.382979056338
 10
1679.990236922973
 20
1940.911560355959
 10
1680.213353876524
 20
1940.432255692773
 10
1680.404276846793
 20
1939.948095178663
 10
1680.561798089989
 20
1939.462140184526
 10
1680.684921967539
 20
1938.977462727693
 10
1680.772870190686
 20
1938.497127384679
 10
1680.825085964771
 20
1938.024171014693
 10
1680.841240516768
 20
1937.561583487248
 10
1680.821230407096
 20
1937.112289790347
 10
1680.765182865524
 20
1936.679130256045
 10
1680.673452453715
 20
1936.264843405124
 10
1680.546618337826
 20
1935.87204877979
 10
1680.385482789259
 20
1935.503229603537
 10
1680.191064387737
 20
1935.160717617103
 10
1679.964592726411
 20
1934.846678311242
 10
1679.707499390069
 20
1934.563097462028
 10
1679.42140986292
 20
1934.311767380233
 10
1679.10813277705
 20
1934.09427725789
 10
1678.89261709421
 20
1933.972627875397
  0
ARC
  5
1583C
330
18
100
AcDbEntity
  8
姿図
100
AcDbCircle
 10
1677.115569329545
 20
1939.095302416015
 30
0.0
 40
5.543981240766417
100
AcDbArc
 50
253.4761827764364
 51
268.1278203759168
  0
LWPOLYLINE
  5
1583D
330
18
100
AcDbEntity
  8
姿図
100
AcDbPolyline
 90
       42
 70
   128
 43
0.0
 10
1671.348496932866
 20
1945.493295755685
 10
1671.545933003053
 20
1945.655455045026
 10
1671.859882708741
 20
1945.86719363347
 10
1672.198304859601
 20
1946.044285648692
 10
1672.559113106456
 20
1946.185639877081
 10
1672.94008310824
 20
1946.290384002667
 10
1673.338865633259
 20
1946.357873069328
 10
1673.753002534618
 20
1946.387689875932
 10
1674.17994009234
 20
1946.379651802932
 10
1674.617046365727
 20
1946.333808285538
 10
1675.061626411313
 20
1946.250441129544
 10
1675.510939205053
 20
1946.130064302939
 10
1675.962214547073
 20
1945.973421234453
 10
1676.412670275771
 20
1945.781476395485
 10
1676.859529138192
 20
1945.555413233829
 10
1677.300035969759
 20
1945.29662639078
 10
1677.731475166424
 20
1945.006711329863
 10
1678.151186452592
 20
1944.687454489783
 10
1678.556582542831
 20
1944.340825040968
 10
1678.94516368704
 20
1943.96895948087
 10
1679.314534230215
 20
1943.574151231042
 10
1679.66241708862
 20
1943.15883369214
 10
1679.986667227898
 20
1942.725567665874
 10
1680.285285364596
 20
1942.277024648301
 10
1680.55643108235
 20
1941.815969678545
 10
1680.798431919907
 20
1941.345245426589
 10
1681.009796530269
 20
1940.867754248026
 10
1681.189220850584
 20
1940.386439890277
 10
1681.335599720595
 20
1939.904269865106
 10
1681.448030642397
 20
1939.424216646978
 10
1681.525819597502
 20
1938.949240268555
 10
1681.568486958428
 20
1938.482269169459
 10
1681.575770912816
 20
1938.026181966317
 10
1681.547625310096
 20
1937.583790938435
 10
1681.484223705328
 20
1937.157823607217
 10
1681.38595782558
 20
1936.75090603122
 10
1681.253433566033
 20
1936.365546704895
 10
1681.087466891555
 20
1936.004122204085
 10
1680.889082019005
 20
1935.668860099995
 10
1680.659501345558
 20
1935.361828003573
 10
1680.40014108339
 20
1935.084918512336
 10
1680.120844904953
 20
1934.846121479833
  0
LWPOLYLINE
  5
1583E
330
18
100
AcDbEntity
  8
姿図
100
AcDbPolyline
 90
       43
 70
   128
 43
0.0
 10
1670.620792507246
 20
1944.256152702795
 10
1670.868695548241
 20
1944.51585227895
 10
1671.151073488587
 20
1944.750533045694
 10
1671.459871910049
 20
1944.951365271532
 10
1671.793035720851
 20
1945.117012338947
 10
1672.148347824019
 20
1945.246372346731
 10
1672.523443406265
 20
1945.338584333049
 10
1672.915826533638
 20
1945.393034101267
 10
1673.322885679846
 20
1945.409360061779
 10
1673.741912318292
 20
1945.387453134571
 10
1674.170117646496
 20
1945.3274587878
 10
1674.60465207115
 20
1945.229776977972
 10
1675.042623864295
 20
1945.095057348241
 10
1675.481118377
 20
1944.92419644133
 10
1675.917217483009
 20
1944.718331718694
 10
1676.348019136153
 20
1944.478832421642
 10
1676.770656129638
 20
1944.207292864096
 10
1677.182316234189
 20
1943.905520304344
 10
1677.580259713042
 20
1943.575522374482
 10
1677.961838532691
 20
1943.21949554973
 10
1678.324513059889
 20
1942.839809394145
 10
1678.665869860336
 20
1942.438990155139
 10
1678.983637156247
 20
1942.019705390422
 10
1679.27570045578
 20
1941.584745419063
 10
1679.540116065008
 20
1941.137004486948
 10
1679.775124548337
 20
1940.679462885021
 10
1679.979161356721
 20
1940.215165097993
 10
1680.150869427247
 20
1939.747200938159
 10
1680.28910518495
 20
1939.278684726803
 10
1680.392950049048
 20
1938.812734109748
 10
1680.461711500643
 20
1938.352450327072
 10
1680.49493249836
 20
1937.900896246836
 10
1680.492391918807
 20
1937.461076964376
 10
1680.454106883062
 20
1937.03591933348
 10
1680.380332281513
 20
1936.628252593571
 10
1680.271558724725
 20
1936.240789929994
 10
1680.128510199469
 20
1935.876109851711
 10
1679.952138595018
 20
1935.536639097758
 10
1679.743617857281
 20
1935.224636790282
 10
1679.504335371397
 20
1934.942179127785
 10
1679.235883525289
 20
1934.691146365001
 10
1678.940049215909
 20
1934.473208395599
 10
1678.76733809286
 20
1934.368526858307
  0
LWPOLYLINE
  5
1583F
330
18
100
AcDbEntity
  8
姿図
100
AcDbPolyline
 90
        3
 70
   128
 43
0.0
 10
1670.975625432405
 20
1944.54113425692
 10
1671.188147943202
 20
1944.760071210173
 10
1671.270120106882
 20
1944.834063940039
  0
LWPOLYLINE
  5
15840
330
18
100
AcDbEntity
  8
姿図
100
AcDbPolyline
 90
        3
 70
   128
 43
0.0
 10
1679.458794627862
 20
1934.895305485639
 10
1679.241164685474
 20
1934.74024287681
 10
1679.114937312801
 20
1934.662288430708
  0
SPLINE
  5
15841
330
18
100
AcDbEntity
  8
姿図
100
AcDbSpline
210
0.0
220
0.0
230
1.0
 70
     8
 71
     3
 72
    20
 73
    16
 74
     0
 42
0.000000001
 43
0.0000000001
 40
0.0
 40
0.0
 40
0.0
 40
0.0
 40
0.1250000000000002
 40
0.1250000000000002
 40
0.2500000000000005
 40
0.2500000000000005
 40
0.3750000000000008
 40
0.3750000000000008
 40
0.500000000000001
 40
0.500000000000001
 40
0.7500000000000008
 40
0.7500000000000008
 40
0.8750000000000004
 40
0.8750000000000004
 40
1.0
 40
1.0
 40
1.0
 40
1.0
 10
1675.835072403668
 20
1925.255372450119
 30
0.0
 10
1675.876588556707
 20
1925.219193277899
 30
0.0
 10
1675.915217527071
 20
1925.180137817435
 30
0.0
 10
1675.986911449441
 20
1925.096483873293
 30
0.0
 10
1676.020295474662
 20
1925.051312205364
 30
0.0
 10
1676.078825409435
 20
1924.958580868068
 30
0.0
 10
1676.104163718574
 20
1924.910962791358
 30
0.0
 10
1676.146907779506
 20
1924.813196547937
 30
0.0
 10
1676.164073862291
 20
1924.763314889178
 30
0.0
 10
1676.201118199774
 20
1924.616696657508
 30
0.0
 10
1676.207217850532
 20
1924.519618806062
 30
0.0
 10
1676.187400346198
 20
1924.389711248658
 30
0.0
 10
1676.175857972564
 20
1924.348216315483
 30
0.0
 10
1676.144036231545
 20
1924.272992472937
 30
0.0
 10
1676.123775049156
 20
1924.238834364427
 30
0.0
 10
1676.099033821318
 20
1924.208233067146
 30
0.0
  0
LINE
  5
15842
330
18
100
AcDbEntity
  8
姿図
100
AcDbLine
 10
1675.835072211437
 20
1925.255372416813
 30
0.0
 11
1670.879620399999
 21
1929.573791611299
 31
0.0
  0
SPLINE
  5
15843
330
18
100
AcDbEntity
  8
姿図
100
AcDbSpline
210
0.0
220
0.0
230
1.0
 70
     8
 71
     3
 72
    14
 73
    10
 74
     0
 42
0.000000001
 43
0.0000000001
 40
0.0
 40
0.0
 40
0.0
 40
0.0
 40
0.25
 40
0.25
 40
0.5
 40
0.5
 40
0.75
 40
0.75
 40
1.0
 40
1.0
 40
1.0
 40
1.0
 10
1670.253451461505
 20
1929.652977176194
 30
0.0
 10
1670.288596658959
 20
1929.687550442211
 30
0.0
 10
1670.330942299538
 20
1929.712229871572
 30
0.0
 10
1670.429017233186
 20
1929.741326060431
 30
0.0
 10
1670.482626895686
 20
1929.74502896397
 30
0.0
 10
1670.596627626673
 20
1929.730657690832
 30
0.0
 10
1670.65508776228
 20
1929.712757071498
 30
0.0
 10
1670.771216793014
 20
1929.656737431674
 30
0.0
 10
1670.827163149686
 20
1929.619505398352
 30
0.0
 10
1670.879620470895
 20
1929.573791566041
 30
0.0
  0
LWPOLYLINE
  5
15844
330
18
100
AcDbEntity
  8
姿図
100
AcDbPolyline
 90
       19
 70
   128
 43
0.0
 10
1670.253451362156
 20
1929.652977169808
 10
1670.014625878482
 20
1929.448679049383
 10
1669.748823928146
 20
1929.278835841507
 10
1669.458552861069
 20
1929.145050107273
 10
1669.146551312648
 20
1929.048583434375
 10
1668.815762468196
 20
1928.990346547334
 10
1668.469307146549
 20
1928.970888536432
 10
1668.110453768398
 20
1928.990392978672
 10
1667.742587812633
 20
1929.048675777747
 10
1667.369179594625
 20
1929.145187267804
 10
1666.993751907013
 20
1929.279016857957
 10
1666.619846584955
 20
1929.448902067548
 10
1666.250990933892
 20
1929.653240102158
 10
1665.890664785996
 20
1929.890103296151
 10
1665.542267419136
 20
1930.157257095968
 10
1665.209085741422
 20
1930.452181401742
 10
1664.894262815886
 20
1930.772093365823
 10
1664.600768847348
 20
1931.113975367703
 10
1664.331372453236
 20
1931.474601964684
  0
SPLINE
  5
15845
330
18
100
AcDbEntity
  8
姿図
100
AcDbSpline
210
0.0
220
0.0
230
1.0
 70
     8
 71
     3
 72
    12
 73
     8
 74
     0
 42
0.000000001
 43
0.0000000001
 40
0.0
 40
0.0
 40
0.0
 40
0.0
 40
0.2500000000000001
 40
0.2500000000000001
 40
0.5000000000000001
 40
0.5000000000000001
 40
1.0
 40
1.0
 40
1.0
 40
1.0
 10
1663.692719737507
 20
1931.78447412796
 30
0.0
 10
1663.741919198984
 20
1931.798916981164
 30
0.0
 10
1663.795429176144
 20
1931.802433197527
 30
0.0
 10
1663.909685837514
 20
1931.787664416801
 30
0.0
 10
1663.968004344481
 20
1931.76961356401
 30
0.0
 10
1664.142357461973
 20
1931.684967705968
 30
0.0
 10
1664.251095674698
 20
1931.590058516824
 30
0.0
 10
1664.331372349821
 20
1931.474602033441
 30
0.0
  0
LINE
  5
15846
330
18
100
AcDbEntity
  8
姿図
100
AcDbLine
 10
1659.044795556358
 20
1930.420042583848
 30
0.0
 11
1663.692719805823
 21
1931.784474130397
 31
0.0
  0
SPLINE
  5
15847
330
18
100
AcDbEntity
  8
姿図
100
AcDbSpline
210
0.0
220
0.0
230
1.0
 70
     8
 71
     3
 72
    20
 73
    16
 74
     0
 42
0.000000001
 43
0.0000000001
 40
0.0
 40
0.0
 40
0.0
 40
0.0
 40
0.1249999999999997
 40
0.1249999999999997
 40
0.2499999999999993
 40
0.2499999999999993
 40
0.374999999999999
 40
0.374999999999999
 40
0.4999999999999987
 40
0.4999999999999987
 40
0.7500000000000011
 40
0.7500000000000011
 40
0.875000000000001
 40
0.875000000000001
 40
1.0
 40
1.0
 40
1.0
 40
1.0
 10
1658.887147883722
 20
1929.502589774092
 30
0.0
 10
1658.858201410985
 20
1929.549704804066
 30
0.0
 10
1658.83353342584
 20
1929.597631490478
 30
0.0
 10
1658.792441233524
 20
1929.695048760664
 30
0.0
 10
1658.775920823938
 20
1929.745124025438
 30
0.0
 10
1658.752650661115
 20
1929.84311769917
 30
0.0
 10
1658.745713392543
 20
1929.891195899293
 30
0.0
 10
1658.741326993231
 20
1929.985496935705
 30
0.0
 10
1658.744018234713
 20
1930.031341658448
 30
0.0
 10
1658.766136976096
 20
1930.15977639068
 30
0.0
 10
1658.800287235173
 20
1930.235992326069
 30
0.0
 10
1658.875574781358
 20
1930.324762543649
 30
0.0
 10
1658.905122237332
 20
1930.350635329046
 30
0.0
 10
1658.970171731224
 20
1930.392387122775
 30
0.0
 10
1659.005855649139
 20
1930.408611710163
 30
0.0
 10
1659.044795353953
 20
1930.420042738544
 30
0.0
  0
LWPOLYLINE
  5
15848
330
18
100
AcDbEntity
  8
姿図
100
AcDbPolyline
 90
       34
 70
   128
 43
0.0
 10
1676.09903360714
 20
1924.208233376879
 10
1675.759300218517
 20
1923.821425323094
 10
1675.390770224427
 20
1923.465674231916
 10
1674.99467724495
 20
1923.142170280723
 10
1674.572345991626
 20
1922.851996926771
 10
1674.125190786405
 20
1922.59612449209
 10
1673.654708262515
 20
1922.37540991026
 10
1673.162472165117
 20
1922.190591455043
 10
1672.650130941167
 20
1922.042288232532
 10
1672.119398821758
 20
1921.930996053524
 10
1671.572052172552
 20
1921.857087306919
 10
1671.009922538897
 20
1921.820809975994
 10
1670.434891894314
 20
1921.82228535232
 10
1669.848884136318
 20
1921.861507528607
 10
1669.253860989503
 20
1921.93834590812
 10
1668.651813501357
 20
1922.052544697523
 10
1668.044757010914
 20
1922.203719457661
 10
1667.434723015459
 20
1922.391365226812
 10
1666.823753252692
 20
1922.614853968762
 10
1666.213892419047
 20
1922.873436812642
 10
1665.607181770633
 20
1923.166250393512
 10
1665.005651608654
 20
1923.492313542388
 10
1664.411315698095
 20
1923.85053399989
 10
1663.826162419806
 20
1924.239714260898
 10
1663.252150811083
 20
1924.658551543242
 10
1662.691201717756
 20
1925.10564363235
 10
1662.14519263021
 20
1925.579494217322
 10
1661.615950384765
 20
1926.078518259017
 10
1661.105247376626
 20
1926.601044404153
 10
1660.614791886014
 20
1927.145324831658
 10
1660.14622553055
 20
1927.709537285532
 10
1659.701117309693
 20
1928.291793777442
 10
1659.280956030639
 20
1928.89014541494
 10
1658.887148071062
 20
1929.502589960319
  0
LINE
  5
15849
330
18
100
AcDbEntity
  8
姿図
100
AcDbLine
 10
1666.310066745906
 20
1944.592174062562
 30
0.0
 11
1666.365093516705
 21
1944.676937665623
 31
0.0
  0
ARC
  5
1584A
330
18
100
AcDbEntity
  8
姿図
100
AcDbCircle
 10
1662.772105960656
 20
1932.404195216197
 30
0.0
 40
12.78787577386777
100
AcDbArc
 50
72.12232682893149
 51
73.68199637980786
  0
LINE
  5
1584B
330
18
100
AcDbEntity
  8
姿図
100
AcDbLine
 10
1666.697801983848
 20
1944.574596916279
 30
0.0
 11
1666.764020944478
 21
1944.452538262943
 31
0.0
  0
LWPOLYLINE
  5
1584C
330
18
100
AcDbEntity
  8
姿図
100
AcDbPolyline
 90
       37
 70
   128
 43
0.0
 10
1666.764020944478
 20
1944.452538262943
 10
1667.400720091443
 20
1944.225377522521
 10
1668.036620138517
 20
1943.962024258124
 10
1668.669652414285
 20
1943.663334652428
 10
1669.297757334366
 20
1943.330282017503
 10
1669.918891299627
 20
1942.963949676071
 10
1670.531033822938
 20
1942.565528769328
 10
1671.132192986075
 20
1942.136315953794
 10
1671.720413271875
 20
1941.677706619908
 10
1672.293780453227
 20
1941.191194637388
 10
1672.850430130629
 20
1940.678360984595
 10
1673.388551003138
 20
1940.140875240815
 10
1673.906391478027
 20
1939.580486057856
 10
1674.402267244886
 20
1938.999016331833
 10
1674.874565888629
 20
1938.398356787355
 10
1675.321750056831
 20
1937.780463754043
 10
1675.74236489533
 20
1937.147345636421
 10
1676.13504169779
 20
1936.501063040524
 10
1676.498503964382
 20
1935.843718165764
 10
1676.831568279294
 20
1935.177449850447
 10
1677.133151436982
 20
1934.504425758289
 10
1677.402272025337
 20
1933.826835645364
 10
1677.638054487715
 20
1933.146883864554
 10
1677.839731945541
 20
1932.466782251255
 10
1678.006648366812
 20
1931.788743834877
 10
1678.138261483222
 20
1931.114973977806
 10
1678.234140616355
 20
1930.447665500675
 10
1678.293976970189
 20
1929.788988665241
 10
1678.317572878984
 20
1929.14108716211
 10
1678.304853305934
 20
1928.506068327696
 10
1678.255860017636
 20
1927.88599818258
 10
1678.170750756066
 20
1927.282894210446
 10
1678.049804500292
 20
1926.698718215715
 10
1677.893411974215
 20
1926.135371552882
 10
1677.702085286059
 20
1925.594685915341
 10
1677.476444638307
 20
1925.078421177333
 10
1677.217224274669
 20
1924.588256850132
  0
LINE
  5
1584D
330
18
100
AcDbEntity
  8
姿図
100
AcDbLine
 10
1677.217224274669
 20
1924.588256850132
 30
0.0
 11
1677.279999168246
 21
1924.46518701556
 31
0.0
  0
ARC
  5
1584E
330
18
100
AcDbEntity
  8
姿図
100
AcDbCircle
 10
1671.12232543861
 20
1928.089283836445
 30
0.0
 40
7.14499989697672
100
AcDbArc
 50
327.2215139438857
 51
329.5210750904925
  0
LINE
  5
1584F
330
18
100
AcDbEntity
  8
姿図
100
AcDbLine
 10
1677.129626643261
 20
1924.221034133493
 30
0.0
 11
1677.012052429358
 21
1924.255129881347
 31
0.0
  0
LWPOLYLINE
  5
15850
330
18
100
AcDbEntity
  8
姿図
100
AcDbPolyline
 90
       37
 70
   128
 43
0.0
 10
1677.012052429358
 20
1924.255129881347
 10
1676.697298174669
 20
1923.813360517147
 10
1676.351499013208
 20
1923.401807529403
 10
1675.975780606748
 20
1923.021809231042
 10
1675.571364907881
 20
1922.674602486231
 10
1675.139568059247
 20
1922.361316485902
 10
1674.681794436967
 20
1922.082970207721
 10
1674.19953375829
 20
1921.840469558146
 10
1673.69435519377
 20
1921.634603562041
 10
1673.167902030418
 20
1921.46604163204
 10
1672.621886541589
 20
1921.335332648133
 10
1672.058085579707
 20
1921.24290194109
 10
1671.478333380265
 20
1921.189049133696
 10
1670.884516225477
 20
1921.173951031416
 10
1670.278565609437
 20
1921.197655604891
 10
1669.662453521493
 20
1921.26008468999
 10
1669.03818393385
 20
1921.361037855419
 10
1668.407788015179
 20
1921.500185130513
 10
1667.773316651423
 20
1921.677074302685
 10
1667.13683406753
 20
1921.891129131731
 10
1666.50041095053
 20
1922.141653963594
 10
1665.866117847595
 20
1922.42783326268
 10
1665.236018375305
 20
1922.748737448329
 10
1664.612162290405
 20
1923.10332002938
 10
1663.996579740988
 20
1923.490428117002
 10
1663.391272891587
 20
1923.908803751593
 10
1662.798211344035
 20
1924.357084062104
 10
1662.219324408935
 20
1924.833811763216
 10
1661.656495906806
 20
1925.337435505287
 10
1661.111556490859
 20
1925.866316608111
 10
1660.586278758504
 20
1926.418734936857
 10
1660.082371846258
 20
1926.992893063104
 10
1659.601475611677
 20
1927.586922426713
 10
1659.14515412682
 20
1928.198890958703
 10
1658.714892373425
 20
1928.826807845444
 10
1658.312089805123
 20
1929.468629881168
 10
1657.938057490465
 20
1930.122269217451
  0
LINE
  5
15851
330
18
100
AcDbEntity
  8
姿図
100
AcDbLine
 10
1657.938057490465
 20
1930.122269217451
 30
0.0
 11
1657.820255453772
 21
1930.160574938878
 31
0.0
  0
ARC
  5
15852
330
18
100
AcDbEntity
  8
姿図
100
AcDbCircle
 10
1673.824544871626
 20
1938.803739236293
 30
0.0
 40
18.18905079553508
100
AcDbArc
 50
207.1380148170004
 51
208.3713967402734
  0
LINE
  5
15853
330
18
100
AcDbEntity
  8
姿図
100
AcDbLine
 10
1657.637920092599
 20
1930.507068391579
 30
0.0
 11
1657.68927490481
 21
1930.595032057339
 31
0.0
  0
LWPOLYLINE
  5
15854
330
18
100
AcDbEntity
  8
姿図
100
AcDbPolyline
 90
       37
 70
   128
 43
0.0
 10
1657.68927490481
 20
1930.595032057339
 10
1657.367330128731
 20
1931.263962126218
 10
1657.077229243118
 20
1931.938868378359
 10
1656.819916200016
 20
1932.617555091366
 10
1656.596225894296
 20
1933.297814804694
 10
1656.406889371607
 20
1933.977433432216
 10
1656.252519850859
 20
1934.654200807764
 10
1656.133621676257
 20
1935.325914177561
 10
1656.050579978608
 20
1935.990389070865
 10
1656.003665329074
 20
1936.645463392354
 10
1655.993032088339
 20
1937.289005405678
 10
1656.018711837777
 20
1937.918922507595
 10
1656.08062419064
 20
1938.533164148529
 10
1656.178565234339
 20
1939.129732707326
 10
1656.312217068892
 20
1939.706687408394
 10
1656.481145023007
 20
1940.262150721426
 10
1656.684799694686
 20
1940.794315697448
 10
1656.922518501038
 20
1941.301451113563
 10
1657.19352781341
 20
1941.781907062257
 10
1657.496946331972
 20
1942.234120159454
 10
1657.831785981426
 20
1942.656619515061
 10
1658.19695841854
 20
1943.048030352728
 10
1658.591275394079
 20
1943.407078583069
 10
1659.013453849038
 20
1943.732597980565
 10
1659.462119701698
 20
1944.023527769452
 10
1659.935814045813
 20
1944.278921960102
 10
1660.43299618045
 20
1944.497949666252
 10
1660.952047673032
 20
1944.679898852077
 10
1661.491279658463
 20
1944.824176585418
 10
1662.04893862383
 20
1944.930314753694
 10
1662.623209954341
 20
1944.997966474752
 10
1663.212225508439
 20
1945.026912511264
 10
1663.814068644291
 20
1945.017058475374
 10
1664.426781570719
 20
1944.968436939811
 10
1665.048370735359
 20
1944.881206405101
 10
1665.676813951414
 20
1944.755649107384
 10
1666.310066745906
 20
1944.592174062562
  0
SPLINE
  5
15855
330
18
100
AcDbEntity
  8
姿図
100
AcDbSpline
210
0.0
220
0.0
230
1.0
 70
     8
 71
     3
 72
    12
 73
     8
 74
     0
 42
0.000000001
 43
0.0000000001
 40
0.0
 40
0.0
 40
0.0
 40
0.0
 40
0.2500000000000002
 40
0.2500000000000002
 40
0.5000000000000004
 40
0.5000000000000004
 40
1.0
 40
1.0
 40
1.0
 40
1.0
 10
1671.105179690079
 20
1929.940020614262
 30
0.0
 10
1671.052724971295
 20
1929.985732178694
 30
0.0
 10
1671.006182710379
 20
1930.037726744972
 30
0.0
 10
1670.926003898246
 20
1930.152910036834
 30
0.0
 10
1670.894140014245
 20
1930.213665788314
 30
0.0
 10
1670.825320069328
 20
1930.401037957834
 30
0.0
 10
1670.818700783514
 20
1930.525765515258
 30
0.0
 10
1670.852934516373
 20
1930.626327365137
 30
0.0
  0
LINE
  5
15856
330
18
100
AcDbEntity
  8
姿図
100
AcDbLine
 10
1676.06063192849
 20
1925.621601453978
 30
0.0
 11
1671.105179815787
 21
1929.940020584981
 31
0.0
  0
SPLINE
  5
15857
330
18
100
AcDbEntity
  8
姿図
100
AcDbSpline
210
0.0
220
0.0
230
1.0
 70
     8
 71
     3
 72
    20
 73
    16
 74
     0
 42
0.000000001
 43
0.0000000001
 40
0.0
 40
0.0
 40
0.0
 40
0.0
 40
0.1250000000000005
 40
0.1250000000000005
 40
0.250000000000001
 40
0.250000000000001
 40
0.3750000000000015
 40
0.3750000000000015
 40
0.500000000000002
 40
0.500000000000002
 40
0.7500000000000026
 40
0.7500000000000026
 40
0.8750000000000012
 40
0.8750000000000012
 40
1.0
 40
1.0
 40
1.0
 40
1.0
 10
1676.979566063134
 20
1925.637908546679
 30
0.0
 10
1676.96249594348
 20
1925.600623018709
 30
0.0
 10
1676.941247210706
 20
1925.567395685244
 30
0.0
 10
1676.890698405041
 20
1925.508760336177
 30
0.0
 10
1676.860972628641
 20
1925.483148414149
 30
0.0
 10
1676.795435032677
 20
1925.441941492618
 30
0.0
 10
1676.759637968953
 20
1925.426132129021
 30
0.0
 10
1676.681927675597
 20
1925.40419600441
 30
0.0
 10
1676.640226194397
 20
1925.39827801405
 30
0.0
 10
1676.51154374744
 20
1925.396043973658
 30
0.0
 10
1676.418084710339
 20
1925.415405491963
 30
0.0
 10
1676.280354456384
 20
1925.472898612229
 30
0.0
 10
1676.234028436297
 20
1925.497137753004
 30
0.0
 10
1676.145147958241
 20
1925.553342424232
 30
0.0
 10
1676.102147753398
 20
1925.585422345722
 30
0.0
 10
1676.060631622852
 20
1925.621601498341
 30
0.0
  0
LWPOLYLINE
  5
15858
330
18
100
AcDbEntity
  8
姿図
100
AcDbPolyline
 90
       34
 70
   128
 43
0.0
 10
1667.5468624434
 20
1943.562929023709
 10
1668.156502593942
 20
1943.300920009855
 10
1668.762791214024
 20
1943.004773422927
 10
1669.36369919979
 20
1942.675480681929
 10
1669.95721561037
 20
1942.314143795864
 10
1670.541353735771
 20
1941.921971623436
 10
1671.114158912101
 20
1941.500276219876
 10
1671.673713668614
 20
1941.050470629121
 10
1672.218145611165
 20
1940.574058338971
 10
1672.745632208095
 20
1940.072634931992
 10
1673.254408914796
 20
1939.547878715739
 10
1673.742771893198
 20
1939.001545513986
 10
1674.209087135166
 20
1938.435463361959
 10
1674.651793732952
 20
1937.851528377306
 10
1675.069410626336
 20
1937.251692690979
 10
1675.460540183445
 20
1936.6379658442
 10
1675.823872606515
 20
1936.012400941117
 10
1676.15819219781
 20
1935.377091472195
 10
1676.462379579695
 20
1934.734164072957
 10
1676.735417615822
 20
1934.085770456558
 10
1676.976392391758
 20
1933.434080553771
 10
1677.184496622935
 20
1932.781275843246
 10
1677.359034387959
 20
1932.129540712564
 10
1677.499421446558
 20
1931.481056582826
 10
1677.605188122331
 20
1930.837993682781
 10
1677.675979652927
 20
1930.202504577941
 10
1677.711560307927
 20
1929.576715642853
 10
1677.711810644733
 20
1928.962721463935
 10
1677.676729143282
 20
1928.362577153654
 10
1677.606433808553
 20
1927.778291260187
 10
1677.501159480146
 20
1927.21181917778
 10
1677.361258793586
 20
1926.665056644022
 10
1677.187200682081
 20
1926.139833642325
 10
1676.979565805472
 20
1925.63790878115
  0
SPLINE
  5
15859
330
18
100
AcDbEntity
  8
姿図
100
AcDbSpline
210
0.0
220
0.0
230
1.0
 70
     8
 71
     3
 72
    20
 73
    16
 74
     0
 42
0.000000001
 43
0.0000000001
 40
0.0
 40
0.0
 40
0.0
 40
0.0
 40
0.1249999999999993
 40
0.1249999999999993
 40
0.2499999999999985
 40
0.2499999999999985
 40
0.3749999999999978
 40
0.3749999999999978
 40
0.499999999999997
 40
0.499999999999997
 40
0.7499999999999974
 40
0.7499999999999974
 40
0.8749999999999988
 40
0.8749999999999988
 40
1.0
 40
1.0
 40
1.0
 40
1.0
 10
1666.858984129422
 20
1943.107544177096
 30
0.0
 10
1666.856407702293
 20
1943.15515438389
 30
0.0
 10
1666.858658032844
 20
1943.200461156973
 30
0.0
 10
1666.8724605537
 20
1943.286635653415
 30
0.0
 10
1666.884247311062
 20
1943.327924430545
 30
0.0
 10
1666.916577848449
 20
1943.402842221762
 30
0.0
 10
1666.937015519326
 20
1943.436671462334
 30
0.0
 10
1666.986521883488
 20
1943.496997386152
 30
0.0
 10
1667.015555763298
 20
1943.523208448311
 30
0.0
 10
1667.111801888891
 20
1943.587054048392
 30
0.0
 10
1667.190512359218
 20
1943.611194786661
 30
0.0
 10
1667.318592966802
 20
1943.615968344117
 30
0.0
 10
1667.363742712392
 20
1943.61236443677
 30
0.0
 10
1667.454453238984
 20
1943.595108710445
 30
0.0
 10
1667.500369155184
 20
1943.581554980341
 30
0.0
 10
1667.546862443896
 20
1943.562928485713
 30
0.0
  0
LINE
  5
1585A
330
18
100
AcDbEntity
  8
姿図
100
AcDbLine
 10
1666.858984129236
 20
1943.10754421994
 30
0.0
 11
1667.166511674023
 21
1937.424693796494
 31
0.0
  0
SPLINE
  5
1585B
330
18
100
AcDbEntity
  8
姿図
100
AcDbSpline
210
0.0
220
0.0
230
1.0
 70
     8
 71
     3
 72
    14
 73
    10
 74
     0
 42
0.000000001
 43
0.0000000001
 40
0.0
 40
0.0
 40
0.0
 40
0.0
 40
0.25
 40
0.25
 40
0.5
 40
0.5
 40
0.75
 40
0.75
 40
1.0
 40
1.0
 40
1.0
 40
1.0
 10
1667.607432119207
 20
1936.793773892632
 30
0.0
 10
1667.549055437215
 20
1936.821895296248
 30
0.0
 10
1667.493351106961
 20
1936.858950290789
 30
0.0
 10
1667.388523708829
 20
1936.95001529927
 30
0.0
 10
1667.341739484954
 20
1937.002073069348
 30
0.0
 10
1667.261426175051
 20
1937.116930262412
 30
0.0
 10
1667.229317640959
 20
1937.177797299492
 30
0.0
 10
1667.183170003142
 20
1937.302530622374
 30
0.0
 10
1667.169767097449
 20
1937.364536269693
 30
0.0
 10
1667.16651167864
 20
1937.42469367176
 30
0.0
  0
LWPOLYLINE
  5
1585C
330
18
100
AcDbEntity
  8
姿図
100
AcDbPolyline
 90
       19
 70
   128
 43
0.0
 10
1667.607432094454
 20
1936.793773767501
 10
1667.977715642889
 20
1936.5969527579
 10
1668.340238867297
 20
1936.367149816291
 10
1668.691581628065
 20
1936.106533146564
 10
1669.028429433343
 20
1935.817561065021
 10
1669.347604320552
 20
1935.502960321416
 10
1669.646095522189
 20
1935.165698552587
 10
1669.921086499372
 20
1934.808957697213
 10
1670.169983748113
 20
1934.436102805332
 10
1670.390438392645
 20
1934.050651817342
 10
1670.580371221322
 20
1933.656240848733
 10
1670.737990346054
 20
1933.256590650748
 10
1670.861808624933
 20
1932.855471816591
 10
1670.950658132341
 20
1932.456668241256
 10
1671.00370057352
 20
1932.063942326562
 10
1671.020435317998
 20
1931.680999142397
 10
1671.000704962217
 20
1931.311451201593
 10
1670.94469500913
 20
1930.95878496633
 10
1670.852934459652
 20
1930.626327396124
  0
SPLINE
  5
1585D
330
18
100
AcDbEntity
  8
姿図
100
AcDbSpline
210
0.0
220
0.0
230
1.0
 70
     8
 71
     3
 72
    12
 73
     8
 74
     0
 42
0.000000001
 43
0.0000000001
 40
0.0
 40
0.0
 40
0.0
 40
0.0
 40
0.2500000000000001
 40
0.2500000000000001
 40
0.5000000000000001
 40
0.5000000000000001
 40
1.0
 40
1.0
 40
1.0
 40
1.0
 10
1666.66744900163
 20
1937.578204788484
 30
0.0
 10
1666.670704258936
 20
1937.518050370848
 30
0.0
 10
1666.663736542693
 20
1937.462539588207
 30
0.0
 10
1666.629658693455
 20
1937.36212507707
 30
0.0
 10
1666.603204070491
 20
1937.319420178382
 30
0.0
 10
1666.497670897915
 20
1937.216693866903
 30
0.0
 10
1666.395551971005
 20
1937.186875498624
 30
0.0
 10
1666.281041563022
 20
1937.201770132128
 30
0.0
  0
LINE
  5
1585E
330
18
100
AcDbEntity
  8
姿図
100
AcDbLine
 10
1666.359921447888
 20
1943.261055337998
 30
0.0
 11
1666.667448992674
 21
1937.578204914553
 31
0.0
  0
SPLINE
  5
1585F
330
18
100
AcDbEntity
  8
姿図
100
AcDbSpline
210
0.0
220
0.0
230
1.0
 70
     8
 71
     3
 72
    20
 73
    16
 74
     0
 42
0.000000001
 43
0.0000000001
 40
0.0
 40
0.0
 40
0.0
 40
0.0
 40
0.1250000000000007
 40
0.1250000000000007
 40
0.2500000000000014
 40
0.2500000000000014
 40
0.3750000000000021
 40
0.3750000000000021
 40
0.5000000000000028
 40
0.5000000000000028
 40
0.7499999999999999
 40
0.7499999999999999
 40
0.875
 40
0.875
 40
1.0
 40
1.0
 40
1.0
 40
1.0
 10
1665.598634482359
 20
1944.162201209935
 30
0.0
 10
1665.644651074751
 20
1944.15237170793
 30
0.0
 10
1665.690567792669
 20
1944.137672354984
 30
0.0
 10
1665.782208790651
 20
1944.098890433865
 30
0.0
 10
1665.828454976637
 20
1944.074427091119
 30
0.0
 10
1665.917262735424
 20
1944.017640338918
 30
0.0
 10
1665.959997067719
 20
1943.985371502391
 30
0.0
 10
1666.042093760387
 20
1943.913006590591
 30
0.0
 10
1666.081104000106
 20
1943.873079858208
 30
0.0
 10
1666.18766770568
 20
1943.746879166367
 30
0.0
 10
1666.246976483704
 20
1943.651301712674
 30
0.0
 10
1666.309419191473
 20
1943.505038374828
 30
0.0
 10
1666.326197755587
 20
1943.454926448656
 30
0.0
 10
1666.35002873975
 20
1943.356969983699
 30
0.0
 10
1666.357345026678
 20
1943.308665474821
 30
0.0
 10
1666.359921452411
 20
1943.26105529382
 30
0.0
  0
LWPOLYLINE
  5
15860
330
18
100
AcDbEntity
  8
姿図
100
AcDbPolyline
 90
       34
 70
   128
 43
0.0
 10
1657.819452404581
 20
1931.53153805906
 10
1657.549545151968
 20
1932.180354340726
 10
1657.311787162881
 20
1932.832251510617
 10
1657.10697231152
 20
1933.485048155152
 10
1656.935786818626
 20
1934.136558966866
 10
1656.79880390704
 20
1934.78460341518
 10
1656.696481581644
 20
1935.427012987668
 10
1656.629162907492
 20
1936.06163731153
 10
1656.597072503045
 20
1936.686352649483
 10
1656.600317416549
 20
1937.299068227599
 10
1656.638887970178
 20
1937.897733158628
 10
1656.712654306979
 20
1938.480343945414
 10
1656.821369709593
 20
1939.044950721115
 10
1656.964670250087
 20
1939.589663720105
 10
1657.142076864936
 20
1940.112659978836
 10
1657.352995037086
 20
1940.612189211261
 10
1657.596718738682
 20
1941.086579779023
 10
1657.872433220306
 20
1941.534243454965
 10
1658.179215269782
 20
1941.953681901889
 10
1658.516038445906
 20
1942.343491308737
 10
1658.881774576684
 20
1942.70236848811
 10
1659.275199887767
 20
1943.029110240384
 10
1659.694998033302
 20
1943.322624913563
 10
1660.139763951727
 20
1943.581928718812
 10
1660.608009512988
 20
1943.806153987093
 10
1661.09816644526
 20
1943.994551391944
 10
1661.608595183368
 20
1944.146489726144
 10
1662.137587107045
 20
1944.261459585476
 10
1662.683371909307
 20
1944.339077972899
 10
1663.244122726055
 20
1944.379083597655
 10
1663.817963125847
 20
1944.381342845116
 10
1664.402972188193
 20
1944.345848839309
 10
1664.997192181285
 20
1944.272720330472
 10
1665.598634423658
 20
1944.162201765836
  0
SPLINE
  5
15861
330
18
100
AcDbEntity
  8
姿図
100
AcDbSpline
210
0.0
220
0.0
230
1.0
 70
     8
 71
     3
 72
    20
 73
    16
 74
     0
 42
0.000000001
 43
0.0000000001
 40
0.0
 40
0.0
 40
0.0
 40
0.0
 40
0.1250000000000001
 40
0.1250000000000001
 40
0.2500000000000002
 40
0.2500000000000002
 40
0.3750000000000003
 40
0.3750000000000003
 40
0.5000000000000004
 40
0.5000000000000004
 40
0.7500000000000002
 40
0.7500000000000002
 40
0.8750000000000001
 40
0.8750000000000001
 40
1.0
 40
1.0
 40
1.0
 40
1.0
 10
1658.771291896125
 20
1930.939782903491
 30
0.0
 10
1658.732352170215
 20
1930.928351868916
 30
0.0
 10
1658.691472869301
 20
1930.922100556299
 30
0.0
 10
1658.605976426075
 20
1930.919580003997
 30
0.0
 10
1658.560805643492
 20
1930.923462894797
 30
0.0
 10
1658.469945171332
 20
1930.941276440877
 30
0.0
 10
1658.424169191316
 20
1930.955065277014
 30
0.0
 10
1658.331918766222
 20
1930.992505596618
 30
0.0
 10
1658.285718803626
 20
1931.016176193216
 30
0.0
 10
1658.152428340551
 20
1931.098948824805
 30
0.0
 10
1658.067618219466
 20
1931.171885937983
 30
0.0
 10
1657.959355116215
 20
1931.29701993793
 30
0.0
 10
1657.925747744259
 20
1931.342118778453
 30
0.0
 10
1657.866858958687
 20
1931.434598347323
 30
0.0
 10
1657.841204224876
 20
1931.482310185938
 30
0.0
 10
1657.819452164002
 20
1931.531537977847
 30
0.0
  0
LINE
  5
15862
330
18
100
AcDbEntity
  8
姿図
100
AcDbLine
 10
1658.771291585022
 20
1930.939783048836
 30
0.0
 11
1663.419216152938
 21
1932.304214341278
 31
0.0
  0
SPLINE
  5
15863
330
18
100
AcDbEntity
  8
姿図
100
AcDbSpline
210
0.0
220
0.0
230
1.0
 70
     8
 71
     3
 72
    14
 73
    10
 74
     0
 42
0.000000001
 43
0.0000000001
 40
0.0
 40
0.0
 40
0.0
 40
0.0
 40
0.25
 40
0.25
 40
0.5
 40
0.5
 40
0.75
 40
0.75
 40
1.0
 40
1.0
 40
1.0
 40
1.0
 10
1663.604464848503
 20
1932.855948461879
 30
0.0
 10
1663.627696333041
 20
1932.793253792246
 30
0.0
 10
1663.641055022717
 20
1932.731519368344
 30
0.0
 10
1663.647807487201
 20
1932.611358171004
 30
0.0
 10
1663.640982048575
 20
1932.555597497389
 30
0.0
 10
1663.607294627492
 20
1932.455111577461
 30
0.0
 10
1663.580943025977
 20
1932.412145159716
 30
0.0
 10
1663.510961633059
 20
1932.343431476657
 30
0.0
 10
1663.468418182081
 20
1932.318657862661
 30
0.0
 10
1663.41921627968
 20
1932.304214292905
 30
0.0
  0
LWPOLYLINE
  5
15864
330
18
100
AcDbEntity
  8
姿図
100
AcDbPolyline
 90
       19
 70
   128
 43
0.0
 10
1663.604464903734
 20
1932.85594845843
 10
1663.473006826084
 20
1933.257067826648
 10
1663.376285472398
 20
1933.65671403966
 10
1663.315213925043
 20
1934.05111655476
 10
1663.290367694503
 20
1934.436554822891
 10
1663.301981649061
 20
1934.809392503162
 10
1663.349945997168
 20
1935.166112290805
 10
1663.433808161446
 20
1935.50334885482
 10
1663.552777139596
 20
1935.817920864229
 10
1663.705730441945
 20
1936.10686044556
 10
1663.891225029754
 20
1936.367441907413
 10
1664.107511498206
 20
1936.597206812409
 10
1664.352548642293
 20
1936.793987604045
 10
1664.62402551947
 20
1936.955927834503
 10
1664.919380447838
 20
1937.081499899758
 10
1665.235827354758
 20
1937.169519264458
 10
1665.570380799597
 20
1937.219155034731
 10
1665.919884645905
 20
1937.229939252242
 10
1666.281041602386
 20
1937.201769987275
  0
LWPOLYLINE
  5
15865
330
18
100
AcDbEntity
  8
姿図
100
AcDbPolyline
 90
       62
 70
   128
 43
0.0
 10
1667.341498971001
 20
1929.656701915364
 10
1666.994996041602
 20
1929.781236407813
 10
1666.650190397757
 20
1929.940960413034
 10
1666.310737114072
 20
1930.134180617178
 10
1665.980234458727
 20
1930.358848601877
 10
1665.662185854935
 20
1930.612583163184
 10
1665.359962651695
 20
1930.892694567689
 10
1665.076768594893
 20
1931.19621328247
 10
1664.815605400487
 20
1931.519922269835
 10
1664.579241564139
 20
1931.860390004212
 10
1664.370182935739
 20
1932.214007474555
 10
1664.190645067142
 20
1932.577026202835
 10
1664.042531249578
 20
1932.94559810388
 10
1663.927411876695
 20
1933.315816186666
 10
1663.846506648127
 20
1933.683756255692
 10
1663.800673827323
 20
1934.045517759998
 10
1663.790398809829
 20
1934.397266123015
 10
1663.815790435369
 20
1934.735272739249
 10
1663.87658006716
 20
1935.055954510115
 10
1663.972122867642
 20
1935.355912206453
 10
1664.101406225655
 20
1935.63196618231
 10
1664.263059490201
 20
1935.881190466893
 10
1664.455369412696
 20
1936.100942719276
 10
1664.676297278426
 20
1936.288893936781
 10
1664.923501266408
 20
1936.443051636323
 10
1665.194360870624
 20
1936.561781542846
 10
1665.486005039282
 20
1936.643825323365
 10
1665.795342190064
 20
1936.688313215562
 10
1666.119093289314
 20
1936.694773527774
 10
1666.453826493119
 20
1936.663137910934
 10
1666.795993520175
 20
1936.59374172553
 10
1667.141967356322
 20
1936.487320563638
 10
1667.488080550453
 20
1936.345002529083
 10
1667.830664256732
 20
1936.168296228098
 10
1668.166086977357
 20
1935.95907479215
 10
1668.490793160774
 20
1935.719555885278
 10
1668.80134084635
 20
1935.452278569403
 10
1669.094438058453
 20
1935.160076182076
 10
1669.366978051138
 20
1934.846045820125
 10
1669.616071729475
 20
1934.513516505643
 10
1669.839078693328
 20
1934.166013247314
 10
1670.033634872425
 20
1933.807219339516
 10
1670.197678194613
 20
1933.440938407573
 10
1670.329469567057
 20
1933.071052975975
 10
1670.427612138175
 20
1932.7014838387
 10
1670.491065113159
 20
1932.336148723523
 10
1670.519156397196
 20
1931.978920097005
 10
1670.51158813664
 20
1931.633584705114
 10
1670.468440118561
 20
1931.303803274879
 10
1670.390170360082
 20
1930.993071470842
 10
1670.277607948559
 20
1930.704683283935
 10
1670.131946431658
 20
1930.441695519952
 10
1669.954730008173
 20
1930.20689582002
 10
1669.747836672067
 20
1930.00277349209
 10
1669.513459893398
 20
1929.831492041691
 10
1669.25408421429
 20
1929.694867165897
 10
1668.972458899813
 20
1929.594346907116
 10
1668.671569325579
 20
1929.530997031478
 10
1668.354604939829
 20
1929.505489178561
 10
1668.024925693794
 20
1929.518093386072
 10
1667.686026221718
 20
1929.568676303587
 10
1667.341498971001
 20
1929.656701915364
  0
SPLINE
  5
15866
330
18
100
AcDbEntity
  8
姿図
100
AcDbSpline
210
0.0
220
0.0
230
1.0
 70
     8
 71
     3
 72
     8
 73
     4
 74
     0
 42
0.000000001
 43
0.0000000001
 40
0.0000002009667854
 40
0.0000002009667854
 40
0.0000002009667854
 40
0.0000002009667854
 40
0.0060293795137554
 40
0.0060293795137554
 40
0.0060293795137554
 40
0.0060293795137554
 10
1666.764020955253
 20
1944.452538153019
 30
0.0
 10
1667.243446298438
 20
1944.749247716173
 30
0.0
 10
1667.72296682456
 20
1945.045748459324
 30
0.0
 10
1668.202588610479
 20
1945.342026681985
 30
0.0
  0
LWPOLYLINE
  5
15867
330
18
100
AcDbEntity
  8
姿図
100
AcDbPolyline
 90
       36
 70
   128
 43
0.0
 10
1668.202588621447
 20
1945.342026366299
 10
1668.841705900504
 20
1945.107517216205
 10
1669.47961079385
 20
1944.836141922146
 10
1670.114148199902
 20
1944.528819479831
 10
1670.743174755348
 20
1944.186587697272
 10
1671.364565458382
 20
1943.810601157484
 10
1671.976220967824
 20
1943.402131471711
 10
1672.576075073606
 20
1942.962558735449
 10
1673.162101651154
 20
1942.493366890849
 10
1673.732320892943
 20
1941.996141185296
 10
1674.284806675858
 20
1941.472561532964
 10
1674.817692379266
 20
1940.924396352941
 10
1675.329178149259
 20
1940.35349783632
 10
1675.817535580408
 20
1939.761794260029
 10
1676.281115289867
 20
1939.151285158621
 10
1676.718351082525
 20
1938.52403192318
 10
1677.127766251306
 20
1937.882153989538
 10
1677.507977742315
 20
1937.227819437188
 10
1677.857700767851
 20
1936.563238573473
 10
1678.175753402224
 20
1935.89065783536
 10
1678.461062743556
 20
1935.21234727576
 10
1678.712663743084
 20
1934.53059967442
 10
1678.929707226118
 20
1933.847717452363
 10
1679.111458927583
 20
1933.166007971699
 10
1679.257306738577
 20
1932.487773499004
 10
1679.366754887293
 20
1931.815306124582
 10
1679.439436732958
 20
1931.150876566012
 10
1679.475105247781
 20
1930.496729873866
 10
1679.473640868195
 20
1929.855075482353
 10
1679.435046919506
 20
1929.228081667944
 10
1679.359456259917
 20
1928.61786538578
 10
1679.24712170233
 20
1928.026489086961
 10
1679.098423882766
 20
1927.455950451604
 10
1678.913864270596
 20
1926.908176418991
 10
1678.694067913802
 20
1926.385017502433
 10
1678.439776500771
 20
1925.888240866645
  0
SPLINE
  5
15868
330
18
100
AcDbEntity
  8
姿図
100
AcDbSpline
210
0.0
220
0.0
230
1.0
 70
     8
 71
     3
 72
     8
 73
     4
 74
     0
 42
0.000000001
 43
0.0000000001
 40
0.0000002009785754
 40
0.0000002009785754
 40
0.0000002009785754
 40
0.0000002009785754
 40
0.0060293795255453
 40
0.0060293795255453
 40
0.0060293795255453
 40
0.0060293795255453
 10
1678.439776475232
 20
1925.888240789561
 30
0.0
 10
1678.032378806077
 20
1925.454714670082
 30
0.0
 10
1677.624858943543
 20
1925.021390659442
 30
0.0
 10
1677.217224473811
 20
1924.588256494177
 30
0.0
  0
LINE
  5
15869
330
18
100
AcDbEntity
  8
姿図
100
AcDbLine
 10
1668.022388026454
 20
1945.665940886711
 30
0.0
 11
1666.697801983848
 21
1944.574596916279
 31
0.0
  0
LINE
  5
1586A
330
18
100
AcDbEntity
  8
姿図
100
AcDbLine
 10
1668.202588621447
 20
1945.342026366299
 30
0.0
 11
1668.022388026454
 21
1945.665940886711
 31
0.0
  0
LINE
  5
1586B
330
18
100
AcDbEntity
  8
姿図
100
AcDbLine
 10
1667.689679559311
 20
1945.768281636055
 30
0.0
 11
1666.365093516705
 21
1944.676937665623
 31
0.0
  0
ARC
  5
1586C
330
18
100
AcDbEntity
  8
姿図
100
AcDbCircle
 10
1664.096692003185
 20
1933.495539186381
 30
0.0
 40
12.78787577412633
100
AcDbArc
 50
72.12232682893149
 51
73.68199637980786
  0
ARC
  5
1586D
330
18
100
AcDbEntity
  8
姿図
100
AcDbCircle
 10
1664.907431638733
 20
1937.632096211091
 30
0.0
 40
8.335339184571154
100
AcDbArc
 50
72.2436753231033
 51
120.3746311813586
  0
ELLIPSE
  5
1586E
330
18
100
AcDbEntity
  8
姿図
100
AcDbEllipse
 10
1674.746916588788
 20
1938.403626297696
 30
0.0
 11
56.17358455628104
 21
41.31809825660179
 31
0.0
210
0.0
220
0.0
230
1.0
 40
0.0533480128969007
 41
1.639458287903243
 42
1.666830992512704
  0
LINE
  5
1586F
330
18
100
AcDbEntity
  8
姿図
100
AcDbLine
 10
1668.384293645742
 20
1943.17852185951
 30
0.0
 11
1668.693913373226
 21
1938.558560981121
 31
0.0
  0
SPLINE
  5
15870
330
18
100
AcDbEntity
  8
姿図
100
AcDbSpline
210
0.0
220
0.0
230
1.0
 70
     8
 71
     3
 72
    11
 73
     7
 74
     0
 42
0.000000001
 43
0.0000000001
 40
0.0
 40
0.0
 40
0.0
 40
0.0
 40
0.0029023229737257
 40
0.0029023229737257
 40
0.0029023229737257
 40
0.0060678074304109
 40
0.0060678074304109
 40
0.0060678074304109
 40
0.0060678074304109
 10
1657.819452164002
 20
1931.531537977847
 30
0.0
 10
1658.045263100249
 20
1931.734835402906
 30
0.0
 10
1658.271124899241
 20
1931.938158442273
 30
0.0
 10
1658.497038969954
 20
1932.141507738895
 30
0.0
 10
1658.743437279557
 20
1932.363295265402
 30
0.0
 10
1658.989897784523
 20
1932.585114040605
 30
0.0
 10
1659.23642239393
 20
1932.806964930334
 30
0.0
  0
LWPOLYLINE
  5
15871
330
18
100
AcDbEntity
  8
姿図
100
AcDbPolyline
 90
       21
 70
   128
 43
0.0
 10
1659.236422528884
 20
1932.806964767279
 10
1658.974233765213
 20
1933.456944624792
 10
1658.744947025117
 20
1934.10949587225
 10
1658.549356003878
 20
1934.762361573653
 10
1658.388136793461
 20
1935.41328458429
 10
1658.26184628646
 20
1936.060014521978
 10
1658.170921802293
 20
1936.700314674647
 10
1658.115676923395
 20
1937.331971376617
 10
1658.096303595717
 20
1937.952800238042
 10
1658.112868000632
 20
1938.560654861195
 10
1658.165313253405
 20
1939.153433281236
 10
1658.253458373415
 20
1939.729085734343
 10
1658.376997902568
 20
1940.285621709197
 10
1658.535505170309
 20
1940.821117179674
 10
1658.728431373145
 20
1941.333720353296
 10
1658.955110670884
 20
1941.821658848135
 10
1659.214758069687
 20
1942.283245028527
 10
1659.506476325903
 20
1942.716883562881
 10
1659.829257013639
 20
1943.121074218324
 10
1660.181983107762
 20
1943.494420435281
 10
1660.438828660633
 20
1943.7304518393
  0
SPLINE
  5
15872
330
18
100
AcDbEntity
  8
姿図
100
AcDbSpline
210
0.0
220
0.0
230
1.0
 70
     8
 71
     3
 72
    11
 73
     7
 74
     0
 42
0.000000001
 43
0.0000000001
 40
0.0
 40
0.0
 40
0.0
 40
0.0
 40
0.0030000001625291
 40
0.0030000001625291
 40
0.0030000001625291
 40
0.0063804356926243
 40
0.0063804356926243
 40
0.0063804356926243
 40
0.0063804356926243
 10
1670.852934516373
 20
1930.626327365136
 30
0.0
 10
1671.084219077087
 20
1930.818884869266
 30
0.0
 10
1671.315410028845
 20
1931.011533914825
 30
0.0
 10
1671.546507588414
 20
1931.204274077519
 30
0.0
 10
1671.806911037688
 20
1931.421455960669
 30
0.0
 10
1672.067195941354
 20
1931.63875356259
 30
0.0
 10
1672.327362538461
 20
1931.856166343036
 30
0.0
  0
SPLINE
  5
15873
330
18
100
AcDbEntity
  8
姿図
100
AcDbSpline
210
0.0
220
0.0
230
1.0
 70
     8
 71
     3
 72
    11
 73
     7
 74
     0
 42
0.000000001
 43
0.0000000001
 40
0.0
 40
0.0
 40
0.0
 40
0.0
 40
0.003000000161016
 40
0.003000000161016
 40
0.003000000161016
 40
0.0063804356943711
 40
0.0063804356943711
 40
0.0063804356943711
 40
0.0063804356943711
 10
1669.126764294937
 20
1937.938281253863
 30
0.0
 10
1668.88860990481
 20
1937.759145752462
 30
0.0
 10
1668.65046986921
 20
1937.579896625517
 30
0.0
 10
1668.412344376067
 20
1937.400533578834
 30
0.0
 10
1668.144021768303
 20
1937.198425187216
 30
0.0
 10
1667.875717590326
 20
1936.996172126726
 30
0.0
 10
1667.607432119207
 20
1936.793773892632
 30
0.0
  0
LWPOLYLINE
  5
15874
330
18
100
AcDbEntity
  8
姿図
100
AcDbPolyline
 90
       24
 70
   128
 43
0.0
 10
1671.996347710628
 20
1943.388020887008
 10
1672.205938754502
 20
1943.506123559547
 10
1672.505386905373
 20
1943.632399069532
 10
1672.825371494981
 20
1943.722091634804
 10
1673.163096949582
 20
1943.774417517238
 10
1673.515611938816
 20
1943.788919151709
 10
1673.879836601458
 20
1943.765470200534
 10
1674.252588393483
 20
1943.704275097922
 10
1674.630610346262
 20
1943.605869102284
 10
1675.010599453274
 20
1943.471111750634
 10
1675.389235487234
 20
1943.301180805209
 10
1675.763210126579
 20
1943.097560483458
 10
1676.129255582788
 20
1942.86203046619
 10
1676.484173821016
 20
1942.59664816484
 10
1676.824863233107
 20
1942.303733021596
 10
1677.148347341373
 20
1941.985844251094
 10
1677.451799508583
 20
1941.645759186003
 10
1677.732568293319
 20
1941.286449550254
 10
1677.988200679036
 20
1940.911054794847
 10
1678.216462729479
 20
1940.522855132233
 10
1678.415360063126
 20
1940.125242284086
 10
1678.583154652306
 20
1939.721690578849
 10
1678.718380817327
 20
1939.315726032686
 10
1678.819856628588
 20
1938.910895827956
  0
LINE
  5
15875
330
18
100
AcDbEntity
  8
姿図
100
AcDbLine
 10
1678.819856628588
 20
1938.910895827956
 30
0.0
 11
1678.274627002877
 21
1938.477942525193
 31
0.0
  0
ARC
  5
15876
330
18
100
AcDbEntity
  8
姿図
100
AcDbCircle
 10
1674.04069816853
 20
1937.550115355238
 30
0.0
 40
4.334399223839221
100
AcDbArc
 50
353.8346193506468
 51
12.36046218126854
  0
ARC
  5
15877
330
18
100
AcDbEntity
  8
姿図
100
AcDbCircle
 10
1676.236751385063
 20
1937.681930376278
 30
0.0
 40
2.645713580229949
100
AcDbArc
 50
317.2127027231953
 51
344.2302846054366
  0
SPLINE
  5
15878
330
18
100
AcDbEntity
  8
姿図
100
AcDbSpline
210
0.0
220
0.0
230
1.0
 70
     8
 71
     3
 72
    11
 73
     7
 74
     0
 42
0.000000001
 43
0.0000000001
 40
0.0
 40
0.0
 40
0.0
 40
0.0
 40
0.0028515337728998
 40
0.0028515337728998
 40
0.0028515337728998
 40
0.0061035791182803
 40
0.0061035791182803
 40
0.0061035791182803
 40
0.0061035791182803
 10
1676.060631622852
 20
1925.621601498341
 30
0.0
 10
1676.253023037032
 20
1925.829206019282
 30
0.0
 10
1676.445351605794
 20
1926.036858341964
 30
0.0
 10
1676.637615667243
 20
1926.244559682302
 30
0.0
 10
1676.856884135015
 20
1926.481433668563
 30
0.0
 10
1677.076068717098
 20
1926.718371420496
 30
0.0
 10
1677.295166841276
 20
1926.955374817719
 30
0.0
  0
ELLIPSE
  5
15879
330
18
100
AcDbEntity
  8
姿図
100
AcDbEllipse
 10
1674.285701678294
 20
1939.280075595851
 30
0.0
 11
53.77034390557014
 21
45.8703423074336
 31
0.0
210
0.0
220
0.0
230
1.0
 40
0.0718509924817563
 41
4.59209734412743
 42
4.619470048736889
  0
LINE
  5
1587A
330
18
100
AcDbEntity
  8
姿図
100
AcDbLine
 10
1677.295167145576
 20
1926.955374635851
 30
0.0
 11
1672.578216984952
 21
1931.177196858791
 31
0.0
  0
SPLINE
  5
1587B
330
18
100
AcDbEntity
  8
姿図
100
AcDbSpline
210
0.0
220
0.0
230
1.0
 70
     8
 71
     3
 72
    14
 73
    10
 74
     0
 42
0.000000001
 43
0.0000000001
 40
0.0
 40
0.0
 40
0.0
 40
0.0
 40
0.2499999999999999
 40
0.2499999999999999
 40
0.4999999999999999
 40
0.4999999999999999
 40
0.7499999999999998
 40
0.7499999999999998
 40
1.0
 40
1.0
 40
1.0
 40
1.0
 10
1668.693913425205
 20
1938.55856111241
 30
0.0
 10
1668.697832697933
 20
1938.50005609298
 30
0.0
 10
1668.711373250478
 20
1938.440128984589
 30
0.0
 10
1668.75745077914
 20
1938.318141396368
 30
0.0
 10
1668.788874579812
 20
1938.259119117195
 30
0.0
 10
1668.867678202821
 20
1938.146346610287
 30
0.0
 10
1668.913345706587
 20
1938.095099433873
 30
0.0
 10
1669.015578561096
 20
1938.004578164203
 30
0.0
 10
1669.069671854942
 20
1937.967370279644
 30
0.0
 10
1669.126764294937
 20
1937.938281253863
 30
0.0
  0
LINE
  5
1587C
330
18
100
AcDbEntity
  8
姿図
100
AcDbLine
 10
1677.295167145576
 20
1926.955374635851
 30
0.0
 11
1677.40392252706
 21
1926.87994694683
 31
0.0
  0
LINE
  5
1587D
330
18
100
AcDbEntity
  8
姿図
100
AcDbLine
 10
1678.604585210852
 20
1925.556530985992
 30
0.0
 11
1677.279999168246
 21
1924.46518701556
 31
0.0
  0
LINE
  5
1587E
330
18
100
AcDbEntity
  8
姿図
100
AcDbLine
 10
1678.604585210852
 20
1925.556530985992
 30
0.0
 11
1678.439776500771
 21
1925.888240866645
 31
0.0
  0
LINE
  5
1587F
330
18
100
AcDbEntity
  8
姿図
100
AcDbLine
 10
1678.454212685867
 20
1925.312378103924
 30
0.0
 11
1677.129626643261
 21
1924.221034133493
 31
0.0
  0
ARC
  5
15880
330
18
100
AcDbEntity
  8
姿図
100
AcDbCircle
 10
1672.446911481221
 20
1929.180627806874
 30
0.0
 40
7.144999896971008
100
AcDbArc
 50
327.2215139438857
 51
329.5210750904925
  0
SPLINE
  5
15881
330
18
100
AcDbEntity
  8
姿図
100
AcDbSpline
210
0.0
220
0.0
230
1.0
 70
     8
 71
     3
 72
    14
 73
    10
 74
     0
 42
0.000000001
 43
0.0000000001
 40
0.0
 40
0.0
 40
0.0
 40
0.0
 40
0.25
 40
0.25
 40
0.5
 40
0.5
 40
0.75
 40
0.75
 40
1.0
 40
1.0
 40
1.0
 40
1.0
 10
1672.327362538461
 20
1931.856166343036
 30
0.0
 10
1672.312067611152
 20
1931.805827719973
 30
0.0
 10
1672.306409246975
 20
1931.75076582445
 30
0.0
 10
1672.314388128202
 20
1931.631738793102
 30
0.0
 10
1672.327850804773
 20
1931.570806064368
 30
0.0
 10
1672.373470117869
 20
1931.447249854887
 30
0.0
 10
1672.404593123049
 20
1931.387509095596
 30
0.0
 10
1672.482570250644
 20
1931.273823855185
 30
0.0
 10
1672.527430516015
 20
1931.222649944667
 30
0.0
 10
1672.578217132884
 20
1931.177196848256
 30
0.0
  0
SPLINE
  5
15882
330
18
100
AcDbEntity
  8
姿図
100
AcDbSpline
210
0.0
220
0.0
230
1.0
 70
     8
 71
     3
 72
    11
 73
     7
 74
     0
 42
0.000000001
 43
0.0000000001
 40
0.0
 40
0.0
 40
0.0
 40
0.0
 40
0.0031654844357023
 40
0.0031654844357023
 40
0.0031654844357023
 40
0.0060678073901895
 40
0.0060678073901895
 40
0.0060678073901895
 40
0.0060678073901895
 10
1660.442338910172
 20
1930.515354966637
 30
0.0
 10
1660.171749913075
 20
1930.339233768687
 30
0.0
 10
1659.901240126744
 20
1930.16311597863
 30
0.0
 10
1659.630807251758
 20
1929.987001472406
 30
0.0
 10
1659.382856721005
 20
1929.825528185203
 30
0.0
 10
1659.134970831702
 20
1929.664057648989
 30
0.0
 10
1658.887147883722
 20
1929.502589774092
 30
0.0
  0
LWPOLYLINE
  5
15883
330
18
100
AcDbEntity
  8
姿図
100
AcDbPolyline
 90
       31
 70
   128
 43
0.0
 10
1676.19595823314
 20
1924.39297588986
 10
1676.088616710335
 20
1924.31461284251
 10
1675.658688327458
 20
1924.034355339011
 10
1675.203971600428
 20
1923.789249759614
 10
1674.726038597191
 20
1923.580144200225
 10
1674.226542559651
 20
1923.407760601391
 10
1673.707210191575
 20
1923.272696495924
 10
1673.169836837835
 20
1923.175418371868
 10
1672.616281285551
 20
1923.116262022445
 10
1672.048457225538
 20
1923.095432674083
 10
1671.468328259683
 20
1923.113001525279
 10
1670.877899930797
 20
1923.168909447423
 10
1670.279214247773
 20
1923.262961173569
 10
1669.674341083144
 20
1923.394832941393
 10
1669.065371971042
 20
1923.564068154862
 10
1668.454412606199
 20
1923.770081565357
 10
1667.843575557903
 20
1924.012160888241
 10
1667.234972915208
 20
1924.289469689795
 10
1666.630708992174
 20
1924.601047757253
 10
1666.032873438367
 20
1924.945819464077
 10
1665.443533186385
 20
1925.322591250035
 10
1664.864726152067
 20
1925.730061054287
 10
1664.298453401834
 20
1926.166819475498
 10
1663.74667361011
 20
1926.631356473575
 10
1663.211294245774
 20
1927.12206657914
 10
1662.694166235822
 20
1927.637251784193
 10
1662.197078250916
 20
1928.175131419764
 10
1661.721748924538
 20
1928.733845173895
 10
1661.269822102491
 20
1929.311462048179
 10
1660.842859957266
 20
1929.905983724983
 10
1660.442338754129
 20
1930.515355238901
  0
ARC
  5
15884
330
18
100
AcDbEntity
  8
姿図
100
AcDbCircle
 10
1674.399237535094
 20
1941.413044330908
 30
0.0
 40
4.853346999046291
100
AcDbArc
 50
167.1212514208457
 51
181.278898664422
  0
LWPOLYLINE
  5
15885
330
18
100
AcDbEntity
  8
姿図
100
AcDbPolyline
 90
       42
 70
   128
 43
0.0
 10
1670.634222041441
 20
1944.248589909162
 10
1670.661302190463
 20
1944.274217785151
 10
1670.941288843362
 20
1944.506910822471
 10
1671.247472037796
 20
1944.706042190307
 10
1671.577814345457
 20
1944.870286702274
 10
1671.930117090046
 20
1944.998551156942
 10
1672.30203608234
 20
1945.089981989896
 10
1672.691096098381
 20
1945.143970813969
 10
1673.094708025842
 20
1945.160158514146
 10
1673.510185915492
 20
1945.138436873234
 10
1673.934764755741
 20
1945.078950912014
 10
1674.365619182807
 20
1944.982096257054
 10
1674.799881810092
 20
1944.848517562559
 10
1675.234662777375
 20
1944.679103746274
 10
1675.667068574744
 20
1944.474982199265
 10
1676.094221729283
 20
1944.237511481104
 10
1676.51327958129
 20
1943.968271484372
 10
1676.921453338173
 20
1943.669054450678
 10
1677.31602670832
 20
1943.341851431305
 10
1677.694373708755
 20
1942.988839938919
 10
1678.053976842696
 20
1942.612368987072
 10
1678.392442677669
 20
1942.214944304671
 10
1678.707518955488
 20
1941.799210580833
 10
1678.997108930687
 20
1941.36793424995
 10
1679.259285157981
 20
1940.923985197027
 10
1679.492303279729
 20
1940.470318463014
 10
1679.6946123271
 20
1940.00995280642
 10
1679.864865796149
 20
1939.545951837305
 10
1680.001931294891
 20
1939.081403404693
 10
1680.104895916811
 20
1938.619399127414
 10
1680.173075300444
 20
1938.16301337665
 10
1680.206015006409
 20
1937.71528346028
 10
1680.203496519755
 20
1937.279188794358
 10
1680.165535850614
 20
1936.857631716987
 10
1680.09238551537
 20
1936.453417769843
 10
1679.984533135693
 20
1936.069236541824
 10
1679.842696262344
 20
1935.707644708455
 10
1679.667818123718
 20
1935.371048874694
 10
1679.461063342162
 20
1935.061689013204
 10
1679.22380746601
 20
1934.781623570688
 10
1678.957629135665
 20
1934.532716574714
 10
1678.762483994529
 20
1934.38315516687
  0
ARC
  5
15886
330
18
100
AcDbEntity
  8
姿図
100
AcDbCircle
 10
1676.698519976926
 20
1938.609621085291
 30
0.0
 40
4.841923515280719
100
AcDbArc
 50
257.6754495515722
 51
271.8666685340012
  0
SPLINE
  5
15887
330
18
100
AcDbEntity
  8
姿図
100
AcDbSpline
210
0.0
220
0.0
230
1.0
 70
     8
 71
     3
 72
    15
 73
    11
 74
     0
 42
0.000000001
 43
0.0000000001
 40
0.0
 40
0.0
 40
0.0
 40
0.0
 40
0.0979833410032234
 40
0.244474110666593
 40
0.3909327906291301
 40
0.5373779119605696
 40
0.6838319645663464
 40
0.830314556600868
 40
0.9768375028463959
 40
1.0
 40
1.0
 40
1.0
 40
1.0
 10
1679.899371106165
 20
1937.457629733528
 30
0.0
 10
1679.932412344964
 20
1937.484781944498
 30
0.0
 10
1680.014852149403
 20
1937.55252828343
 30
0.0
 10
1680.071431704293
 20
1937.732259886601
 30
0.0
 10
1680.066718730649
 20
1937.961684145043
 30
0.0
 10
1679.983502473761
 20
1938.20491495057
 30
0.0
 10
1679.8339402883
 20
1938.431390908006
 30
0.0
 10
1679.634308881988
 20
1938.615830753004
 30
0.0
 10
1679.470194054905
 20
1938.704713648013
 30
0.0
 10
1679.382354610341
 20
1938.73380284586
 30
0.0
 10
1679.370364301426
 20
1938.737773595789
 30
0.0
  0
LINE
  5
15888
330
18
100
AcDbEntity
  8
姿図
100
AcDbLine
 10
1679.370364301426
 20
1938.737773595789
 30
0.0
 11
1678.819856628588
 21
1938.910895827956
 31
0.0
  0
LWPOLYLINE
  5
15889
330
18
100
AcDbEntity
  8
姿図
100
AcDbPolyline
 90
        3
 70
   128
 43
0.0
 10
1671.361307264371
 20
1944.858902850738
 10
1671.494487486463
 20
1944.962698505701
 10
1671.540054586099
 20
1944.995638201583
  0
LWPOLYLINE
  5
1588A
330
18
100
AcDbEntity
  8
姿図
100
AcDbPolyline
 90
        3
 70
   128
 43
0.0
 10
1679.669024199455
 20
1935.129344936956
 10
1679.510827778766
 20
1934.988504257944
 10
1679.500619454625
 20
1934.980056929213
  0
SPLINE
  5
1588B
330
18
100
AcDbEntity
  8
姿図
100
AcDbSpline
210
0.0
220
0.0
230
1.0
 70
     8
 71
     3
 72
    11
 73
     7
 74
     0
 42
0.000000001
 43
0.0000000001
 40
0.0
 40
0.0
 40
0.0
 40
0.0
 40
0.0032520453197092
 40
0.0032520453197092
 40
0.0032520453197092
 40
0.0061035790700993
 40
0.0061035790700993
 40
0.0061035790700993
 40
0.0061035790700993
 10
1660.20130091392
 20
1932.213428702591
 30
0.0
 10
1659.947196476148
 20
1931.987193207957
 30
0.0
 10
1659.693162714827
 20
1931.760975024264
 30
0.0
 10
1659.439197606088
 20
1931.534773685642
 30
0.0
 10
1659.216510031497
 20
1931.336430583642
 30
0.0
 10
1658.993875231251
 20
1931.138100423592
 30
0.0
 10
1658.771291896125
 20
1930.939782903491
 30
0.0
  0
LINE
  5
1588C
330
18
100
AcDbEntity
  8
姿図
100
AcDbLine
 10
1660.201300664092
 20
1932.213428691171
 30
0.0
 11
1663.502751242161
 21
1933.211235829349
 31
0.0
  0
LINE
  5
1588D
330
18
100
AcDbEntity
  8
姿図
100
AcDbLine
 10
1678.274627002877
 20
1938.477942525193
 30
0.0
 11
1678.829925458884
 21
1938.292498881105
 31
0.0
  0
LWPOLYLINE
  5
1588E
330
18
100
AcDbEntity
  8
姿図
100
AcDbPolyline
 90
       14
 70
   128
 43
0.0
 10
1678.829925458884
 20
1938.292498881105
 10
1678.987287946872
 20
1938.221120880445
 10
1679.136900218821
 20
1938.115736606041
 10
1679.270354081519
 20
1937.982268864327
 10
1679.380148624488
 20
1937.828219198192
 10
1679.460112824116
 20
1937.662245890625
 10
1679.505752420313
 20
1937.493677387652
 10
1679.514502247923
 20
1937.331987931277
 10
1679.48587052698
 20
1937.18626520171
 10
1679.421466511317
 20
1937.064699394383
 10
1679.324909905774
 20
1936.974123108856
 10
1679.20162770505
 20
1936.919627090765
 10
1679.058549127243
 20
1936.904274191719
 10
1678.903715148256
 20
1936.92892747228
  0
LINE
  5
1588F
330
18
100
AcDbEntity
  8
姿図
100
AcDbLine
 10
1678.903715148256
 20
1936.92892747228
 30
0.0
 11
1678.350027392154
 21
1937.084606736587
 31
0.0
  0
LINE
  5
15890
330
18
100
AcDbEntity
  8
姿図
100
AcDbLine
 10
1678.829925458884
 20
1938.292498881105
 30
0.0
 11
1679.370364301426
 21
1938.737773595789
 31
0.0
  0
SPLINE
  5
15891
330
18
100
AcDbEntity
  8
姿図
100
AcDbSpline
210
0.0
220
0.0
230
1.0
 70
     8
 71
     3
 72
    22
 73
    18
 74
     0
 42
0.000000001
 43
0.0000000001
 40
0.0
 40
0.0
 40
0.0
 40
0.0
 40
0.125
 40
0.125
 40
0.25
 40
0.25
 40
0.375
 40
0.375
 40
0.5
 40
0.5
 40
0.625
 40
0.625
 40
0.75
 40
0.75
 40
0.875
 40
0.875
 40
1.0
 40
1.0
 40
1.0
 40
1.0
 10
1659.23642239393
 20
1932.806964930334
 30
0.0
 10
1659.257797314293
 20
1932.757207813272
 30
0.0
 10
1659.283213455012
 20
1932.709036217116
 30
0.0
 10
1659.341839551867
 20
1932.615751017644
 30
0.0
 10
1659.375518089347
 20
1932.570160135103
 30
0.0
 10
1659.448300848311
 20
1932.485704937625
 30
0.0
 10
1659.48744548301
 20
1932.446577499309
 30
0.0
 10
1659.571315501077
 20
1932.374606026136
 30
0.0
 10
1659.615652196887
 20
1932.342226422567
 30
0.0
 10
1659.705940798097
 20
1932.286756295688
 30
0.0
 10
1659.752792151693
 20
1932.263103881928
 30
0.0
 10
1659.846914451664
 20
1932.225695369588
 30
0.0
 10
1659.893596517365
 20
1932.212065929255
 30
0.0
 10
1659.986218367155
 20
1932.194769319385
 30
0.0
 10
1660.032356952442
 20
1932.19123239247
 30
0.0
 10
1660.119730024101
 20
1932.19462602162
 30
0.0
 10
1660.161504496946
 20
1932.201400592058
 30
0.0
 10
1660.20130091392
 20
1932.213428702591
 30
0.0
  0
SPLINE
  5
15892
330
18
100
AcDbEntity
  8
姿図
100
AcDbSpline
210
0.0
220
0.0
230
1.0
 70
     8
 71
     3
 72
     9
 73
     5
 74
     0
 42
0.000000001
 43
0.0000000001
 40
0.0
 40
0.0
 40
0.0
 40
0.0
 40
0.1921244911138719
 40
1.0
 40
1.0
 40
1.0
 40
1.0
 10
1660.325878990188
 20
1930.796114141266
 30
0.0
 10
1660.328519567938
 20
1930.778036143051
 30
0.0
 10
1660.342263665503
 20
1930.683940912869
 30
0.0
 10
1660.397618742849
 20
1930.590690203327
 30
0.0
 10
1660.442338754129
 20
1930.515355238901
 30
0.0
  0
SPLINE
  5
15893
330
18
100
AcDbEntity
  8
姿図
100
AcDbSpline
210
0.0
220
0.0
230
1.0
 70
     8
 71
     3
 72
     9
 73
     5
 74
     0
 42
0.000000001
 43
0.0000000001
 40
0.0
 40
0.0
 40
0.0
 40
0.0
 40
0.0546007684045359
 40
1.0
 40
1.0
 40
1.0
 40
1.0
 10
1667.585797675017
 20
1943.545056253058
 30
0.0
 10
1667.572569553137
 20
1943.537102026077
 30
0.0
 10
1667.330299668163
 20
1943.391422263444
 30
0.0
 10
1667.088027783158
 20
1943.245499494023
 30
0.0
 10
1666.858984129236
 20
1943.107544219939
 30
0.0
  0
LINE
  5
15894
330
18
100
AcDbEntity
  8
姿図
100
AcDbLine
 10
1666.281041602386
 20
1937.201769987275
 30
0.0
 11
1666.66539525109
 21
1937.560816004609
 31
0.0
  0
ELLIPSE
  5
15895
330
18
100
AcDbEntity
  8
姿図
100
AcDbEllipse
 10
1673.444121283894
 20
1939.538944776235
 30
0.0
 11
49.31794788443052
 21
47.29860361665916
 31
0.0
210
0.0
220
0.0
230
1.0
 40
0.0255475590534252
 41
1.746885636760062
 42
1.750934879373777
  0
TEXT
  5
15987
330
18
100
AcDbEntity
  8
文字
100
AcDbText
 10
1658.043952495414
 20
1911.355180967779
 30
0.0
 40
3.0
  1
SA-3SH01
100
AcDbText
  0
ENDSEC
  0
SECTION
  2
OBJECTS
  0
DICTIONARY
  5
C
330
0
100
AcDbDictionary
281
     1
  3
ACAD_GROUP
350
D
  3
ACAD_IMAGE_VARS
350
161A5
  3
ACAD_LAYOUT
350
40CB
  3
ACAD_MLINESTYLE
350
E
  3
ACAD_PLOTSETTINGS
350
40CC
  3
ACAD_PLOTSTYLENAME
350
40C9
  3
ACAD_SCALELIST
350
FF88
  3
AcDbVariableDictionary
350
6377
  3
APPDATA
350
161A3
  3
DWGPROPS
350
161A6
  0
DICTIONARY
  5
10E0C
330
2
100
AcDbDictionary
280
     1
281
     1
  3
ACAD_LAYERSTATES
360
10E0D
  0
DICTIONARY
  5
11225
330
F
100
AcDbDictionary
280
     1
281
     1
  3
ADSK_XREC_LAYER_RECONCILED
360
11226
  0
DICTIONARY
  5
11227
330
44
100
AcDbDictionary
280
     1
281
     1
  3
ADSK_XREC_LAYER_RECONCILED
360
11228
  0
DICTIONARY
  5
11229
330
46
100
AcDbDictionary
280
     1
281
     1
  3
ADSK_XREC_LAYER_RECONCILED
360
1122A
  0
DICTIONARY
  5
1122D
330
4C
100
AcDbDictionary
280
     1
281
     1
  3
ADSK_XREC_LAYER_RECONCILED
360
1122E
  0
DICTIONARY
  5
1122F
330
4D
100
AcDbDictionary
280
     1
281
     1
  3
ADSK_XREC_LAYER_RECONCILED
360
11230
  0
DICTIONARY
  5
11231
330
40D3
100
AcDbDictionary
280
     1
281
     1
  3
ADSK_XREC_LAYER_RECONCILED
360
11232
  0
DICTIONARY
  5
11233
330
40D4
100
AcDbDictionary
280
     1
281
     1
  3
ADSK_XREC_LAYER_RECONCILED
360
11234
  0
DICTIONARY
  5
11239
330
A245
100
AcDbDictionary
280
     1
281
     1
  3
ADSK_XREC_LAYER_RECONCILED
360
1123A
  0
DICTIONARY
  5
9FD5
330
18
100
AcDbDictionary
280
     1
281
     1
  3
ACAD_SORTENTS
360
111F7
  0
DICTIONARY
  5
D
102
{ACAD_REACTORS
330
C
102
}
330
C
100
AcDbDictionary
281
     1
  0
RASTERVARIABLES
  5
161A5
102
{ACAD_REACTORS
330
C
102
}
330
C
100
AcDbRasterVariables
 90
        0
 70
     1
 71
     1
 72
     0
  0
DICTIONARY
  5
40CB
102
{ACAD_REACTORS
330
C
102
}
330
C
100
AcDbDictionary
281
     1
  3
Model
350
40CD
  3
ﾚｲｱｳﾄ1
350
40CE
  0
DICTIONARY
  5
E
102
{ACAD_REACTORS
330
C
102
}
330
C
100
AcDbDictionary
281
     1
  3
STANDARD
350
1B
  0
DICTIONARY
  5
40CC
102
{ACAD_REACTORS
330
C
102
}
330
C
100
AcDbDictionary
281
     1
  0
ACDBDICTIONARYWDFLT
  5
40C9
102
{ACAD_REACTORS
330
C
102
}
330
C
100
AcDbDictionary
281
     1
  3
Normal
350
40CA
100
AcDbDictionaryWithDefault
340
40CA
  0
DICTIONARY
  5
FF88
102
{ACAD_REACTORS
330
C
102
}
330
C
100
AcDbDictionary
281
     1
  3
A0
350
FF89
  3
A1
350
FF8A
  3
A2
350
FF8B
  3
A3
350
FF8C
  3
A4
350
FF8D
  3
A5
350
FF8E
  3
A6
350
FF8F
  3
A7
350
FF90
  3
A8
350
FF91
  3
A9
350
FF92
  3
B0
350
FF93
  3
B1
350
FF94
  3
B2
350
FF95
  3
B3
350
FF96
  3
B4
350
FF97
  3
B5
350
FF98
  3
B6
350
FF99
  3
B7
350
FF9A
  3
B8
350
FF9B
  3
B9
350
FF9C
  3
C0
350
FF9D
  3
C1
350
FF9E
  3
C2
350
FF9F
  3
C3
350
FFA0
  3
C4
350
FFA1
  3
C5
350
FFA2
  3
C6
350
FFA3
  3
C7
350
FFA4
  3
C8
350
FFA5
  3
C9
350
FFA6
  3
D0
350
FFA7
  3
D1
350
FFA8
  3
D2
350
FFA9
  0
DICTIONARY
  5
6377
102
{ACAD_REACTORS
330
C
102
}
330
C
100
AcDbDictionary
281
     1
  3
DIMASSOC
350
73F2
  3
INDEXCTL
350
11273
  3
PROJECTNAME
350
FF5B
  3
SORTENTS
350
6378
  0
DICTIONARY
  5
161A3
102
{ACAD_REACTORS
330
C
102
}
330
C
100
AcDbDictionary
281
     1
  0
XRECORD
  5
161A6
102
{ACAD_REACTORS
330
C
102
}
330
C
100
AcDbXrecord
280
     1
  1
DWGPROPS COOKIE
  2

  3

  4

  6

  7

  8
SPAX
  9

300
=
301
=
302
=
303
=
304
=
305
=
306
=
307
=
308
=
309
=
 40
0.0
 41
2449505.547222222
 42
2456826.026745868
  1

 90
        0
  0
DICTIONARY
  5
10E0D
102
{ACAD_REACTORS
330
10E0C
102
}
330
10E0C
100
AcDbDictionary
281
     1
  0
XRECORD
  5
11226
102
{ACAD_REACTORS
330
11225
102
}
330
11225
100
AcDbXrecord
280
     1
290
     1
  0
XRECORD
  5
11228
102
{ACAD_REACTORS
330
11227
102
}
330
11227
100
AcDbXrecord
280
     1
290
     1
  0
XRECORD
  5
1122A
102
{ACAD_REACTORS
330
11229
102
}
330
11229
100
AcDbXrecord
280
     1
290
     1
  0
XRECORD
  5
1122E
102
{ACAD_REACTORS
330
1122D
102
}
330
1122D
100
AcDbXrecord
280
     1
290
     1
  0
XRECORD
  5
11230
102
{ACAD_REACTORS
330
1122F
102
}
330
1122F
100
AcDbXrecord
280
     1
290
     1
  0
XRECORD
  5
11232
102
{ACAD_REACTORS
330
11231
102
}
330
11231
100
AcDbXrecord
280
     1
290
     1
  0
XRECORD
  5
11234
102
{ACAD_REACTORS
330
11233
102
}
330
11233
100
AcDbXrecord
280
     1
290
     1
  0
XRECORD
  5
1123A
102
{ACAD_REACTORS
330
11239
102
}
330
11239
100
AcDbXrecord
280
     1
290
     1
  0
SORTENTSTABLE
  5
111F7
102
{ACAD_REACTORS
330
9FD5
102
}
330
9FD5
100
AcDbSortentsTable
330
18
331
0
  5
146A8
331
0
  5
146A9
331
0
  5
146AA
331
0
  5
146AB
331
0
  5
146AC
331
0
  5
146AD
331
0
  5
146AE
331
0
  5
146AF
331
0
  5
146B0
331
0
  5
146B1
331
0
  5
146B2
331
0
  5
146B3
331
0
  5
146B4
331
0
  5
146B5
331
0
  5
146B6
331
0
  5
146B7
331
0
  5
146B8
331
0
  5
146B9
331
0
  5
146BA
331
0
  5
146BB
331
0
  5
146BC
331
0
  5
146BD
331
0
  5
146BE
331
0
  5
146BF
331
0
  5
146C0
331
0
  5
146C1
331
0
  5
146C2
331
0
  5
146C3
331
0
  5
146C4
331
0
  5
146C5
331
0
  5
146C6
331
0
  5
146C7
331
0
  5
146C8
331
0
  5
146C9
331
0
  5
146CA
331
0
  5
146CB
331
0
  5
146CC
331
0
  5
146CD
331
0
  5
146CE
331
0
  5
146CF
331
0
  5
146D0
331
0
  5
146D1
331
0
  5
146D2
331
0
  5
146D3
331
0
  5
146D4
331
0
  5
146D5
331
0
  5
146D6
331
0
  5
146D7
331
0
  5
146D8
331
0
  5
146D9
331
0
  5
146DA
331
0
  5
146DB
331
0
  5
146DC
331
0
  5
146DD
331
0
  5
146DE
331
0
  5
146DF
331
0
  5
146E0
331
0
  5
146E1
331
0
  5
146E2
331
0
  5
146E3
331
0
  5
146E4
331
0
  5
146E5
331
0
  5
146E6
331
0
  5
146E7
331
0
  5
146E8
331
0
  5
146E9
331
0
  5
146EA
331
0
  5
146EB
331
0
  5
146EC
331
0
  5
146ED
331
0
  5
146EE
331
0
  5
146EF
331
0
  5
146F0
331
0
  5
146F1
331
0
  5
146F2
331
0
  5
146F3
331
0
  5
146F4
331
0
  5
146F5
331
0
  5
146F6
331
0
  5
146F7
331
0
  5
146F8
331
0
  5
146F9
331
0
  5
146FA
331
0
  5
146FB
331
0
  5
146FC
331
0
  5
146FD
331
0
  5
146FE
331
0
  5
146FF
331
0
  5
14700
331
0
  5
14701
331
0
  5
14702
331
0
  5
14703
331
0
  5
14704
331
0
  5
14705
331
0
  5
14706
331
0
  5
14707
331
0
  5
14708
331
0
  5
14709
331
0
  5
1470A
331
0
  5
1470B
331
0
  5
1470C
331
0
  5
1470D
331
0
  5
1470E
331
0
  5
1470F
331
0
  5
14710
331
0
  5
14711
331
0
  5
14712
331
0
  5
14713
331
0
  5
14714
331
0
  5
14715
331
0
  5
14716
331
0
  5
14717
331
0
  5
14718
331
0
  5
14719
331
0
  5
1471A
331
0
  5
1471B
331
0
  5
1471C
331
0
  5
1471D
331
0
  5
1471E
331
0
  5
1471F
331
0
  5
14720
331
0
  5
14721
331
0
  5
14722
331
0
  5
14723
331
0
  5
14724
331
0
  5
14725
331
0
  5
14726
331
0
  5
14727
331
0
  5
14728
331
0
  5
14729
331
0
  5
1472A
331
0
  5
1472B
331
0
  5
1472C
331
0
  5
1472D
331
0
  5
1472E
331
0
  5
1472F
331
0
  5
14730
331
0
  5
14731
331
0
  5
14732
331
0
  5
14733
331
0
  5
14734
331
0
  5
14735
331
0
  5
14736
331
0
  5
14737
331
0
  5
14738
331
0
  5
14739
331
0
  5
1473A
331
0
  5
1473B
331
0
  5
1473C
331
0
  5
1473D
331
0
  5
1473E
331
0
  5
1473F
331
0
  5
14740
331
0
  5
14741
331
0
  5
14742
331
0
  5
14743
331
0
  5
14744
331
0
  5
14745
331
0
  5
14746
331
0
  5
14747
331
0
  5
14748
331
0
  5
14749
331
0
  5
1474A
331
0
  5
1474B
331
0
  5
1474C
331
0
  5
1474D
331
0
  5
1474E
331
0
  5
1474F
331
0
  5
14750
331
0
  5
14751
331
0
  5
14752
331
0
  5
14753
331
0
  5
14754
331
0
  5
14755
331
0
  5
14756
331
0
  5
14757
331
0
  5
14758
331
0
  5
14759
331
0
  5
1475A
331
0
  5
1475B
331
0
  5
1475C
331
0
  5
1475D
331
0
  5
1475E
331
0
  5
1475F
331
0
  5
14760
331
0
  5
14761
331
0
  5
14762
331
0
  5
14763
331
0
  5
14764
331
0
  5
14765
331
0
  5
14766
331
0
  5
14767
331
0
  5
14768
331
0
  5
14769
331
0
  5
1476A
331
0
  5
1476B
331
0
  5
1476C
331
0
  5
1476D
331
0
  5
1476E
331
0
  5
1476F
331
0
  5
14770
331
0
  5
14771
331
0
  5
14772
331
0
  5
14773
331
0
  5
14774
331
0
  5
14775
331
0
  5
14776
331
0
  5
14777
331
0
  5
14778
331
0
  5
14779
331
0
  5
1477A
331
0
  5
1477B
331
0
  5
1477C
331
0
  5
1477D
331
0
  5
1477E
331
0
  5
1477F
331
0
  5
14780
331
0
  5
14781
331
0
  5
14782
331
0
  5
14783
331
0
  5
14784
331
0
  5
14785
331
0
  5
14786
331
0
  5
14787
331
0
  5
14788
331
0
  5
14789
331
0
  5
1478A
331
0
  5
1478B
331
0
  5
1478C
331
0
  5
1478D
331
0
  5
1478E
331
0
  5
1478F
331
0
  5
14790
331
0
  5
14791
331
0
  5
14792
331
0
  5
14793
331
0
  5
14794
331
0
  5
14795
331
0
  5
14796
331
0
  5
14797
331
0
  5
14798
331
0
  5
14799
331
0
  5
1479A
331
0
  5
1479B
331
0
  5
1479C
331
0
  5
1479D
331
0
  5
1479E
331
0
  5
1479F
331
0
  5
147A0
331
0
  5
147A1
331
0
  5
147A2
331
0
  5
147A3
331
0
  5
147A4
331
0
  5
147A5
331
0
  5
147A6
331
0
  5
147A7
331
0
  5
147A8
331
0
  5
147A9
331
0
  5
147AA
331
0
  5
147AB
331
0
  5
147AC
331
0
  5
147AD
331
0
  5
147AE
331
0
  5
147AF
331
0
  5
147B0
331
0
  5
147B1
331
0
  5
147B2
331
0
  5
147B3
331
0
  5
147B4
331
0
  5
147B5
331
0
  5
147B6
331
0
  5
147B7
331
0
  5
147B8
331
0
  5
147B9
331
0
  5
147BA
331
0
  5
147BB
331
0
  5
147BC
331
0
  5
147BD
331
0
  5
147BE
331
0
  5
147BF
331
0
  5
147C0
331
0
  5
147C1
331
0
  5
147C2
331
0
  5
147C3
331
0
  5
147C4
331
0
  5
147C5
331
0
  5
147C6
331
0
  5
147C7
331
0
  5
147C8
331
0
  5
147C9
331
0
  5
147CA
331
0
  5
147CB
331
0
  5
147CC
331
0
  5
147CD
331
0
  5
147CE
331
0
  5
147CF
331
0
  5
147D0
331
0
  5
147D1
331
0
  5
147D2
331
0
  5
147D3
331
0
  5
147D4
331
0
  5
147D5
331
0
  5
147D6
331
0
  5
147D7
331
0
  5
147D8
331
0
  5
147D9
331
0
  5
147DA
331
0
  5
147DB
331
0
  5
147DC
331
0
  5
147DD
331
0
  5
147DE
331
0
  5
147DF
331
0
  5
147E0
331
0
  5
147E1
331
0
  5
147E2
331
0
  5
147E3
331
0
  5
147E4
331
0
  5
147E5
331
0
  5
147E6
331
0
  5
147E7
331
0
  5
147E8
331
0
  5
147E9
331
0
  5
147EA
331
0
  5
147EB
331
0
  5
147EC
331
0
  5
147ED
331
0
  5
147EE
331
0
  5
147EF
331
0
  5
147F0
331
0
  5
147F1
331
0
  5
147F2
331
0
  5
147F3
331
0
  5
147F4
331
0
  5
147F5
331
0
  5
147F6
331
0
  5
147F7
331
0
  5
147F8
331
0
  5
147F9
331
0
  5
147FA
331
0
  5
147FB
331
0
  5
147FC
331
0
  5
147FD
331
0
  5
147FE
331
0
  5
147FF
331
0
  5
14800
331
0
  5
14801
331
0
  5
14802
331
0
  5
14803
331
0
  5
14804
331
0
  5
14805
331
0
  5
14806
331
0
  5
14807
331
0
  5
14808
331
0
  5
14809
331
0
  5
1480A
331
0
  5
1480B
331
0
  5
1480C
331
0
  5
1480D
331
0
  5
1480E
331
0
  5
1480F
331
0
  5
14810
331
0
  5
14811
331
0
  5
14812
331
0
  5
14813
331
0
  5
14814
331
0
  5
14815
331
0
  5
14816
331
0
  5
14817
331
0
  5
14818
331
0
  5
14819
331
0
  5
1481A
331
0
  5
1481B
331
0
  5
1481C
331
0
  5
1481D
331
0
  5
1481E
331
0
  5
1481F
331
0
  5
14820
331
0
  5
14821
331
0
  5
14822
331
0
  5
14823
331
0
  5
14824
331
0
  5
14825
331
0
  5
14826
331
0
  5
14827
331
0
  5
14828
331
0
  5
14829
331
0
  5
1482A
331
0
  5
1482B
331
0
  5
1482C
331
0
  5
1482D
331
0
  5
1482E
331
0
  5
1482F
331
0
  5
14830
331
0
  5
14831
331
0
  5
14832
331
0
  5
14833
331
0
  5
14834
331
0
  5
14835
331
0
  5
14836
331
0
  5
14837
331
0
  5
14838
331
0
  5
14839
331
0
  5
1483A
331
0
  5
1483B
331
0
  5
1483C
331
0
  5
1483D
331
0
  5
1483E
331
0
  5
1483F
331
0
  5
14840
331
0
  5
14841
331
0
  5
14842
331
0
  5
14843
331
0
  5
14844
331
0
  5
14845
331
0
  5
14846
331
0
  5
14847
331
0
  5
14848
331
0
  5
14849
331
0
  5
1484A
331
0
  5
1484B
331
0
  5
1484C
331
0
  5
1484D
331
0
  5
1484E
331
0
  5
1484F
331
0
  5
14850
331
0
  5
14851
331
0
  5
14852
331
0
  5
14853
331
0
  5
14854
331
0
  5
14855
331
0
  5
14856
331
0
  5
14857
331
0
  5
14858
331
0
  5
14859
331
0
  5
1485A
331
0
  5
1485B
331
0
  5
1485C
331
0
  5
1485D
331
0
  5
1485E
331
0
  5
1485F
331
0
  5
14860
331
0
  5
14861
331
0
  5
14862
331
0
  5
14863
331
0
  5
14864
331
0
  5
14865
331
0
  5
14866
331
0
  5
14867
331
0
  5
14868
331
0
  5
14869
331
0
  5
1486A
331
0
  5
1486B
331
0
  5
1486C
331
0
  5
1486D
331
0
  5
1486E
331
0
  5
1486F
331
0
  5
14870
331
0
  5
14871
331
0
  5
14872
331
0
  5
14873
331
0
  5
14874
331
0
  5
14875
331
0
  5
14876
331
0
  5
14877
331
0
  5
14878
331
0
  5
14879
331
0
  5
1487A
331
0
  5
1487B
331
0
  5
1487C
331
0
  5
1487D
331
0
  5
1487E
331
0
  5
1487F
331
0
  5
14880
331
0
  5
14881
331
0
  5
14882
331
0
  5
14883
331
0
  5
14884
331
0
  5
14885
331
0
  5
14886
331
0
  5
14887
331
0
  5
14888
331
0
  5
14889
331
0
  5
1488A
331
0
  5
1488B
331
0
  5
1488C
331
0
  5
1488D
331
0
  5
1488E
331
0
  5
1488F
331
0
  5
14890
331
0
  5
14891
331
0
  5
14892
331
0
  5
14893
331
0
  5
14894
331
0
  5
14895
331
0
  5
14896
331
0
  5
14897
331
0
  5
14898
331
0
  5
14899
331
0
  5
1489A
331
0
  5
1489B
331
0
  5
1489C
331
0
  5
1489D
331
0
  5
1489E
331
0
  5
1489F
331
0
  5
148A0
331
0
  5
148A1
331
0
  5
148A2
331
0
  5
148A3
331
0
  5
148A4
331
0
  5
148A5
331
0
  5
148A6
331
0
  5
148A7
331
0
  5
148A8
331
0
  5
148A9
331
0
  5
148AA
331
0
  5
148AB
331
0
  5
148AC
331
0
  5
148AD
331
0
  5
148AE
331
0
  5
148AF
331
0
  5
148B0
331
0
  5
148B1
331
0
  5
148B2
331
0
  5
148B3
331
0
  5
148B4
331
0
  5
148B5
331
0
  5
148B6
331
0
  5
148B7
331
0
  5
148B8
331
0
  5
148B9
331
0
  5
148BA
331
0
  5
148BB
331
0
  5
148BC
331
0
  5
148BD
331
0
  5
148BE
331
0
  5
148BF
331
0
  5
148C0
331
0
  5
148C1
331
0
  5
148C2
331
0
  5
148C3
331
0
  5
148C4
331
0
  5
148C5
331
0
  5
148C6
331
0
  5
148C7
331
0
  5
148C8
331
0
  5
148C9
331
0
  5
148CA
331
0
  5
148CB
331
0
  5
148CC
331
0
  5
148CD
331
0
  5
148CE
331
0
  5
148CF
331
0
  5
148D0
331
0
  5
148D1
331
0
  5
148D2
331
0
  5
148D3
331
0
  5
148D4
331
0
  5
148D5
331
0
  5
148D6
331
0
  5
148D7
331
0
  5
148D8
331
0
  5
148D9
331
0
  5
148DA
331
0
  5
148DB
331
0
  5
148DC
331
0
  5
148DD
331
0
  5
148DE
331
0
  5
148DF
331
0
  5
148E0
331
0
  5
148E1
331
0
  5
148E2
331
0
  5
148E3
331
0
  5
148E4
331
0
  5
148E5
331
0
  5
148E6
331
0
  5
148E7
331
0
  5
148E8
331
0
  5
14937
331
0
  5
14938
331
0
  5
14939
331
0
  5
1493A
331
0
  5
1493B
331
0
  5
1493C
331
0
  5
1493D
331
0
  5
1493E
331
0
  5
1493F
331
0
  5
14940
331
0
  5
14941
331
0
  5
14942
331
0
  5
14943
331
0
  5
14944
331
0
  5
14945
331
0
  5
14946
331
0
  5
14947
331
0
  5
14948
331
0
  5
14949
331
0
  5
1494A
331
0
  5
1494B
331
0
  5
1494C
331
0
  5
1494D
331
0
  5
1494E
331
0
  5
1494F
331
0
  5
14950
331
0
  5
14951
331
0
  5
14952
331
0
  5
14953
331
0
  5
14954
331
0
  5
14955
331
0
  5
14956
331
0
  5
14957
331
0
  5
14958
331
0
  5
14959
331
0
  5
1495A
331
0
  5
1495B
331
0
  5
1495C
331
0
  5
1495D
331
0
  5
1495E
331
0
  5
1495F
331
0
  5
14960
331
0
  5
14961
331
0
  5
14962
331
0
  5
14963
331
0
  5
14964
331
0
  5
14965
331
0
  5
14966
331
0
  5
14967
331
0
  5
14968
331
0
  5
14969
331
0
  5
1496A
331
0
  5
1496B
331
0
  5
1496C
331
0
  5
1496D
331
0
  5
1496E
331
0
  5
1496F
331
0
  5
14970
331
0
  5
14971
331
0
  5
14972
331
0
  5
14973
331
0
  5
14974
331
0
  5
14975
331
0
  5
14976
331
0
  5
14977
331
0
  5
14978
331
0
  5
14979
331
0
  5
1497A
331
0
  5
1497B
331
0
  5
1497C
331
0
  5
1497D
331
0
  5
1497E
331
0
  5
1497F
331
0
  5
14980
331
0
  5
14981
331
0
  5
14982
331
0
  5
14983
331
0
  5
14984
331
0
  5
14985
331
0
  5
14986
331
0
  5
14987
331
0
  5
14988
331
0
  5
14989
331
0
  5
1498A
331
0
  5
1498B
331
0
  5
1498C
331
0
  5
1498D
331
0
  5
1498E
331
0
  5
1498F
331
0
  5
14990
331
0
  5
14991
331
0
  5
14992
331
0
  5
14993
331
0
  5
14994
331
0
  5
14995
331
0
  5
14996
331
0
  5
14997
331
0
  5
14998
331
0
  5
14999
331
0
  5
1499A
331
0
  5
1499B
331
0
  5
1499C
331
0
  5
1499D
331
0
  5
1499E
331
0
  5
1499F
331
0
  5
149A0
331
0
  5
149A1
331
0
  5
149A2
331
0
  5
149A3
331
0
  5
149A4
331
0
  5
149A5
331
0
  5
149A6
331
0
  5
149A7
331
0
  5
149A8
331
0
  5
149A9
331
0
  5
149AA
331
0
  5
149AB
331
0
  5
149AC
331
0
  5
149AD
331
0
  5
149AE
331
0
  5
149AF
331
0
  5
149B0
331
0
  5
149B1
331
0
  5
149B2
331
0
  5
149B3
331
0
  5
149B4
331
0
  5
149B5
331
0
  5
149B6
331
0
  5
149B7
331
0
  5
149B8
331
0
  5
149B9
331
0
  5
149BA
331
0
  5
149BB
331
0
  5
149BC
331
0
  5
149BD
331
0
  5
149BE
331
0
  5
149BF
331
0
  5
149C0
331
0
  5
149C1
331
0
  5
149C2
331
0
  5
149C3
331
0
  5
149C4
331
0
  5
149C5
331
0
  5
149C6
331
0
  5
149C7
331
0
  5
149C8
331
0
  5
149C9
331
0
  5
149CA
331
0
  5
149CB
331
0
  5
149CC
331
0
  5
149CD
331
0
  5
149CE
331
0
  5
149CF
331
0
  5
149D0
331
0
  5
149D1
331
0
  5
149D2
331
0
  5
149D3
331
0
  5
149D4
331
0
  5
149D5
331
0
  5
149D6
331
0
  5
149D7
331
0
  5
149D8
331
0
  5
149D9
331
0
  5
149DA
331
0
  5
149DB
331
0
  5
149DC
331
0
  5
149DD
331
0
  5
149DE
331
0
  5
149DF
331
0
  5
149E0
331
0
  5
149E1
331
0
  5
149E2
331
0
  5
149E3
331
0
  5
149E4
331
0
  5
149E5
331
0
  5
149E6
331
0
  5
149E7
331
0
  5
149E8
331
0
  5
149E9
331
0
  5
149EA
331
0
  5
149EB
331
0
  5
149EC
331
0
  5
149ED
331
0
  5
149EE
331
0
  5
149EF
331
0
  5
149F0
331
0
  5
149F1
331
0
  5
149F2
331
0
  5
149F3
331
0
  5
149F4
331
0
  5
149F5
331
0
  5
149F6
331
0
  5
149F7
331
0
  5
149F8
331
0
  5
149F9
331
0
  5
149FA
331
0
  5
149FB
331
0
  5
149FC
331
0
  5
149FD
331
0
  5
149FE
331
0
  5
149FF
331
0
  5
14A00
331
0
  5
14A01
331
0
  5
14A02
331
0
  5
14A03
331
0
  5
14A04
331
0
  5
14A05
331
0
  5
14A06
331
0
  5
14A07
331
0
  5
14A08
331
0
  5
14A09
331
0
  5
14A0A
331
0
  5
14A0B
331
0
  5
14A0C
331
0
  5
14A0D
331
0
  5
14A0E
331
0
  5
14A0F
331
0
  5
14A10
331
0
  5
14A11
331
0
  5
14A12
331
0
  5
14A13
331
0
  5
14A14
331
0
  5
14A15
331
0
  5
14A16
331
0
  5
14A17
331
0
  5
14A18
331
0
  5
14A19
331
0
  5
14A1A
331
0
  5
14A1B
331
0
  5
14A1C
331
0
  5
14A1D
331
0
  5
14A1E
331
0
  5
14A1F
331
0
  5
14A20
331
0
  5
14A21
331
0
  5
14A22
331
0
  5
14A23
331
0
  5
14A24
331
0
  5
14A25
331
0
  5
14A26
331
0
  5
14A27
331
0
  5
14A28
331
0
  5
14A29
331
0
  5
14A2A
331
0
  5
14A2B
331
0
  5
14A2C
331
0
  5
14A2D
331
0
  5
14A2E
331
0
  5
14A2F
331
0
  5
14A30
331
0
  5
14A31
331
0
  5
14A32
331
0
  5
14A33
331
0
  5
14A34
331
0
  5
14A35
331
0
  5
14A36
331
0
  5
14A37
331
0
  5
14A38
331
0
  5
14A39
331
0
  5
14A3A
331
0
  5
14A3B
331
0
  5
14A3C
331
0
  5
14A3D
331
0
  5
14A3E
331
0
  5
14A3F
331
0
  5
14A40
331
0
  5
14A41
331
0
  5
14A42
331
0
  5
14A43
331
0
  5
14A44
331
0
  5
14A45
331
0
  5
14A46
331
0
  5
14A47
331
0
  5
14A48
331
0
  5
14A49
331
0
  5
14A4A
331
0
  5
14A4B
331
0
  5
14A4C
331
0
  5
14A4D
331
0
  5
14A4E
331
0
  5
14A4F
331
0
  5
14A50
331
0
  5
14A51
331
0
  5
14A52
331
0
  5
14A53
331
0
  5
14A54
331
0
  5
14A55
331
0
  5
14A56
331
0
  5
14A57
331
0
  5
14A58
331
0
  5
14A59
331
0
  5
14A5A
331
0
  5
14A5B
331
0
  5
14A5C
331
0
  5
14A5D
331
0
  5
14A5E
331
0
  5
14A5F
331
0
  5
14A60
331
0
  5
14A61
331
0
  5
14A62
331
0
  5
14A63
331
0
  5
14A64
331
0
  5
14A65
331
0
  5
14A66
331
0
  5
14A67
331
0
  5
14A68
331
0
  5
14A69
331
0
  5
14A6A
331
0
  5
14A6B
331
0
  5
14A6C
331
0
  5
14A6D
331
0
  5
14A6E
331
0
  5
14A6F
331
0
  5
14A70
331
0
  5
14A71
331
0
  5
14A72
331
0
  5
14A73
331
0
  5
14A74
331
0
  5
14A75
331
0
  5
14A76
331
0
  5
14A77
331
0
  5
14A78
331
0
  5
14A79
331
0
  5
14A7A
331
0
  5
14A7B
331
0
  5
14A7C
331
0
  5
14A7D
331
0
  5
14A7E
331
0
  5
14A7F
331
0
  5
14A80
331
0
  5
14A81
331
0
  5
14A82
331
0
  5
14A83
331
0
  5
14A84
331
0
  5
14A85
331
0
  5
14A86
331
0
  5
14A87
331
0
  5
14A88
331
0
  5
14A89
331
0
  5
14A8A
331
0
  5
14A8B
331
0
  5
14A8C
331
0
  5
14A8D
331
0
  5
14A8E
331
0
  5
14A8F
331
0
  5
14A90
331
0
  5
14A91
331
0
  5
14A92
331
0
  5
14A93
331
0
  5
14A94
331
0
  5
14A95
331
0
  5
14A96
331
0
  5
14A97
331
0
  5
14A98
331
0
  5
14A99
331
0
  5
14A9A
331
0
  5
14A9B
331
0
  5
14A9C
331
0
  5
14A9D
331
0
  5
14A9E
331
0
  5
14A9F
331
0
  5
14AA0
331
0
  5
14AA1
331
0
  5
14AA2
331
0
  5
14AA3
331
0
  5
14AA4
331
0
  5
14AA5
331
0
  5
14AA6
331
0
  5
14AA7
331
0
  5
14AA8
331
0
  5
14AA9
331
0
  5
14AAA
331
0
  5
14AAB
331
0
  5
14AAC
331
0
  5
14AAD
331
0
  5
14AAE
331
0
  5
14AAF
331
0
  5
14AB0
331
0
  5
14AB1
331
0
  5
14AB2
331
0
  5
14AB3
331
0
  5
14AB4
331
0
  5
14AB5
331
0
  5
14AB6
331
0
  5
14AB7
331
0
  5
14AB8
331
0
  5
14AB9
331
0
  5
14ABA
331
0
  5
14ABB
331
0
  5
14ABC
331
0
  5
14ABD
331
0
  5
14ABE
331
0
  5
14ABF
331
0
  5
14AC0
331
0
  5
14AC1
331
0
  5
14AC2
331
0
  5
14AC3
331
0
  5
14AC4
331
0
  5
14AC5
331
0
  5
14AC6
331
0
  5
14AC7
331
0
  5
14AC8
331
0
  5
14AC9
331
0
  5
14ACA
331
0
  5
14ACB
331
0
  5
14ACC
331
0
  5
14ACD
331
0
  5
14ACE
331
0
  5
14ACF
331
0
  5
14AD0
331
0
  5
14AD1
331
0
  5
14AD2
331
0
  5
14AD3
331
0
  5
14AD4
331
0
  5
14AD5
331
0
  5
14AD6
331
0
  5
14AD7
331
0
  5
14AD8
331
0
  5
14AD9
331
0
  5
14ADA
331
0
  5
14ADB
331
0
  5
14ADC
331
0
  5
14ADD
331
0
  5
14ADE
331
0
  5
14ADF
331
0
  5
14AE0
331
0
  5
14AE1
331
0
  5
14AE2
331
0
  5
14AE3
331
0
  5
14AE4
331
0
  5
14AE5
331
0
  5
14AE6
331
0
  5
14AE7
331
0
  5
14AE8
331
0
  5
14AE9
331
0
  5
14AEA
331
0
  5
14AEB
331
0
  5
14AEC
331
0
  5
14AED
331
0
  5
14AEE
331
0
  5
14AEF
331
0
  5
14AF0
331
0
  5
14AF1
331
0
  5
14AF2
331
0
  5
14AF3
331
0
  5
14AF4
331
0
  5
14AF5
331
0
  5
14AF6
331
0
  5
14AF7
331
0
  5
14AF8
331
0
  5
14AF9
331
0
  5
14AFA
331
0
  5
14AFB
331
0
  5
14AFC
331
0
  5
14AFD
331
0
  5
14AFE
331
0
  5
14AFF
331
0
  5
14B00
331
0
  5
14B01
331
0
  5
14B02
331
0
  5
14B03
331
0
  5
14B04
331
0
  5
14B05
331
0
  5
14B06
331
0
  5
14B07
331
0
  5
14B08
331
0
  5
14B09
331
0
  5
14B0A
331
0
  5
14B0B
331
0
  5
14B0C
331
0
  5
14B0D
331
0
  5
14B0E
331
0
  5
14B0F
331
0
  5
14B10
331
0
  5
14B11
331
0
  5
14B12
331
0
  5
14B13
331
0
  5
14B14
331
0
  5
14B15
331
0
  5
14B16
331
0
  5
14B17
331
0
  5
14B18
331
0
  5
14B19
331
0
  5
14B1A
331
0
  5
14B1B
331
0
  5
14B1C
331
0
  5
14B1D
331
0
  5
14B1E
331
0
  5
14B1F
331
0
  5
14B20
331
0
  5
14B21
331
0
  5
14B22
331
0
  5
14B23
331
0
  5
14B24
331
0
  5
14B25
331
0
  5
14B26
331
0
  5
14B27
331
0
  5
14B28
331
0
  5
14B29
331
0
  5
14B2A
331
0
  5
14B2B
331
0
  5
14B2C
331
0
  5
14B2D
331
0
  5
14B2E
331
0
  5
14B2F
331
0
  5
14B30
331
0
  5
14B31
331
0
  5
14B32
331
0
  5
14B33
331
0
  5
14B34
331
0
  5
14B35
331
0
  5
14B36
331
0
  5
14B37
331
0
  5
14B38
331
0
  5
14B39
331
0
  5
14B3A
331
0
  5
14B3B
331
0
  5
14B3C
331
0
  5
14B3D
331
0
  5
14B3E
331
0
  5
14B3F
331
0
  5
14B40
331
0
  5
14B41
331
0
  5
14B42
331
0
  5
14B43
331
0
  5
14B44
331
0
  5
14B45
331
0
  5
14B46
331
0
  5
14B47
331
0
  5
14B48
331
0
  5
14B49
331
0
  5
14B4A
331
0
  5
14B4B
331
0
  5
14B4C
331
0
  5
14B4D
331
0
  5
14B4E
331
0
  5
14B4F
331
0
  5
14B50
331
0
  5
14B51
331
0
  5
14B52
331
0
  5
14B53
331
0
  5
14B54
331
0
  5
14B55
331
0
  5
14B56
331
0
  5
14B57
331
0
  5
14B58
331
0
  5
14B59
331
0
  5
14B5A
331
0
  5
14B5B
331
0
  5
14B5C
331
0
  5
14B5D
331
0
  5
14B5E
331
0
  5
14B5F
331
0
  5
14B60
331
0
  5
14B61
331
0
  5
14B62
331
0
  5
14B63
331
0
  5
14B64
331
0
  5
14B65
331
0
  5
14B66
331
0
  5
14B67
331
0
  5
14B68
331
0
  5
14B69
331
0
  5
14B6A
331
0
  5
14B6B
331
0
  5
14B6C
331
0
  5
14B6D
331
0
  5
14B6E
331
0
  5
14B6F
331
0
  5
14B70
331
0
  5
14B71
331
0
  5
14B72
331
0
  5
14B73
331
0
  5
14B74
331
0
  5
14B75
331
0
  5
14B76
331
0
  5
14B77
331
0
  5
14B78
331
0
  5
14B79
331
0
  5
14B7A
331
0
  5
14B7B
331
0
  5
14B7C
331
0
  5
14B7D
331
0
  5
14B7E
331
0
  5
14B7F
331
0
  5
14B80
331
0
  5
14B81
331
0
  5
14B82
331
0
  5
14B83
331
0
  5
14B84
331
0
  5
14B85
331
0
  5
14B86
331
0
  5
14B87
331
0
  5
14B88
331
0
  5
14B89
331
0
  5
14B8A
331
0
  5
14B8B
331
0
  5
14B8C
331
0
  5
14B8D
331
0
  5
14B8E
331
0
  5
14B8F
331
0
  5
14B90
331
0
  5
14B91
331
0
  5
14B92
331
0
  5
14B93
331
0
  5
14B94
331
0
  5
14B95
331
0
  5
14B96
331
0
  5
14B97
331
0
  5
14B98
331
0
  5
14B99
331
0
  5
14B9A
331
0
  5
14B9B
331
0
  5
14B9C
331
0
  5
14B9D
331
0
  5
14B9E
331
0
  5
14B9F
331
0
  5
14BA0
331
0
  5
14BA1
331
0
  5
14BA2
331
0
  5
14BA3
331
0
  5
14BA4
331
0
  5
14BA5
331
0
  5
14BA6
331
0
  5
14BA7
331
0
  5
14BA8
331
0
  5
14BA9
331
0
  5
14BAA
331
0
  5
14BAB
331
0
  5
14BAC
331
0
  5
14BAD
331
0
  5
14BAE
331
0
  5
14BAF
331
0
  5
14BB0
331
0
  5
14BB1
331
0
  5
14BB2
331
0
  5
14BB3
331
0
  5
14BB4
331
0
  5
14BB5
331
0
  5
14BB6
331
0
  5
14BB7
331
0
  5
14BB8
331
0
  5
14BB9
331
0
  5
14BBA
331
0
  5
14BBB
331
0
  5
14BBC
331
0
  5
14BBD
331
0
  5
14BBE
331
0
  5
14BBF
331
0
  5
14BC0
331
0
  5
14BC1
331
0
  5
14BC2
331
0
  5
14BC3
331
0
  5
14BC4
331
0
  5
14BC5
331
0
  5
14BC6
331
0
  5
14BC7
331
0
  5
14BC8
331
0
  5
14BC9
331
0
  5
14BCA
331
0
  5
14BCB
331
0
  5
14BCC
331
0
  5
14BCD
331
0
  5
14BCE
331
0
  5
14BCF
331
0
  5
14BD0
331
0
  5
14BD1
331
0
  5
14BD2
331
0
  5
14BD3
331
0
  5
14BD4
331
0
  5
14BD5
331
0
  5
14BD6
331
0
  5
14BD7
331
0
  5
14BD8
331
0
  5
14BD9
331
0
  5
14BDA
331
0
  5
14BDB
331
0
  5
14BDC
331
0
  5
14BDD
331
0
  5
14BDE
331
0
  5
14BDF
331
0
  5
14BE0
331
0
  5
14BE1
331
0
  5
14BE2
331
0
  5
14BE3
331
0
  5
14BE4
331
0
  5
14BE5
331
0
  5
14BE6
331
0
  5
14BE7
331
0
  5
14BE8
331
0
  5
14BE9
331
0
  5
14BEA
331
0
  5
14BEB
331
0
  5
14BEC
331
0
  5
14BED
331
0
  5
14BEE
331
0
  5
14BEF
331
0
  5
14BF0
331
0
  5
14BF1
331
0
  5
14BF2
331
0
  5
14BF3
331
0
  5
14BF4
331
0
  5
14BF5
331
0
  5
14BF6
331
0
  5
14BF7
331
0
  5
14BF8
331
0
  5
14BF9
331
0
  5
14BFA
331
0
  5
14BFB
331
0
  5
14BFC
331
0
  5
14BFD
331
0
  5
14BFE
331
0
  5
14BFF
331
0
  5
14C00
331
0
  5
14C01
331
0
  5
14C02
331
0
  5
14C03
331
0
  5
14C04
331
0
  5
14C05
331
0
  5
14C06
331
0
  5
14C07
331
0
  5
14C08
331
0
  5
14C09
331
0
  5
14C0A
331
0
  5
14C0B
331
0
  5
14C0C
331
0
  5
14C0D
331
0
  5
14C0E
331
0
  5
14C0F
331
0
  5
14C10
331
0
  5
14C11
331
0
  5
14C12
331
0
  5
14C13
331
0
  5
14C14
331
0
  5
14C15
331
0
  5
14C16
331
0
  5
14C17
331
0
  5
14C18
331
0
  5
14C19
331
0
  5
14C1A
331
0
  5
14C1B
331
0
  5
14C1C
331
0
  5
14C1D
331
0
  5
14C1E
331
0
  5
14C1F
331
0
  5
14C20
331
0
  5
14C21
331
0
  5
14C22
331
0
  5
14C23
331
0
  5
14C24
331
0
  5
14C25
331
0
  5
14C26
331
0
  5
14C27
331
0
  5
14C28
331
0
  5
14C29
331
0
  5
14C2A
331
0
  5
14C2B
331
0
  5
14C2C
331
0
  5
14C2D
331
0
  5
14C2E
331
0
  5
14C2F
331
0
  5
14C30
331
0
  5
14C31
331
0
  5
14C32
331
0
  5
14C33
331
0
  5
14C34
331
0
  5
14C35
331
0
  5
14C36
331
0
  5
14C37
331
0
  5
14C38
331
0
  5
14C39
331
0
  5
14C3A
331
0
  5
14C3B
331
0
  5
14C3C
331
0
  5
14C3D
331
0
  5
14C3E
331
0
  5
14C3F
331
0
  5
14C40
331
0
  5
14C41
331
0
  5
14C42
331
0
  5
14C43
331
0
  5
14C44
331
0
  5
14C45
331
0
  5
14C46
331
0
  5
14C47
331
0
  5
14C48
331
0
  5
14C49
331
0
  5
14C4A
331
0
  5
14C4B
331
0
  5
14C4C
331
0
  5
14C4D
331
0
  5
14C4E
331
0
  5
14C4F
331
0
  5
14C50
331
0
  5
14C51
331
0
  5
14C52
331
0
  5
14C53
331
0
  5
14C54
331
0
  5
14C55
331
0
  5
14C56
331
0
  5
14C57
331
0
  5
14C58
331
0
  5
14C59
331
0
  5
14C5A
331
0
  5
14C5B
331
0
  5
14C5C
331
0
  5
14C5D
331
0
  5
14C5E
331
0
  5
14C5F
331
0
  5
14C60
331
0
  5
14C61
331
0
  5
14C62
331
0
  5
14C63
331
0
  5
14C64
331
0
  5
14C65
331
0
  5
14C66
331
0
  5
14C67
331
0
  5
14C68
331
0
  5
14C69
331
0
  5
14C6A
331
0
  5
14C6B
331
0
  5
14C6C
331
0
  5
14C6D
331
0
  5
14C6E
331
0
  5
14C6F
331
0
  5
14C70
331
0
  5
14C71
331
0
  5
14C72
331
0
  5
14C73
331
0
  5
14C74
331
0
  5
14C75
331
0
  5
14C76
331
0
  5
14C77
331
0
  5
14C78
331
0
  5
14C79
331
0
  5
14C7A
331
0
  5
14C7B
331
0
  5
14C7C
331
0
  5
14C7D
331
0
  5
14C7E
331
0
  5
14C7F
331
0
  5
14C80
331
0
  5
14C81
331
0
  5
14C82
331
0
  5
14C83
331
0
  5
14C84
331
0
  5
14C85
331
0
  5
14C86
331
0
  5
14C87
331
0
  5
14C88
331
0
  5
14C89
331
0
  5
14C8A
331
0
  5
14C8B
331
0
  5
14C8C
331
0
  5
14C8D
331
0
  5
14C8E
331
0
  5
14C8F
331
0
  5
14C90
331
0
  5
14C91
331
0
  5
14C92
331
0
  5
14C93
331
0
  5
14C94
331
0
  5
14C95
331
0
  5
14C96
331
0
  5
14C97
331
0
  5
14C98
331
0
  5
14C99
331
0
  5
14C9A
331
0
  5
14C9B
331
0
  5
14C9C
331
0
  5
14C9D
331
0
  5
14C9E
331
0
  5
14C9F
331
0
  5
14CA0
331
0
  5
14CA1
331
0
  5
14CA2
331
0
  5
14CA3
331
0
  5
14CA4
331
0
  5
14CA5
331
0
  5
14CA6
331
0
  5
14CA7
331
0
  5
14CA8
331
0
  5
14CA9
331
0
  5
14CAA
331
0
  5
14CAB
331
0
  5
14CAC
331
0
  5
14CAD
331
0
  5
14CAE
331
0
  5
14CAF
331
0
  5
14CB0
331
0
  5
14CB1
331
0
  5
14CB2
331
0
  5
14CB3
331
0
  5
14CB4
331
0
  5
14CB5
331
0
  5
14CB6
331
0
  5
14CB7
331
0
  5
14CB8
331
0
  5
14CB9
331
0
  5
14CBA
331
0
  5
14CBB
331
0
  5
14CBC
331
0
  5
14CBD
331
0
  5
14CBE
331
0
  5
14CBF
331
0
  5
14CC0
331
0
  5
14CC1
331
0
  5
14CC2
331
0
  5
14CC3
331
0
  5
14CC4
331
0
  5
14CC5
331
0
  5
14CC6
331
0
  5
14CC7
331
0
  5
14CC8
331
0
  5
14CC9
331
0
  5
14CCA
331
0
  5
14CCB
331
0
  5
14CCC
331
0
  5
14CCD
331
0
  5
14CCE
331
0
  5
14CCF
331
0
  5
14CD0
331
0
  5
14CD1
331
0
  5
14CD2
331
0
  5
14CD3
331
0
  5
14CD4
331
0
  5
14CD5
331
0
  5
14CD6
331
0
  5
14CD7
331
0
  5
14CD8
331
0
  5
14CD9
331
0
  5
14CDA
331
0
  5
14CDB
331
0
  5
14CDC
331
0
  5
14CDD
331
0
  5
14CDE
331
0
  5
14CDF
331
0
  5
14CE0
331
0
  5
14CE1
331
0
  5
14CE2
331
0
  5
14CE3
331
0
  5
14CE4
331
0
  5
14CE5
331
0
  5
14CE6
331
0
  5
14CE7
331
0
  5
14CE8
331
0
  5
14CE9
331
0
  5
14CEA
331
0
  5
14CEB
331
0
  5
14CEC
331
0
  5
14CED
331
0
  5
14CEE
331
0
  5
14CEF
331
0
  5
14CF0
331
0
  5
14CF1
331
0
  5
14CF2
331
0
  5
14CF3
331
0
  5
14CF4
331
0
  5
14CF5
331
0
  5
14CF6
331
0
  5
14CF7
331
0
  5
14CF8
331
0
  5
14CF9
331
0
  5
14CFA
331
0
  5
14CFB
331
0
  5
14CFC
331
0
  5
14CFD
331
0
  5
14CFE
331
0
  5
14CFF
331
0
  5
14D00
331
0
  5
14D01
331
0
  5
14D02
331
0
  5
14D03
331
0
  5
14D04
331
0
  5
14D05
331
0
  5
14D06
331
0
  5
14D07
331
0
  5
14D08
331
0
  5
14D09
331
0
  5
14D0A
331
0
  5
14D0B
331
0
  5
14D0C
331
0
  5
14D0D
331
0
  5
14D0E
331
0
  5
14D0F
331
0
  5
14D10
331
0
  5
14D11
331
0
  5
14D12
331
0
  5
14D13
331
0
  5
14D14
331
0
  5
14D15
331
0
  5
14D16
331
0
  5
14D17
331
0
  5
14D18
331
0
  5
14D19
331
0
  5
14D1A
331
0
  5
14D1B
331
0
  5
14D1C
331
0
  5
14D1D
331
0
  5
14D1E
331
0
  5
14D1F
331
0
  5
14D20
331
0
  5
14D21
331
0
  5
14D22
331
0
  5
14D23
331
0
  5
14D24
331
0
  5
14D25
331
0
  5
14D26
331
0
  5
14D27
331
0
  5
14D28
331
0
  5
14D29
331
0
  5
14D2A
331
0
  5
14D2B
331
0
  5
14D2C
331
0
  5
14D2D
331
0
  5
14D2E
331
0
  5
14D2F
331
0
  5
14D30
331
0
  5
14D31
331
0
  5
14D32
331
0
  5
14D33
331
0
  5
14D34
331
0
  5
14D35
331
0
  5
14D36
331
0
  5
14D37
331
0
  5
14D38
331
0
  5
14D39
331
0
  5
14D3A
331
0
  5
14D3B
331
0
  5
14D3C
331
0
  5
14D3D
331
0
  5
14D3E
331
0
  5
14D3F
331
0
  5
14D40
331
0
  5
14D41
331
0
  5
14D42
331
0
  5
14D43
331
0
  5
14D44
331
0
  5
14D45
331
0
  5
14D46
331
0
  5
14D47
331
0
  5
14D48
331
0
  5
14D49
331
0
  5
14D4A
331
0
  5
14D4B
331
0
  5
14D4C
331
0
  5
14D4D
331
0
  5
14D4E
331
0
  5
14D4F
331
0
  5
14D50
331
0
  5
14D51
331
0
  5
14D52
331
0
  5
14D53
331
0
  5
14D54
331
0
  5
14D55
331
0
  5
14D56
331
0
  5
14D57
331
0
  5
14D58
331
0
  5
14D59
331
0
  5
14D5A
331
0
  5
14D5B
331
0
  5
14D5C
331
0
  5
14D5D
331
0
  5
14D5E
331
0
  5
14D5F
331
0
  5
14D60
331
0
  5
14D61
331
0
  5
14D62
331
0
  5
14D63
331
0
  5
14D64
331
0
  5
14D65
331
0
  5
14D66
331
0
  5
14D67
331
0
  5
14D68
331
0
  5
14D69
331
0
  5
14D6A
331
0
  5
14D6B
331
0
  5
14D6C
331
0
  5
14D6D
331
0
  5
14D6E
331
0
  5
14D6F
331
0
  5
14D70
331
0
  5
14D71
331
0
  5
14D72
331
0
  5
14D73
331
0
  5
14D74
331
0
  5
14D75
331
0
  5
14D76
331
0
  5
14D77
331
0
  5
14D78
331
0
  5
14D79
331
0
  5
14D7A
331
0
  5
14D7B
331
0
  5
14D7C
331
0
  5
14D7D
331
0
  5
14D7E
331
0
  5
14D7F
331
0
  5
14D80
331
0
  5
14D81
331
0
  5
14D82
331
0
  5
14D83
331
0
  5
14D84
331
0
  5
14D85
331
0
  5
14D86
331
0
  5
14D87
331
0
  5
14D88
331
0
  5
14D89
331
0
  5
14D8A
331
0
  5
14D8B
331
0
  5
14D8C
331
0
  5
14D8D
331
0
  5
14D8E
331
0
  5
14D8F
331
0
  5
14D90
331
0
  5
14D91
331
0
  5
14D92
331
0
  5
14D93
331
0
  5
14D94
331
0
  5
14D95
331
0
  5
14D96
331
0
  5
14D97
331
0
  5
14D98
331
0
  5
14D99
331
0
  5
14D9A
331
0
  5
14D9B
331
0
  5
14D9C
331
0
  5
14D9D
331
0
  5
14D9E
331
0
  5
14D9F
331
0
  5
14DA0
331
0
  5
14DA1
331
0
  5
14DA2
331
0
  5
14DA3
331
0
  5
14DA4
331
0
  5
14DA5
331
0
  5
14DA6
331
0
  5
14DA7
331
0
  5
14DA8
331
0
  5
14DA9
331
0
  5
14DAA
331
0
  5
14DAB
331
0
  5
14DAC
331
0
  5
14DAD
331
0
  5
14DAE
331
0
  5
14DAF
331
0
  5
14DB0
331
0
  5
14DB1
331
0
  5
14DB2
331
0
  5
14DB3
331
0
  5
14DB4
331
0
  5
14DB5
331
0
  5
14DB6
331
0
  5
14DB7
331
0
  5
14DB8
331
0
  5
14DB9
331
0
  5
14DBA
331
0
  5
14DBB
331
0
  5
14DBC
331
0
  5
14DBD
331
0
  5
14DBE
331
0
  5
14DBF
331
0
  5
14DC0
331
0
  5
14DC1
331
0
  5
14DC2
331
0
  5
14DC3
331
0
  5
14DC4
331
0
  5
14DC5
331
0
  5
14DC6
331
0
  5
14DC7
331
0
  5
14DC8
331
0
  5
14DC9
331
0
  5
14DCA
331
0
  5
14DCB
331
0
  5
14DCC
331
0
  5
14DCD
331
0
  5
14DCE
331
0
  5
14DCF
331
0
  5
14DD0
331
0
  5
14DD1
331
0
  5
14DD2
331
0
  5
14DD3
331
0
  5
14DD4
331
0
  5
14DD5
331
0
  5
14DD6
331
0
  5
14DD7
331
0
  5
14DD8
331
0
  5
14DD9
331
0
  5
14DDA
331
0
  5
14DDB
331
0
  5
14DDC
331
0
  5
14DDD
331
0
  5
14DDE
331
0
  5
14DDF
331
0
  5
14DE0
331
0
  5
14DE1
331
0
  5
14DE2
331
0
  5
14DE3
331
0
  5
14DE4
331
0
  5
14DE5
331
0
  5
14DE6
331
0
  5
14DE7
331
0
  5
14DE8
331
0
  5
14DE9
331
0
  5
14DEA
331
0
  5
14DEB
331
0
  5
14DEC
331
0
  5
14DED
331
0
  5
14DEE
331
0
  5
14DEF
331
0
  5
14DF0
331
0
  5
14DF1
331
0
  5
14DF2
331
0
  5
14DF3
331
0
  5
14DF4
331
0
  5
14DF5
331
0
  5
14DF6
331
0
  5
14DF7
331
0
  5
14DF8
331
0
  5
14DF9
331
0
  5
14DFA
331
0
  5
14DFB
331
0
  5
14DFC
331
0
  5
14DFD
331
0
  5
14DFE
331
0
  5
14DFF
331
0
  5
14E00
331
0
  5
14E01
331
0
  5
14E02
331
0
  5
14E03
331
0
  5
14E04
331
0
  5
14E05
331
0
  5
14E06
331
0
  5
14E07
331
0
  5
14E08
331
0
  5
14E09
331
0
  5
14E0A
331
0
  5
14E0B
331
0
  5
14E0C
331
0
  5
14E0D
331
0
  5
14E0E
331
0
  5
14E0F
331
0
  5
14E10
331
0
  5
14E11
331
0
  5
14E12
331
0
  5
14E13
331
0
  5
14E14
331
0
  5
14E15
331
0
  5
14E16
331
0
  5
14E17
331
0
  5
14E18
331
0
  5
14E19
331
0
  5
14E1A
331
0
  5
14E1B
331
0
  5
14E1C
331
0
  5
14E1D
331
0
  5
14E1E
331
0
  5
14E1F
331
0
  5
14E20
331
0
  5
14E21
331
0
  5
14E22
331
0
  5
14E23
331
0
  5
14E24
331
0
  5
14E25
331
0
  5
14E26
331
0
  5
14E27
331
0
  5
14E28
331
0
  5
14E29
331
0
  5
14E2A
331
0
  5
14E2B
331
0
  5
14E2C
331
0
  5
14E2D
331
0
  5
14E2E
331
0
  5
14E2F
331
0
  5
14E30
331
0
  5
14E31
331
0
  5
14E32
331
0
  5
14E33
331
0
  5
14E34
331
0
  5
14E35
331
0
  5
14E36
331
0
  5
14E37
331
0
  5
14E38
331
0
  5
14E39
331
0
  5
14E3A
331
0
  5
14E3B
331
0
  5
14E3C
331
0
  5
14E3D
331
0
  5
14E3E
331
0
  5
14E3F
331
0
  5
14E40
331
0
  5
14E41
331
0
  5
14E42
331
0
  5
14E43
331
0
  5
14E44
331
0
  5
14E45
331
0
  5
14E46
331
0
  5
14E47
331
0
  5
14E48
331
0
  5
14E49
331
0
  5
14E4A
331
0
  5
14E4B
331
0
  5
14E4C
331
0
  5
14E4D
331
0
  5
14E4E
331
0
  5
14E4F
331
0
  5
14E50
331
0
  5
14E51
331
0
  5
14E52
331
0
  5
14E53
331
0
  5
14E54
331
0
  5
14E55
331
0
  5
14E56
331
0
  5
14E57
331
0
  5
14E58
331
0
  5
14E59
331
0
  5
14E5A
331
0
  5
14E5B
331
0
  5
14E5C
331
0
  5
14E5D
331
0
  5
14E5E
331
0
  5
14E5F
331
0
  5
14E60
331
0
  5
14E61
331
0
  5
14E62
331
0
  5
14E63
331
0
  5
14E64
331
0
  5
14E65
331
0
  5
14E66
331
0
  5
14E67
331
0
  5
14E68
331
0
  5
14E69
331
0
  5
14E6A
331
0
  5
14E6B
331
0
  5
14E6C
331
0
  5
14E6D
331
0
  5
14E6E
331
0
  5
14E6F
331
0
  5
14E70
331
0
  5
14E71
331
0
  5
14E72
331
0
  5
14E73
331
0
  5
14E74
331
0
  5
14E75
331
0
  5
14E76
331
0
  5
14E77
331
0
  5
14E78
331
0
  5
14E79
331
0
  5
14E7A
331
0
  5
14E7B
331
0
  5
14E7C
331
0
  5
14E7D
331
0
  5
14E7E
331
0
  5
14E7F
331
0
  5
14E80
331
0
  5
14E81
331
0
  5
14E82
331
0
  5
14E83
331
0
  5
14E84
331
0
  5
14E85
331
0
  5
14E86
331
0
  5
14E87
331
0
  5
14E88
331
0
  5
14E89
331
0
  5
14E8A
331
0
  5
14E8B
331
0
  5
14E8C
331
0
  5
14E8D
331
0
  5
14E8E
331
0
  5
14E8F
331
0
  5
14E90
331
0
  5
14E91
331
0
  5
14E92
331
0
  5
14E93
331
0
  5
14E94
331
0
  5
14E95
331
0
  5
14E96
331
0
  5
14E97
331
0
  5
14E98
331
0
  5
14E99
331
0
  5
14E9A
331
0
  5
14E9B
331
0
  5
14E9C
331
0
  5
14E9D
331
0
  5
14E9E
331
0
  5
14E9F
331
0
  5
14EA0
331
0
  5
14EA1
331
0
  5
14EA2
331
0
  5
14EA3
331
0
  5
14EA4
331
0
  5
14EA5
331
0
  5
14EA6
331
0
  5
14EA7
331
0
  5
14EA8
331
0
  5
14EA9
331
0
  5
14EAA
331
0
  5
14EAB
331
0
  5
14EAC
331
0
  5
14EAD
331
0
  5
14EAE
331
0
  5
14EAF
331
0
  5
14EB0
331
0
  5
14EB1
331
0
  5
14EB2
331
0
  5
14EB3
331
0
  5
14EB4
331
0
  5
14EB5
331
0
  5
14EB6
331
0
  5
14EB7
331
0
  5
14EB8
331
0
  5
14EB9
331
0
  5
14EBA
331
0
  5
14EBB
331
0
  5
14EBC
331
0
  5
14EBD
331
0
  5
14EBE
331
0
  5
14EBF
331
0
  5
14EC0
331
0
  5
14EC1
331
0
  5
14EC2
331
0
  5
14EC3
331
0
  5
14EC4
331
0
  5
14EC5
331
0
  5
14EC6
331
0
  5
14EC7
331
0
  5
14EC8
331
0
  5
14EC9
331
0
  5
14ECA
331
0
  5
14ECB
331
0
  5
14ECC
331
0
  5
14ECD
331
0
  5
14ECE
331
0
  5
14ECF
331
0
  5
14ED0
331
0
  5
14ED1
331
0
  5
14ED2
331
0
  5
14ED3
331
0
  5
14ED4
331
0
  5
14ED5
331
0
  5
14ED6
331
0
  5
14ED7
331
0
  5
14ED8
331
0
  5
14ED9
331
0
  5
14EDA
331
0
  5
14EDB
331
0
  5
14EDC
331
0
  5
14EDD
331
0
  5
14EDE
331
0
  5
14EDF
331
0
  5
14EE0
331
0
  5
14EE1
331
0
  5
14EE2
331
0
  5
14EE3
331
0
  5
14EE4
331
0
  5
14EE5
331
0
  5
14EE6
331
0
  5
14EE7
331
0
  5
14EE8
331
0
  5
14EE9
331
0
  5
14EEA
331
0
  5
14EEB
331
0
  5
14EEC
331
0
  5
14EED
331
0
  5
14EEE
331
0
  5
14EEF
331
0
  5
14EF0
331
0
  5
14EF1
331
0
  5
14EF2
331
0
  5
14EF3
331
0
  5
14EF4
331
0
  5
14EF5
331
0
  5
14EF6
331
0
  5
14EF7
331
0
  5
14EF8
331
0
  5
14EF9
331
0
  5
14EFA
331
0
  5
14EFB
331
0
  5
14EFC
331
0
  5
14EFD
331
0
  5
14EFE
331
0
  5
14EFF
331
0
  5
14F00
331
0
  5
14F01
331
0
  5
14F02
331
0
  5
14F03
331
0
  5
14F04
331
0
  5
14F05
331
0
  5
14F06
331
0
  5
14F07
331
0
  5
14F08
331
0
  5
14F09
331
0
  5
14F0A
331
0
  5
14F0B
331
0
  5
14F0C
331
0
  5
14F0D
331
0
  5
14F0E
331
0
  5
14F0F
331
0
  5
14F10
331
0
  5
14F11
331
0
  5
14F12
331
0
  5
14F13
331
0
  5
14F14
331
0
  5
14F15
331
0
  5
14F16
331
0
  5
14F17
331
0
  5
14F18
331
0
  5
14F19
331
0
  5
14F1A
331
0
  5
14F1B
331
0
  5
14F1C
331
0
  5
14F1D
331
0
  5
14F1E
331
0
  5
14F1F
331
0
  5
14F20
331
0
  5
14F21
331
0
  5
14F22
331
0
  5
14F23
331
0
  5
14F24
331
0
  5
14F25
331
0
  5
14F26
331
0
  5
14F27
331
0
  5
14F28
331
0
  5
14F29
331
0
  5
14F2A
331
0
  5
14F2B
331
0
  5
14F2C
331
0
  5
14F2D
331
0
  5
14F2E
331
0
  5
14F2F
331
0
  5
14F30
331
0
  5
14F31
331
0
  5
14F32
331
0
  5
14F33
331
0
  5
14F34
331
0
  5
14F35
331
0
  5
14F36
331
0
  5
14F37
331
0
  5
14F38
331
0
  5
14F39
331
0
  5
14F3A
331
0
  5
14F3B
331
0
  5
14F3C
331
0
  5
14F3D
331
0
  5
14F3E
331
0
  5
14F3F
331
0
  5
14F40
331
0
  5
14F41
331
0
  5
14F42
331
0
  5
14F43
331
0
  5
14F44
331
0
  5
14F45
331
0
  5
14F46
331
0
  5
14F47
331
0
  5
14F48
331
0
  5
14F49
331
0
  5
14F4A
331
0
  5
14F4B
331
0
  5
14F4C
331
0
  5
14F4D
331
0
  5
14F4E
331
0
  5
14F4F
331
0
  5
14F50
331
0
  5
14F51
331
0
  5
14F52
331
0
  5
14F53
331
0
  5
14F54
331
0
  5
14F55
331
0
  5
14F56
331
0
  5
14F57
331
0
  5
14F58
331
0
  5
14F59
331
0
  5
14F5A
331
0
  5
14F5B
331
0
  5
14F5C
331
0
  5
14F5D
331
0
  5
14F5E
331
0
  5
14F5F
331
0
  5
14F60
331
0
  5
14F61
331
0
  5
14F62
331
0
  5
14F63
331
0
  5
14F64
331
0
  5
14F65
331
0
  5
14F66
331
0
  5
14F67
331
0
  5
14F68
331
0
  5
14F69
331
0
  5
14F6A
331
0
  5
14F6B
331
0
  5
14F6C
331
0
  5
14F6D
331
0
  5
14F6E
331
0
  5
14F6F
331
0
  5
14F70
331
0
  5
14F71
331
0
  5
14F72
331
0
  5
14F73
331
0
  5
14F74
331
0
  5
14F75
331
0
  5
14F76
331
0
  5
14F77
331
0
  5
14F78
331
0
  5
14F79
331
0
  5
14F7A
331
0
  5
14F7B
331
0
  5
14F7C
331
0
  5
14F7D
331
0
  5
14F7E
331
0
  5
14F7F
331
0
  5
14F80
331
0
  5
14F81
331
0
  5
14F82
331
0
  5
14F83
331
0
  5
14F84
331
0
  5
14F85
331
0
  5
14F86
331
0
  5
14F87
331
0
  5
14F88
331
0
  5
14F89
331
0
  5
14F8A
331
0
  5
14F8B
331
0
  5
14F8C
331
0
  5
14F8D
331
0
  5
14F8E
331
0
  5
14F8F
331
0
  5
14F90
331
0
  5
14F91
331
0
  5
14F92
331
0
  5
14F93
331
0
  5
14F94
331
0
  5
14F95
331
0
  5
14F96
331
0
  5
14F97
331
0
  5
14F98
331
0
  5
14F99
331
0
  5
14F9A
331
0
  5
14F9B
331
0
  5
14F9C
331
0
  5
14F9D
331
0
  5
14F9E
331
0
  5
14F9F
331
0
  5
14FA0
331
0
  5
14FA1
331
0
  5
14FA2
331
0
  5
14FA3
331
0
  5
14FA4
331
0
  5
14FA5
331
0
  5
14FA6
331
0
  5
14FA7
331
0
  5
14FA8
331
0
  5
14FA9
331
0
  5
14FAA
331
0
  5
14FAB
331
0
  5
14FAC
331
0
  5
14FAD
331
0
  5
14FAE
331
0
  5
14FAF
331
0
  5
14FB0
331
0
  5
14FB1
331
0
  5
14FB2
331
0
  5
14FB3
331
0
  5
14FB4
331
0
  5
14FB5
331
0
  5
14FB6
331
0
  5
14FB7
331
0
  5
14FB8
331
0
  5
14FB9
331
0
  5
14FBA
331
0
  5
14FBB
331
0
  5
14FBC
331
0
  5
14FBD
331
0
  5
14FBE
331
0
  5
14FBF
331
0
  5
14FC0
331
0
  5
14FC1
331
0
  5
14FC2
331
0
  5
14FC3
331
0
  5
14FC4
331
0
  5
14FC5
331
0
  5
14FC6
331
0
  5
14FC7
331
0
  5
14FC8
331
0
  5
14FC9
331
0
  5
14FCA
331
0
  5
14FCB
331
0
  5
14FCC
331
0
  5
14FCD
331
0
  5
14FCE
331
0
  5
14FCF
331
0
  5
14FD0
331
0
  5
14FD1
331
0
  5
14FD2
331
0
  5
14FD3
331
0
  5
14FD4
331
0
  5
14FD5
331
0
  5
14FD6
331
0
  5
14FD7
331
0
  5
14FD8
331
0
  5
14FD9
331
0
  5
14FDA
331
0
  5
14FDB
331
0
  5
14FDC
331
0
  5
14FDD
331
0
  5
14FDE
331
0
  5
14FDF
331
0
  5
14FE0
331
0
  5
14FE1
331
0
  5
14FE2
331
0
  5
14FE3
331
0
  5
14FE4
331
0
  5
14FE5
331
0
  5
14FE6
331
0
  5
14FE7
331
0
  5
14FE8
331
0
  5
14FEB
331
0
  5
14FEC
331
0
  5
14FED
331
0
  5
14FEF
331
0
  5
14FF0
331
0
  5
14FF7
331
0
  5
14FF8
331
0
  5
14FF9
331
0
  5
14FFA
331
0
  5
14FFB
331
0
  5
14FFC
331
0
  5
14FFD
331
0
  5
14FFE
331
0
  5
14FFF
331
0
  5
15000
331
0
  5
15001
331
0
  5
15002
331
0
  5
15003
331
0
  5
15004
331
0
  5
15005
331
0
  5
15006
331
0
  5
15007
331
0
  5
15008
331
0
  5
15009
331
0
  5
1500A
331
0
  5
1500B
331
0
  5
1500C
331
0
  5
1500D
331
0
  5
14FEA
331
0
  5
14FEE
  0
LAYOUT
  5
40CD
102
{ACAD_REACTORS
330
40CB
102
}
330
40CB
100
AcDbPlotSettings
  1

  2
JUST PDF 2
  4
A4
  6

 40
3.174999952316284
 41
3.174999952316284
 42
3.175003051757812
 43
3.17498779296875
 44
209.8886566162109
 45
297.0530090332031
 46
14.27171755861525
 47
9.855173074625668
 48
1648.333996868098
 49
1991.04350848233
140
1823.329215363004
141
2262.036183620997
142
1.0
143
1.0
 70
  3748
 72
     1
 73
     0
 74
     4
  7
spax form.ctb
 75
    16
147
1.0
148
-1648.333996868098
149
-1991.04350848233
100
AcDbLayout
  1
Model
 70
     1
 71
     0
 10
0.0
 20
0.0
 11
12.0
 21
9.0
 12
0.0
 22
0.0
 32
0.0
 14
1655.993032088339
 24
1911.355180967779
 34
0.0
 15
1681.575770912816
 25
1946.387689875932
 35
0.0
146
0.0
 13
0.0
 23
0.0
 33
0.0
 16
1.0
 26
0.0
 36
0.0
 17
0.0
 27
1.0
 37
0.0
 76
     0
330
18
331
FF53
1001
ACAD_PSEXT
1000
JUST PDF 2
1000
JUST PDF 2
1000
JUST PDF 2 Port:
1000

1070
     0
  0
LAYOUT
  5
40CE
102
{ACAD_REACTORS
330
40CB
102
}
330
40CB
100
AcDbPlotSettings
  1

  2
なし
  4

  6

 40
0.0
 41
0.0
 42
0.0
 43
0.0
 44
0.0
 45
0.0
 46
0.0
 47
0.0
 48
0.0
 49
0.0
140
0.0
141
0.0
142
1.0
143
1.0
 70
   688
 72
     0
 73
     0
 74
     5
  7
Aiba.ctb
 75
    16
147
1.0
148
0.0
149
0.0
100
AcDbLayout
  1
ﾚｲｱｳﾄ1
 70
     0
 71
     1
 10
0.0
 20
0.0
 11
12.0
 21
9.0
 12
0.0
 22
0.0
 32
0.0
 14
1.000000000000000E+20
 24
1.000000000000000E+20
 34
1.000000000000000E+20
 15
-1.000000000000000E+20
 25
-1.000000000000000E+20
 35
-1.000000000000000E+20
146
0.0
 13
0.0
 23
0.0
 33
0.0
 16
1.0
 26
0.0
 36
0.0
 17
0.0
 27
1.0
 37
0.0
 76
     0
330
15
  0
MLINESTYLE
  5
1B
102
{ACAD_REACTORS
330
E
102
}
330
E
100
AcDbMlineStyle
  2
STANDARD
 70
     0
  3

 62
     0
 51
90.0
 52
90.0
 71
     2
 49
0.5
 62
   256
  6
BYLAYER
 49
-0.5
 62
   256
  6
BYLAYER
  0
ACDBPLACEHOLDER
  5
40CA
102
{ACAD_REACTORS
330
40C9
102
}
330
40C9
  0
SCALE
  5
FF89
102
{ACAD_REACTORS
330
FF88
102
}
330
FF88
100
AcDbScale
 70
     0
300
1:1
140
1.0
141
1.0
290
     1
  0
SCALE
  5
FF8A
102
{ACAD_REACTORS
330
FF88
102
}
330
FF88
100
AcDbScale
 70
     0
300
1:2
140
1.0
141
2.0
290
     0
  0
SCALE
  5
FF8B
102
{ACAD_REACTORS
330
FF88
102
}
330
FF88
100
AcDbScale
 70
     0
300
1:4
140
1.0
141
4.0
290
     0
  0
SCALE
  5
FF8C
102
{ACAD_REACTORS
330
FF88
102
}
330
FF88
100
AcDbScale
 70
     0
300
1:5
140
1.0
141
5.0
290
     0
  0
SCALE
  5
FF8D
102
{ACAD_REACTORS
330
FF88
102
}
330
FF88
100
AcDbScale
 70
     0
300
1:8
140
1.0
141
8.0
290
     0
  0
SCALE
  5
FF8E
102
{ACAD_REACTORS
330
FF88
102
}
330
FF88
100
AcDbScale
 70
     0
300
1:10
140
1.0
141
10.0
290
     0
  0
SCALE
  5
FF8F
102
{ACAD_REACTORS
330
FF88
102
}
330
FF88
100
AcDbScale
 70
     0
300
1:16
140
1.0
141
16.0
290
     0
  0
SCALE
  5
FF90
102
{ACAD_REACTORS
330
FF88
102
}
330
FF88
100
AcDbScale
 70
     0
300
1:20
140
1.0
141
20.0
290
     0
  0
SCALE
  5
FF91
102
{ACAD_REACTORS
330
FF88
102
}
330
FF88
100
AcDbScale
 70
     0
300
1:30
140
1.0
141
30.0
290
     0
  0
SCALE
  5
FF92
102
{ACAD_REACTORS
330
FF88
102
}
330
FF88
100
AcDbScale
 70
     0
300
1:40
140
1.0
141
40.0
290
     0
  0
SCALE
  5
FF93
102
{ACAD_REACTORS
330
FF88
102
}
330
FF88
100
AcDbScale
 70
     0
300
1:50
140
1.0
141
50.0
290
     0
  0
SCALE
  5
FF94
102
{ACAD_REACTORS
330
FF88
102
}
330
FF88
100
AcDbScale
 70
     0
300
1:100
140
1.0
141
100.0
290
     0
  0
SCALE
  5
FF95
102
{ACAD_REACTORS
330
FF88
102
}
330
FF88
100
AcDbScale
 70
     0
300
2:1
140
2.0
141
1.0
290
     0
  0
SCALE
  5
FF96
102
{ACAD_REACTORS
330
FF88
102
}
330
FF88
100
AcDbScale
 70
     0
300
4:1
140
4.0
141
1.0
290
     0
  0
SCALE
  5
FF97
102
{ACAD_REACTORS
330
FF88
102
}
330
FF88
100
AcDbScale
 70
     0
300
8:1
140
8.0
141
1.0
290
     0
  0
SCALE
  5
FF98
102
{ACAD_REACTORS
330
FF88
102
}
330
FF88
100
AcDbScale
 70
     0
300
10:1
140
10.0
141
1.0
290
     0
  0
SCALE
  5
FF99
102
{ACAD_REACTORS
330
FF88
102
}
330
FF88
100
AcDbScale
 70
     0
300
100:1
140
100.0
141
1.0
290
     0
  0
SCALE
  5
FF9A
102
{ACAD_REACTORS
330
FF88
102
}
330
FF88
100
AcDbScale
 70
     0
300
1/128" = 1'-0"
140
0.0078125
141
12.0
290
     0
  0
SCALE
  5
FF9B
102
{ACAD_REACTORS
330
FF88
102
}
330
FF88
100
AcDbScale
 70
     0
300
1/64" = 1'-0"
140
0.015625
141
12.0
290
     0
  0
SCALE
  5
FF9C
102
{ACAD_REACTORS
330
FF88
102
}
330
FF88
100
AcDbScale
 70
     0
300
1/32" = 1'-0"
140
0.03125
141
12.0
290
     0
  0
SCALE
  5
FF9D
102
{ACAD_REACTORS
330
FF88
102
}
330
FF88
100
AcDbScale
 70
     0
300
1/16" = 1'-0"
140
0.0625
141
12.0
290
     0
  0
SCALE
  5
FF9E
102
{ACAD_REACTORS
330
FF88
102
}
330
FF88
100
AcDbScale
 70
     0
300
3/32" = 1'-0"
140
0.09375
141
12.0
290
     0
  0
SCALE
  5
FF9F
102
{ACAD_REACTORS
330
FF88
102
}
330
FF88
100
AcDbScale
 70
     0
300
1/8" = 1'-0"
140
0.125
141
12.0
290
     0
  0
SCALE
  5
FFA0
102
{ACAD_REACTORS
330
FF88
102
}
330
FF88
100
AcDbScale
 70
     0
300
3/16" = 1'-0"
140
0.1875
141
12.0
290
     0
  0
SCALE
  5
FFA1
102
{ACAD_REACTORS
330
FF88
102
}
330
FF88
100
AcDbScale
 70
     0
300
1/4" = 1'-0"
140
0.25
141
12.0
290
     0
  0
SCALE
  5
FFA2
102
{ACAD_REACTORS
330
FF88
102
}
330
FF88
100
AcDbScale
 70
     0
300
3/8" = 1'-0"
140
0.375
141
12.0
290
     0
  0
SCALE
  5
FFA3
102
{ACAD_REACTORS
330
FF88
102
}
330
FF88
100
AcDbScale
 70
     0
300
1/2" = 1'-0"
140
0.5
141
12.0
290
     0
  0
SCALE
  5
FFA4
102
{ACAD_REACTORS
330
FF88
102
}
330
FF88
100
AcDbScale
 70
     0
300
3/4" = 1'-0"
140
0.75
141
12.0
290
     0
  0
SCALE
  5
FFA5
102
{ACAD_REACTORS
330
FF88
102
}
330
FF88
100
AcDbScale
 70
     0
300
1" = 1'-0"
140
1.0
141
12.0
290
     0
  0
SCALE
  5
FFA6
102
{ACAD_REACTORS
330
FF88
102
}
330
FF88
100
AcDbScale
 70
     0
300
1-1/2" = 1'-0"
140
1.5
141
12.0
290
     0
  0
SCALE
  5
FFA7
102
{ACAD_REACTORS
330
FF88
102
}
330
FF88
100
AcDbScale
 70
     0
300
3" = 1'-0"
140
3.0
141
12.0
290
     0
  0
SCALE
  5
FFA8
102
{ACAD_REACTORS
330
FF88
102
}
330
FF88
100
AcDbScale
 70
     0
300
6" = 1'-0"
140
6.0
141
12.0
290
     0
  0
SCALE
  5
FFA9
102
{ACAD_REACTORS
330
FF88
102
}
330
FF88
100
AcDbScale
 70
     0
300
1'-0" = 1'-0"
140
12.0
141
12.0
290
     0
  0
DICTIONARYVAR
  5
73F2
102
{ACAD_REACTORS
330
6377
102
}
330
6377
100
DictionaryVariables
280
     0
  1
1
  0
DICTIONARYVAR
  5
11273
102
{ACAD_REACTORS
330
6377
102
}
330
6377
100
DictionaryVariables
280
     0
  1
0
  0
DICTIONARYVAR
  5
FF5B
102
{ACAD_REACTORS
330
6377
102
}
330
6377
100
DictionaryVariables
280
     0
  1

  0
DICTIONARYVAR
  5
6378
102
{ACAD_REACTORS
330
6377
102
}
330
6377
100
DictionaryVariables
280
     0
  1
96
  0
ENDSEC
  0
EOF
