  0
SECTION
  2
HEADER
  9
$ACADVER
  1
AC1015
  9
$ACADMAINTVER
 70
     6
  9
$DWGCODEPAGE
  3
ANSI_932
  9
$INSBASE
 10
0.0
 20
0.0
 30
0.0
  9
$EXTMIN
 10
10388.59072540588
 20
-5069.827732186707
 30
-0.0000000000000122
  9
$EXTMAX
 10
10457.92405873921
 20
-4980.3649369858
 30
0.0
  9
$LIMMIN
 10
0.0
 20
0.0
  9
$LIMMAX
 10
420.0
 20
297.0
  9
$ORTHOMODE
 70
     1
  9
$REGENMODE
 70
     1
  9
$FILLMODE
 70
     1
  9
$QTEXTMODE
 70
     0
  9
$MIRRTEXT
 70
     1
  9
$LTSCALE
 40
5.0
  9
$ATTMODE
 70
     0
  9
$TEXTSIZE
 40
53.44730959687513
  9
$TRACEWID
 40
1.0
  9
$TEXTSTYLE
  7
STANDARD
  9
$CLAYER
  8
寸法線
  9
$CELTYPE
  6
BYLAYER
  9
$CECOLOR
 62
   256
  9
$CELTSCALE
 40
1.0
  9
$DISPSILH
 70
     0
  9
$DIMSCALE
 40
1.0
  9
$DIMASZ
 40
2.5
  9
$DIMEXO
 40
1.5
  9
$DIMDLI
 40
0.38
  9
$DIMRND
 40
0.0
  9
$DIMDLE
 40
0.0
  9
$DIMEXE
 40
1.0
  9
$DIMTP
 40
0.0
  9
$DIMTM
 40
0.0
  9
$DIMTXT
 40
2.500000000000003
  9
$DIMCEN
 40
0.0
  9
$DIMTSZ
 40
0.0
  9
$DIMTOL
 70
     0
  9
$DIMLIM
 70
     0
  9
$DIMTIH
 70
     0
  9
$DIMTOH
 70
     0
  9
$DIMSE1
 70
     0
  9
$DIMSE2
 70
     0
  9
$DIMTAD
 70
     3
  9
$DIMZIN
 70
     8
  9
$DIMBLK
  1

  9
$DIMASO
 70
     1
  9
$DIMSHO
 70
     0
  9
$DIMPOST
  1

  9
$DIMAPOST
  1

  9
$DIMALT
 70
     0
  9
$DIMALTD
 70
     0
  9
$DIMALTF
 40
25.4
  9
$DIMLFAC
 40
1.0
  9
$DIMTOFL
 70
     1
  9
$DIMTVP
 40
0.0
  9
$DIMTIX
 70
     0
  9
$DIMSOXD
 70
     0
  9
$DIMSAH
 70
     1
  9
$DIMBLK1
  1
OPEN
  9
$DIMBLK2
  1
OPEN
  9
$DIMSTYLE
  2
STANDARD
  9
$DIMCLRD
 70
     8
  9
$DIMCLRE
 70
     8
  9
$DIMCLRT
 70
   256
  9
$DIMTFAC
 40
1.0
  9
$DIMGAP
 40
1.0
  9
$DIMJUST
 70
     0
  9
$DIMSD1
 70
     0
  9
$DIMSD2
 70
     0
  9
$DIMTOLJ
 70
     1
  9
$DIMTZIN
 70
     0
  9
$DIMALTZ
 70
     0
  9
$DIMALTTZ
 70
     0
  9
$DIMUPT
 70
     0
  9
$DIMDEC
 70
     2
  9
$DIMTDEC
 70
     2
  9
$DIMALTU
 70
     2
  9
$DIMALTTD
 70
     0
  9
$DIMTXSTY
  7
STANDARD
  9
$DIMAUNIT
 70
     0
  9
$DIMADEC
 70
     2
  9
$DIMALTRND
 40
0.0
  9
$DIMAZIN
 70
     2
  9
$DIMDSEP
 70
    46
  9
$DIMATFIT
 70
     1
  9
$DIMFRAC
 70
     0
  9
$DIMLDRBLK
  1
OPEN
  9
$DIMLUNIT
 70
     2
  9
$DIMLWD
 70
    -2
  9
$DIMLWE
 70
    -2
  9
$DIMTMOVE
 70
     0
  9
$LUNITS
 70
     2
  9
$LUPREC
 70
     2
  9
$SKETCHINC
 40
0.1
  9
$FILLETRAD
 40
15.5
  9
$AUNITS
 70
     0
  9
$AUPREC
 70
     1
  9
$MENU
  1
FM
  9
$ELEVATION
 40
0.0
  9
$PELEVATION
 40
0.0
  9
$THICKNESS
 40
0.0
  9
$LIMCHECK
 70
     0
  9
$CHAMFERA
 40
0.0
  9
$CHAMFERB
 40
0.0
  9
$CHAMFERC
 40
0.0
  9
$CHAMFERD
 40
0.0
  9
$SKPOLY
 70
     0
  9
$TDCREATE
 40
2448636.619629629
  9
$TDUCREATE
 40
2448636.244629629
  9
$TDUPDATE
 40
2456821.604417303
  9
$TDUUPDATE
 40
2456821.229417303
  9
$TDINDWG
 40
48.9542331134
  9
$TDUSRTIMER
 40
2456821.229274757
  9
$USRTIMER
 70
     1
  9
$ANGBASE
 50
0.0
  9
$ANGDIR
 70
     0
  9
$PDMODE
 70
     3
  9
$PDSIZE
 40
0.0
  9
$PLINEWID
 40
0.0
  9
$SPLFRAME
 70
     0
  9
$SPLINETYPE
 70
     6
  9
$SPLINESEGS
 70
     8
  9
$HANDSEED
  5
12FE0C
  9
$SURFTAB1
 70
     6
  9
$SURFTAB2
 70
     6
  9
$SURFTYPE
 70
     6
  9
$SURFU
 70
     6
  9
$SURFV
 70
     6
  9
$UCSBASE
  2

  9
$UCSNAME
  2

  9
$UCSORG
 10
0.0
 20
0.0
 30
0.0
  9
$UCSXDIR
 10
1.0
 20
0.0
 30
0.0
  9
$UCSYDIR
 10
0.0
 20
1.0
 30
0.0
  9
$UCSORTHOREF
  2

  9
$UCSORTHOVIEW
 70
     0
  9
$UCSORGTOP
 10
0.0
 20
0.0
 30
0.0
  9
$UCSORGBOTTOM
 10
0.0
 20
0.0
 30
0.0
  9
$UCSORGLEFT
 10
0.0
 20
0.0
 30
0.0
  9
$UCSORGRIGHT
 10
0.0
 20
0.0
 30
0.0
  9
$UCSORGFRONT
 10
0.0
 20
0.0
 30
0.0
  9
$UCSORGBACK
 10
0.0
 20
0.0
 30
0.0
  9
$PUCSBASE
  2

  9
$PUCSNAME
  2

  9
$PUCSORG
 10
0.0
 20
0.0
 30
0.0
  9
$PUCSXDIR
 10
1.0
 20
0.0
 30
0.0
  9
$PUCSYDIR
 10
0.0
 20
1.0
 30
0.0
  9
$PUCSORTHOREF
  2

  9
$PUCSORTHOVIEW
 70
     0
  9
$PUCSORGTOP
 10
0.0
 20
0.0
 30
0.0
  9
$PUCSORGBOTTOM
 10
0.0
 20
0.0
 30
0.0
  9
$PUCSORGLEFT
 10
0.0
 20
0.0
 30
0.0
  9
$PUCSORGRIGHT
 10
0.0
 20
0.0
 30
0.0
  9
$PUCSORGFRONT
 10
0.0
 20
0.0
 30
0.0
  9
$PUCSORGBACK
 10
0.0
 20
0.0
 30
0.0
  9
$USERI1
 70
     0
  9
$USERI2
 70
     0
  9
$USERI3
 70
     0
  9
$USERI4
 70
     0
  9
$USERI5
 70
     0
  9
$USERR1
 40
0.0
  9
$USERR2
 40
0.0
  9
$USERR3
 40
0.0
  9
$USERR4
 40
0.0
  9
$USERR5
 40
0.0
  9
$WORLDVIEW
 70
     0
  9
$SHADEDGE
 70
     3
  9
$SHADEDIF
 70
    70
  9
$TILEMODE
 70
     1
  9
$MAXACTVP
 70
    16
  9
$PINSBASE
 10
0.0
 20
0.0
 30
0.0
  9
$PLIMCHECK
 70
     0
  9
$PEXTMIN
 10
1.000000000000000E+20
 20
1.000000000000000E+20
 30
1.000000000000000E+20
  9
$PEXTMAX
 10
-1.000000000000000E+20
 20
-1.000000000000000E+20
 30
-1.000000000000000E+20
  9
$PLIMMIN
 10
0.0
 20
0.0
  9
$PLIMMAX
 10
0.0
 20
0.0
  9
$UNITMODE
 70
     0
  9
$VISRETAIN
 70
     0
  9
$PLINEGEN
 70
     0
  9
$PSLTSCALE
 70
     0
  9
$TREEDEPTH
 70
  3020
  9
$CMLSTYLE
  2
STANDARD
  9
$CMLJUST
 70
     0
  9
$CMLSCALE
 40
1.0
  9
$PROXYGRAPHICS
 70
     1
  9
$MEASUREMENT
 70
     0
  9
$CELWEIGHT
370
    -1
  9
$ENDCAPS
280
     0
  9
$JOINSTYLE
280
     0
  9
$LWDISPLAY
290
     0
  9
$INSUNITS
 70
     0
  9
$HYPERLINKBASE
  1

  9
$STYLESHEET
  1
spax form.ctb
  9
$XEDIT
290
     1
  9
$CEPSNTYPE
380
     0
  9
$PSTYLEMODE
290
     1
  9
$FINGERPRINTGUID
  2
{BBAEEBA6-8B94-11D3-9160-00E0294F7E09}
  9
$VERSIONGUID
  2
{5CE15A8F-F8C2-4D80-8324-98B1C523FDDA}
  9
$EXTNAMES
290
     1
  9
$PSVPSCALE
 40
0.0
  9
$OLESTARTUP
290
     0
  0
ENDSEC
  0
SECTION
  2
CLASSES
  0
CLASS
  1
LWPOLYLINE
  2
AcDbPolyline
  3
ObjectDBX Classes
 90
        0
280
     0
281
     1
  0
CLASS
  1
ACDBDICTIONARYWDFLT
  2
AcDbDictionaryWithDefault
  3
ObjectDBX Classes
 90
        0
280
     0
281
     0
  0
CLASS
  1
ACDBPLACEHOLDER
  2
AcDbPlaceHolder
  3
ObjectDBX Classes
 90
        0
280
     0
281
     0
  0
CLASS
  1
LAYOUT
  2
AcDbLayout
  3
ObjectDBX Classes
 90
        0
280
     0
281
     0
  0
CLASS
  1
DICTIONARYVAR
  2
AcDbDictionaryVar
  3
ObjectDBX Classes
 90
        0
280
     0
281
     0
  0
CLASS
  1
MATERIAL
  2
AcDbMaterial
  3
ObjectDBX Classes
 90
     1153
280
     0
281
     0
  0
CLASS
  1
VISUALSTYLE
  2
AcDbVisualStyle
  3
ObjectDBX Classes
 90
     4095
280
     0
281
     0
  0
CLASS
  1
TABLESTYLE
  2
AcDbTableStyle
  3
ObjectDBX Classes
 90
     4095
280
     0
281
     0
  0
CLASS
  1
SCALE
  2
AcDbScale
  3
ObjectDBX Classes
 90
     1153
280
     0
281
     0
  0
CLASS
  1
MLEADERSTYLE
  2
AcDbMLeaderStyle
  3
ACDB_MLEADERSTYLE_CLASS
 90
     4095
280
     0
281
     0
  0
CLASS
  1
CELLSTYLEMAP
  2
AcDbCellStyleMap
  3
ObjectDBX Classes
 90
     1152
280
     0
281
     0
  0
CLASS
  1
SORTENTSTABLE
  2
AcDbSortentsTable
  3
ObjectDBX Classes
 90
        0
280
     0
281
     0
  0
CLASS
  1
MULTILEADER
  2
AcDbMLeader
  3
ACDB_MLEADER_CLASS
 90
     1025
280
     0
281
     1
  0
CLASS
  1
DIMASSOC
  2
AcDbDimAssoc
  3
"AcDbDimAssoc|Product Desc:     AcDim ARX App For Dimension|Company:          Autodesk, Inc.|WEB Address:      www.autodesk.com"
 90
        0
280
     0
281
     0
  0
CLASS
  1
RASTERVARIABLES
  2
AcDbRasterVariables
  3
ISM
 90
        0
280
     0
281
     0
  0
CLASS
  1
SUN
  2
AcDbSun
  3
SCENEOE
 90
     1153
280
     0
281
     0
  0
ENDSEC
  0
SECTION
  2
TABLES
  0
TABLE
  2
VPORT
  5
8
330
0
100
AcDbSymbolTable
 70
     1
  0
VPORT
  5
1297B9
330
8
100
AcDbSymbolTableRecord
100
AcDbViewportTableRecord
  2
*Active
 70
     0
 10
0.0
 20
0.0
 11
1.0
 21
1.0
 12
10423.25739207254
 22
-5025.096334586254
 13
0.0
 23
0.0
 14
1.0
 24
1.0
 15
20.0
 25
20.0
 16
0.0
 26
0.0
 36
1.0
 17
0.0
 27
0.0
 37
0.0
 40
91.25205110492497
 41
1.731829573934837
 42
50.0
 43
0.0
 44
0.0
 50
0.0
 51
0.0
 71
    16
 72
   100
 73
     1
 74
     0
 75
     0
 76
     0
 77
     0
 78
     0
281
     0
 65
     1
110
0.0
120
0.0
130
0.0
111
1.0
121
0.0
131
0.0
112
0.0
122
1.0
132
0.0
 79
     0
146
0.0
  0
ENDTAB
  0
TABLE
  2
LTYPE
  5
5
330
0
100
AcDbSymbolTable
 70
     3
  0
LTYPE
  5
12
330
5
100
AcDbSymbolTableRecord
100
AcDbLinetypeTableRecord
  2
BYBLOCK
 70
     0
  3

 72
    65
 73
     0
 40
0.0
  0
LTYPE
  5
13
330
5
100
AcDbSymbolTableRecord
100
AcDbLinetypeTableRecord
  2
BYLAYER
 70
     0
  3

 72
    65
 73
     0
 40
0.0
  0
LTYPE
  5
14
330
5
100
AcDbSymbolTableRecord
100
AcDbLinetypeTableRecord
  2
CONTINUOUS
 70
     0
  3
Solid line
 72
    65
 73
     0
 40
0.0
  0
LTYPE
  5
27
330
5
100
AcDbSymbolTableRecord
100
AcDbLinetypeTableRecord
  2
HIDDEN
 70
     0
  3
_ _ _ _ _ _ _ _ _ _ _ _ _ _ _ _ _ _ _ _ _ _ _
 72
    65
 73
     2
 40
0.375
 49
0.25
 74
     0
 49
-0.125
 74
     0
  0
LTYPE
  5
514
330
5
100
AcDbSymbolTableRecord
100
AcDbLinetypeTableRecord
  2
CENTER
 70
     0
  3
Center ____ _ ____ _ ____ _ ____ _ ____ _ ____
 72
    65
 73
     4
 40
2.0
 49
1.25
 74
     0
 49
-0.25
 74
     0
 49
0.25
 74
     0
 49
-0.25
 74
     0
  0
ENDTAB
  0
TABLE
  2
LAYER
  5
2
102
{ACAD_XDICTIONARY
360
8BF
102
}
330
0
100
AcDbSymbolTable
 70
    11
  0
LAYER
  5
F
102
{ACAD_XDICTIONARY
360
A60
102
}
330
2
100
AcDbSymbolTableRecord
100
AcDbLayerTableRecord
  2
0
 70
     0
 62
     7
  6
CONTINUOUS
370
    -3
390
616
  0
LAYER
  5
34
102
{ACAD_XDICTIONARY
360
A66
102
}
330
2
100
AcDbSymbolTableRecord
100
AcDbLayerTableRecord
  2
寸法線
 70
     0
 62
     7
  6
CONTINUOUS
370
    -3
390
616
  0
LAYER
  5
2F4
102
{ACAD_XDICTIONARY
360
A6E
102
}
330
2
100
AcDbSymbolTableRecord
100
AcDbLayerTableRecord
  2
文字
 70
     0
 62
     7
  6
CONTINUOUS
370
    -3
390
616
  0
LAYER
  5
305
102
{ACAD_XDICTIONARY
360
A72
102
}
330
2
100
AcDbSymbolTableRecord
100
AcDbLayerTableRecord
  2
姿図
 70
     0
 62
     8
  6
CONTINUOUS
370
    -3
390
616
  0
ENDTAB
  0
TABLE
  2
STYLE
  5
3
330
0
100
AcDbSymbolTable
 70
     1
  0
STYLE
  5
10
330
3
100
AcDbSymbolTableRecord
100
AcDbTextStyleTableRecord
  2
STANDARD
 70
     0
 40
0.0
 41
1.0
 50
0.0
 71
     0
 42
53.44730959687513
  3
MONOTXT
  4
BIGFONT
  0
ENDTAB
  0
TABLE
  2
VIEW
  5
6
330
0
100
AcDbSymbolTable
 70
     0
  0
ENDTAB
  0
TABLE
  2
UCS
  5
7
330
0
100
AcDbSymbolTable
 70
     0
  0
ENDTAB
  0
TABLE
  2
APPID
  5
9
330
0
100
AcDbSymbolTable
 70
    15
  0
APPID
  5
11
330
9
100
AcDbSymbolTableRecord
100
AcDbRegAppTableRecord
  2
ACAD
 70
     0
  0
APPID
  5
8BB
330
9
100
AcDbSymbolTableRecord
100
AcDbRegAppTableRecord
  2
ACAD_PSEXT
 70
     0
  0
APPID
  5
A5A
330
9
100
AcDbSymbolTableRecord
100
AcDbRegAppTableRecord
  2
ACAD_MLEADERVER
 70
     0
  0
APPID
  5
A5E
330
9
100
AcDbSymbolTableRecord
100
AcDbRegAppTableRecord
  2
ACAD_DSTYLE_DIMJAG
 70
     0
  0
APPID
  5
A5F
330
9
100
AcDbSymbolTableRecord
100
AcDbRegAppTableRecord
  2
ACAD_DSTYLE_DIMTALN
 70
     0
  0
APPID
  5
12C0
330
9
100
AcDbSymbolTableRecord
100
AcDbRegAppTableRecord
  2
ACAD_EXEMPT_FROM_CAD_STANDARDS
 70
     0
  0
APPID
  5
1C50
330
9
100
AcDbSymbolTableRecord
100
AcDbRegAppTableRecord
  2
AcAecLayerStandard
 70
     0
  0
APPID
  5
5088
330
9
100
AcDbSymbolTableRecord
100
AcDbRegAppTableRecord
  2
ACAD_DSTYLE_DIMRADIAL_EXTENSION
 70
     0
  0
APPID
  5
14AF3
330
9
100
AcDbSymbolTableRecord
100
AcDbRegAppTableRecord
  2
WACOM_STRING
 70
     0
  0
APPID
  5
14AF4
330
9
100
AcDbSymbolTableRecord
100
AcDbRegAppTableRecord
  2
WACOM_DRSYM_ARROW
 70
     0
  0
APPID
  5
1E1A8
330
9
100
AcDbSymbolTableRecord
100
AcDbRegAppTableRecord
  2
GENIUS_GENODEF_13
 70
     0
  0
APPID
  5
1E1A9
330
9
100
AcDbSymbolTableRecord
100
AcDbRegAppTableRecord
  2
GENIUS_GENREC_14
 70
     0
  0
APPID
  5
1E1AA
330
9
100
AcDbSymbolTableRecord
100
AcDbRegAppTableRecord
  2
GENIUS_GENOBJ-N-REC_13
 70
     0
  0
APPID
  5
27C72
330
9
100
AcDbSymbolTableRecord
100
AcDbRegAppTableRecord
  2
ASK_MEN_XD
 70
     0
  0
APPID
  5
29316
330
9
100
AcDbSymbolTableRecord
100
AcDbRegAppTableRecord
  2
ACAD_DSTYLE_DIMBREAK
 70
     0
  0
ENDTAB
  0
TABLE
  2
DIMSTYLE
  5
A
330
0
100
AcDbSymbolTable
 70
     3
100
AcDbDimStyleTable
  0
DIMSTYLE
105
1CC
330
A
100
AcDbSymbolTableRecord
100
AcDbDimStyleTableRecord
  2
STANDARD
 70
     0
 41
2.5
 42
1.5
 44
1.0
 73
     0
 74
     0
 77
     3
 78
     8
 79
     2
140
2.500000000000003
141
0.0
147
1.0
171
     0
172
     1
173
     1
176
     8
177
     8
271
     2
178
   256
179
     2
271
     2
272
     2
274
     0
289
     1
340
10
341
608
343
608
344
608
1001
ACAD_DSTYLE_DIMJAG
1070
   388
1040
1.5
1001
ACAD_DSTYLE_DIMTALN
1070
   392
1070
     0
  0
ENDTAB
  0
TABLE
  2
BLOCK_RECORD
  5
1
330
0
100
AcDbSymbolTable
 70
    40
  0
BLOCK_RECORD
  5
18
102
{ACAD_XDICTIONARY
360
143F
102
}
330
1
100
AcDbSymbolTableRecord
100
AcDbBlockTableRecord
  2
*MODEL_SPACE
340
619
  0
BLOCK_RECORD
  5
15
330
1
100
AcDbSymbolTableRecord
100
AcDbBlockTableRecord
  2
*PAPER_SPACE
340
61A
  0
BLOCK_RECORD
  5
608
330
1
100
AcDbSymbolTableRecord
100
AcDbBlockTableRecord
  2
_OPEN
340
0
102
{BLKREFS
331
10A0A3
331
10A0A4
331
10A0C9
331
10A0CA
331
10A2D3
331
10A2D4
331
10A2DC
331
10A2DD
331
11AA97
331
11AA98
331
1261BA
331
1261BB
331
1273FB
331
1273FC
331
127404
331
127405
331
12740D
331
12740E
331
127416
331
127417
331
12741F
331
127420
331
127428
331
127429
331
128576
331
128577
331
12857F
331
128580
331
128588
331
128589
331
128591
331
128592
331
12859A
331
12859B
331
1285A3
331
1285A4
331
129751
331
129752
331
12975A
331
12975B
331
129763
331
129764
331
12976C
331
12976D
331
129775
331
129776
331
12977E
331
12977F
331
12E66E
331
12E66F
331
12E677
331
12E678
331
12E680
331
12E681
331
12E689
331
12E68A
331
12E692
331
12E693
331
12E69B
331
12E69C
331
12FD82
331
12FD83
331
12FD8B
331
12FD8C
331
12FD94
331
12FD95
331
12FD9D
331
12FD9E
331
12FDA6
331
12FDA7
331
12FDAF
331
12FDB0
102
}
  0
BLOCK_RECORD
  5
89D
330
1
100
AcDbSymbolTableRecord
100
AcDbBlockTableRecord
  2
SUN
340
0
  0
BLOCK_RECORD
  5
1F1F
330
1
100
AcDbSymbolTableRecord
100
AcDbBlockTableRecord
  2
_OPEN30
340
0
  0
ENDTAB
  0
ENDSEC
  0
SECTION
  2
BLOCKS
  0
BLOCK
  5
39
330
18
100
AcDbEntity
  8
0
100
AcDbBlockBegin
  2
*MODEL_SPACE
 70
     0
 10
0.0
 20
0.0
 30
0.0
  3
*MODEL_SPACE
  1
*MODEL_SPACE
  0
ENDBLK
  5
3A
330
18
100
AcDbEntity
  8
0
100
AcDbBlockEnd
  0
BLOCK
  5
37
330
15
100
AcDbEntity
 67
     1
  8
0
100
AcDbBlockBegin
  2
*PAPER_SPACE
 70
     0
 10
0.0
 20
0.0
 30
0.0
  3
*PAPER_SPACE
  1
*PAPER_SPACE
  0
ENDBLK
  5
38
330
15
100
AcDbEntity
 67
     1
  8
0
100
AcDbBlockEnd
  0
BLOCK
  5
609
330
608
100
AcDbEntity
  8
0
100
AcDbBlockBegin
  2
_OPEN
 70
     0
 10
0.0
 20
0.0
 30
0.0
  3
_OPEN
  1
_OPEN
  0
LINE
  5
60A
330
608
100
AcDbEntity
  8
0
  6
ByBlock
 62
     0
100
AcDbLine
 10
-1.0
 20
0.1666666666666667
 30
0.0
 11
0.0
 21
0.0
 31
0.0
  0
LINE
  5
60B
330
608
100
AcDbEntity
  8
0
  6
ByBlock
 62
     0
100
AcDbLine
 10
0.0
 20
0.0
 30
0.0
 11
-1.0
 21
-0.1666666666666667
 31
0.0
  0
LINE
  5
60C
330
608
100
AcDbEntity
  8
0
  6
ByBlock
 62
     0
100
AcDbLine
 10
0.0
 20
0.0
 30
0.0
 11
-1.0
 21
0.0
 31
0.0
  0
ENDBLK
  5
60D
330
608
100
AcDbEntity
  8
0
100
AcDbBlockEnd
  0
BLOCK
  5
89E
330
89D
100
AcDbEntity
  8
0
100
AcDbBlockBegin
  2
SUN
 70
     0
 10
0.0
 20
0.0
 30
0.0
  3
SUN
  1
SUN
  0
LINE
  5
89F
330
89D
100
AcDbEntity
  8
0
100
AcDbLine
 10
-0.0000000000000568
 20
0.0
 30
0.0
 11
-1.500000000000057
 21
0.0
 31
0.0
  0
LINE
  5
8A0
330
89D
100
AcDbEntity
  8
0
100
AcDbLine
 10
-0.0000000000000568
 20
0.0000000000000284
 30
0.0
 11
-1.500000000000057
 21
0.401923788646684
 31
0.0
  0
LINE
  5
8A1
330
89D
100
AcDbEntity
  8
0
100
AcDbLine
 10
-0.0000000000000568
 20
0.0000000000000284
 30
0.0
 11
-1.500000000000057
 21
-0.4019237886466556
 31
0.0
  0
ENDBLK
  5
8A2
330
89D
100
AcDbEntity
  8
0
100
AcDbBlockEnd
  0
BLOCK
  5
1F20
330
1F1F
100
AcDbEntity
  8
0
100
AcDbBlockBegin
  2
_OPEN30
 70
     0
 10
0.0
 20
0.0
 30
0.0
  3
_OPEN30
  1
_OPEN30
  0
LINE
  5
1F21
330
1F1F
100
AcDbEntity
  8
0
  6
ByBlock
 62
     0
100
AcDbLine
 10
-1.0
 20
0.26794919
 30
0.0
 11
0.0
 21
0.0
 31
0.0
  0
LINE
  5
1F22
330
1F1F
100
AcDbEntity
  8
0
  6
ByBlock
 62
     0
100
AcDbLine
 10
0.0
 20
0.0
 30
0.0
 11
-1.0
 21
-0.26794919
 31
0.0
  0
LINE
  5
1F23
330
1F1F
100
AcDbEntity
  8
0
  6
ByBlock
 62
     0
100
AcDbLine
 10
0.0
 20
0.0
 30
0.0
 11
-1.0
 21
0.0
 31
0.0
  0
ENDBLK
  5
1F24
330
1F1F
100
AcDbEntity
  8
0
100
AcDbBlockEnd
  0
ENDSEC
  0
SECTION
  2
ENTITIES
  0
MTEXT
  5
D0CC6
330
18
100
AcDbEntity
  8
寸法線
100
AcDbMText
 10
2610.774875364868
 20
-2740.315466585338
 30
0.0
 40
2.500000000000003
 41
0.0
 71
     9
 72
     1
  1
\A1;
 73
     1
 44
1.0
  0
MTEXT
  5
F6D77
330
18
100
AcDbEntity
  8
文字
100
AcDbMText
 10
5821.057140836062
 20
-2842.341718131323
 30
0.0
 40
2.5
 41
64.39156592258223
 71
     1
 72
     5
  1
   
 73
     1
 44
1.0
  0
MTEXT
  5
F6D78
330
18
100
AcDbEntity
  8
寸法線
100
AcDbMText
 10
6222.662262480188
 20
-2968.738290481128
 30
0.0
 40
3.000000000000001
 41
0.0
 71
     7
 72
     1
  1
\A1;
 73
     1
 44
1.0
  0
TEXT
  5
12EC6D
330
18
100
AcDbEntity
  8
文字
100
AcDbText
 10
10388.59072540588
 20
-5069.827732186707
 30
0.0
 40
6.5
  1
SL-505/80DF
100
AcDbText
  0
LINE
  5
12FB75
330
18
100
AcDbEntity
  8
姿図
100
AcDbLine
 10
10428.23169079227
 20
-4991.001004695049
 30
-0.0000000000000061
 11
10428.29299421195
 21
-4993.339189243343
 31
-0.0000000000000061
  0
LINE
  5
12FB76
330
18
100
AcDbEntity
  8
姿図
100
AcDbLine
 10
10433.4626755328
 20
-4989.985531578454
 30
-0.0000000000000061
 11
10433.52470016918
 21
-4992.723991396429
 31
-0.0000000000000061
  0
SPLINE
  5
12FB77
330
18
100
AcDbEntity
  8
姿図
100
AcDbSpline
210
0.0
220
0.0
230
1.0
 70
    24
 71
     3
 72
     8
 73
     4
 74
     0
 42
0.000000001
 43
0.0000000001
 40
0.0
 40
0.0
 40
0.0
 40
0.0
 40
1.0
 40
1.0
 40
1.0
 40
1.0
 10
10421.33902277005
 20
-5014.479493216074
 30
-0.0000000000000061
 10
10421.33902277005
 20
-5014.479493216074
 30
-0.0000000000000061
 10
10425.61583781366
 20
-4991.708518279835
 30
-0.0000000000000061
 10
10425.61583781366
 20
-4991.708518279835
 30
-0.0000000000000061
  0
SPLINE
  5
12FB78
330
18
100
AcDbEntity
  8
姿図
100
AcDbSpline
210
0.0
220
0.0
230
1.0
 70
     8
 71
     3
 72
    11
 73
     7
 74
     0
 42
0.000000001
 43
0.0000000001
 40
1.0
 40
1.0
 40
1.0
 40
1.0
 40
2.0
 40
2.0
 40
2.0
 40
3.0
 40
3.0
 40
3.0
 40
3.0
 10
10425.61583781366
 20
-4991.708518279835
 30
-0.0000000000000061
 10
10425.61583781366
 20
-4991.708518279835
 30
-0.0000000000000061
 10
10425.8314816076
 20
-4991.155345069304
 30
-0.0000000000000061
 10
10426.75463898632
 20
-4991.09332043292
 30
-0.0000000000000061
 10
10427.67779636504
 20
-4991.031295796538
 30
-0.0000000000000061
 10
10428.23169079227
 20
-4991.001004695049
 30
-0.0000000000000061
 10
10428.23169079227
 20
-4991.001004695049
 30
-0.0000000000000061
  0
SPLINE
  5
12FB79
330
18
100
AcDbEntity
  8
姿図
100
AcDbSpline
210
0.0
220
0.0
230
1.0
 70
     8
 71
     3
 72
     8
 73
     4
 74
     0
 42
0.000000001
 43
0.0000000001
 40
3.0
 40
3.0
 40
3.0
 40
3.0
 40
4.0
 40
4.0
 40
4.0
 40
4.0
 10
10428.23169079227
 20
-4991.001004695049
 30
-0.0000000000000061
 10
10428.23169079227
 20
-4991.001004695049
 30
-0.0000000000000061
 10
10429.1216722027
 20
-4988.543819390904
 30
-0.0000000000000061
 10
10433.52470016918
 20
-4990.015822679944
 30
-0.0000000000000061
  0
SPLINE
  5
12FB7A
330
18
100
AcDbEntity
  8
姿図
100
AcDbSpline
210
0.0
220
0.0
230
1.0
 70
    24
 71
     3
 72
     8
 73
     4
 74
     0
 42
0.000000001
 43
0.0000000001
 40
4.0
 40
4.0
 40
4.0
 40
4.0
 40
5.0
 40
5.0
 40
5.0
 40
5.0
 10
10433.52470016918
 20
-4990.015822679944
 30
-0.0000000000000061
 10
10433.52470016918
 20
-4990.015822679944
 30
-0.0000000000000061
 10
10437.67890837343
 20
-4989.708584364838
 30
-0.0000000000000061
 10
10437.67890837343
 20
-4989.708584364838
 30
-0.0000000000000061
  0
SPLINE
  5
12FB7B
330
18
100
AcDbEntity
  8
姿図
100
AcDbSpline
210
0.0
220
0.0
230
1.0
 70
     8
 71
     3
 72
     8
 73
     4
 74
     0
 42
0.000000001
 43
0.0000000001
 40
5.0
 40
5.0
 40
5.0
 40
5.0
 40
6.0
 40
6.0
 40
6.0
 40
6.0
 10
10437.67890837343
 20
-4989.708584364838
 30
-0.0000000000000061
 10
10437.67890837343
 20
-4989.708584364838
 30
-0.0000000000000061
 10
10439.12422664449
 20
-4989.400624833031
 30
-0.0000000000000061
 10
10439.37088275662
 20
-4991.339255328347
 30
-0.0000000000000061
  0
SPLINE
  5
12FB7C
330
18
100
AcDbEntity
  8
姿図
100
AcDbSpline
210
0.0
220
0.0
230
1.0
 70
    24
 71
     3
 72
     8
 73
     4
 74
     0
 42
0.000000001
 43
0.0000000001
 40
6.0
 40
6.0
 40
6.0
 40
6.0
 40
7.0
 40
7.0
 40
7.0
 40
7.0
 10
10439.37088275662
 20
-4991.339255328347
 30
-0.0000000000000061
 10
10439.37088275662
 20
-4991.339255328347
 30
-0.0000000000000061
 10
10442.72526163821
 20
-5021.157959877765
 30
-0.0000000000000061
 10
10442.72526163821
 20
-5021.157959877765
 30
-0.0000000000000061
  0
SPLINE
  5
12FB7D
330
18
100
AcDbEntity
  8
姿図
100
AcDbSpline
210
0.0
220
0.0
230
1.0
 70
     8
 71
     3
 72
     8
 73
     4
 74
     0
 42
0.000000001
 43
0.0000000001
 40
7.0
 40
7.0
 40
7.0
 40
7.0
 40
8.0
 40
8.0
 40
8.0
 40
8.0
 10
10442.72526163821
 20
-5021.157959877765
 30
-0.0000000000000061
 10
10442.72526163821
 20
-5021.157959877765
 30
-0.0000000000000061
 10
10443.00220885183
 20
-5021.434907091381
 30
-0.0000000000000061
 10
10443.18684032757
 20
-5021.527222829253
 30
-0.0000000000000061
  0
SPLINE
  5
12FB7E
330
18
100
AcDbEntity
  8
姿図
100
AcDbSpline
210
0.0
220
0.0
230
1.0
 70
     8
 71
     3
 72
    17
 73
    13
 74
     0
 42
0.000000001
 43
0.0000000001
 40
0.0
 40
0.0
 40
0.0
 40
0.0
 40
1.0
 40
1.0
 40
1.0
 40
2.0
 40
2.0
 40
2.0
 40
3.0
 40
3.0
 40
3.0
 40
4.0
 40
4.0
 40
4.0
 40
4.0
 10
10424.20081064409
 20
-5014.017914526713
 30
-0.0000000000000061
 10
10424.20081064409
 20
-5014.017914526713
 30
-0.0000000000000061
 10
10428.39635115721
 20
-4993.968736164065
 30
-0.0000000000000061
 10
10428.39635115721
 20
-4993.968736164065
 30
-0.0000000000000061
 10
10428.39635115721
 20
-4993.968736164065
 30
-0.0000000000000061
 10
10429.08731622611
 20
-4993.920909724719
 30
-0.0000000000000061
 10
10429.08731622611
 20
-4993.920909724719
 30
-0.0000000000000061
 10
10429.08731622611
 20
-4993.920909724719
 30
-0.0000000000000061
 10
10432.9927068066
 20
-4994.636195256888
 30
-0.0000000000000061
 10
10433.7022392534
 20
-4993.633117114391
 30
-0.0000000000000061
 10
10433.7022392534
 20
-4993.633117114391
 30
-0.0000000000000061
 10
10436.08670343231
 20
-4993.456405853988
 30
-0.0000000000000061
 10
10436.08670343231
 20
-4993.456405853988
 30
-0.0000000000000061
  0
SPLINE
  5
12FB7F
330
18
100
AcDbEntity
  8
姿図
100
AcDbSpline
210
0.0
220
0.0
230
1.0
 70
     8
 71
     3
 72
     8
 73
     4
 74
     0
 42
0.000000001
 43
0.0000000001
 40
0.0
 40
0.0
 40
0.0
 40
0.0
 40
1.0
 40
1.0
 40
1.0
 40
1.0
 10
10440.35606477172
 20
-5021.988801518615
 30
-0.0000000000000061
 10
10440.35606477172
 20
-5021.988801518615
 30
-0.0000000000000061
 10
10440.7556188247
 20
-5021.925334448827
 30
-0.0000000000000061
 10
10440.57098734896
 20
-5020.572331915639
 30
-0.0000000000000061
  0
SPLINE
  5
12FB80
330
18
100
AcDbEntity
  8
姿図
100
AcDbSpline
210
0.0
220
0.0
230
1.0
 70
    24
 71
     3
 72
     8
 73
     4
 74
     0
 42
0.000000001
 43
0.0000000001
 40
1.0
 40
1.0
 40
1.0
 40
1.0
 40
2.0
 40
2.0
 40
2.0
 40
2.0
 10
10440.57098734896
 20
-5020.572331915639
 30
-0.0000000000000061
 10
10440.57098734896
 20
-5020.572331915639
 30
-0.0000000000000061
 10
10435.92490935385
 20
-4992.478056501003
 30
-0.0000000000000061
 10
10435.92490935385
 20
-4992.478056501003
 30
-0.0000000000000061
  0
SPLINE
  5
12FB81
330
18
100
AcDbEntity
  8
姿図
100
AcDbSpline
210
0.0
220
0.0
230
1.0
 70
    24
 71
     3
 72
     8
 73
     4
 74
     0
 42
0.000000001
 43
0.0000000001
 40
2.0
 40
2.0
 40
2.0
 40
2.0
 40
3.0
 40
3.0
 40
3.0
 40
3.0
 10
10435.92490935385
 20
-4992.478056501003
 30
-0.0000000000000061
 10
10435.92490935385
 20
-4992.478056501003
 30
-0.0000000000000061
 10
10433.4626755328
 20
-4992.723991396429
 30
-0.0000000000000061
 10
10433.4626755328
 20
-4992.723991396429
 30
-0.0000000000000061
  0
SPLINE
  5
12FB82
330
18
100
AcDbEntity
  8
姿図
100
AcDbSpline
210
0.0
220
0.0
230
1.0
 70
     8
 71
     3
 72
     8
 73
     4
 74
     0
 42
0.000000001
 43
0.0000000001
 40
3.0
 40
3.0
 40
3.0
 40
3.0
 40
4.0
 40
4.0
 40
4.0
 40
4.0
 10
10433.4626755328
 20
-4992.723991396429
 30
-0.0000000000000061
 10
10433.4626755328
 20
-4992.723991396429
 30
-0.0000000000000061
 10
10429.5630568244
 20
-4991.603220641325
 30
-0.0000000000000061
 10
10428.69326948164
 20
-4992.969926291854
 30
-0.0000000000000061
  0
SPLINE
  5
12FB83
330
18
100
AcDbEntity
  8
姿図
100
AcDbSpline
210
0.0
220
0.0
230
1.0
 70
    24
 71
     3
 72
     8
 73
     4
 74
     0
 42
0.000000001
 43
0.0000000001
 40
4.0
 40
4.0
 40
4.0
 40
4.0
 40
5.0
 40
5.0
 40
5.0
 40
5.0
 10
10428.69326948164
 20
-4992.969926291854
 30
-0.0000000000000061
 10
10428.4776256877
 20
-4993.308898141853
 30
-0.0000000000000061
 10
10428.4776256877
 20
-4993.308898141853
 30
-0.0000000000000061
 10
10428.4776256877
 20
-4993.308898141853
 30
-0.0000000000000061
  0
SPLINE
  5
12FB84
330
18
100
AcDbEntity
  8
姿図
100
AcDbSpline
210
0.0
220
0.0
230
1.0
 70
    24
 71
     3
 72
     8
 73
     4
 74
     0
 42
0.000000001
 43
0.0000000001
 40
5.0
 40
5.0
 40
5.0
 40
5.0
 40
6.0
 40
6.0
 40
6.0
 40
6.0
 10
10428.4776256877
 20
-4993.308898141853
 30
-0.0000000000000061
 10
10428.4776256877
 20
-4993.308898141853
 30
-0.0000000000000061
 10
10426.32407261515
 20
-4993.493529617598
 30
-0.0000000000000061
 10
10426.32407261515
 20
-4993.493529617598
 30
-0.0000000000000061
  0
SPLINE
  5
12FB85
330
18
100
AcDbEntity
  8
姿図
100
AcDbSpline
210
0.0
220
0.0
230
1.0
 70
    24
 71
     3
 72
     8
 73
     4
 74
     0
 42
0.000000001
 43
0.0000000001
 40
6.0
 40
6.0
 40
6.0
 40
6.0
 40
7.0
 40
7.0
 40
7.0
 40
7.0
 10
10426.32407261515
 20
-4993.493529617598
 30
-0.0000000000000061
 10
10426.32407261515
 20
-4993.493529617598
 30
-0.0000000000000061
 10
10422.23116783058
 20
-5014.232837103947
 30
-0.0000000000000061
 10
10422.23116783058
 20
-5014.232837103947
 30
-0.0000000000000061
  0
ELLIPSE
  5
12FB86
330
18
100
AcDbEntity
  8
姿図
100
AcDbEllipse
 10
10442.61383365773
 20
-5023.874061977974
 30
-0.0000000000000061
 11
0.4511210471801071
 21
-1.616967846167547
 31
0.0
210
0.0
220
0.0
230
1.0
 40
0.6435311717170279
 41
0.1727975711782461
 42
3.069675997577924
  0
ELLIPSE
  5
12FB87
330
18
100
AcDbEntity
  8
姿図
100
AcDbEllipse
 10
10443.10858831539
 20
-5023.69303658574
 30
-0.0000000000000061
 11
0.4763636317545335
 21
-1.710004800741862
 31
0.0
210
0.0
220
0.0
230
1.0
 40
0.6435771184023121
 41
0.0
 42
6.283185307179586
  0
LINE
  5
12FB88
330
18
100
AcDbEntity
  8
姿図
100
AcDbLine
 10
10442.85942205501
 20
-5026.481864621089
 30
-0.0000000000000061
 11
10443.87811590985
 21
-5025.928688812576
 31
-0.0000000000000061
  0
LINE
  5
12FB89
330
18
100
AcDbEntity
  8
姿図
100
AcDbLine
 10
10441.18185789566
 20
-5021.5430895967
 30
-0.0000000000000061
 11
10442.47932674278
 21
-5021.342591353509
 31
-0.0000000000000061
  0
ELLIPSE
  5
12FB8A
330
18
100
AcDbEntity
  8
姿図
100
AcDbEllipse
 10
10442.94306908225
 20
-5023.721164037122
 30
-0.0000000000000061
 11
0.6498162486159499
 21
-2.336742114889765
 31
0.0
210
0.0
220
0.0
230
1.0
 40
0.6439476357599927
 41
0.0
 42
6.283185307179586
  0
ELLIPSE
  5
12FB8B
330
18
100
AcDbEntity
  8
姿図
100
AcDbEllipse
 10
10441.87963505496
 20
-5024.06302075393
 30
-0.0000000000000061
 11
0.7006620261158656
 21
-2.521373590634141
 31
0.0
210
0.0
220
0.0
230
1.0
 40
0.8372735138002815
 41
2.937168574284825
 42
6.528588851372925
  0
LINE
  5
12FB8C
330
18
100
AcDbEntity
  8
姿図
100
AcDbLine
 10
10436.91517139955
 20
-5023.096590373081
 30
-0.0000000000000061
 11
10440.56069777886
 21
-5021.708832708731
 31
-0.0000000000000061
  0
SPLINE
  5
12FB8D
330
18
100
AcDbEntity
  8
姿図
100
AcDbSpline
210
0.0
220
0.0
230
1.0
 70
     8
 71
     3
 72
    11
 73
     7
 74
     0
 42
0.000000001
 43
0.0000000001
 40
0.0
 40
0.0
 40
0.0
 40
0.0
 40
1.0
 40
1.0
 40
1.0
 40
2.0
 40
2.0
 40
2.0
 40
2.0
 10
10445.4031392532
 20
-5018.942382168832
 30
-0.0000000000000061
 10
10445.4031392532
 20
-5018.942382168832
 30
-0.0000000000000061
 10
10446.94077326213
 20
-5017.433596827985
 30
-0.0000000000000061
 10
10446.94077326213
 20
-5017.433596827985
 30
-0.0000000000000061
 10
10446.94077326213
 20
-5017.433596827985
 30
-0.0000000000000061
 10
10447.00424033192
 20
-5017.310989988623
 30
-0.0000000000000061
 10
10446.97250679703
 20
-5017.21867425075
 30
-0.0000000000000061
  0
SPLINE
  5
12FB8E
330
18
100
AcDbEntity
  8
姿図
100
AcDbSpline
210
0.0
220
0.0
230
1.0
 70
    24
 71
     3
 72
     8
 73
     4
 74
     0
 42
0.000000001
 43
0.0000000001
 40
1.50557308764279
 40
1.50557308764279
 40
1.50557308764279
 40
1.50557308764279
 40
1.793215549939622
 40
1.793215549939622
 40
1.793215549939622
 40
1.793215549939622
 10
10435.49955705599
 20
-5010.615071207269
 30
-0.0000000000000061
 10
10436.65004966198
 20
-5009.7565317867
 30
-0.0000000000000061
 10
10437.79316413203
 20
-5008.903498199478
 30
-0.0000000000000061
 10
10438.54809447042
 20
-5008.340141727721
 30
-0.0000000000000061
  0
SPLINE
  5
12FB8F
330
18
100
AcDbEntity
  8
姿図
100
AcDbSpline
210
0.0
220
0.0
230
1.0
 70
     8
 71
     3
 72
    11
 73
     7
 74
     0
 42
0.000000001
 43
0.0000000001
 40
0.0
 40
0.0
 40
0.0
 40
0.0
 40
1.0
 40
1.0
 40
1.0
 40
1.888883729132651
 40
1.888883729132651
 40
1.888883729132651
 40
1.888883729132651
 10
10449.58763855894
 20
-5020.788696926276
 30
-0.0000000000000061
 10
10449.58763855894
 20
-5020.788696926276
 30
-0.0000000000000061
 10
10449.86314333915
 20
-5021.157959877765
 30
-0.0000000000000061
 10
10449.7102453983
 20
-5021.342591353509
 30
-0.0000000000000061
 10
10449.7102453983
 20
-5021.342591353509
 30
-0.0000000000000061
 10
10444.36169319835
 20
-5025.597043806613
 30
-0.0000000000000061
 10
10443.17307084835
 20
-5026.542521588956
 30
-0.0000000000000061
  0
SPLINE
  5
12FB90
330
18
100
AcDbEntity
  8
姿図
100
AcDbSpline
210
0.0
220
0.0
230
1.0
 70
     8
 71
     3
 72
    11
 73
     7
 74
     0
 42
0.000000001
 43
0.0000000001
 40
0.0
 40
0.0
 40
0.0
 40
0.0
 40
1.0
 40
1.0
 40
1.0
 40
1.814174646936442
 40
1.814174646936442
 40
1.814174646936442
 40
1.814174646936442
 10
10450.48050483617
 20
-5019.127013644577
 30
-0.0000000000000061
 10
10450.48050483617
 20
-5019.127013644577
 30
-0.0000000000000061
 10
10450.78774315128
 20
-5019.343378655215
 30
-0.0000000000000061
 10
10450.32616446192
 20
-5019.742932708193
 30
-0.0000000000000061
 10
10449.95035879547
 20
-5020.068239488208
 30
-0.0000000000000061
 10
10446.02528435783
 20
-5023.229519106423
 30
-0.0000000000000061
 10
10444.57950464018
 20
-5024.393177720261
 30
-0.0000000000000061
  0
SPLINE
  5
12FB91
330
18
100
AcDbEntity
  8
姿図
100
AcDbSpline
210
0.0
220
0.0
230
1.0
 70
     8
 71
     3
 72
    14
 73
    10
 74
     0
 42
0.000000001
 43
0.0000000001
 40
0.0
 40
0.0
 40
0.0
 40
0.0
 40
1.0
 40
1.0
 40
1.0
 40
2.0
 40
2.0
 40
2.0
 40
2.760018265937639
 40
2.760018265937639
 40
2.760018265937639
 40
2.760018265937639
 10
10449.28040024384
 20
-5018.35819664011
 30
-0.0000000000000061
 10
10449.28040024384
 20
-5018.35819664011
 30
-0.0000000000000061
 10
10450.66513631192
 20
-5019.219329382449
 30
-0.0000000000000061
 10
10450.66513631192
 20
-5019.219329382449
 30
-0.0000000000000061
 10
10450.66513631192
 20
-5019.219329382449
 30
-0.0000000000000061
 10
10451.00266572851
 20
-5019.465985494576
 30
-0.0000000000000061
 10
10450.7257185149
 20
-5019.742932708193
 30
-0.0000000000000061
 10
10450.7257185149
 20
-5019.742932708193
 30
-0.0000000000000061
 10
10446.47770142687
 20
-5023.40396773512
 30
-0.0000000000000061
 10
10444.43880841265
 20
-5025.16113080357
 30
-0.0000000000000061
  0
SPLINE
  5
12FB92
330
18
100
AcDbEntity
  8
姿図
100
AcDbSpline
210
0.0
220
0.0
230
1.0
 70
     8
 71
     3
 72
    11
 73
     7
 74
     0
 42
0.000000001
 43
0.0000000001
 40
0.0
 40
0.0
 40
0.0
 40
0.0
 40
1.0
 40
1.0
 40
1.0
 40
1.887883960454416
 40
1.887883960454416
 40
1.887883960454416
 40
1.887883960454416
 10
10450.60311167553
 20
-5016.69651335841
 30
-0.0000000000000061
 10
10450.60311167553
 20
-5016.69651335841
 30
-0.0000000000000061
 10
10451.00266572851
 20
-5016.664779823517
 30
-0.0000000000000061
 10
10450.17182408766
 20
-5017.280698887133
 30
-0.0000000000000061
 10
10449.43413312107
 20
-5017.827563544656
 30
-0.0000000000000061
 10
10444.91265884982
 20
-5021.382123721589
 30
-0.0000000000000061
 10
10443.90807205354
 20
-5022.172296048113
 30
-0.0000000000000061
  0
SPLINE
  5
12FB93
330
18
100
AcDbEntity
  8
姿図
100
AcDbSpline
210
0.0
220
0.0
230
1.0
 70
     8
 71
     3
 72
    11
 73
     7
 74
     0
 42
0.000000001
 43
0.0000000001
 40
0.0
 40
0.0
 40
0.0
 40
0.0
 40
1.0
 40
1.0
 40
1.0
 40
1.675127286579802
 40
1.675127286579802
 40
1.675127286579802
 40
1.675127286579802
 10
10449.52561392256
 20
-5014.172254900968
 30
-0.0000000000000061
 10
10449.52561392256
 20
-5014.172254900968
 30
-0.0000000000000061
 10
10449.98863504532
 20
-5014.203988435861
 30
-0.0000000000000061
 10
10449.64966319533
 20
-5014.511226750967
 30
-0.0000000000000061
 10
10449.42081405001
 20
-5014.718651720978
 30
-0.0000000000000061
 10
10445.27911191145
 20
-5018.025984590366
 30
-0.0000000000000061
 10
10442.61221314814
 20
-5020.153016893041
 30
-0.0000000000000061
  0
SPLINE
  5
12FB94
330
18
100
AcDbEntity
  8
姿図
100
AcDbSpline
210
0.0
220
0.0
230
1.0
 70
     8
 71
     3
 72
    14
 73
    10
 74
     0
 42
0.000000001
 43
0.0000000001
 40
0.0
 40
0.0
 40
0.0
 40
0.0
 40
1.0
 40
1.0
 40
1.0
 40
2.0
 40
2.0
 40
2.0
 40
2.903771721635469
 40
2.903771721635469
 40
2.903771721635469
 40
2.903771721635469
 10
10448.23319359235
 20
-5016.142618931178
 30
-0.0000000000000061
 10
10448.23319359235
 20
-5016.142618931178
 30
-0.0000000000000061
 10
10450.60311167553
 20
-5016.69651335841
 30
-0.0000000000000061
 10
10450.60311167553
 20
-5016.69651335841
 30
-0.0000000000000061
 10
10450.60311167553
 20
-5016.69651335841
 30
-0.0000000000000061
 10
10451.18729720426
 20
-5016.817677764368
 30
-0.0000000000000061
 10
10450.78774315128
 20
-5017.126358512877
 30
-0.0000000000000061
 10
10450.42663749693
 20
-5017.405335444394
 30
-0.0000000000000061
 10
10445.12658283596
 20
-5021.666575649388
 30
-0.0000000000000061
 10
10444.10989636102
 20
-5022.484095973293
 30
-0.0000000000000061
  0
SPLINE
  5
12FB95
330
18
100
AcDbEntity
  8
姿図
100
AcDbSpline
210
0.0
220
0.0
230
1.0
 70
     8
 71
     3
 72
    11
 73
     7
 74
     0
 42
0.000000001
 43
0.0000000001
 40
0.0
 40
0.0
 40
0.0
 40
0.0
 40
1.0
 40
1.0
 40
1.0
 40
1.201957035102942
 40
1.201957035102942
 40
1.201957035102942
 40
1.201957035102942
 10
10444.35593260171
 20
-5016.788829096283
 30
-0.0000000000000061
 10
10444.35593260171
 20
-5016.788829096283
 30
-0.0000000000000061
 10
10446.32629663193
 20
-5014.942514338839
 30
-0.0000000000000061
 10
10446.32629663193
 20
-5014.942514338839
 30
-0.0000000000000061
 10
10446.24531257045
 20
-5014.631687023748
 30
-0.0000000000000061
 10
10446.12296960046
 20
-5014.364807225948
 30
-0.0000000000000061
 10
10445.97927623513
 20
-5014.136801527909
 30
-0.0000000000000061
  0
SPLINE
  5
12FB96
330
18
100
AcDbEntity
  8
姿図
100
AcDbSpline
210
0.0
220
0.0
230
1.0
 70
     8
 71
     3
 72
    11
 73
     7
 74
     0
 42
0.000000001
 43
0.0000000001
 40
1.371408514633379
 40
1.371408514633379
 40
1.371408514633379
 40
1.371408514633379
 40
2.0
 40
2.0
 40
2.0
 40
3.0
 40
3.0
 40
3.0
 40
3.0
 10
10445.58430646923
 20
-5013.641984221928
 30
-0.0000000000000061
 10
10445.06938877791
 20
-5013.124241527854
 30
-0.0000000000000061
 10
10444.51027297597
 20
-5012.941859207141
 30
-0.0000000000000061
 10
10444.51027297597
 20
-5012.941859207141
 30
-0.0000000000000061
 10
10444.51027297597
 20
-5012.941859207141
 30
-0.0000000000000061
 10
10442.54063016246
 20
-5014.449202114585
 30
-0.0000000000000061
 10
10442.54063016246
 20
-5014.449202114585
 30
-0.0000000000000061
  0
SPLINE
  5
12FB97
330
18
100
AcDbEntity
  8
姿図
100
AcDbSpline
210
0.0
220
0.0
230
1.0
 70
     8
 71
     3
 72
    14
 73
    10
 74
     0
 42
0.000000001
 43
0.0000000001
 40
0.1253663450285614
 40
0.1253663450285614
 40
0.1253663450285614
 40
0.1253663450285614
 40
1.0
 40
1.0
 40
1.0
 40
2.0
 40
2.0
 40
2.0
 40
2.79498799956431
 40
2.79498799956431
 40
2.79498799956431
 40
2.79498799956431
 10
10446.18253253495
 20
-5014.522944472957
 30
-0.0000000000000061
 10
10446.91459634932
 20
-5014.440497376706
 30
-0.0000000000000061
 10
10449.83429467107
 20
-5014.11167269799
 30
-0.0000000000000061
 10
10449.83429467107
 20
-5014.11167269799
 30
-0.0000000000000061
 10
10449.83429467107
 20
-5014.11167269799
 30
-0.0000000000000061
 10
10450.7271609483
 20
-5014.079939163095
 30
-0.0000000000000061
 10
10450.01892614681
 20
-5014.695858226712
 30
-0.0000000000000061
 10
10449.45588797876
 20
-5015.18550649099
 30
-0.0000000000000061
 10
10444.63418684998
 20
-5019.155744540994
 30
-0.0000000000000061
 10
10442.6808381115
 20
-5020.763057553134
 30
-0.0000000000000061
  0
SPLINE
  5
12FB98
330
18
100
AcDbEntity
  8
姿図
100
AcDbSpline
210
0.0
220
0.0
230
1.0
 70
     8
 71
     3
 72
    14
 73
    10
 74
     0
 42
0.000000001
 43
0.0000000001
 40
1.443519435933256
 40
1.443519435933256
 40
1.443519435933256
 40
1.443519435933256
 40
2.0
 40
2.0
 40
2.0
 40
3.0
 40
3.0
 40
3.0
 40
3.529837330600614
 40
3.529837330600614
 40
3.529837330600614
 40
3.529837330600614
 10
10443.43006450462
 20
-5015.261673458853
 30
-0.0000000000000061
 10
10445.7461793444
 20
-5013.520278416368
 30
-0.0000000000000061
 10
10448.35724286511
 20
-5011.557123139058
 30
-0.0000000000000061
 10
10448.35724286511
 20
-5011.557123139058
 30
-0.0000000000000061
 10
10448.35724286511
 20
-5011.557123139058
 30
-0.0000000000000061
 10
10448.7265058166
 20
-5011.483559035441
 30
-0.0000000000000061
 10
10448.66448118022
 20
-5011.864361454163
 30
-0.0000000000000061
 10
10448.64843182387
 20
-5011.962186102416
 30
-0.0000000000000061
 10
10446.34290336663
 20
-5013.848185442832
 30
-0.0000000000000061
 10
10444.17850429631
 20
-5015.600013985902
 30
-0.0000000000000061
  0
SPLINE
  5
12FB99
330
18
100
AcDbEntity
  8
姿図
100
AcDbSpline
210
0.0
220
0.0
230
1.0
 70
     8
 71
     3
 72
    14
 73
    10
 74
     0
 42
0.000000001
 43
0.0000000001
 40
1.47114458461932
 40
1.47114458461932
 40
1.47114458461932
 40
1.47114458461932
 40
2.0
 40
2.0
 40
2.0
 40
3.0
 40
3.0
 40
3.0
 40
4.0
 40
4.0
 40
4.0
 40
4.0
 10
10441.79000434326
 20
-5012.844003124466
 30
-0.0000000000000061
 10
10444.02014860521
 20
-5011.189594562632
 30
-0.0000000000000061
 10
10446.3868788349
 20
-5009.433861167997
 30
-0.0000000000000061
 10
10446.3868788349
 20
-5009.433861167997
 30
-0.0000000000000061
 10
10446.3868788349
 20
-5009.433861167997
 30
-0.0000000000000061
 10
10447.00424033192
 20
-5009.188647489274
 30
-0.0000000000000061
 10
10446.97250679703
 20
-5009.649504961933
 30
-0.0000000000000061
 10
10446.97250679703
 20
-5009.649504961933
 30
-0.0000000000000061
 10
10444.90982702895
 20
-5013.096199581395
 30
-0.0000000000000061
 10
10444.90982702895
 20
-5013.096199581395
 30
-0.0000000000000061
  0
SPLINE
  5
12FB9A
330
18
100
AcDbEntity
  8
姿図
100
AcDbSpline
210
0.0
220
0.0
230
1.0
 70
    24
 71
     3
 72
     8
 73
     4
 74
     0
 42
0.000000001
 43
0.0000000001
 40
1.3619442503302
 40
1.3619442503302
 40
1.3619442503302
 40
1.3619442503302
 40
1.428242292534494
 40
1.428242292534494
 40
1.428242292534494
 40
1.428242292534494
 10
10438.33402890774
 20
-5012.516595757007
 30
-0.0000000000000061
 10
10438.59410149652
 20
-5012.324346106417
 30
-0.0000000000000061
 10
10438.86448149348
 20
-5012.12447706145
 30
-0.0000000000000061
 10
10439.14021900711
 20
-5011.920647657905
 30
-0.0000000000000061
  0
SPLINE
  5
12FB9B
330
18
100
AcDbEntity
  8
姿図
100
AcDbSpline
210
0.0
220
0.0
230
1.0
 70
     8
 71
     3
 72
    11
 73
     7
 74
     0
 42
0.000000001
 43
0.0000000001
 40
1.615278216396081
 40
1.615278216396081
 40
1.615278216396081
 40
1.615278216396081
 40
2.0
 40
2.0
 40
2.0
 40
3.0
 40
3.0
 40
3.0
 40
3.0
 10
10441.49067867881
 20
-5010.183151781363
 30
-0.0000000000000061
 10
10443.03756593898
 20
-5009.039668968882
 30
-0.0000000000000061
 10
10444.29462918204
 20
-5008.110428519595
 30
-0.0000000000000061
 10
10444.29462918204
 20
-5008.110428519595
 30
-0.0000000000000061
 10
10444.29462918204
 20
-5008.110428519595
 30
-0.0000000000000061
 10
10444.57085517895
 20
-5007.895505942362
 30
-0.0000000000000061
 10
10444.54056407746
 20
-5008.787651002892
 30
-0.0000000000000061
  0
SPLINE
  5
12FB9C
330
18
100
AcDbEntity
  8
姿図
100
AcDbSpline
210
0.0
220
0.0
230
1.0
 70
    24
 71
     3
 72
     8
 73
     4
 74
     0
 42
0.000000001
 43
0.0000000001
 40
1.36082680638525
 40
1.36082680638525
 40
1.36082680638525
 40
1.36082680638525
 40
1.445359962748388
 40
1.445359962748388
 40
1.445359962748388
 40
1.445359962748388
 10
10438.01559105943
 20
-5012.31741630674
 30
-0.0000000000000061
 10
10438.35515951805
 20
-5012.06544666788
 30
-0.0000000000000061
 10
10438.7120497629
 20
-5011.800623761561
 30
-0.0000000000000061
 10
10439.07574062085
 20
-5011.530754603198
 30
-0.0000000000000061
  0
SPLINE
  5
12FB9D
330
18
100
AcDbEntity
  8
姿図
100
AcDbSpline
210
0.0
220
0.0
230
1.0
 70
    24
 71
     3
 72
     8
 73
     4
 74
     0
 42
0.000000001
 43
0.0000000001
 40
1.629831745831646
 40
1.629831745831646
 40
1.629831745831646
 40
1.629831745831646
 40
2.0
 40
2.0
 40
2.0
 40
2.0
 10
10441.44454354742
 20
-5009.773034170723
 30
-0.0000000000000061
 10
10442.94770558468
 20
-5008.657644369164
 30
-0.0000000000000061
 10
10444.14101002448
 20
-5007.772177886298
 30
-0.0000000000000061
 10
10444.14101002448
 20
-5007.772177886298
 30
-0.0000000000000061
  0
SPLINE
  5
12FB9E
330
18
100
AcDbEntity
  8
姿図
100
AcDbSpline
210
0.0
220
0.0
230
1.0
 70
     8
 71
     3
 72
    11
 73
     7
 74
     0
 42
0.000000001
 43
0.0000000001
 40
2.0
 40
2.0
 40
2.0
 40
2.0
 40
3.0
 40
3.0
 40
3.0
 40
4.0
 40
4.0
 40
4.0
 40
4.0
 10
10444.14101002448
 20
-5007.772177886298
 30
-0.0000000000000061
 10
10444.14101002448
 20
-5007.772177886298
 30
-0.0000000000000061
 10
10444.54056407746
 20
-5007.710153249915
 30
-0.0000000000000061
 10
10444.54056407746
 20
-5008.110428519595
 30
-0.0000000000000061
 10
10444.54056407746
 20
-5008.510703789275
 30
-0.0000000000000061
 10
10444.51027297597
 20
-5010.726281498208
 30
-0.0000000000000061
 10
10444.51027297597
 20
-5010.726281498208
 30
-0.0000000000000061
  0
SPLINE
  5
12FB9F
330
18
100
AcDbEntity
  8
姿図
100
AcDbSpline
210
0.0
220
0.0
230
1.0
 70
    24
 71
     3
 72
     8
 73
     4
 74
     0
 42
0.000000001
 43
0.0000000001
 40
1.404660919629022
 40
1.404660919629022
 40
1.404660919629022
 40
1.404660919629022
 40
1.573101002211188
 40
1.573101002211188
 40
1.573101002211188
 40
1.573101002211188
 10
10436.65491818259
 20
-5011.425936304574
 30
-0.0000000000000061
 10
10437.34923037728
 20
-5010.90903603554
 30
-0.0000000000000061
 10
10438.08982493673
 20
-5010.357679556487
 30
-0.0000000000000061
 10
10438.79493260837
 20
-5009.832742290572
 30
-0.0000000000000061
  0
SPLINE
  5
12FBA0
330
18
100
AcDbEntity
  8
姿図
100
AcDbSpline
210
0.0
220
0.0
230
1.0
 70
     8
 71
     3
 72
    11
 73
     7
 74
     0
 42
0.000000001
 43
0.0000000001
 40
1.799348189808347
 40
1.799348189808347
 40
1.799348189808347
 40
1.799348189808347
 40
2.0
 40
2.0
 40
2.0
 40
3.0
 40
3.0
 40
3.0
 40
3.0
 10
10441.24598879754
 20
-5008.007984475154
 30
-0.0000000000000061
 10
10441.7966390606
 20
-5007.598037377438
 30
-0.0000000000000061
 10
10442.14107610948
 20
-5007.341611515128
 30
-0.0000000000000061
 10
10442.14107610948
 20
-5007.341611515128
 30
-0.0000000000000061
 10
10442.14107610948
 20
-5007.341611515128
 30
-0.0000000000000061
 10
10442.35671990342
 20
-5007.371902616617
 30
-0.0000000000000061
 10
10442.32570758523
 20
-5007.833481305978
 30
-0.0000000000000061
  0
SPLINE
  5
12FBA1
330
18
100
AcDbEntity
  8
姿図
100
AcDbSpline
210
0.0
220
0.0
230
1.0
 70
    24
 71
     3
 72
     8
 73
     4
 74
     0
 42
0.000000001
 43
0.0000000001
 40
1.40285015097566
 40
1.40285015097566
 40
1.40285015097566
 40
1.40285015097566
 40
1.583667207078013
 40
1.583667207078013
 40
1.583667207078013
 40
1.583667207078013
 10
10436.4391935883
 20
-5011.278396124603
 30
-0.0000000000000061
 10
10437.18871584494
 20
-5010.721556175859
 30
-0.0000000000000061
 10
10437.99296983464
 20
-5010.124054572092
 30
-0.0000000000000061
 10
10438.75008786593
 20
-5009.561571521057
 30
-0.0000000000000061
  0
SPLINE
  5
12FBA2
330
18
100
AcDbEntity
  8
姿図
100
AcDbSpline
210
0.0
220
0.0
230
1.0
 70
     8
 71
     3
 72
    14
 73
    10
 74
     0
 42
0.000000001
 43
0.0000000001
 40
1.815455566821609
 40
1.815455566821609
 40
1.815455566821609
 40
1.815455566821609
 40
2.0
 40
2.0
 40
2.0
 40
3.0
 40
3.0
 40
3.0
 40
4.0
 40
4.0
 40
4.0
 40
4.0
 10
10441.21477295209
 20
-5007.730491649992
 30
-0.0000000000000061
 10
10441.69331541659
 20
-5007.374969770499
 30
-0.0000000000000061
 10
10441.98673573523
 20
-5007.156980039384
 30
-0.0000000000000061
 10
10441.98673573523
 20
-5007.156980039384
 30
-0.0000000000000061
 10
10441.98673573523
 20
-5007.156980039384
 30
-0.0000000000000061
 10
10442.29541648374
 20
-5007.032930766618
 30
-0.0000000000000061
 10
10442.32570758523
 20
-5007.371902616617
 30
-0.0000000000000061
 10
10442.32570758523
 20
-5007.371902616617
 30
-0.0000000000000061
 10
10442.26368294885
 20
-5009.526176905869
 30
-0.0000000000000061
 10
10442.26368294885
 20
-5009.526176905869
 30
-0.0000000000000061
  0
SPLINE
  5
12FBA3
330
18
100
AcDbEntity
  8
姿図
100
AcDbSpline
210
0.0
220
0.0
230
1.0
 70
    24
 71
     3
 72
     8
 73
     4
 74
     0
 42
0.000000001
 43
0.0000000001
 40
1.510185474351763
 40
1.510185474351763
 40
1.510185474351763
 40
1.510185474351763
 40
1.810497930033095
 40
1.810497930033095
 40
1.810497930033095
 40
1.810497930033095
 10
10435.35617832609
 20
-5010.510826134493
 30
-0.0000000000000061
 10
10436.57096251483
 20
-5009.605637630998
 30
-0.0000000000000061
 10
10437.77087728503
 20
-5008.711528977596
 30
-0.0000000000000061
 10
10438.51750696366
 20
-5008.155182749413
 30
-0.0000000000000061
  0
SPLINE
  5
12FBA4
330
18
100
AcDbEntity
  8
姿図
100
AcDbSpline
210
0.0
220
0.0
230
1.0
 70
     8
 71
     3
 72
    11
 73
     7
 74
     0
 42
0.000000001
 43
0.0000000001
 40
1.0
 40
1.0
 40
1.0
 40
1.000000000000004
 40
2.0
 40
2.0
 40
2.0
 40
2.10277645146085
 40
2.10277645146085
 40
2.10277645146085
 40
2.10277645146085
 10
10419.81290031232
 20
-5015.301265907904
 30
-0.0000000000000061
 10
10423.88347529515
 20
-5012.346134211184
 30
-0.0000000000000061
 10
10430.86341053833
 20
-5014.962708406499
 30
-0.0000000000000061
 10
10435.59603453769
 20
-5021.150747710744
 30
-0.0000000000000061
 10
10436.08273333481
 20
-5021.786732431935
 30
-0.0000000000000061
 10
10436.52677776695
 20
-5022.435805240113
 30
-0.0000000000000061
 10
10436.92761749564
 20
-5023.091852466005
 30
-0.0000000000000061
  0
SPLINE
  5
12FBA5
330
18
100
AcDbEntity
  8
姿図
100
AcDbSpline
210
0.0
220
0.0
230
1.0
 70
     8
 71
     3
 72
     8
 73
     4
 74
     0
 42
0.000000001
 43
0.0000000001
 40
2.529370585629382
 40
2.529370585629382
 40
2.529370585629382
 40
2.529370585629382
 40
2.999999999999997
 40
3.0
 40
3.0
 40
3.0
 10
10439.64652720944
 20
-5031.184303227562
 30
-0.0000000000000061
 10
10439.79626046133
 20
-5033.971253158321
 30
-0.0000000000000061
 10
10438.99215000694
 20
-5036.372346327656
 30
-0.0000000000000061
 10
10437.18135299825
 20
-5037.800555452432
 30
-0.0000000000000061
  0
ELLIPSE
  5
12FBA6
330
18
100
AcDbEntity
  8
姿図
100
AcDbEllipse
 10
10439.25545255316
 20
-5017.524909335483
 30
-0.0000000000000061
 11
5.277551857870765
 21
-5.505994302663387
 31
0.0
210
0.0
220
0.0
230
1.0
 40
0.5896757540129041
 41
2.589251650966877
 42
2.614621634798547
  0
ELLIPSE
  5
12FBA7
330
18
100
AcDbEntity
  8
姿図
100
AcDbEllipse
 10
10439.25545255316
 20
-5017.524909335483
 30
-0.0000000000000061
 11
5.277551857870765
 21
-5.505994302663387
 31
0.0
210
0.0
220
0.0
230
1.0
 40
0.5896757540129041
 41
6.96598111917236
 42
7.147828363455014
  0
ELLIPSE
  5
12FBA8
330
18
100
AcDbEntity
  8
姿図
100
AcDbEllipse
 10
10439.25545255316
 20
-5017.524909335483
 30
-0.0000000000000061
 11
5.277551857870765
 21
-5.505994302663387
 31
0.0
210
0.0
220
0.0
230
1.0
 40
0.5896757540129041
 41
7.339249712863026
 42
7.531924593532914
  0
ELLIPSE
  5
12FBA9
330
18
100
AcDbEntity
  8
姿図
100
AcDbEllipse
 10
10439.25545255316
 20
-5017.524909335483
 30
-0.0000000000000061
 11
5.277551857870765
 21
-5.505994302663387
 31
0.0
210
0.0
220
0.0
230
1.0
 40
0.5896757540129041
 41
7.728897397957073
 42
7.896541804765815
  0
ELLIPSE
  5
12FBAA
330
18
100
AcDbEntity
  8
姿図
100
AcDbEllipse
 10
10439.25545255316
 20
-5017.524909335483
 30
-0.0000000000000061
 11
5.277551857870765
 21
-5.505994302663387
 31
0.0
210
0.0
220
0.0
230
1.0
 40
0.5896757540129041
 41
8.489247713282603
 42
8.60769396429671
  0
ARC
  5
12FBAB
330
18
100
AcDbEntity
  8
姿図
100
AcDbCircle
 10
10438.15600106083
 20
-5011.068365150953
 30
-0.0000000000000061
 40
0.4436734182372752
100
AcDbArc
 50
158.3286271790479
 51
250.9430020259656
  0
ARC
  5
12FBAC
330
18
100
AcDbEntity
  8
姿図
100
AcDbCircle
 10
10442.65339803622
 20
-5013.809800749189
 30
-0.0000000000000061
 40
0.5305635549859548
100
AcDbArc
 50
160.4247343165084
 51
224.460661065416
  0
ARC
  5
12FBAD
330
18
100
AcDbEntity
  8
姿図
100
AcDbCircle
 10
10445.37965942628
 20
-5017.121692153099
 30
-0.0000000000000061
 40
0.8087376358169283
100
AcDbArc
 50
210.0537915452893
 51
255.6920591719458
  0
ARC
  5
12FBAE
330
18
100
AcDbEntity
  8
姿図
100
AcDbCircle
 10
10445.84110037154
 20
-5019.64283355099
 30
-0.0000000000000061
 40
0.4817684811365542
100
AcDbArc
 50
203.2404029724748
 51
273.6673327535127
  0
LINE
  5
12FBAF
330
18
100
AcDbEntity
  8
姿図
100
AcDbLine
 10
10426.85016061413
 20
-4993.630540831037
 30
-0.0000000000000035
 11
10428.72503060202
 21
-4993.450566581153
 31
-0.000000000000004
  0
LINE
  5
12FBB0
330
18
100
AcDbEntity
  8
姿図
100
AcDbLine
 10
10433.2499166006
 20
-4993.016209549108
 30
-0.0000000000000053
 11
10435.97071409144
 21
-4992.755032245794
 31
-0.0000000000000061
  0
LINE
  5
12FBB1
330
18
100
AcDbEntity
  8
姿図
100
AcDbLine
 10
10428.28477888755
 20
-4993.893024634192
 30
-0.0000000000000035
 11
10429.27973253539
 21
-4993.818230804216
 31
-0.0000000000000038
  0
LINE
  5
12FBB2
330
18
100
AcDbEntity
  8
姿図
100
AcDbLine
 10
10433.52518889886
 20
-4993.499086347475
 30
-0.0000000000000052
 11
10436.06222198798
 21
-4993.308369501596
 31
-0.0000000000000061
  0
SPLINE
  5
12FBB3
330
18
100
AcDbEntity
  8
姿図
100
AcDbSpline
210
0.0
220
0.0
230
1.0
 70
     8
 71
     3
 72
     9
 73
     5
 74
     3
 42
0.000000001
 43
0.0000000001
 44
0.0000000001
 40
0.0
 40
0.0
 40
0.0
 40
0.0
 40
0.311266086607959
 40
4.666170183335592
 40
4.666170183335592
 40
4.666170183335592
 40
4.666170183335592
 10
10428.72503060202
 20
-4993.450566581153
 30
-0.000000000000004
 10
10428.78134819855
 20
-4993.361699842665
 30
-0.0000000000000045
 10
10429.6256017201
 20
-4992.029504196368
 30
-0.000000000000012
 10
10431.50028643119
 20
-4992.539879674248
 30
-0.0000000000000085
 10
10433.2499166006
 20
-4993.016209549108
 30
-0.0000000000000053
 11
10428.72503060202
 21
-4993.450566581153
 31
-0.000000000000004
 11
10428.89856862514
 21
-4993.19216547589
 31
-0.0000000000000055
 11
10433.2499166006
 21
-4993.016209549108
 31
-0.0000000000000053
  0
SPLINE
  5
12FBB4
330
18
100
AcDbEntity
  8
姿図
100
AcDbSpline
210
0.0
220
0.0
230
1.0
 70
     8
 71
     3
 72
    10
 73
     6
 74
     4
 42
0.000000001
 43
0.0000000001
 44
0.0000000001
 40
0.0
 40
0.0
 40
0.0
 40
0.0
 40
2.337173756350089
 40
4.052962069148847
 40
4.356365696718182
 40
4.356365696718182
 40
4.356365696718182
 40
4.356365696718182
 10
10429.27973253539
 20
-4993.818230804216
 30
-0.0000000000000038
 10
10430.04449079317
 20
-4993.94767415844
 30
-0.0000000000000036
 10
10431.37068068488
 20
-4994.172145703764
 30
-0.0000000000000032
 10
10432.89321135644
 20
-4993.949930120518
 30
-0.0000000000000023
 10
10433.44263286475
 20
-4993.557980645774
 30
-0.0000000000000049
 10
10433.52518889886
 20
-4993.499086347475
 30
-0.0000000000000052
 11
10429.27973253539
 21
-4993.818230804216
 31
-0.0000000000000038
 11
10431.60403603518
 21
-4994.063168364083
 31
-0.000000000000003
 11
10433.27399236285
 21
-4993.669245277654
 31
-0.0000000000000042
 11
10433.52518889886
 21
-4993.499086347475
 31
-0.0000000000000052
  0
ARC
  5
12FBB5
330
18
100
AcDbEntity
  8
姿図
100
AcDbCircle
 10
10426.89926423114
 20
-4993.933077631907
 30
-0.0000000000000035
 40
0.3064958092435328
100
AcDbArc
 50
91.74730622664805
 51
180.3462281534986
  0
ARC
  5
12FBB6
330
18
100
AcDbEntity
  8
姿図
100
AcDbCircle
 10
10428.3055803197
 20
-4994.069682375019
 30
-0.0000000000000035
 40
0.1778782082580404
100
AcDbArc
 50
91.88239147235437
 51
176.8294030759228
  0
ELLIPSE
  5
12FBB7
330
18
100
AcDbEntity
  8
姿図
100
AcDbEllipse
 10
10431.11422508922
 20
-4989.718775520942
 30
-0.0000000000000034
 11
-9.810751037959623
 21
0.5007829833510236
 31
0.0
210
0.0
220
0.0
230
1.0
 40
0.2669507483421997
 41
2.588370580852554
 42
3.190305558350833
  0
SPLINE
  5
12FBB8
330
18
100
AcDbEntity
  8
姿図
100
AcDbSpline
210
0.0
220
0.0
230
1.0
 70
     8
 71
     3
 72
    12
 73
     8
 74
     0
 42
0.000000001
 43
0.0000000001
 40
0.0
 40
0.0
 40
0.0
 40
0.0
 40
1.131311653021216
 40
1.131311653021216
 40
3.02132557813972
 40
3.02132557813972
 40
3.196886907352344
 40
3.196886907352344
 40
3.196886907352344
 40
3.196886907352344
 10
10420.89509863121
 20
-4993.934732856927
 30
-0.0000000000000034
 10
10421.23026739619
 20
-4994.01942215063
 30
-0.0000000000000034
 10
10421.56643317441
 20
-4994.104368342139
 30
-0.0000000000000034
 10
10422.46881953418
 20
-4994.323412256666
 30
-0.0000000000000034
 10
10423.03963226133
 20
-4994.450735681067
 30
-0.0000000000000034
 10
10423.66693580704
 20
-4994.568781910537
 30
-0.0000000000000034
 10
10424.14791483457
 20
-4994.624523887959
 30
-0.0000000000000034
 10
10425.04930701458
 20
-4994.724888755257
 30
-0.0000000000000034
  0
SPLINE
  5
12FBB9
330
18
100
AcDbEntity
  8
姿図
100
AcDbSpline
210
0.0
220
0.0
230
1.0
 70
     8
 71
     3
 72
    14
 73
    10
 74
     0
 42
0.000000001
 43
0.0000000001
 40
0.0
 40
0.0
 40
0.0
 40
0.0
 40
0.8584404188848929
 40
0.8584404188848929
 40
2.127674543654367
 40
2.127674543654367
 40
3.396908668423841
 40
3.396908668423841
 40
4.059569089000286
 40
4.059569089000286
 40
4.059569089000286
 40
4.059569089000286
 10
10443.41750615354
 20
-4993.789510675188
 30
-0.0000000000000034
 10
10443.17149391656
 20
-4993.881151343843
 30
-0.0000000000000034
 10
10442.92345365719
 20
-4993.973566270982
 30
-0.0000000000000034
 10
10442.30044221196
 20
-4994.194236071701
 30
-0.0000000000000034
 10
10441.91895273471
 20
-4994.317616914768
 30
-0.0000000000000034
 10
10441.1480883703
 20
-4994.525062393791
 30
-0.0000000000000034
 10
10440.75950678004
 20
-4994.611972425909
 30
-0.0000000000000034
 10
10440.16657658098
 20
-4994.725706596128
 30
-0.0000000000000034
 10
10439.9630993823
 20
-4994.761538655898
 30
-0.0000000000000034
 10
10439.75959140067
 20
-4994.794675429076
 30
-0.0000000000000034
  0
SPLINE
  5
12FBBA
330
18
100
AcDbEntity
  8
姿図
100
AcDbSpline
210
0.0
220
0.0
230
1.0
 70
     8
 71
     3
 72
     9
 73
     5
 74
     0
 42
0.000000001
 43
0.0000000001
 40
0.0
 40
0.0
 40
0.0
 40
0.0
 40
2.222853371383657
 40
3.04516710490263
 40
3.04516710490263
 40
3.04516710490263
 40
3.04516710490263
 10
10420.97593028798
 20
-4993.61483118597
 30
-0.0000000000000034
 10
10421.63448535299
 20
-4993.781232620558
 30
-0.0000000000000034
 10
10422.53666371823
 20
-4994.009191954871
 30
-0.0000000000000034
 10
10423.44910404864
 20
-4994.192223338066
 30
-0.0000000000000034
 10
10425.10580012829
 20
-4994.424103413096
 30
-0.0000000000000034
  0
SPLINE
  5
12FBBB
330
18
100
AcDbEntity
  8
姿図
100
AcDbSpline
210
0.0
220
0.0
230
1.0
 70
     8
 71
     3
 72
     9
 73
     5
 74
     0
 42
0.000000001
 43
0.0000000001
 40
0.0
 40
0.0
 40
0.0
 40
0.0
 40
1.683902873521906
 40
4.037898197562756
 40
4.037898197562756
 40
4.037898197562756
 40
4.037898197562756
 10
10443.27673247294
 20
-4993.411599333232
 30
-0.0000000000000034
 10
10442.79415883866
 20
-4993.591360190113
 30
-0.0000000000000034
 10
10441.63697617766
 20
-4994.022415954319
 30
-0.0000000000000034
 10
10440.42557126959
 20
-4994.277223108139
 30
-0.0000000000000034
 10
10439.71442063459
 20
-4994.393130530433
 30
-0.0000000000000034
  0
ELLIPSE
  5
12FBBC
330
18
100
AcDbEntity
  8
姿図
100
AcDbEllipse
 10
10431.08219137964
 20
-4990.193028432431
 30
-0.0000000000000034
 11
-8.957309332555061
 21
0.190765698527975
 31
0.0
210
0.0
220
0.0
230
1.0
 40
0.2589152262426074
 41
-0.0152433737171702
 42
0.914474598829651
  0
LINE
  5
12FBBD
330
18
100
AcDbEntity
  8
姿図
100
AcDbLine
 10
10434.2119653862
 20
-4989.964993689935
 30
-0.0000000000000077
 11
10434.1229154026
 21
-4989.201429293955
 31
-0.0000000000000034
  0
ELLIPSE
  5
12FBBE
330
18
100
AcDbEntity
  8
姿図
100
AcDbEllipse
 10
10431.11422508922
 20
-4989.687529643016
 30
-0.0000000000000034
 11
-3.593763185818648
 21
2.762990954007687E-14
 31
3.989878633946118E-16
210
1.110223024625157E-16
220
-8.535721513524229E-31
230
1.0
 40
0.2588190451025151
 41
5.734445639859379
 42
6.80355156574371
  0
LINE
  5
12FBBF
330
18
100
AcDbEntity
  8
姿図
100
AcDbLine
 10
10427.99614269528
 20
-4990.742650222407
 30
-0.0000000000000034
 11
10427.99614269528
 21
-4989.205116041606
 31
-0.0000000000000034
  0
ELLIPSE
  5
12FBC0
330
18
100
AcDbEntity
  8
姿図
100
AcDbEllipse
 10
10431.11422508922
 20
-4989.687529643016
 30
-0.0000000000000034
 11
3.593763185818648
 21
2.762990954007687E-14
 31
3.989878633946118E-16
210
1.110223024625157E-16
220
8.535721513524229E-31
230
-1.0
 40
0.2588190451025151
 41
5.734445639860233
 42
6.555988579509473
  0
SPLINE
  5
12FBC1
330
18
100
AcDbEntity
  8
姿図
100
AcDbSpline
210
0.0
220
0.0
230
1.0
 70
     8
 71
     3
 72
    11
 73
     7
 74
     0
 42
0.000000001
 43
0.0000000001
 40
0.5481277105474045
 40
0.5481277105474045
 40
0.5481277105474045
 40
0.5481277105474045
 40
1.0
 40
1.0
 40
1.0
 40
1.687090454425072
 40
1.687090454425072
 40
1.687090454425072
 40
1.687090454425072
 10
10436.3509600808
 20
-4995.054334057255
 30
-0.0000000000000034
 10
10433.49775007278
 20
-4995.175730553318
 30
-0.0000000000000034
 10
10432.55513119292
 20
-4995.189620243452
 30
-0.0000000000000034
 10
10431.58973743551
 20
-4995.18078826836
 30
-0.0000000000000034
 10
10430.49971922917
 20
-4995.170760996153
 30
-0.0000000000000034
 10
10429.439289579
 20
-4995.132313946503
 30
-0.0000000000000034
 10
10428.17268755354
 20
-4995.037554703431
 30
-0.0000000000000034
  0
SPLINE
  5
12FBC2
330
18
100
AcDbEntity
  8
姿図
100
AcDbSpline
210
0.0
220
0.0
230
1.0
 70
     8
 71
     3
 72
    17
 73
    13
 74
     0
 42
0.000000001
 43
0.0000000001
 40
0.2084474298111308
 40
0.2084474298111308
 40
0.2084474298111308
 40
0.2084474298111308
 40
1.0
 40
1.0
 40
1.0
 40
2.0
 40
2.0
 40
2.0
 40
3.0
 40
3.0
 40
3.0
 40
3.72058887900539
 40
3.72058887900539
 40
3.72058887900539
 40
3.72058887900539
 10
10420.91900027549
 20
-4993.938716064787
 30
-0.0000000000000034
 10
10418.89841194742
 20
-4993.365610859806
 30
-0.0000000000000034
 10
10417.68539808134
 20
-4992.639891271031
 30
-0.0000000000000034
 10
10417.69251479875
 20
-4991.860043440244
 30
-0.0000000000000034
 10
10417.7088025407
 20
-4990.096276440308
 30
-0.0000000000000034
 10
10423.95730155923
 20
-4988.723806152903
 30
-0.0000000000000034
 10
10431.64811270265
 20
-4988.794560103919
 30
-0.0000000000000034
 10
10439.33957535574
 20
-4988.865053451064
 30
-0.0000000000000034
 10
10445.56175338329
 20
-4990.351668234034
 30
-0.0000000000000034
 10
10445.54611715102
 20
-4992.115174630099
 30
-0.0000000000000034
 10
10445.54010792698
 20
-4992.746143154721
 30
-0.0000000000000034
 10
10444.73626303469
 20
-4993.32704397289
 30
-0.0000000000000034
 10
10443.35417214854
 20
-4993.809707768824
 30
-0.0000000000000034
  0
SPLINE
  5
12FBC3
330
18
100
AcDbEntity
  8
姿図
100
AcDbSpline
210
0.0
220
0.0
230
1.0
 70
     8
 71
     3
 72
    11
 73
     7
 74
     0
 42
0.000000001
 43
0.0000000001
 40
0.5506078710546985
 40
0.5506078710546985
 40
0.5506078710546985
 40
0.5506078710546985
 40
1.0
 40
1.0
 40
1.0
 40
1.685326939462277
 40
1.685326939462277
 40
1.685326939462277
 40
1.685326939462277
 10
10436.29782814043
 20
-4994.733051597577
 30
-0.0000000000000034
 10
10433.47019322126
 20
-4994.944729713832
 30
-0.0000000000000034
 10
10432.53654487313
 20
-4994.959530295041
 30
-0.0000000000000034
 10
10431.57879207292
 20
-4994.95080535207
 30
-0.0000000000000034
 10
10430.50835984491
 20
-4994.940982415133
 30
-0.0000000000000034
 10
10429.468466069
 20
-4994.90227340727
 30
-0.0000000000000034
 10
10428.22247762894
 20
-4994.79962347641
 30
-0.0000000000000034
  0
SPLINE
  5
12FBC4
330
18
100
AcDbEntity
  8
姿図
100
AcDbSpline
210
0.0
220
0.0
230
1.0
 70
     8
 71
     3
 72
    17
 73
    13
 74
     0
 42
0.000000001
 43
0.0000000001
 40
0.2539452136063279
 40
0.2539452136063279
 40
0.2539452136063279
 40
0.2539452136063279
 40
1.0
 40
1.0
 40
1.0
 40
2.0
 40
2.0
 40
2.0
 40
3.0
 40
3.0
 40
3.0
 40
3.626749038855106
 40
3.626749038855106
 40
3.626749038855106
 40
3.626749038855106
 10
10420.97593028798
 20
-4993.61483118597
 30
-0.0000000000000034
 10
10419.49625355027
 20
-4993.127619566445
 30
-0.0000000000000034
 10
10418.63013219218
 20
-4992.542201590241
 30
-0.0000000000000034
 10
10418.63577051037
 20
-4991.919070217059
 30
-0.0000000000000034
 10
10418.65062493103
 20
-4990.310101916586
 30
-0.0000000000000034
 10
10424.46977907185
 20
-4989.059073033135
 30
-0.0000000000000034
 10
10431.63247647038
 20
-4989.125005812537
 30
-0.0000000000000034
 10
10438.79543447278
 20
-4989.190417384195
 30
-0.0000000000000034
 10
10444.59074335939
 20
-4990.547772647074
 30
-0.0000000000000034
 10
10444.5761495426
 20
-4992.156610645611
 30
-0.0000000000000034
 10
10444.57190287873
 20
-4992.610595346624
 30
-0.0000000000000034
 10
10444.10535807161
 20
-4993.036121481688
 30
-0.0000000000000034
 10
10443.27673247294
 20
-4993.411599333232
 30
-0.0000000000000034
  0
SPLINE
  5
12FBC5
330
18
100
AcDbEntity
  8
姿図
100
AcDbSpline
210
0.0
220
0.0
230
1.0
 70
     8
 71
     3
 72
    17
 73
    13
 74
     0
 42
0.000000001
 43
0.0000000001
 40
0.0
 40
0.0
 40
0.0
 40
0.0
 40
1.0
 40
1.0
 40
1.0
 40
2.0
 40
2.0
 40
2.0
 40
3.0
 40
3.0
 40
3.0
 40
4.0
 40
4.0
 40
4.0
 40
4.0
 10
10419.21691714304
 20
-4985.315889329888
 30
-0.0000000000000034
 10
10418.64450074006
 20
-4984.894232266369
 30
-0.0000000000000034
 10
10418.32578220564
 20
-4984.438566397665
 30
-0.0000000000000034
 10
10418.3369881721
 20
-4983.965440069594
 30
-0.0000000000000034
 10
10418.38989075794
 20
-4981.728286137716
 30
-0.0000000000000034
 10
10424.3329620395
 20
-4980.297179979302
 30
-0.0000000000000034
 10
10431.68668207558
 20
-4980.3649369858
 30
-0.0000000000000034
 10
10439.0409233194
 20
-4980.432303086492
 30
-0.0000000000000034
 10
10444.99989143709
 20
-4981.662874566057
 30
-0.0000000000000034
 10
10444.96861897255
 20
-4984.209365292989
 30
-0.0000000000000034
 10
10444.96288568739
 20
-4984.670634144923
 30
-0.0000000000000034
 10
10444.66006398911
 20
-4985.109621365873
 30
-0.0000000000000034
 10
10444.10758378228
 20
-4985.512254346799
 30
-0.0000000000000034
  0
SPLINE
  5
12FBC6
330
18
100
AcDbEntity
  8
姿図
100
AcDbSpline
210
0.0
220
0.0
230
1.0
 70
     8
 71
     3
 72
    11
 73
     7
 74
     0
 42
0.000000001
 43
0.0000000001
 40
0.0
 40
0.0
 40
0.0
 40
0.0
 40
1.0
 40
1.0
 40
1.0
 40
2.0
 40
2.0
 40
2.0
 40
2.0
 10
10418.38546049214
 20
-4984.425536204108
 30
-0.0000000000000034
 10
10418.43836307798
 20
-4982.188251970294
 30
-0.0000000000000034
 10
10424.38143435953
 20
-4980.757276113815
 30
-0.0000000000000034
 10
10431.73515439561
 20
-4980.825033120313
 30
-0.0000000000000034
 10
10438.80481621214
 20
-4980.889662880359
 30
-0.0000000000000034
 10
10444.58501007422
 20
-4982.029413910828
 30
-0.0000000000000034
 10
10444.99415815193
 20
-4984.379800224721
 30
-0.0000000000000034
  0
SPLINE
  5
12FBC7
330
18
100
AcDbEntity
  8
姿図
100
AcDbSpline
210
0.0
220
0.0
230
1.0
 70
     8
 71
     3
 72
    11
 73
     7
 74
     0
 42
0.000000001
 43
0.0000000001
 40
0.0
 40
0.0
 40
0.0
 40
0.0
 40
1.0
 40
1.0
 40
1.0
 40
2.0
 40
2.0
 40
2.0
 40
2.0
 10
10443.94913662862
 20
-4984.849017494724
 30
-0.0000000000000034
 10
10444.18524373588
 20
-4985.601250568796
 30
-0.0000000000000034
 10
10444.44011432186
 20
-4986.788952711557
 30
-0.0000000000000034
 10
10444.63817326394
 20
-4988.136144423462
 30
-0.0000000000000034
 10
10444.77994176984
 20
-4989.105330220264
 30
-0.0000000000000034
 10
10444.87011070926
 20
-4990.004022669921
 30
-0.0000000000000034
 10
10444.90555283574
 20
-4990.725634789133
 30
-0.0000000000000034
  0
SPLINE
  5
12FBC8
330
18
100
AcDbEntity
  8
姿図
100
AcDbSpline
210
0.0
220
0.0
230
1.0
 70
     8
 71
     3
 72
    17
 73
    13
 74
     0
 42
0.000000001
 43
0.0000000001
 40
0.0
 40
0.0
 40
0.0
 40
0.0
 40
1.0
 40
1.0
 40
1.0
 40
2.0
 40
2.0
 40
2.0
 40
3.0
 40
3.0
 40
3.0
 40
4.0
 40
4.0
 40
4.0
 40
4.0
 10
10417.70541469037
 20
-4991.740295961451
 30
-0.0000000000000034
 10
10417.69668446069
 20
-4991.692605453031
 30
-0.0000000000000034
 10
10417.69251479875
 20
-4991.644654340739
 30
-0.0000000000000034
 10
10417.69290570456
 20
-4991.596572926513
 30
-0.0000000000000034
 10
10417.7091934465
 20
-4989.832805926577
 30
-0.0000000000000034
 10
10423.96394695795
 20
-4988.460335639172
 30
-0.0000000000000034
 10
10431.66218531169
 20
-4988.531219892124
 30
-0.0000000000000034
 10
10439.36146608091
 20
-4988.601713239269
 30
-0.0000000000000034
 10
10445.58989860137
 20
-4990.088458324174
 30
-0.0000000000000034
 10
10445.5742623691
 20
-4991.851964720238
 30
-0.0000000000000034
 10
10445.57374116136
 20
-4991.890012885427
 30
-0.0000000000000034
 10
10445.57061391491
 20
-4991.927930748678
 30
-0.0000000000000034
 10
10445.564359422
 20
-4991.965588008059
 30
-0.0000000000000034
  0
SPLINE
  5
12FBC9
330
18
100
AcDbEntity
  8
姿図
100
AcDbSpline
210
0.0
220
0.0
230
1.0
 70
     8
 71
     3
 72
    11
 73
     7
 74
     0
 42
0.000000001
 43
0.0000000001
 40
0.0
 40
0.0
 40
0.0
 40
0.0
 40
1.0
 40
1.0
 40
1.0
 40
2.0
 40
2.0
 40
2.0
 40
2.0
 10
10419.35985836636
 20
-4984.794811889526
 30
-0.0000000000000034
 10
10418.35653346244
 20
-4983.02426918894
 30
-0.0000000000000034
 10
10424.23432347427
 20
-4981.063355360479
 30
-0.0000000000000034
 10
10431.75391787433
 20
-4981.253726488354
 30
-0.0000000000000034
 10
10438.74748336049
 20
-4981.430806818799
 30
-0.0000000000000034
 10
10444.53132567677
 20
-4982.611081751233
 30
-0.0000000000000034
 10
10444.00021498736
 20
-4984.971892219971
 30
-0.0000000000000034
  0
SPLINE
  5
12FBCA
330
18
100
AcDbEntity
  8
姿図
100
AcDbSpline
210
0.0
220
0.0
230
1.0
 70
     8
 71
     3
 72
    11
 73
     7
 74
     0
 42
0.000000001
 43
0.0000000001
 40
0.0
 40
0.0
 40
0.0
 40
0.0
 40
1.0
 40
1.0
 40
1.0
 40
2.0
 40
2.0
 40
2.0
 40
2.0
 10
10419.62762103742
 20
-4983.632543957179
 30
-0.0000000000000034
 10
10419.40115627339
 20
-4984.421391875147
 30
-0.0000000000000034
 10
10419.1499341416
 20
-4985.469019437166
 30
-0.0000000000000034
 10
10418.91864820596
 20
-4986.625579417325
 30
-0.0000000000000034
 10
10418.57660562508
 20
-4988.335662019804
 30
-0.0000000000000034
 10
10418.36642860299
 20
-4989.842603904724
 30
-0.0000000000000034
 10
10418.34088942362
 20
-4990.643700204634
 30
-0.0000000000000034
  0
SPLINE
  5
12FBCB
330
18
100
AcDbEntity
  8
姿図
100
AcDbSpline
210
0.0
220
0.0
230
1.0
 70
     8
 71
     3
 72
     8
 73
     4
 74
     0
 42
0.000000001
 43
0.0000000001
 40
0.0
 40
0.0
 40
0.0
 40
0.0
 40
1.0
 40
1.0
 40
1.0
 40
1.0
 10
10439.17422621502
 20
-5031.83181323138
 30
-0.0000000000000061
 10
10439.67884228842
 20
-5031.096326033068
 30
-0.0000000000000061
 10
10443.47627842368
 20
-5026.146896447034
 30
-0.0000000000000061
 10
10443.47627842368
 20
-5026.146896447034
 30
-0.0000000000000061
  0
LINE
  5
12FBCC
330
18
100
AcDbEntity
  8
姿図
100
AcDbLine
 10
10436.79459616932
 20
-5023.984812053256
 30
-0.0000000000000037
 11
10440.35606477172
 21
-5021.988801518615
 31
-0.0000000000000061
  0
LINE
  5
12FBCD
330
18
100
AcDbEntity
  8
姿図
100
AcDbLine
 10
10436.91517139955
 20
-5023.096590373081
 30
-0.0000000000000061
 11
10436.79459616932
 21
-5023.984812053256
 31
-0.0000000000000037
  0
SPLINE
  5
12FBCE
330
18
100
AcDbEntity
  8
姿図
100
AcDbSpline
210
0.0
220
0.0
230
1.0
 70
     8
 71
     3
 72
    11
 73
     7
 74
     0
 42
0.000000001
 43
0.0000000001
 40
1.0
 40
1.0
 40
1.0
 40
1.000000000000004
 40
2.0
 40
2.0
 40
2.0
 40
2.132564484647539
 40
2.132564484647539
 40
2.132564484647539
 40
2.132564484647539
 10
10419.34245348988
 20
-5015.621734235993
 30
-0.0000000000000061
 10
10423.41302847271
 20
-5012.666602539274
 30
-0.0000000000000061
 10
10430.39296371589
 20
-5015.283176734588
 30
-0.0000000000000061
 10
10435.12558771524
 20
-5021.471216038834
 30
-0.0000000000000061
 10
10435.75334800763
 20
-5022.291530280178
 30
-0.0000000000000061
 10
10436.31014552035
 20
-5023.133618776832
 30
-0.0000000000000061
 10
10436.79459616932
 20
-5023.984812053256
 30
-0.0000000000000061
  0
SPLINE
  5
12FBCF
330
18
100
AcDbEntity
  8
姿図
100
AcDbSpline
210
0.0
220
0.0
230
1.0
 70
     8
 71
     3
 72
     8
 73
     4
 74
     0
 42
0.000000001
 43
0.0000000001
 40
2.546094283791052
 40
2.546094283791052
 40
2.546094283791052
 40
2.546094283791052
 40
2.999999999999997
 40
3.0
 40
3.0
 40
3.0
 10
10439.17422621502
 20
-5031.831813231378
 30
-0.0000000000000061
 10
10439.24139064495
 20
-5034.518689830104
 30
-0.0000000000000061
 10
10438.40973862248
 20
-5036.848954717991
 30
-0.0000000000000061
 10
10436.62370814783
 20
-5038.314010618972
 30
-0.0000000000000061
  0
LINE
  5
12FBD0
330
18
100
AcDbEntity
  8
姿図
100
AcDbLine
 10
10437.85750171
 20
-5011.39660932775
 30
-0.0000000000000061
 11
10437.2561084104
 21
-5011.828035897973
 31
-0.0000000000000061
  0
LINE
  5
12FBD1
330
18
100
AcDbEntity
  8
姿図
100
AcDbLine
 10
10442.2747181031
 20
-5014.181417748443
 30
-0.0000000000000061
 11
10441.96610537557
 21
-5014.40945080905
 31
-0.0000000000000061
  0
LINE
  5
12FBD2
330
18
100
AcDbEntity
  8
姿図
100
AcDbLine
 10
10444.77293481755
 20
-5017.656427426612
 30
-0.0000000000000061
 11
10442.51847280062
 21
-5019.319713373729
 31
-0.0000000000000061
  0
LINE
  5
12FBD3
330
18
100
AcDbEntity
  8
姿図
100
AcDbLine
 10
10445.39842387769
 20
-5019.832934553769
 30
-0.0000000000000061
 11
10443.18684032757
 21
-5021.527222829253
 31
-0.0000000000000061
  0
SPLINE
  5
12FBD4
330
18
100
AcDbEntity
  8
姿図
100
AcDbSpline
210
0.0
220
0.0
230
1.0
 70
     8
 71
     3
 72
     8
 73
     4
 74
     0
 42
0.000000001
 43
0.0000000001
 40
0.3537168008125633
 40
0.3537168008125633
 40
0.3537168008125633
 40
0.3537168008125633
 40
1.0
 40
1.0
 40
1.0
 40
1.0
 10
10437.18135299841
 20
-5037.800555452285
 30
-0.0000000000000061
 10
10436.09719187136
 20
-5038.836784756979
 30
-0.0000000000000061
 10
10434.04064794067
 20
-5040.563337596731
 30
-0.0000000000000061
 10
10430.87855608908
 20
-5042.17421457773
 30
-0.0000000000000061
  0
ARC
  5
12FBD5
330
18
100
AcDbEntity
  8
姿図
100
AcDbCircle
 10
10438.67058889251
 20
-5043.489854172001
 30
-0.0000000000000061
 40
33.91473023496308
100
AcDbArc
 50
123.7818528605675
 51
135.6505614347181
  0
LINE
  5
12FBD6
330
18
100
AcDbEntity
  8
姿図
100
AcDbLine
 10
10414.75160387621
 20
-5020.473242969919
 30
-0.0000000000000061
 11
10416.02709045082
 21
-5018.841614040051
 31
-0.0000000000000061
  0
LINE
  5
12FBD7
330
18
100
AcDbEntity
  8
姿図
100
AcDbLine
 10
10415.68733023832
 20
-5020.260248635559
 30
-0.0000000000000061
 11
10416.86783229812
 21
-5018.566151523756
 31
-0.0000000000000061
  0
LINE
  5
12FBD8
330
18
100
AcDbEntity
  8
姿図
100
AcDbLine
 10
10416.52928994338
 20
-5020.198917587984
 30
-0.0000000000000061
 11
10417.75102585612
 21
-5018.445647219705
 31
-0.0000000000000061
  0
LINE
  5
12FBD9
330
18
100
AcDbEntity
  8
姿図
100
AcDbLine
 10
10417.39365005968
 20
-5020.243357785982
 30
-0.0000000000000061
 11
10418.73835798296
 21
-5018.445201842064
 31
-0.0000000000000061
  0
LINE
  5
12FBDA
330
18
100
AcDbEntity
  8
姿図
100
AcDbLine
 10
10418.23885359036
 20
-5020.3793416539
 30
-0.0000000000000061
 11
10419.60940287526
 21
-5018.546630400835
 31
-0.0000000000000061
  0
LINE
  5
12FBDB
330
18
100
AcDbEntity
  8
姿図
100
AcDbLine
 10
10418.92398977219
 20
-5020.55088687722
 30
-0.0000000000000061
 11
10420.54424901116
 21
-5018.750598833919
 31
-0.0000000000000061
  0
LINE
  5
12FBDC
330
18
100
AcDbEntity
  8
姿図
100
AcDbLine
 10
10419.78203660171
 20
-5020.838265795815
 30
-0.0000000000000061
 11
10421.4157720657
 21
-5019.023004169158
 31
-0.0000000000000061
  0
LINE
  5
12FBDD
330
18
100
AcDbEntity
  8
姿図
100
AcDbLine
 10
10420.63537134216
 20
-5021.2006677376
 30
-0.0000000000000061
 11
10422.40018757334
 21
-5019.435851506419
 31
-0.0000000000000061
  0
LINE
  5
12FBDE
330
18
100
AcDbEntity
  8
姿図
100
AcDbLine
 10
10422.32787163092
 20
-5022.139651485568
 30
-0.0000000000000061
 11
10424.250698878
 21
-5020.37705984241
 31
-0.0000000000000061
  0
LINE
  5
12FBDF
330
18
100
AcDbEntity
  8
姿図
100
AcDbLine
 10
10429.3460009545
 20
-5042.48042428748
 30
-0.0000000000000061
 11
10431.39750115807
 21
-5041.785561315301
 31
-0.0000000000000061
  0
LINE
  5
12FBE0
330
18
100
AcDbEntity
  8
姿図
100
AcDbLine
 10
10429.97771231226
 20
-5041.785561315301
 30
-0.0000000000000061
 11
10432.24822468002
 21
-5040.884034345746
 31
-0.0000000000000061
  0
LINE
  5
12FBE1
330
18
100
AcDbEntity
  8
姿図
100
AcDbLine
 10
10430.41661750597
 20
-5041.175671070203
 30
-0.0000000000000061
 11
10432.81638511215
 21
-5039.958397646775
 31
-0.0000000000000061
  0
LINE
  5
12FBE2
330
18
100
AcDbEntity
  8
姿図
100
AcDbLine
 10
10430.73110414044
 20
-5040.551049750548
 30
-0.0000000000000061
 11
10433.20568411616
 21
-5038.996297200018
 31
-0.0000000000000061
  0
LINE
  5
12FBE3
330
18
100
AcDbEntity
  8
姿図
100
AcDbLine
 10
10431.05331838649
 20
-5039.623779868206
 30
-0.0000000000000061
 11
10433.43944466666
 21
-5038.052633338656
 31
-0.0000000000000061
  0
LINE
  5
12FBE4
330
18
100
AcDbEntity
  8
姿図
100
AcDbLine
 10
10431.25073043366
 20
-5038.654327168455
 30
-0.0000000000000061
 11
10433.58397030749
 21
-5037.037725255874
 31
-0.0000000000000061
  0
LINE
  5
12FBE5
330
18
100
AcDbEntity
  8
姿図
100
AcDbLine
 10
10431.3347488098
 20
-5037.724870013052
 30
-0.0000000000000061
 11
10433.61976896539
 21
-5036.141677476682
 31
-0.0000000000000061
  0
LINE
  5
12FBE6
330
18
100
AcDbEntity
  8
姿図
100
AcDbLine
 10
10431.36559579075
 20
-5036.704631569312
 30
-0.0000000000000061
 11
10433.59897150327
 21
-5035.157221254209
 31
-0.0000000000000061
  0
LINE
  5
12FBE7
330
18
100
AcDbEntity
  8
姿図
100
AcDbLine
 10
10431.20606895414
 20
-5035.683659815017
 30
-0.0000000000000061
 11
10433.43457924867
 21
-5033.994866857444
 31
-0.0000000000000061
  0
LINE
  5
12FBE8
330
18
100
AcDbEntity
  8
姿図
100
AcDbLine
 10
10431.07844748486
 20
-5034.662688060722
 30
-0.0000000000000061
 11
10433.24075059856
 21
-5033.024067732368
 31
-0.0000000000000061
  0
LINE
  5
12FBE9
330
18
100
AcDbEntity
  8
姿図
100
AcDbLine
 10
10430.8551099136
 20
-5033.633739964594
 30
-0.0000000000000061
 11
10432.97607977749
 21
-5032.02644248962
 31
-0.0000000000000061
  0
LINE
  5
12FBEA
330
18
100
AcDbEntity
  8
姿図
100
AcDbLine
 10
10430.53605624039
 20
-5032.676578944943
 30
-0.0000000000000061
 11
10432.60990456498
 21
-5030.926769421069
 31
-0.0000000000000061
  0
LINE
  5
12FBEB
330
18
100
AcDbEntity
  8
姿図
100
AcDbLine
 10
10430.21700256717
 20
-5031.847039394577
 30
-0.0000000000000061
 11
10432.28478622455
 21
-5030.102346933667
 31
-0.0000000000000061
  0
LINE
  5
12FBEC
330
18
100
AcDbEntity
  8
姿図
100
AcDbLine
 10
10429.77032742467
 20
-5030.937736425907
 30
-0.0000000000000061
 11
10431.8647927051
 21
-5029.170531345543
 31
-0.0000000000000061
  0
LINE
  5
12FBED
330
18
100
AcDbEntity
  8
姿図
100
AcDbLine
 10
10429.40873381034
 20
-5030.117668292818
 30
-0.0000000000000061
 11
10431.46131189272
 21
-5028.289590938203
 31
-0.0000000000000061
  0
LINE
  5
12FBEE
330
18
100
AcDbEntity
  8
姿図
100
AcDbLine
 10
10428.97121986149
 20
-5029.309254510344
 30
-0.0000000000000061
 11
10430.95979385378
 21
-5027.486395017412
 31
-0.0000000000000061
  0
LINE
  5
12FBEF
330
18
100
AcDbEntity
  8
姿図
100
AcDbLine
 10
10428.36649126251
 20
-5028.289590938203
 30
-0.0000000000000061
 11
10430.33031181932
 21
-5026.489422094456
 31
-0.0000000000000061
  0
LINE
  5
12FBF0
330
18
100
AcDbEntity
  8
姿図
100
AcDbLine
 10
10427.72838391607
 20
-5027.236713816585
 30
-0.0000000000000061
 11
10429.64270595538
 21
-5025.481918613889
 31
-0.0000000000000061
  0
LINE
  5
12FBF1
330
18
100
AcDbEntity
  8
姿図
100
AcDbLine
 10
10426.99456046767
 20
-5026.40717426622
 30
-0.0000000000000061
 11
10428.94143263169
 21
-5024.622541449203
 31
-0.0000000000000061
  0
LINE
  5
12FBF2
330
18
100
AcDbEntity
  8
姿図
100
AcDbLine
 10
10426.34076589768
 20
-5025.62923759933
 30
-0.0000000000000061
 11
10428.27708355489
 21
-5023.854279746879
 31
-0.0000000000000061
  0
LINE
  5
12FBF3
330
18
100
AcDbEntity
  8
姿図
100
AcDbLine
 10
10425.62262967284
 20
-5024.875716634776
 30
-0.0000000000000061
 11
10427.53695171214
 21
-5023.12092143208
 31
-0.0000000000000061
  0
LINE
  5
12FBF4
330
18
100
AcDbEntity
  8
姿図
100
AcDbLine
 10
10424.9845223264
 20
-5024.141893186376
 30
-0.0000000000000061
 11
10426.89884436571
 21
-5022.38709798368
 31
-0.0000000000000061
  0
LINE
  5
12FBF5
330
18
100
AcDbEntity
  8
姿図
100
AcDbLine
 10
10424.28260424533
 20
-5023.631407309228
 30
-0.0000000000000061
 11
10426.21260672474
 21
-5021.862238369766
 31
-0.0000000000000061
  0
LINE
  5
12FBF6
330
18
100
AcDbEntity
  8
姿図
100
AcDbLine
 10
10423.67106047375
 20
-5023.096571488461
 30
-0.0000000000000061
 11
10425.57550023926
 21
-5021.350835036738
 31
-0.0000000000000061
  0
LINE
  5
12FBF7
330
18
100
AcDbEntity
  8
姿図
100
AcDbLine
 10
10423.03299837199
 20
-5022.617949504347
 30
-0.0000000000000061
 11
10424.93124020325
 21
-5020.877894492355
 31
-0.0000000000000061
  0
LINE
  5
12FBF8
330
18
100
AcDbEntity
  8
姿図
100
AcDbLine
 10
10413.54690928712
 20
-5021.046227796549
 30
-0.0000000000000061
 11
10415.13489047477
 21
-5019.235929242634
 31
-0.0000000000000061
  0
LINE
  5
12FBF9
330
18
100
AcDbEntity
  8
姿図
100
AcDbLine
 10
10430.65669841057
 20
-5042.307014662465
 30
-0.0000000000000061
 11
10427.8284408556
 21
-5043.370779015148
 31
-0.0000000000000061
  0
LINE
  5
12FBFA
330
18
100
AcDbEntity
  8
姿図
100
AcDbLine
 10
10413.56990835756
 20
-5020.665691030581
 30
-0.0000000000000061
 11
10412.33371938163
 21
-5022.184794384569
 31
-0.0000000000000061
  0
SPLINE
  5
12FBFB
330
18
100
AcDbEntity
  8
姿図
100
AcDbSpline
210
0.0
220
0.0
230
1.0
 70
     8
 71
     3
 72
    17
 73
    13
 74
     0
 42
0.000000001
 43
0.0000000001
 40
0.1965331616420136
 40
0.1965331616420136
 40
0.1965331616420136
 40
0.1965331616420136
 40
1.0
 40
1.0
 40
1.0
 40
2.0
 40
2.0
 40
2.0
 40
3.0
 40
3.0
 40
3.0
 40
4.0
 40
4.0
 40
4.0
 40
4.0
 10
10413.56990835748
 20
-5020.665691030692
 30
-0.0000000000000061
 10
10413.89947648993
 20
-5020.217538626295
 30
-0.0000000000000061
 10
10414.29038110761
 20
-5019.823925333486
 30
-0.0000000000000061
 10
10414.74339793749
 20
-5019.494677027418
 30
-0.0000000000000061
 10
10418.54911003333
 20
-5016.730376061807
 30
-0.0000000000000061
 10
10425.29659670052
 20
-5019.529573522927
 30
-0.0000000000000061
 10
10429.81419730473
 20
-5025.749126065209
 30
-0.0000000000000061
 10
10434.33179790894
 20
-5031.966684522034
 30
-0.0000000000000061
 10
10434.91008269165
 20
-5039.25008165595
 30
-0.0000000000000061
 10
10431.10437059581
 20
-5042.013884100197
 30
-0.0000000000000061
 10
10430.95979940013
 20
-5042.11957062945
 30
-0.0000000000000061
 10
10430.81024299081
 20
-5042.217280816873
 30
-0.0000000000000061
 10
10430.65669841057
 20
-5042.307014662465
 30
-0.0000000000000061
  0
ELLIPSE
  5
12FBFC
330
18
100
AcDbEntity
  8
姿図
100
AcDbEllipse
 10
10421.19202104671
 20
-5031.955717052017
 30
-0.0000000000000061
 11
7.832518416805893
 21
-10.78002598383419
 31
0.0
210
0.0
220
0.0
230
1.0
 40
0.5991002932922082
 41
0.0
 42
6.283185307179586
  0
SPLINE
  5
12FBFD
330
18
100
AcDbEntity
  8
姿図
100
AcDbSpline
210
0.0
220
0.0
230
1.0
 70
     8
 71
     3
 72
    11
 73
     7
 74
     0
 42
0.000000001
 43
0.0000000001
 40
1.006377578182846
 40
1.006377578182846
 40
1.006377578182846
 40
1.006377578182846
 40
2.0
 40
2.0
 40
2.0
 40
2.914863247510368
 40
2.914863247510368
 40
2.914863247510368
 40
2.914863247510368
 10
10428.84475025227
 20
-5040.961774535923
 30
-0.0000000000000061
 10
10425.65360273971
 20
-5043.198157000714
 30
-0.0000000000000061
 10
10419.99464765719
 20
-5040.764628840676
 30
-0.0000000000000061
 10
10416.16169121921
 20
-5035.4892364829
 30
-0.0000000000000061
 10
10412.63255288918
 20
-5030.631996470643
 30
-0.0000000000000061
 10
10411.87270148271
 20
-5025.047907306532
 30
-0.0000000000000061
 10
10414.20469589838
 20
-5022.36184390279
 30
-0.0000000000000061
  0
SPLINE
  5
12FBFE
330
18
100
AcDbEntity
  8
姿図
100
AcDbSpline
210
0.0
220
0.0
230
1.0
 70
     8
 71
     3
 72
    14
 73
    10
 74
     0
 42
0.000000001
 43
0.0000000001
 40
0.9229664054401968
 40
0.9229664054401968
 40
0.9229664054401968
 40
0.9229664054401968
 40
1.0
 40
1.0
 40
1.0
 40
2.0
 40
2.0
 40
2.0
 40
2.939685942522726
 40
2.939685942522726
 40
2.939685942522726
 40
2.939685942522726
 10
10428.64309042646
 20
-5041.178723707359
 30
-0.0000000000000061
 10
10428.60367807936
 20
-5041.209473259693
 30
-0.0000000000000061
 10
10428.56365723137
 20
-5041.239599760213
 30
-0.0000000000000061
 10
10428.52302697093
 20
-5041.269093181779
 30
-0.0000000000000061
 10
10425.34345770877
 20
-5043.580238227149
 30
-0.0000000000000061
 10
10419.6363851291
 20
-5041.149448054323
 30
-0.0000000000000061
 10
10415.77882681135
 20
-5035.840195523439
 30
-0.0000000000000061
 10
10412.15393348771
 20
-5030.851165554865
 30
-0.0000000000000061
 10
10411.45064215992
 20
-5025.095308604704
 30
-0.0000000000000061
 10
10414.0184862218
 20
-5022.500635451271
 30
-0.0000000000000061
  0
ELLIPSE
  5
12FBFF
330
18
100
AcDbEntity
  8
姿図
100
AcDbEllipse
 10
10421.13693443595
 20
-5032.012548487559
 30
-0.0000000000000061
 11
6.984284315275475
 21
-9.61348599113292
 31
0.0
210
0.0
220
0.0
230
1.0
 40
0.5991474518236252
 41
0.0
 42
6.283185307179586
  0
LINE
  5
12FC00
330
18
100
AcDbEntity
  8
姿図
100
AcDbLine
 10
10421.48947964693
 20
-5021.638006575224
 30
-0.0000000000000122
 11
10423.41230689401
 21
-5019.875414932067
 31
-0.0000000000000122
  0
ARC
  5
12FC01
330
18
100
AcDbEntity
  8
姿図
100
AcDbCircle
 10
10446.54789658506
 20
-5048.020002497691
 30
0.0
 40
39.33120301649688
100
AcDbArc
 50
106.8206178016378
 51
121.2112053711344
  0
ARC
  5
12FC02
330
18
100
AcDbEntity
  8
姿図
100
AcDbCircle
 10
10472.56285147492
 20
-5058.208377245876
 30
-0.0000000000000061
 40
50.70022945072625
100
AcDbArc
 50
123.5328987203408
 51
126.6224344031526
  0
ARC
  5
12FC03
330
18
100
AcDbEntity
  8
姿図
100
AcDbCircle
 10
10463.39197915004
 20
-4972.101094531614
 30
0.0
 40
47.55327128227507
100
AcDbArc
 50
233.5901345256917
 51
239.6115647317654
  0
ARC
  5
12FC04
330
18
100
AcDbEntity
  8
姿図
100
AcDbCircle
 10
10463.39197915004
 20
-4972.101094531614
 30
0.0
 40
47.55327128227507
100
AcDbArc
 50
243.2468135642899
 51
246.6642495118248
  0
ARC
  5
12FC05
330
18
100
AcDbEntity
  8
姿図
100
AcDbCircle
 10
10444.48430523331
 20
-5015.855364501313
 30
0.0
 40
0.1152954029574709
100
AcDbArc
 50
307.9750042488932
 51
52.02499575110675
  0
ARC
  5
12FC06
330
18
100
AcDbEntity
  8
姿図
100
AcDbCircle
 10
10472.56285147492
 20
-5058.208377245876
 30
-0.0000000000000061
 40
50.70022945072625
100
AcDbArc
 50
129.4874917266017
 51
135.2542785562877
  0
ENDSEC
  0
SECTION
  2
OBJECTS
  0
DICTIONARY
  5
C
330
0
100
AcDbDictionary
281
     1
  3
ACAD_GROUP
350
D
  3
ACAD_IMAGE_VARS
350
12FDE7
  3
ACAD_LAYOUT
350
617
  3
ACAD_MLINESTYLE
350
E
  3
ACAD_PLOTSETTINGS
350
618
  3
ACAD_PLOTSTYLENAME
350
615
  3
ACAD_SCALELIST
350
A36
  3
AcadDim
350
AB4
  3
AcDbVariableDictionary
350
6DE
  3
APPDATA
350
12FDE6
  3
DWGPROPS
350
12FE0B
  0
DICTIONARY
  5
8BF
330
2
100
AcDbDictionary
280
     1
281
     1
  3
ACAD_LAYERSTATES
360
8C0
  0
DICTIONARY
  5
A60
330
F
100
AcDbDictionary
280
     1
281
     1
  3
ADSK_XREC_LAYER_RECONCILED
360
A61
  0
DICTIONARY
  5
A66
330
34
100
AcDbDictionary
280
     1
281
     1
  3
ADSK_XREC_LAYER_RECONCILED
360
A67
  0
DICTIONARY
  5
A6E
330
2F4
100
AcDbDictionary
280
     1
281
     1
  3
ADSK_XREC_LAYER_RECONCILED
360
A6F
  0
DICTIONARY
  5
A72
330
305
100
AcDbDictionary
280
     1
281
     1
  3
ADSK_XREC_LAYER_RECONCILED
360
A73
  0
DICTIONARY
  5
143F
330
18
100
AcDbDictionary
280
     1
281
     1
  3
ACAD_SORTENTS
360
1440
  0
DICTIONARY
  5
D
102
{ACAD_REACTORS
330
C
102
}
330
C
100
AcDbDictionary
281
     1
  0
RASTERVARIABLES
  5
12FDE7
102
{ACAD_REACTORS
330
C
102
}
330
C
100
AcDbRasterVariables
 90
        0
 70
     1
 71
     1
 72
     0
  0
DICTIONARY
  5
617
102
{ACAD_REACTORS
330
C
102
}
330
C
100
AcDbDictionary
281
     1
  3
Model
350
619
  3
ﾚｲｱｳﾄ1
350
61A
  0
DICTIONARY
  5
E
102
{ACAD_REACTORS
330
C
102
}
330
C
100
AcDbDictionary
281
     1
  3
STANDARD
350
1B
  0
DICTIONARY
  5
618
102
{ACAD_REACTORS
330
C
102
}
330
C
100
AcDbDictionary
281
     1
  0
ACDBDICTIONARYWDFLT
  5
615
102
{ACAD_REACTORS
330
C
102
}
330
C
100
AcDbDictionary
281
     1
  3
Normal
350
616
100
AcDbDictionaryWithDefault
340
616
  0
DICTIONARY
  5
A36
102
{ACAD_REACTORS
330
C
102
}
330
C
100
AcDbDictionary
281
     1
  3
A0
350
A37
  3
A1
350
A38
  3
A2
350
A39
  3
A3
350
A3A
  3
A4
350
A3B
  3
A5
350
A3C
  3
A6
350
A3D
  3
A7
350
A3E
  3
A8
350
A3F
  3
A9
350
A40
  3
B0
350
A41
  3
B1
350
A42
  3
B2
350
A43
  3
B3
350
A44
  3
B4
350
A45
  3
B5
350
A46
  3
B6
350
A47
  3
B7
350
A48
  3
B8
350
A49
  3
B9
350
A4A
  3
C0
350
A4B
  3
C1
350
A4C
  3
C2
350
A4D
  3
C3
350
A4E
  3
C4
350
A4F
  3
C5
350
A50
  3
C6
350
A51
  3
C7
350
A52
  3
C8
350
A53
  3
C9
350
A54
  3
D0
350
A55
  3
D1
350
A56
  3
D2
350
A57
  0
XRECORD
  5
AB4
102
{ACAD_REACTORS
330
C
102
}
330
C
100
AcDbXrecord
280
     1
 90
   990106
  3
OPEN
 60
     0
 61
     0
 62
     1
 63
     3
 64
     1
 65
     0
 66
     0
 67
     3
 68
     1
 69
     0
 70
     0
 71
     0
 72
     0
 40
0.0
170
     2
  0
DICTIONARY
  5
6DE
102
{ACAD_REACTORS
330
C
102
}
330
C
100
AcDbDictionary
281
     1
  3
DIMASSOC
350
6DF
  3
INDEXCTL
350
A93
  3
PROJECTNAME
350
6E0
  3
SORTENTS
350
A92
  0
DICTIONARY
  5
12FDE6
102
{ACAD_REACTORS
330
C
102
}
330
C
100
AcDbDictionary
281
     1
  0
XRECORD
  5
12FE0B
102
{ACAD_REACTORS
330
C
102
}
330
C
100
AcDbXrecord
280
     1
  1
DWGPROPS COOKIE
  2

  3

  4

  6

  7

  8
SPAX
  9

300
=
301
=
302
=
303
=
304
=
305
=
306
=
307
=
308
=
309
=
 40
0.0
 41
2448636.244629629
 42
2456821.229417303
  1

 90
        0
  0
DICTIONARY
  5
8C0
102
{ACAD_REACTORS
330
8BF
102
}
330
8BF
100
AcDbDictionary
281
     1
  0
XRECORD
  5
A61
102
{ACAD_REACTORS
330
A60
102
}
330
A60
100
AcDbXrecord
280
     1
290
     1
  0
XRECORD
  5
A67
102
{ACAD_REACTORS
330
A66
102
}
330
A66
100
AcDbXrecord
280
     1
290
     1
  0
XRECORD
  5
A6F
102
{ACAD_REACTORS
330
A6E
102
}
330
A6E
100
AcDbXrecord
280
     1
290
     1
  0
XRECORD
  5
A73
102
{ACAD_REACTORS
330
A72
102
}
330
A72
100
AcDbXrecord
280
     1
290
     1
  0
SORTENTSTABLE
  5
1440
102
{ACAD_REACTORS
330
143F
102
}
330
143F
100
AcDbSortentsTable
330
18
331
0
  5
1096A1
331
D0CC6
  5
D0CC6
331
F6D77
  5
F6D77
331
F6D78
  5
F6D78
  0
LAYOUT
  5
619
102
{ACAD_REACTORS
330
617
102
}
330
617
100
AcDbPlotSettings
  1

  2
JUST PDF 2
  4
A4
  6

 40
3.174999952316284
 41
3.174999952316284
 42
3.175003051757812
 43
3.17498779296875
 44
209.8886566162109
 45
297.0530090332031
 46
14.27171755861491
 47
9.855173074625782
 48
10385.74208297113
 49
-5472.288030791531
140
10735.73251996095
141
-4930.302680514198
142
1.0
143
2.0
 70
  3748
 72
     1
 73
     0
 74
     4
  7
spax form.ctb
 75
     0
147
2.049951397771953
148
-10385.74208297113
149
5472.288030791531
100
AcDbLayout
  1
Model
 70
     1
 71
     0
 10
0.0
 20
0.0
 11
12.0
 21
9.0
 12
0.0
 22
0.0
 32
0.0
 14
10388.59072540588
 24
-5069.827732186707
 34
-0.0000000000000122
 15
10457.92405873921
 25
-4980.3649369858
 35
0.0
146
0.0
 13
0.0
 23
0.0
 33
0.0
 16
1.0
 26
0.0
 36
0.0
 17
0.0
 27
1.0
 37
0.0
 76
     0
330
18
331
1297B9
1001
ACAD_PSEXT
1000
JUST PDF 2
1000
JUST PDF 2
1000
JUST PDF 2 Port:
1000

1070
     0
  0
LAYOUT
  5
61A
102
{ACAD_REACTORS
330
617
102
}
330
617
100
AcDbPlotSettings
  1

  2
Canon LASER SHOT LBP-750
  4

  6

 40
0.0
 41
0.0
 42
0.0
 43
0.0
 44
0.0
 45
0.0
 46
0.0
 47
0.0
 48
0.0
 49
0.0
140
0.0
141
0.0
142
1.0
143
1.0
 70
   688
 72
     0
 73
     0
 74
     5
  7
spax form.ctb
 75
    16
147
1.0
148
0.0
149
0.0
100
AcDbLayout
  1
ﾚｲｱｳﾄ1
 70
     0
 71
     1
 10
0.0
 20
0.0
 11
12.0
 21
9.0
 12
0.0
 22
0.0
 32
0.0
 14
1.000000000000000E+20
 24
1.000000000000000E+20
 34
1.000000000000000E+20
 15
-1.000000000000000E+20
 25
-1.000000000000000E+20
 35
-1.000000000000000E+20
146
0.0
 13
0.0
 23
0.0
 33
0.0
 16
1.0
 26
0.0
 36
0.0
 17
0.0
 27
1.0
 37
0.0
 76
     0
330
15
  0
MLINESTYLE
  5
1B
102
{ACAD_REACTORS
330
E
102
}
330
E
100
AcDbMlineStyle
  2
STANDARD
 70
     0
  3

 62
     0
 51
90.0
 52
90.0
 71
     2
 49
0.5
 62
   256
  6
BYLAYER
 49
-0.5
 62
   256
  6
BYLAYER
  0
ACDBPLACEHOLDER
  5
616
102
{ACAD_REACTORS
330
615
102
}
330
615
  0
SCALE
  5
A37
102
{ACAD_REACTORS
330
A36
102
}
330
A36
100
AcDbScale
 70
     0
300
1:1
140
1.0
141
1.0
290
     1
  0
SCALE
  5
A38
102
{ACAD_REACTORS
330
A36
102
}
330
A36
100
AcDbScale
 70
     0
300
1:2
140
1.0
141
2.0
290
     0
  0
SCALE
  5
A39
102
{ACAD_REACTORS
330
A36
102
}
330
A36
100
AcDbScale
 70
     0
300
1:4
140
1.0
141
4.0
290
     0
  0
SCALE
  5
A3A
102
{ACAD_REACTORS
330
A36
102
}
330
A36
100
AcDbScale
 70
     0
300
1:5
140
1.0
141
5.0
290
     0
  0
SCALE
  5
A3B
102
{ACAD_REACTORS
330
A36
102
}
330
A36
100
AcDbScale
 70
     0
300
1:8
140
1.0
141
8.0
290
     0
  0
SCALE
  5
A3C
102
{ACAD_REACTORS
330
A36
102
}
330
A36
100
AcDbScale
 70
     0
300
1:10
140
1.0
141
10.0
290
     0
  0
SCALE
  5
A3D
102
{ACAD_REACTORS
330
A36
102
}
330
A36
100
AcDbScale
 70
     0
300
1:16
140
1.0
141
16.0
290
     0
  0
SCALE
  5
A3E
102
{ACAD_REACTORS
330
A36
102
}
330
A36
100
AcDbScale
 70
     0
300
1:20
140
1.0
141
20.0
290
     0
  0
SCALE
  5
A3F
102
{ACAD_REACTORS
330
A36
102
}
330
A36
100
AcDbScale
 70
     0
300
1:30
140
1.0
141
30.0
290
     0
  0
SCALE
  5
A40
102
{ACAD_REACTORS
330
A36
102
}
330
A36
100
AcDbScale
 70
     0
300
1:40
140
1.0
141
40.0
290
     0
  0
SCALE
  5
A41
102
{ACAD_REACTORS
330
A36
102
}
330
A36
100
AcDbScale
 70
     0
300
1:50
140
1.0
141
50.0
290
     0
  0
SCALE
  5
A42
102
{ACAD_REACTORS
330
A36
102
}
330
A36
100
AcDbScale
 70
     0
300
1:100
140
1.0
141
100.0
290
     0
  0
SCALE
  5
A43
102
{ACAD_REACTORS
330
A36
102
}
330
A36
100
AcDbScale
 70
     0
300
2:1
140
2.0
141
1.0
290
     0
  0
SCALE
  5
A44
102
{ACAD_REACTORS
330
A36
102
}
330
A36
100
AcDbScale
 70
     0
300
4:1
140
4.0
141
1.0
290
     0
  0
SCALE
  5
A45
102
{ACAD_REACTORS
330
A36
102
}
330
A36
100
AcDbScale
 70
     0
300
8:1
140
8.0
141
1.0
290
     0
  0
SCALE
  5
A46
102
{ACAD_REACTORS
330
A36
102
}
330
A36
100
AcDbScale
 70
     0
300
10:1
140
10.0
141
1.0
290
     0
  0
SCALE
  5
A47
102
{ACAD_REACTORS
330
A36
102
}
330
A36
100
AcDbScale
 70
     0
300
100:1
140
100.0
141
1.0
290
     0
  0
SCALE
  5
A48
102
{ACAD_REACTORS
330
A36
102
}
330
A36
100
AcDbScale
 70
     0
300
1/128" = 1'-0"
140
0.0078125
141
12.0
290
     0
  0
SCALE
  5
A49
102
{ACAD_REACTORS
330
A36
102
}
330
A36
100
AcDbScale
 70
     0
300
1/64" = 1'-0"
140
0.015625
141
12.0
290
     0
  0
SCALE
  5
A4A
102
{ACAD_REACTORS
330
A36
102
}
330
A36
100
AcDbScale
 70
     0
300
1/32" = 1'-0"
140
0.03125
141
12.0
290
     0
  0
SCALE
  5
A4B
102
{ACAD_REACTORS
330
A36
102
}
330
A36
100
AcDbScale
 70
     0
300
1/16" = 1'-0"
140
0.0625
141
12.0
290
     0
  0
SCALE
  5
A4C
102
{ACAD_REACTORS
330
A36
102
}
330
A36
100
AcDbScale
 70
     0
300
3/32" = 1'-0"
140
0.09375
141
12.0
290
     0
  0
SCALE
  5
A4D
102
{ACAD_REACTORS
330
A36
102
}
330
A36
100
AcDbScale
 70
     0
300
1/8" = 1'-0"
140
0.125
141
12.0
290
     0
  0
SCALE
  5
A4E
102
{ACAD_REACTORS
330
A36
102
}
330
A36
100
AcDbScale
 70
     0
300
3/16" = 1'-0"
140
0.1875
141
12.0
290
     0
  0
SCALE
  5
A4F
102
{ACAD_REACTORS
330
A36
102
}
330
A36
100
AcDbScale
 70
     0
300
1/4" = 1'-0"
140
0.25
141
12.0
290
     0
  0
SCALE
  5
A50
102
{ACAD_REACTORS
330
A36
102
}
330
A36
100
AcDbScale
 70
     0
300
3/8" = 1'-0"
140
0.375
141
12.0
290
     0
  0
SCALE
  5
A51
102
{ACAD_REACTORS
330
A36
102
}
330
A36
100
AcDbScale
 70
     0
300
1/2" = 1'-0"
140
0.5
141
12.0
290
     0
  0
SCALE
  5
A52
102
{ACAD_REACTORS
330
A36
102
}
330
A36
100
AcDbScale
 70
     0
300
3/4" = 1'-0"
140
0.75
141
12.0
290
     0
  0
SCALE
  5
A53
102
{ACAD_REACTORS
330
A36
102
}
330
A36
100
AcDbScale
 70
     0
300
1" = 1'-0"
140
1.0
141
12.0
290
     0
  0
SCALE
  5
A54
102
{ACAD_REACTORS
330
A36
102
}
330
A36
100
AcDbScale
 70
     0
300
1-1/2" = 1'-0"
140
1.5
141
12.0
290
     0
  0
SCALE
  5
A55
102
{ACAD_REACTORS
330
A36
102
}
330
A36
100
AcDbScale
 70
     0
300
3" = 1'-0"
140
3.0
141
12.0
290
     0
  0
SCALE
  5
A56
102
{ACAD_REACTORS
330
A36
102
}
330
A36
100
AcDbScale
 70
     0
300
6" = 1'-0"
140
6.0
141
12.0
290
     0
  0
SCALE
  5
A57
102
{ACAD_REACTORS
330
A36
102
}
330
A36
100
AcDbScale
 70
     0
300
1'-0" = 1'-0"
140
12.0
141
12.0
290
     0
  0
DICTIONARYVAR
  5
6DF
102
{ACAD_REACTORS
330
6DE
102
}
330
6DE
100
DictionaryVariables
280
     0
  1
1
  0
DICTIONARYVAR
  5
A93
102
{ACAD_REACTORS
330
6DE
102
}
330
6DE
100
DictionaryVariables
280
     0
  1
0
  0
DICTIONARYVAR
  5
6E0
102
{ACAD_REACTORS
330
6DE
102
}
330
6DE
100
DictionaryVariables
280
     0
  1

  0
DICTIONARYVAR
  5
A92
102
{ACAD_REACTORS
330
6DE
102
}
330
6DE
100
DictionaryVariables
280
     0
  1
127
  0
ENDSEC
  0
EOF
