  0
SECTION
  2
HEADER
  9
$ACADVER
  1
AC1015
  9
$ACADMAINTVER
 70
     6
  9
$DWGCODEPAGE
  3
ANSI_932
  9
$INSBASE
 10
0.0
 20
0.0
 30
0.0
  9
$EXTMIN
 10
20882.71380938632
 20
-17535.80114620225
 30
0.0
  9
$EXTMAX
 10
20957.46380938632
 20
-17407.92456183281
 30
0.0
  9
$LIMMIN
 10
0.0
 20
0.0
  9
$LIMMAX
 10
420.0
 20
297.0
  9
$ORTHOMODE
 70
     1
  9
$REGENMODE
 70
     1
  9
$FILLMODE
 70
     1
  9
$QTEXTMODE
 70
     0
  9
$MIRRTEXT
 70
     1
  9
$LTSCALE
 40
5.0
  9
$ATTMODE
 70
     0
  9
$TEXTSIZE
 40
3.5
  9
$TRACEWID
 40
1.0
  9
$TEXTSTYLE
  7
STANDARD
  9
$CLAYER
  8
0
  9
$CELTYPE
  6
BYLAYER
  9
$CECOLOR
 62
   256
  9
$CELTSCALE
 40
1.0
  9
$DISPSILH
 70
     0
  9
$DIMSCALE
 40
1.0
  9
$DIMASZ
 40
2.5
  9
$DIMEXO
 40
1.5
  9
$DIMDLI
 40
7.0
  9
$DIMRND
 40
0.0
  9
$DIMDLE
 40
0.0
  9
$DIMEXE
 40
1.0
  9
$DIMTP
 40
0.0
  9
$DIMTM
 40
0.0
  9
$DIMTXT
 40
3.0
  9
$DIMCEN
 40
0.0
  9
$DIMTSZ
 40
0.0
  9
$DIMTOL
 70
     0
  9
$DIMLIM
 70
     0
  9
$DIMTIH
 70
     0
  9
$DIMTOH
 70
     0
  9
$DIMSE1
 70
     0
  9
$DIMSE2
 70
     0
  9
$DIMTAD
 70
     3
  9
$DIMZIN
 70
     9
  9
$DIMBLK
  1
OPEN30
  9
$DIMASO
 70
     1
  9
$DIMSHO
 70
     0
  9
$DIMPOST
  1

  9
$DIMAPOST
  1

  9
$DIMALT
 70
     0
  9
$DIMALTD
 70
     0
  9
$DIMALTF
 40
25.4
  9
$DIMLFAC
 40
1.0
  9
$DIMTOFL
 70
     1
  9
$DIMTVP
 40
0.0
  9
$DIMTIX
 70
     0
  9
$DIMSOXD
 70
     0
  9
$DIMSAH
 70
     0
  9
$DIMBLK1
  1

  9
$DIMBLK2
  1

  9
$DIMSTYLE
  2
STANDARD
  9
$DIMCLRD
 70
     8
  9
$DIMCLRE
 70
     8
  9
$DIMCLRT
 70
   256
  9
$DIMTFAC
 40
0.6
  9
$DIMGAP
 40
1.0
  9
$DIMJUST
 70
     0
  9
$DIMSD1
 70
     0
  9
$DIMSD2
 70
     0
  9
$DIMTOLJ
 70
     1
  9
$DIMTZIN
 70
     9
  9
$DIMALTZ
 70
     9
  9
$DIMALTTZ
 70
     9
  9
$DIMUPT
 70
     0
  9
$DIMDEC
 70
     3
  9
$DIMTDEC
 70
     3
  9
$DIMALTU
 70
     2
  9
$DIMALTTD
 70
     0
  9
$DIMTXSTY
  7
STANDARD
  9
$DIMAUNIT
 70
     0
  9
$DIMADEC
 70
     3
  9
$DIMALTRND
 40
0.0
  9
$DIMAZIN
 70
     2
  9
$DIMDSEP
 70
    46
  9
$DIMATFIT
 70
     0
  9
$DIMFRAC
 70
     0
  9
$DIMLDRBLK
  1
OPEN30
  9
$DIMLUNIT
 70
     2
  9
$DIMLWD
 70
    -2
  9
$DIMLWE
 70
    -2
  9
$DIMTMOVE
 70
     0
  9
$LUNITS
 70
     2
  9
$LUPREC
 70
     2
  9
$SKETCHINC
 40
0.1
  9
$FILLETRAD
 40
1.0
  9
$AUNITS
 70
     0
  9
$AUPREC
 70
     1
  9
$MENU
  1
FM
  9
$ELEVATION
 40
0.0
  9
$PELEVATION
 40
0.0
  9
$THICKNESS
 40
0.0
  9
$LIMCHECK
 70
     0
  9
$CHAMFERA
 40
0.0
  9
$CHAMFERB
 40
0.0
  9
$CHAMFERC
 40
0.0
  9
$CHAMFERD
 40
0.0
  9
$SKPOLY
 70
     0
  9
$TDCREATE
 40
2448636.619629629
  9
$TDUCREATE
 40
2448636.244629629
  9
$TDUPDATE
 40
2456825.767973322
  9
$TDUUPDATE
 40
2456825.392973322
  9
$TDINDWG
 40
107.7411796644
  9
$TDUSRTIMER
 40
2456825.392723553
  9
$USRTIMER
 70
     1
  9
$ANGBASE
 50
0.0
  9
$ANGDIR
 70
     0
  9
$PDMODE
 70
     3
  9
$PDSIZE
 40
0.0
  9
$PLINEWID
 40
0.0
  9
$SPLFRAME
 70
     0
  9
$SPLINETYPE
 70
     6
  9
$SPLINESEGS
 70
     8
  9
$HANDSEED
  5
3A79D1
  9
$SURFTAB1
 70
     6
  9
$SURFTAB2
 70
     6
  9
$SURFTYPE
 70
     6
  9
$SURFU
 70
     6
  9
$SURFV
 70
     6
  9
$UCSBASE
  2

  9
$UCSNAME
  2

  9
$UCSORG
 10
0.0
 20
0.0
 30
0.0
  9
$UCSXDIR
 10
1.0
 20
0.0
 30
0.0
  9
$UCSYDIR
 10
0.0
 20
1.0
 30
0.0
  9
$UCSORTHOREF
  2

  9
$UCSORTHOVIEW
 70
     0
  9
$UCSORGTOP
 10
0.0
 20
0.0
 30
0.0
  9
$UCSORGBOTTOM
 10
0.0
 20
0.0
 30
0.0
  9
$UCSORGLEFT
 10
0.0
 20
0.0
 30
0.0
  9
$UCSORGRIGHT
 10
0.0
 20
0.0
 30
0.0
  9
$UCSORGFRONT
 10
0.0
 20
0.0
 30
0.0
  9
$UCSORGBACK
 10
0.0
 20
0.0
 30
0.0
  9
$PUCSBASE
  2

  9
$PUCSNAME
  2

  9
$PUCSORG
 10
0.0
 20
0.0
 30
0.0
  9
$PUCSXDIR
 10
1.0
 20
0.0
 30
0.0
  9
$PUCSYDIR
 10
0.0
 20
1.0
 30
0.0
  9
$PUCSORTHOREF
  2

  9
$PUCSORTHOVIEW
 70
     0
  9
$PUCSORGTOP
 10
0.0
 20
0.0
 30
0.0
  9
$PUCSORGBOTTOM
 10
0.0
 20
0.0
 30
0.0
  9
$PUCSORGLEFT
 10
0.0
 20
0.0
 30
0.0
  9
$PUCSORGRIGHT
 10
0.0
 20
0.0
 30
0.0
  9
$PUCSORGFRONT
 10
0.0
 20
0.0
 30
0.0
  9
$PUCSORGBACK
 10
0.0
 20
0.0
 30
0.0
  9
$USERI1
 70
     0
  9
$USERI2
 70
     0
  9
$USERI3
 70
     0
  9
$USERI4
 70
     0
  9
$USERI5
 70
     0
  9
$USERR1
 40
0.0
  9
$USERR2
 40
0.0
  9
$USERR3
 40
0.0
  9
$USERR4
 40
0.0
  9
$USERR5
 40
0.0
  9
$WORLDVIEW
 70
     0
  9
$SHADEDGE
 70
     3
  9
$SHADEDIF
 70
    70
  9
$TILEMODE
 70
     1
  9
$MAXACTVP
 70
    16
  9
$PINSBASE
 10
0.0
 20
0.0
 30
0.0
  9
$PLIMCHECK
 70
     0
  9
$PEXTMIN
 10
1.000000000000000E+20
 20
1.000000000000000E+20
 30
1.000000000000000E+20
  9
$PEXTMAX
 10
-1.000000000000000E+20
 20
-1.000000000000000E+20
 30
-1.000000000000000E+20
  9
$PLIMMIN
 10
0.0
 20
0.0
  9
$PLIMMAX
 10
0.0
 20
0.0
  9
$UNITMODE
 70
     0
  9
$VISRETAIN
 70
     0
  9
$PLINEGEN
 70
     0
  9
$PSLTSCALE
 70
     0
  9
$TREEDEPTH
 70
  3020
  9
$CMLSTYLE
  2
STANDARD
  9
$CMLJUST
 70
     0
  9
$CMLSCALE
 40
1.0
  9
$PROXYGRAPHICS
 70
     1
  9
$MEASUREMENT
 70
     0
  9
$CELWEIGHT
370
    -1
  9
$ENDCAPS
280
     0
  9
$JOINSTYLE
280
     0
  9
$LWDISPLAY
290
     1
  9
$INSUNITS
 70
     0
  9
$HYPERLINKBASE
  1

  9
$STYLESHEET
  1
spax form.ctb
  9
$XEDIT
290
     1
  9
$CEPSNTYPE
380
     0
  9
$PSTYLEMODE
290
     1
  9
$FINGERPRINTGUID
  2
{E5B35D22-A717-11D3-9160-00E0294F7E09}
  9
$VERSIONGUID
  2
{7514E79C-6587-4B6C-8E99-8D888641D2EF}
  9
$EXTNAMES
290
     1
  9
$PSVPSCALE
 40
0.0
  9
$OLESTARTUP
290
     0
  0
ENDSEC
  0
SECTION
  2
CLASSES
  0
CLASS
  1
LWPOLYLINE
  2
AcDbPolyline
  3
ObjectDBX Classes
 90
        0
280
     0
281
     1
  0
CLASS
  1
ACDBDICTIONARYWDFLT
  2
AcDbDictionaryWithDefault
  3
ObjectDBX Classes
 90
        0
280
     0
281
     0
  0
CLASS
  1
ACDBPLACEHOLDER
  2
AcDbPlaceHolder
  3
ObjectDBX Classes
 90
        0
280
     0
281
     0
  0
CLASS
  1
LAYOUT
  2
AcDbLayout
  3
ObjectDBX Classes
 90
        0
280
     0
281
     0
  0
CLASS
  1
DICTIONARYVAR
  2
AcDbDictionaryVar
  3
ObjectDBX Classes
 90
        0
280
     0
281
     0
  0
CLASS
  1
MATERIAL
  2
AcDbMaterial
  3
ObjectDBX Classes
 90
     1153
280
     0
281
     0
  0
CLASS
  1
SORTENTSTABLE
  2
AcDbSortentsTable
  3
ObjectDBX Classes
 90
        0
280
     0
281
     0
  0
CLASS
  1
VISUALSTYLE
  2
AcDbVisualStyle
  3
ObjectDBX Classes
 90
     4095
280
     0
281
     0
  0
CLASS
  1
TABLESTYLE
  2
AcDbTableStyle
  3
ObjectDBX Classes
 90
     4095
280
     0
281
     0
  0
CLASS
  1
SCALE
  2
AcDbScale
  3
ObjectDBX Classes
 90
     1153
280
     0
281
     0
  0
CLASS
  1
MLEADERSTYLE
  2
AcDbMLeaderStyle
  3
ACDB_MLEADERSTYLE_CLASS
 90
     4095
280
     0
281
     0
  0
CLASS
  1
CELLSTYLEMAP
  2
AcDbCellStyleMap
  3
ObjectDBX Classes
 90
     1152
280
     0
281
     0
  0
CLASS
  1
MULTILEADER
  2
AcDbMLeader
  3
ACDB_MLEADER_CLASS
 90
     1025
280
     0
281
     1
  0
CLASS
  1
DIMASSOC
  2
AcDbDimAssoc
  3
"AcDbDimAssoc|Product Desc:     AcDim ARX App For Dimension|Company:          Autodesk, Inc.|WEB Address:      www.autodesk.com"
 90
        0
280
     0
281
     0
  0
CLASS
  1
LARGE_RADIAL_DIMENSION
  2
AcDbRadialDimensionLarge
  3
ObjectDBX Classes
 90
     1025
280
     0
281
     1
  0
CLASS
  1
RASTERVARIABLES
  2
AcDbRasterVariables
  3
ISM
 90
        0
280
     0
281
     0
  0
CLASS
  1
AEC_VARS_DWG_SETUP
  2
AecDbVarsDwgSetup
  3
AecBase60
 90
      129
280
     0
281
     0
  0
CLASS
  1
AEC_DISP_REP_2D_SECTION
  2
AecDbDispRep2dSection
  3
AecBase60
 90
      129
280
     0
281
     0
  0
CLASS
  1
AEC_DISP_PROPS_2D_SECTION
  2
AecDbDispProps2dSection
  3
AecBase60
 90
      129
280
     0
281
     0
  0
CLASS
  1
AEC_DISP_REP_CLIP_VOLUME_MODEL
  2
AecDbDispRepClipVolModel
  3
AecBase60
 90
      129
280
     0
281
     0
  0
CLASS
  1
AEC_DISP_PROPS_CLIP_VOLUME
  2
AecDbDispPropsClipVol
  3
AecBase60
 90
      129
280
     0
281
     0
  0
CLASS
  1
AEC_DISP_REP_CLIP_VOLUME_PLAN
  2
AecDbDispRepClipVolPlan
  3
AecBase60
 90
      129
280
     0
281
     0
  0
CLASS
  1
AEC_DISP_REP_CLIP_VOLUME_RESULT
  2
AecDbDispRepClipVolResult
  3
AecBase60
 90
      129
280
     0
281
     0
  0
CLASS
  1
AEC_DISP_REP_CLIP_VOLUME_RESULT_SUBDIV
  2
AecDbDispRepClipVolResSubDiv
  3
AecBase60
 90
      129
280
     0
281
     0
  0
CLASS
  1
AEC_DISP_PROPS_CLIP_VOLUME_RESULT
  2
AecDbDispPropsClipVolResSubDiv
  3
AecBase60
 90
      129
280
     0
281
     0
  0
CLASS
  1
AEC_DISP_REP_DISPLAYTHEME
  2
AecDbDispRepDisplayTheme
  3
AecBase60
 90
      129
280
     0
281
     0
  0
CLASS
  1
AEC_DISP_PROPS_DISPLAYTHEME
  2
AecDbDispPropsDisplayTheme
  3
AecBase60
 90
      129
280
     0
281
     0
  0
CLASS
  1
AEC_DISP_REP_ENT_REF
  2
AecDbDispRepEntRef
  3
AecBase60
 90
      129
280
     0
281
     0
  0
CLASS
  1
AEC_DISP_PROPS_ENT_REF
  2
AecDbDispPropsEntRef
  3
AecBase60
 90
      129
280
     0
281
     0
  0
CLASS
  1
AEC_DISP_REP_LAYOUT_CURVE
  2
AecDbDispRepLayoutCurve
  3
AecBase60
 90
      129
280
     0
281
     0
  0
CLASS
  1
AEC_DISP_PROPS_LAYOUT_CURVE
  2
AecDbDispPropsLayoutCurve
  3
AecBase60
 90
      129
280
     0
281
     0
  0
CLASS
  1
AEC_DISP_REP_LAYOUT_GRID2D
  2
AecDbDispRepLayoutGrid2d
  3
AecBase60
 90
      129
280
     0
281
     0
  0
CLASS
  1
AEC_DISP_PROPS_LAYOUT_GRID2D
  2
AecDbDispPropsLayoutGrid2d
  3
AecBase60
 90
      129
280
     0
281
     0
  0
CLASS
  1
AEC_DISP_REP_LAYOUT_GRID3D
  2
AecDbDispRepLayoutGrid3d
  3
AecBase60
 90
      129
280
     0
281
     0
  0
CLASS
  1
AEC_DISP_PROPS_LAYOUT_GRID3D
  2
AecDbDispPropsLayoutGrid3d
  3
AecBase60
 90
      129
280
     0
281
     0
  0
CLASS
  1
AEC_DISP_REP_MASKBLOCK_REF
  2
AecDbDispRepMaskBlockRef
  3
AecBase60
 90
      129
280
     0
281
     0
  0
CLASS
  1
AEC_DISP_PROPS_MASKBLOCK
  2
AecDbDispPropsMaskBlock
  3
AecBase60
 90
      129
280
     0
281
     0
  0
CLASS
  1
AEC_DISP_REP_MASKBLOCK_REF_RCP
  2
AecDbDispRepMaskBlockRefRcp
  3
AecArchBase60
 90
      129
280
     0
281
     0
  0
CLASS
  1
AEC_DISP_REP_MASS_ELEM_MODEL
  2
AecDbDispRepMassElemModel
  3
AecBase60
 90
      129
280
     0
281
     0
  0
CLASS
  1
AEC_DISP_PROPS_MASS_ELEM_MODEL
  2
AecDbDispPropsMassElem
  3
AecBase60
 90
      129
280
     0
281
     0
  0
CLASS
  1
AEC_DISP_REP_MASS_ELEM_SCHEM
  2
AecDbDispRepMassElemSchem
  3
AecBase60
 90
      129
280
     0
281
     0
  0
CLASS
  1
AEC_DISPREPAECDBDISPREPMASSELEMPLAN50
  2
AecDbDispRepMassElemPlan50
  3
AecArchDACHBase60
 90
      129
280
     0
281
     0
  0
CLASS
  1
AEC_DISPROPSMASSELEMPLANCOMMON
  2
AecDbDispPropsMassElemPlanCommon
  3
AecArchDACHBase60
 90
      129
280
     0
281
     0
  0
CLASS
  1
AEC_DISPREPAECDBDISPREPMASSELEMPLAN100
  2
AecDbDispRepMassElemPlan100
  3
AecArchDACHBase60
 90
      129
280
     0
281
     0
  0
CLASS
  1
AEC_DISP_REP_MASS_ELEM_RCP
  2
AecDbDispRepMassElemRcp
  3
AecArchBase60
 90
      129
280
     0
281
     0
  0
CLASS
  1
AEC_DISP_REP_MASS_GROUP_MODEL
  2
AecDbDispRepMassGroupModel
  3
AecBase60
 90
      129
280
     0
281
     0
  0
CLASS
  1
AEC_DISP_PROPS_MASS_GROUP
  2
AecDbDispPropsMassGroup
  3
AecBase60
 90
      129
280
     0
281
     0
  0
CLASS
  1
AEC_DISP_REP_MASS_GROUP_PLAN
  2
AecDbDispRepMassGroupPlan
  3
AecBase60
 90
      129
280
     0
281
     0
  0
CLASS
  1
AEC_DISPREPAECDBDISPREPMASSGROUPPLAN50
  2
AecDbDispRepMassGroupPlan50
  3
AecArchDACHBase60
 90
      129
280
     0
281
     0
  0
CLASS
  1
AEC_DISPROPSMASSGROUPPLANCOMMON
  2
AecDbDispPropsMassGroupPlanCommon
  3
AecArchDACHBase60
 90
      129
280
     0
281
     0
  0
CLASS
  1
AEC_DISPREPAECDBDISPREPMASSGROUPPLAN100
  2
AecDbDispRepMassGroupPlan100
  3
AecArchDACHBase60
 90
      129
280
     0
281
     0
  0
CLASS
  1
AEC_DISP_REP_MASS_GROUP_RCP
  2
AecDbDispRepMassGroupRcp
  3
AecArchBase60
 90
      129
280
     0
281
     0
  0
CLASS
  1
AEC_DISP_REP_MVBLOCK_REF
  2
AecDbDispRepMvBlockRef
  3
AecBase60
 90
      129
280
     0
281
     0
  0
CLASS
  1
AEC_DISP_REP_MVBLOCK_REF_MODEL
  2
AecDbDispRepMvBlockRefModel
  3
AecBase60
 90
      129
280
     0
281
     0
  0
CLASS
  1
AEC_AECDBDISPREPMVBLOCKREFPLAN100
  2
AecDbDispRepMvBlockRefPlan100
  3
AecBase60
 90
      129
280
     0
281
     0
  0
CLASS
  1
AEC_AECDBDISPREPMVBLOCKREFPLAN50
  2
AecDbDispRepMvBlockRefPlan50
  3
AecBase60
 90
      129
280
     0
281
     0
  0
CLASS
  1
AEC_DISP_REP_POLYGON_MODEL
  2
AecDbDispRepPolygonModel
  3
AecBase60
 90
      129
280
     0
281
     0
  0
CLASS
  1
AEC_DISP_PROPS_POLYGON_MODEL
  2
AecDbDispPropsPolygonModel
  3
AecBase60
 90
      129
280
     0
281
     0
  0
CLASS
  1
AEC_DISP_REP_POLYGON_TRUECOLOUR
  2
AecDbDispRepPolygonTrueColour
  3
AecBase60
 90
      129
280
     0
281
     0
  0
CLASS
  1
AEC_DISP_PROPS_POLYGON_TRUECOLOUR
  2
AecDbDispPropsPolygonTrueColour
  3
AecBase60
 90
      129
280
     0
281
     0
  0
CLASS
  1
AEC_DISP_REP_SLICE
  2
AecDbDispRepSlice
  3
AecBase60
 90
      129
280
     0
281
     0
  0
CLASS
  1
AEC_DISP_PROPS_SLICE
  2
AecDbDispPropsSlice
  3
AecBase60
 90
      129
280
     0
281
     0
  0
CLASS
  1
AEC_DISP_REP_ANCHOR
  2
AecDbDispRepAnchor
  3
AecBase60
 90
      129
280
     0
281
     0
  0
CLASS
  1
AEC_DISP_REP_ANCHOR_ENT_TO_NODE
  2
AecDbDispRepAnchorEntToNode
  3
AecBase60
 90
      129
280
     0
281
     0
  0
CLASS
  1
AEC_DISP_PROPS_ENT
  2
AecDbDispPropsEnt
  3
AecBase60
 90
      129
280
     0
281
     0
  0
CLASS
  1
AEC_DISP_REP_MATERIAL
  2
AecDbDispRepMaterial
  3
AecBase60
 90
      129
280
     0
281
     0
  0
CLASS
  1
AEC_DISP_PROPS_MATERIAL
  2
AecDbDispPropsMaterial
  3
AecBase60
 90
      129
280
     0
281
     0
  0
CLASS
  1
AEC_DISP_REP_EDITINPLACEPROFILE
  2
AecDbDispRepEditInPlaceProfile
  3
AecBase60
 90
      129
280
     0
281
     0
  0
CLASS
  1
AEC_DISP_PROPS_EDITINPLACEPROFILE_MODEL
  2
AecDbDispPropsEditInPlaceProfile
  3
AecBase60
 90
      129
280
     0
281
     0
  0
CLASS
  1
SUN
  2
AcDbSun
  3
SCENEOE
 90
     1153
280
     0
281
     0
  0
ENDSEC
  0
SECTION
  2
TABLES
  0
TABLE
  2
VPORT
  5
8
330
0
100
AcDbSymbolTable
 70
     2
  0
VPORT
  5
3A6E3B
330
8
100
AcDbSymbolTableRecord
100
AcDbViewportTableRecord
  2
*Active
 70
     0
 10
0.0
 20
0.0
 11
1.0
 21
1.0
 12
20920.08880938632
 22
-17471.86285401753
 13
0.0
 23
0.0
 14
1.0
 24
1.0
 15
20.0
 25
20.0
 16
0.0
 26
0.0
 36
1.0
 17
0.0
 27
0.0
 37
0.0
 40
130.4341160568307
 41
2.027568922305764
 42
50.0
 43
0.0
 44
0.0
 50
0.0
 51
0.0
 71
    16
 72
   100
 73
     1
 74
     0
 75
     0
 76
     0
 77
     0
 78
     0
281
     0
 65
     1
110
0.0
120
0.0
130
0.0
111
1.0
121
0.0
131
0.0
112
0.0
122
1.0
132
0.0
 79
     0
146
0.0
  0
ENDTAB
  0
TABLE
  2
LTYPE
  5
5
330
0
100
AcDbSymbolTable
 70
     4
  0
LTYPE
  5
12
330
5
100
AcDbSymbolTableRecord
100
AcDbLinetypeTableRecord
  2
BYBLOCK
 70
     0
  3

 72
    65
 73
     0
 40
0.0
  0
LTYPE
  5
13
330
5
100
AcDbSymbolTableRecord
100
AcDbLinetypeTableRecord
  2
BYLAYER
 70
     0
  3

 72
    65
 73
     0
 40
0.0
  0
LTYPE
  5
14
330
5
100
AcDbSymbolTableRecord
100
AcDbLinetypeTableRecord
  2
CONTINUOUS
 70
     0
  3
Solid line
 72
    65
 73
     0
 40
0.0
  0
LTYPE
  5
25
330
5
100
AcDbSymbolTableRecord
100
AcDbLinetypeTableRecord
  2
CENTER
 70
     0
  3
____ _ ____ _ ____ _ ____ _ ____ _ ____ _ ____
 72
    65
 73
     4
 40
2.0
 49
1.25
 74
     0
 49
-0.25
 74
     0
 49
0.25
 74
     0
 49
-0.25
 74
     0
  0
LTYPE
  5
26
330
5
100
AcDbSymbolTableRecord
100
AcDbLinetypeTableRecord
  2
PHANTOM
 70
     0
  3
_____ _ _ _____ _ _ _____ _ _ _____ _ _ ____
 72
    65
 73
     6
 40
2.5
 49
1.25
 74
     0
 49
-0.25
 74
     0
 49
0.25
 74
     0
 49
-0.25
 74
     0
 49
0.25
 74
     0
 49
-0.25
 74
     0
  0
LTYPE
  5
27
330
5
100
AcDbSymbolTableRecord
100
AcDbLinetypeTableRecord
  2
HIDDEN
 70
     0
  3
_ _ _ _ _ _ _ _ _ _ _ _ _ _ _ _ _ _ _ _ _ _ _
 72
    65
 73
     2
 40
0.375
 49
0.25
 74
     0
 49
-0.125
 74
     0
  0
ENDTAB
  0
TABLE
  2
LAYER
  5
2
102
{ACAD_XDICTIONARY
360
559E
102
}
330
0
100
AcDbSymbolTable
 70
    19
  0
LAYER
  5
F
102
{ACAD_XDICTIONARY
360
CD7F
102
}
330
2
100
AcDbSymbolTableRecord
100
AcDbLayerTableRecord
  2
0
 70
     0
 62
     7
  6
CONTINUOUS
370
    -3
390
352
  0
LAYER
  5
34
102
{ACAD_XDICTIONARY
360
CD85
102
}
330
2
100
AcDbSymbolTableRecord
100
AcDbLayerTableRecord
  2
寸法線
 70
     0
 62
     7
  6
CONTINUOUS
370
    -3
390
352
  0
LAYER
  5
36
330
2
100
AcDbSymbolTableRecord
100
AcDbLayerTableRecord
  2
DEFPOINTS
 70
     0
 62
     7
  6
CONTINUOUS
290
     0
370
    -3
390
352
  0
LAYER
  5
2F4
102
{ACAD_XDICTIONARY
360
CD8D
102
}
330
2
100
AcDbSymbolTableRecord
100
AcDbLayerTableRecord
  2
文字
 70
     0
 62
     7
  6
CONTINUOUS
370
    -3
390
352
  0
LAYER
  5
306B15
330
2
100
AcDbSymbolTableRecord
100
AcDbLayerTableRecord
  2
C-SUNPO
 70
     0
 62
     7
  6
CONTINUOUS
370
    -3
390
352
  0
LAYER
  5
31D3CB
330
2
100
AcDbSymbolTableRecord
100
AcDbLayerTableRecord
  2
姿図
 70
     0
 62
     8
  6
CONTINUOUS
370
    -3
390
352
  0
ENDTAB
  0
TABLE
  2
STYLE
  5
3
330
0
100
AcDbSymbolTable
 70
     1
  0
STYLE
  5
10
330
3
100
AcDbSymbolTableRecord
100
AcDbTextStyleTableRecord
  2
STANDARD
 70
     0
 40
0.0
 41
1.0
 50
0.0
 71
     0
 42
3.5
  3
MONOTXT
  4
BIGFONT
  0
ENDTAB
  0
TABLE
  2
VIEW
  5
6
330
0
100
AcDbSymbolTable
 70
     0
  0
ENDTAB
  0
TABLE
  2
UCS
  5
7
330
0
100
AcDbSymbolTable
 70
     0
  0
ENDTAB
  0
TABLE
  2
APPID
  5
9
330
0
100
AcDbSymbolTable
 70
    23
  0
APPID
  5
11
330
9
100
AcDbSymbolTableRecord
100
AcDbRegAppTableRecord
  2
ACAD
 70
     0
  0
APPID
  5
C058
330
9
100
AcDbSymbolTableRecord
100
AcDbRegAppTableRecord
  2
AcAecLayerStandard
 70
     0
  0
APPID
  5
CD77
330
9
100
AcDbSymbolTableRecord
100
AcDbRegAppTableRecord
  2
ACAD_MLEADERVER
 70
     0
  0
APPID
  5
D036
330
9
100
AcDbSymbolTableRecord
100
AcDbRegAppTableRecord
  2
ACAD_PSEXT
 70
     0
  0
APPID
  5
D28E
330
9
100
AcDbSymbolTableRecord
100
AcDbRegAppTableRecord
  2
ACAD_DSTYLE_DIMJAG
 70
     0
  0
APPID
  5
D28F
330
9
100
AcDbSymbolTableRecord
100
AcDbRegAppTableRecord
  2
ACAD_DSTYLE_DIMTALN
 70
     0
  0
APPID
  5
10E35
330
9
100
AcDbSymbolTableRecord
100
AcDbRegAppTableRecord
  2
ACAD_EXEMPT_FROM_CAD_STANDARDS
 70
     0
  0
APPID
  5
36B90
330
9
100
AcDbSymbolTableRecord
100
AcDbRegAppTableRecord
  2
ACAD_DSTYLE_DIMRADIAL_EXTENSION
 70
     0
  0
APPID
  5
4CBB9
330
9
100
AcDbSymbolTableRecord
100
AcDbRegAppTableRecord
  2
WACOM_STRING
 70
     0
  0
APPID
  5
4CBBA
330
9
100
AcDbSymbolTableRecord
100
AcDbRegAppTableRecord
  2
WACOM_DRSYM_ARROW
 70
     0
  0
APPID
  5
83B4C
330
9
100
AcDbSymbolTableRecord
100
AcDbRegAppTableRecord
  2
ACAD_DSTYLE_DIMRADIAL_EXTE
 70
     0
  0
APPID
  5
83B4D
330
9
100
AcDbSymbolTableRecord
100
AcDbRegAppTableRecord
  2
ACAD_DSTYLE_DIMBREAK
 70
     0
  0
APPID
  5
83B4E
330
9
100
AcDbSymbolTableRecord
100
AcDbRegAppTableRecord
  2
ACAD_DSTYLE_DIMARC_LENGTH_
 70
     0
  0
APPID
  5
8B472
330
9
100
AcDbSymbolTableRecord
100
AcDbRegAppTableRecord
  2
LAYER_SCALE
 70
     0
  0
APPID
  5
8B473
330
9
100
AcDbSymbolTableRecord
100
AcDbRegAppTableRecord
  2
KCAD_DIM_EXT
 70
     0
  0
APPID
  5
16ECBA
330
9
100
AcDbSymbolTableRecord
100
AcDbRegAppTableRecord
  2
GENIUS_GENDTOL_13
 70
     0
  0
APPID
  5
23CCFB
330
9
100
AcDbSymbolTableRecord
100
AcDbRegAppTableRecord
  2
AcadAnnotative
 70
     0
  0
APPID
  5
31A28D
330
9
100
AcDbSymbolTableRecord
100
AcDbRegAppTableRecord
  2
ACAD_DSTYLE_DIMFLIPARROW_WHICH_SYMBOL
 70
     0
  0
APPID
  5
3A6E3C
330
9
100
AcDbSymbolTableRecord
100
AcDbRegAppTableRecord
  2
AECBASE
 70
     0
  0
APPID
  5
3A6E3D
330
9
100
AcDbSymbolTableRecord
100
AcDbRegAppTableRecord
  2
AEC_2DSECTION_XDATA
 70
     0
  0
APPID
  5
3A6E3E
330
9
100
AcDbSymbolTableRecord
100
AcDbRegAppTableRecord
  2
AEC_MASSGROUP_XDADA
 70
     0
  0
APPID
  5
3A792A
330
9
100
AcDbSymbolTableRecord
100
AcDbRegAppTableRecord
  2
ACAD_SPLINE_DATA
 70
     0
  0
APPID
  5
3A792B
330
9
100
AcDbSymbolTableRecord
100
AcDbRegAppTableRecord
  2
ACAD_SPLINE_DATA2
 70
     0
  0
ENDTAB
  0
TABLE
  2
DIMSTYLE
  5
A
330
0
100
AcDbSymbolTable
 70
     3
100
AcDbDimStyleTable
  0
DIMSTYLE
105
1CC
330
A
100
AcDbSymbolTableRecord
100
AcDbDimStyleTableRecord
  2
STANDARD
 70
     0
 41
2.5
 42
1.5
 43
7.0
 44
1.0
 45
0.0
 73
     0
 74
     0
 77
     3
 78
     8
 79
     2
140
3.0
141
0.0
146
0.6
147
1.0
171
     0
172
     1
176
     8
177
     8
271
     3
178
   256
179
     3
271
     3
272
     3
274
     0
289
     0
340
10
341
265D
342
265D
1001
ACAD_DSTYLE_DIMJAG
1070
   388
1040
1.5
1001
ACAD_DSTYLE_DIMTALN
1070
   392
1070
     0
  0
ENDTAB
  0
TABLE
  2
BLOCK_RECORD
  5
1
330
0
100
AcDbSymbolTable
 70
    28
  0
BLOCK_RECORD
  5
18
102
{ACAD_XDICTIONARY
360
D25F
102
}
330
1
100
AcDbSymbolTableRecord
100
AcDbBlockTableRecord
  2
*MODEL_SPACE
340
355
  0
BLOCK_RECORD
  5
15
330
1
100
AcDbSymbolTableRecord
100
AcDbBlockTableRecord
  2
*PAPER_SPACE
340
356
  0
BLOCK_RECORD
  5
416
330
1
100
AcDbSymbolTableRecord
100
AcDbBlockTableRecord
  2
SUN
340
0
  0
BLOCK_RECORD
  5
265D
330
1
100
AcDbSymbolTableRecord
100
AcDbBlockTableRecord
  2
_OPEN30
340
0
102
{BLKREFS
331
3A4940
331
3A4941
331
3A4949
331
3A494A
331
3A4952
331
3A4953
331
3A495B
331
3A495C
331
3A4964
331
3A4965
331
3A4A32
331
3A4A33
331
3A5E90
331
3A5E91
331
3A5E9A
331
3A5E9B
331
3A5EA4
331
3A5EA5
331
3A5EAE
331
3A5EAF
331
3A5EBB
331
3A5EBC
331
3A5EC5
331
3A5EC6
331
3A6B30
331
3A6B31
331
3A6B39
331
3A6B3A
331
3A6B42
331
3A6B43
331
3A6B4B
331
3A6B4C
331
3A6B54
331
3A6B55
331
3A6B5D
331
3A6B5E
331
3A78E2
331
3A78E3
331
3A78EE
331
3A78EF
331
3A78FA
331
3A78FB
331
3A7906
331
3A7907
331
3A7915
331
3A7916
331
3A7921
331
3A7922
102
}
  0
BLOCK_RECORD
  5
352B8A
330
1
100
AcDbSymbolTableRecord
100
AcDbBlockTableRecord
  2
_OPEN
340
0
  0
ENDTAB
  0
ENDSEC
  0
SECTION
  2
BLOCKS
  0
BLOCK
  5
39
330
18
100
AcDbEntity
  8
0
100
AcDbBlockBegin
  2
*MODEL_SPACE
 70
     0
 10
0.0
 20
0.0
 30
0.0
  3
*MODEL_SPACE
  1
*MODEL_SPACE
  0
ENDBLK
  5
3A
330
18
100
AcDbEntity
  8
0
100
AcDbBlockEnd
  0
BLOCK
  5
37
330
15
100
AcDbEntity
 67
     1
  8
0
100
AcDbBlockBegin
  2
*PAPER_SPACE
 70
     0
 10
0.0
 20
0.0
 30
0.0
  3
*PAPER_SPACE
  1
*PAPER_SPACE
  0
ENDBLK
  5
38
330
15
100
AcDbEntity
 67
     1
  8
0
100
AcDbBlockEnd
  0
BLOCK
  5
41A
330
416
100
AcDbEntity
  8
0
100
AcDbBlockBegin
  2
SUN
 70
     0
 10
0.0
 20
0.0
 30
0.0
  3
SUN
  1
SUN
  0
LINE
  5
417
330
416
100
AcDbEntity
  8
0
100
AcDbLine
 10
-0.0000000000000568
 20
0.0
 30
0.0
 11
-1.500000000000057
 21
0.0
 31
0.0
  0
LINE
  5
418
330
416
100
AcDbEntity
  8
0
100
AcDbLine
 10
-0.0000000000000568
 20
0.0000000000000284
 30
0.0
 11
-1.500000000000057
 21
0.401923788646684
 31
0.0
  0
LINE
  5
419
330
416
100
AcDbEntity
  8
0
100
AcDbLine
 10
-0.0000000000000568
 20
0.0000000000000284
 30
0.0
 11
-1.500000000000057
 21
-0.4019237886466556
 31
0.0
  0
ENDBLK
  5
41B
330
416
100
AcDbEntity
  8
0
100
AcDbBlockEnd
  0
BLOCK
  5
265E
330
265D
100
AcDbEntity
  8
0
100
AcDbBlockBegin
  2
_OPEN30
 70
     0
 10
0.0
 20
0.0
 30
0.0
  3
_OPEN30
  1
_OPEN30
  0
LINE
  5
265F
330
265D
100
AcDbEntity
  8
0
  6
ByBlock
 62
     0
100
AcDbLine
 10
-1.0
 20
0.26794919
 30
0.0
 11
0.0
 21
0.0
 31
0.0
  0
LINE
  5
2660
330
265D
100
AcDbEntity
  8
0
  6
ByBlock
 62
     0
100
AcDbLine
 10
0.0
 20
0.0
 30
0.0
 11
-1.0
 21
-0.26794919
 31
0.0
  0
LINE
  5
2661
330
265D
100
AcDbEntity
  8
0
  6
ByBlock
 62
     0
100
AcDbLine
 10
0.0
 20
0.0
 30
0.0
 11
-1.0
 21
0.0
 31
0.0
  0
ENDBLK
  5
2662
330
265D
100
AcDbEntity
  8
0
100
AcDbBlockEnd
  0
BLOCK
  5
352B8B
330
352B8A
100
AcDbEntity
  8
0
100
AcDbBlockBegin
  2
_OPEN
 70
     0
 10
0.0
 20
0.0
 30
0.0
  3
_OPEN
  1
_OPEN
  0
LINE
  5
352B8C
330
352B8A
100
AcDbEntity
  8
0
  6
ByBlock
 62
     0
100
AcDbLine
 10
-1.0
 20
0.1666666666666667
 30
0.0
 11
0.0
 21
0.0
 31
0.0
  0
LINE
  5
352B8D
330
352B8A
100
AcDbEntity
  8
0
  6
ByBlock
 62
     0
100
AcDbLine
 10
0.0
 20
0.0
 30
0.0
 11
-1.0
 21
-0.1666666666666667
 31
0.0
  0
LINE
  5
352B8E
330
352B8A
100
AcDbEntity
  8
0
  6
ByBlock
 62
     0
100
AcDbLine
 10
0.0
 20
0.0
 30
0.0
 11
-1.0
 21
0.0
 31
0.0
  0
ENDBLK
  5
352B8F
330
352B8A
100
AcDbEntity
  8
0
100
AcDbBlockEnd
  0
ENDSEC
  0
SECTION
  2
ENTITIES
  0
MTEXT
  5
8182F
330
18
100
AcDbEntity
  8
0
100
AcDbMText
 10
5598.734167156057
 20
-2635.335630549191
 30
0.0
 40
3.0
 41
0.0
 71
     7
 72
     1
  1
\A1;
 73
     1
 44
1.0
  0
MTEXT
  5
3073B9
330
18
100
AcDbEntity
  8
C-SUNPO
 62
     7
100
AcDbMText
 10
8897.245354628265
 20
-2466.345110988794
 30
0.0
 40
2.0
 41
0.0
 71
     5
 72
     1
  1
\A1;\P\P 
 11
0.999998667560571
 21
0.001632445123950444
 31
0.0
 73
     1
 44
1.0
  0
TEXT
  5
3A6EAA
330
18
100
AcDbEntity
  8
文字
100
AcDbText
 10
20882.71380938632
 20
-17535.80114620225
 30
0.0
 40
9.75
  1
SL-910DF
100
AcDbText
  0
SPLINE
  5
3A7575
330
18
100
AcDbEntity
  8
姿図
 62
     8
100
AcDbSpline
210
0.0
220
0.0
230
1.0
 70
     8
 71
     3
 72
    17
 73
    13
 74
     0
 42
0.000000001
 43
0.0000000001
 40
0.0
 40
0.0
 40
0.0
 40
0.0
 40
1.0
 40
1.0
 40
1.0
 40
2.0
 40
2.0
 40
2.0
 40
3.0
 40
3.0
 40
3.0
 40
4.0
 40
4.0
 40
4.0
 40
4.0
 10
20908.84596426299
 20
-17415.40630711297
 30
0.0
 10
20907.98094407624
 20
-17414.76911036262
 30
0.0
 10
20907.49930524702
 20
-17414.08052042566
 30
0.0
 10
20907.51623940045
 20
-17413.36554471473
 30
0.0
 10
20907.59618435739
 20
-17409.98481819838
 30
0.0
 10
20916.57719294326
 20
-17407.82216927713
 30
0.0
 10
20927.68993577491
 20
-17407.92456183281
 30
0.0
 10
20938.80346624161
 20
-17408.0263636622
 30
0.0
 10
20947.80849769631
 20
-17409.8859700004
 30
0.0
 10
20947.76123959369
 20
-17413.73415791519
 30
0.0
 10
20947.75257560821
 20
-17414.43121492887
 30
0.0
 10
20947.29495964781
 20
-17415.09460054443
 30
0.0
 10
20946.46006650148
 20
-17415.70304861569
 30
0.0
  0
SPLINE
  5
3A7576
330
18
100
AcDbEntity
  8
姿図
 62
     8
100
AcDbSpline
210
0.0
220
0.0
230
1.0
 70
     8
 71
     3
 72
    11
 73
     7
 74
     0
 42
0.000000001
 43
0.0000000001
 40
0.0
 40
0.0
 40
0.0
 40
0.0
 40
1.0
 40
1.0
 40
1.0
 40
2.0
 40
2.0
 40
2.0
 40
2.0
 10
20907.58948945952
 20
-17414.06082954957
 30
0.0
 10
20907.66943441646
 20
-17410.67990612445
 30
0.0
 10
20916.65044300232
 20
-17408.51745411196
 30
0.0
 10
20927.76318583398
 20
-17408.61984666764
 30
0.0
 10
20938.44666756682
 20
-17408.71751341306
 30
0.0
 10
20947.18154020152
 20
-17410.43987434488
 30
0.0
 10
20947.79983371083
 20
-17413.99171457448
 30
0.0
  0
SPLINE
  5
3A7577
330
18
100
AcDbEntity
  8
姿図
 62
     8
100
AcDbSpline
210
0.0
220
0.0
230
1.0
 70
     8
 71
     3
 72
    11
 73
     7
 74
     0
 42
0.000000001
 43
0.0000000001
 40
0.0
 40
0.0
 40
0.0
 40
0.0
 40
1.0
 40
1.0
 40
1.0
 40
2.0
 40
2.0
 40
2.0
 40
2.0
 10
20909.45598760435
 20
-17412.89138841842
 30
0.0
 10
20909.11376017785
 20
-17414.08347405707
 30
0.0
 10
20908.73412008678
 20
-17415.66662049492
 30
0.0
 10
20908.38460703614
 20
-17417.41438265691
 30
0.0
 10
20907.86772153871
 20
-17419.99861323531
 30
0.0
 10
20907.55010770733
 20
-17422.27586305542
 30
0.0
 10
20907.51151359019
 20
-17423.4864581176
 30
0.0
  0
SPLINE
  5
3A7578
330
18
100
AcDbEntity
  8
姿図
 62
     8
100
AcDbSpline
210
0.0
220
0.0
230
1.0
 70
     8
 71
     3
 72
    11
 73
     7
 74
     0
 42
0.000000001
 43
0.0000000001
 40
0.0
 40
0.0
 40
0.0
 40
0.0
 40
1.0
 40
1.0
 40
1.0
 40
2.0
 40
2.0
 40
2.0
 40
2.0
 10
20946.2206254482
 20
-17414.70078302257
 30
0.0
 10
20946.577424123
 20
-17415.83753729941
 30
0.0
 10
20946.96257765937
 20
-17417.63236065525
 30
0.0
 10
20947.26187897598
 20
-17419.66820033447
 30
0.0
 10
20947.47611570787
 20
-17421.13280769825
 30
0.0
 10
20947.61237657043
 20
-17422.49088742235
 30
0.0
 10
20947.6659357534
 20
-17423.58136814037
 30
0.0
  0
SPLINE
  5
3A7579
330
18
100
AcDbEntity
  8
姿図
 62
     8
100
AcDbSpline
210
0.0
220
0.0
230
1.0
 70
     8
 71
     3
 72
    17
 73
    13
 74
     0
 42
0.000000001
 43
0.0000000001
 40
0.0
 40
0.0
 40
0.0
 40
0.0
 40
1.0
 40
1.0
 40
1.0
 40
2.0
 40
2.0
 40
2.0
 40
3.0
 40
3.0
 40
3.0
 40
4.0
 40
4.0
 40
4.0
 40
4.0
 10
20906.56182263625
 20
-17425.11469666171
 30
0.0
 10
20906.54862974926
 20
-17425.04262805521
 30
0.0
 10
20906.54232866891
 20
-17424.97016563118
 30
0.0
 10
20906.5429193952
 20
-17424.8975062984
 30
0.0
 10
20906.56753299031
 20
-17422.2321493105
 30
0.0
 10
20916.01954733231
 20
-17420.15810933166
 30
0.0
 10
20927.65291692786
 20
-17420.2652276976
 30
0.0
 10
20939.28786179349
 20
-17420.37175533726
 30
0.0
 10
20948.70010056578
 20
-17422.61848429944
 30
0.0
 10
20948.67647151447
 20
-17425.28344746982
 30
0.0
 10
20948.67568387943
 20
-17425.34094482801
 30
0.0
 10
20948.67095806917
 20
-17425.39824527744
 30
0.0
 10
20948.66150644864
 20
-17425.45515190934
 30
0.0
  0
SPLINE
  5
3A757A
330
18
100
AcDbEntity
  8
姿図
 62
     8
100
AcDbSpline
210
0.0
220
0.0
230
1.0
 70
     8
 71
     3
 72
    11
 73
     7
 74
     0
 42
0.000000001
 43
0.0000000001
 40
0.0
 40
0.0
 40
0.0
 40
0.0
 40
1.0
 40
1.0
 40
1.0
 40
2.0
 40
2.0
 40
2.0
 40
2.0
 10
20909.06197317373
 20
-17414.61886897803
 30
0.0
 10
20907.54577571459
 20
-17411.94327273456
 30
0.0
 10
20916.42813301124
 20
-17408.97999279137
 30
0.0
 10
20927.79154069555
 20
-17409.26767649109
 30
0.0
 10
20938.36002771201
 20
-17409.53527549719
 30
0.0
 10
20947.10041379202
 20
-17411.31887505366
 30
0.0
 10
20946.29781368248
 20
-17414.88646798413
 30
0.0
  0
ELLIPSE
  5
3A757B
330
18
100
AcDbEntity
  8
姿図
 62
     8
100
AcDbEllipse
 10
20927.57431681845
 20
-17425.39757412141
 30
0.0
 11
19.58568342075625
 21
-0.2085203816222047
 31
0.0
210
0.0
220
0.0
230
1.0
 40
0.2162181212671087
 41
5.615583029766626
 42
10.1485175379904
  0
ELLIPSE
  5
3A757C
330
18
100
AcDbEntity
  8
姿図
 62
     8
100
AcDbEllipse
 10
20927.58816394453
 20
-17425.48937544613
 30
0.0
 11
21.04499291267518
 21
-0.1385788622548269
 31
0.0
210
0.0
220
0.0
230
1.0
 40
0.2319868328486093
 41
5.53073771009126
 42
10.22096577846667
  0
ELLIPSE
  5
3A757D
330
18
100
AcDbEntity
  8
姿図
 62
     8
100
AcDbEllipse
 10
20927.57431681845
 20
-17425.39757412141
 30
0.0
 11
19.58568342075625
 21
-0.2085203816222047
 31
0.0
210
0.0
220
0.0
230
1.0
 40
0.2162181212671087
 41
10.8878448727806
 42
11.15400496578082
  0
ELLIPSE
  5
3A757E
330
18
100
AcDbEntity
  8
姿図
 62
     8
100
AcDbEllipse
 10
20927.58816394453
 20
-17425.48937544613
 30
0.0
 11
21.04499291267518
 21
-0.1385788622548269
 31
0.0
210
0.0
220
0.0
230
1.0
 40
0.2319868328486093
 41
10.88680847040845
 42
11.14920769167839
  0
SPLINE
  5
3A757F
330
18
100
AcDbEntity
  8
姿図
 62
     8
100
AcDbSpline
210
0.0
220
0.0
230
1.0
 70
     8
 71
     3
 72
    11
 73
     7
 74
     0
 42
0.000000001
 43
0.0000000001
 40
0.0
 40
0.0
 40
0.0
 40
0.0
 40
1.0
 40
1.0
 40
1.0
 40
2.0
 40
2.0
 40
2.0
 40
2.0
 10
20922.216711573
 20
-17422.81439123014
 30
0.0
 10
20922.216711573
 20
-17422.61886401787
 30
0.0
 10
20924.57273951556
 20
-17422.46037849669
 30
0.0
 10
20927.47910115437
 20
-17422.46037849669
 30
0.0
 10
20930.38546279318
 20
-17422.46037849669
 30
0.0
 10
20932.74149073573
 20
-17422.61886401787
 30
0.0
 10
20932.74149073573
 20
-17422.81439123014
 30
0.0
  0
POLYLINE
  5
3A7580
330
18
100
AcDbEntity
  8
姿図
 62
     8
100
AcDb2dPolyline
 66
     1
 10
0.0
 20
0.0
 30
0.0
  0
VERTEX
  5
3A7581
330
3A7580
100
AcDbEntity
  8
姿図
 62
     8
100
AcDbVertex
100
AcDb2dVertex
 10
20922.216711573
 20
-17422.81439123014
 30
0.0
  0
VERTEX
  5
3A7582
330
3A7580
100
AcDbEntity
  8
姿図
 62
     8
100
AcDbVertex
100
AcDb2dVertex
 10
20922.216711573
 20
-17424.78095224921
 30
0.0
  0
SEQEND
  5
3A7583
330
3A7580
100
AcDbEntity
  8
姿図
 62
     8
  0
POLYLINE
  5
3A7584
330
18
100
AcDbEntity
  8
姿図
 62
     8
100
AcDb2dPolyline
 66
     1
 10
0.0
 20
0.0
 30
0.0
  0
VERTEX
  5
3A7585
330
3A7584
100
AcDbEntity
  8
姿図
 62
     8
100
AcDbVertex
100
AcDb2dVertex
 10
20932.74149073573
 20
-17422.81439123014
 30
0.0
  0
VERTEX
  5
3A7586
330
3A7584
100
AcDbEntity
  8
姿図
 62
     8
100
AcDbVertex
100
AcDb2dVertex
 10
20932.74149073573
 20
-17424.78095224921
 30
0.0
  0
SEQEND
  5
3A7587
330
3A7584
100
AcDbEntity
  8
姿図
 62
     8
  0
POLYLINE
  5
3A7588
330
18
100
AcDbEntity
  8
姿図
 62
     8
100
AcDb2dPolyline
 66
     1
 10
0.0
 20
0.0
 30
0.0
  0
VERTEX
  5
3A7589
330
3A7588
100
AcDbEntity
  8
姿図
 62
     8
100
AcDbVertex
100
AcDb2dVertex
 10
20922.216711573
 20
-17424.78095224921
 30
0.0
  0
VERTEX
  5
3A758A
330
3A7588
100
AcDbEntity
  8
姿図
 62
     8
100
AcDbVertex
100
AcDb2dVertex
 10
20932.74149073573
 20
-17424.78095224921
 30
0.0
  0
SEQEND
  5
3A758B
330
3A7588
100
AcDbEntity
  8
姿図
 62
     8
  0
SPLINE
  5
3A758C
330
18
100
AcDbEntity
  8
姿図
 62
     8
100
AcDbSpline
210
0.0
220
0.0
230
1.0
 70
     8
 71
     3
 72
    32
 73
    28
 74
     0
 42
0.000000001
 43
0.0000000001
 40
0.0
 40
0.0
 40
0.0
 40
0.0
 40
1.0
 40
1.0
 40
1.0
 40
2.0
 40
2.0
 40
2.0
 40
3.0
 40
3.0
 40
3.0
 40
4.0
 40
4.0
 40
4.0
 40
5.0
 40
5.0
 40
5.0
 40
6.0
 40
6.0
 40
6.0
 40
7.0
 40
7.0
 40
7.0
 40
8.0
 40
8.0
 40
8.0
 40
9.0
 40
9.0
 40
9.0
 40
9.0
 10
20920.65919665702
 20
-17424.78095224921
 30
0.0
 10
20920.65919665702
 20
-17424.78095224921
 30
0.0
 10
20918.69272383246
 20
-17424.78095224921
 30
0.0
 10
20918.69272383246
 20
-17424.78095224921
 30
0.0
 10
20918.69272383246
 20
-17424.78095224921
 30
0.0
 10
20918.39374446864
 20
-17425.14272609888
 30
0.0
 10
20918.39374446864
 20
-17425.14272609888
 30
0.0
 10
20918.39374446864
 20
-17425.14272609888
 30
0.0
 10
20918.39374446864
 20
-17426.71593963633
 30
0.0
 10
20918.39374446864
 20
-17426.71593963633
 30
0.0
 10
20918.39374446864
 20
-17426.71593963633
 30
0.0
 10
20918.69272383246
 20
-17426.57438745965
 30
0.0
 10
20918.69272383246
 20
-17426.57438745965
 30
0.0
 10
20918.69272383246
 20
-17426.57438745965
 30
0.0
 10
20918.69272383246
 20
-17426.57438745965
 30
0.0
 10
20918.69272383246
 20
-17426.57438745965
 30
0.0
 10
20918.69272383246
 20
-17426.57438745965
 30
0.0
 10
20934.20463753393
 20
-17426.57438745965
 30
0.0
 10
20934.20463753393
 20
-17426.57438745965
 30
0.0
 10
20934.20463753393
 20
-17426.57438745965
 30
0.0
 10
20936.03229221139
 20
-17426.71038338267
 30
0.0
 10
20936.03229221139
 20
-17426.71038338267
 30
0.0
 10
20936.03229221139
 20
-17426.71038338267
 30
0.0
 10
20938.97163859417
 20
-17426.71593963633
 30
0.0
 10
20938.97163859417
 20
-17426.71593963633
 30
0.0
 10
20938.97163859417
 20
-17426.71593963633
 30
0.0
 10
20940.30884364265
 20
-17426.77891051119
 30
0.0
 10
20940.34024088558
 20
-17428.4150949235
 30
0.0
  0
POLYLINE
  5
3A758D
330
18
100
AcDbEntity
  8
姿図
 62
     8
100
AcDb2dPolyline
 66
     1
 10
0.0
 20
0.0
 30
0.0
  0
VERTEX
  5
3A758E
330
3A758D
100
AcDbEntity
  8
姿図
 62
     8
100
AcDbVertex
100
AcDb2dVertex
 10
20936.76906908614
 20
-17426.71593963633
 30
0.0
  0
VERTEX
  5
3A758F
330
3A758D
100
AcDbEntity
  8
姿図
 62
     8
100
AcDbVertex
100
AcDb2dVertex
 10
20936.76906908614
 20
-17425.14272609888
 30
0.0
  0
VERTEX
  5
3A7590
330
3A758D
100
AcDbEntity
  8
姿図
 62
     8
100
AcDbVertex
100
AcDb2dVertex
 10
20934.01581310386
 20
-17424.78095224921
 30
0.0
  0
VERTEX
  5
3A7591
330
3A758D
100
AcDbEntity
  8
姿図
 62
     8
100
AcDbVertex
100
AcDb2dVertex
 10
20920.65919665702
 20
-17424.78095224921
 30
0.0
  0
SEQEND
  5
3A7592
330
3A758D
100
AcDbEntity
  8
姿図
 62
     8
  0
POLYLINE
  5
3A7593
330
18
100
AcDbEntity
  8
姿図
 62
     8
100
AcDb2dPolyline
 66
     1
 10
0.0
 20
0.0
 30
0.0
  0
VERTEX
  5
3A7594
330
3A7593
100
AcDbEntity
  8
姿図
 62
     8
100
AcDbVertex
100
AcDb2dVertex
 10
20934.01581310386
 20
-17424.78095224921
 30
0.0
  0
VERTEX
  5
3A7595
330
3A7593
100
AcDbEntity
  8
姿図
 62
     8
100
AcDbVertex
100
AcDb2dVertex
 10
20934.01581310386
 20
-17426.57438745965
 30
0.0
  0
SEQEND
  5
3A7596
330
3A7593
100
AcDbEntity
  8
姿図
 62
     8
  0
SPLINE
  5
3A7597
330
18
100
AcDbEntity
  8
姿図
 62
     8
100
AcDbSpline
210
0.0
220
0.0
230
1.0
 70
     8
 71
     3
 72
    23
 73
    19
 74
     0
 42
0.000000001
 43
0.0000000001
 40
0.0
 40
0.0
 40
0.0
 40
0.0
 40
1.0
 40
1.0
 40
1.0
 40
2.0
 40
2.0
 40
2.0
 40
3.0
 40
3.0
 40
3.0
 40
4.0
 40
4.0
 40
4.0
 40
5.0
 40
5.0
 40
5.0
 40
6.0
 40
6.0
 40
6.0
 40
6.0
 10
20938.97163859417
 20
-17427.37669284984
 30
0.0
 10
20938.97163859417
 20
-17427.37669284984
 30
0.0
 10
20936.03229221139
 20
-17427.37669284984
 30
0.0
 10
20936.03229221139
 20
-17427.37669284984
 30
0.0
 10
20936.03229221139
 20
-17427.37669284984
 30
0.0
 10
20934.01581310386
 20
-17427.20365523573
 30
0.0
 10
20934.01581310386
 20
-17427.20365523573
 30
0.0
 10
20934.01581310386
 20
-17427.20365523573
 30
0.0
 10
20918.69272383246
 20
-17427.20365523573
 30
0.0
 10
20918.69272383246
 20
-17427.20365523573
 30
0.0
 10
20918.69272383246
 20
-17427.20365523573
 30
0.0
 10
20918.39374446864
 20
-17427.37669284984
 30
0.0
 10
20918.39374446864
 20
-17427.37669284984
 30
0.0
 10
20918.39374446864
 20
-17427.37669284984
 30
0.0
 10
20914.24040075752
 20
-17427.37669284984
 30
0.0
 10
20914.24040075752
 20
-17427.37669284984
 30
0.0
 10
20914.24040075752
 20
-17427.37669284984
 30
0.0
 10
20913.35951406551
 20
-17427.4869359781
 30
0.0
 10
20913.35951406551
 20
-17428.4150949235
 30
0.0
  0
POLYLINE
  5
3A7598
330
18
100
AcDbEntity
  8
姿図
 62
     8
100
AcDb2dPolyline
 66
     1
 10
0.0
 20
0.0
 30
0.0
  0
VERTEX
  5
3A7599
330
3A7598
100
AcDbEntity
  8
姿図
 62
     8
100
AcDbVertex
100
AcDb2dVertex
 10
20918.69272383246
 20
-17427.20365523573
 30
0.0
  0
VERTEX
  5
3A759A
330
3A7598
100
AcDbEntity
  8
姿図
 62
     8
100
AcDbVertex
100
AcDb2dVertex
 10
20918.69272383246
 20
-17426.57438745965
 30
0.0
  0
VERTEX
  5
3A759B
330
3A7598
100
AcDbEntity
  8
姿図
 62
     8
100
AcDbVertex
100
AcDb2dVertex
 10
20918.69272383246
 20
-17424.78095224921
 30
0.0
  0
SEQEND
  5
3A759C
330
3A7598
100
AcDbEntity
  8
姿図
 62
     8
  0
SPLINE
  5
3A759D
330
18
100
AcDbEntity
  8
姿図
 62
     8
100
AcDbSpline
210
0.0
220
0.0
230
1.0
 70
     8
 71
     3
 72
    14
 73
    10
 74
     0
 42
0.000000001
 43
0.0000000001
 40
0.0
 40
0.0
 40
0.0
 40
0.0
 40
1.0
 40
1.0
 40
1.0
 40
2.0
 40
2.0
 40
2.0
 40
3.0
 40
3.0
 40
3.0
 40
3.0
 10
20918.39374446864
 20
-17427.37669284984
 30
0.0
 10
20918.39374446864
 20
-17427.37669284984
 30
0.0
 10
20918.39374446864
 20
-17426.71593963633
 30
0.0
 10
20918.39374446864
 20
-17426.71593963633
 30
0.0
 10
20918.39374446864
 20
-17426.71593963633
 30
0.0
 10
20914.24040075752
 20
-17426.71593963633
 30
0.0
 10
20914.24040075752
 20
-17426.71593963633
 30
0.0
 10
20914.24040075752
 20
-17426.71593963633
 30
0.0
 10
20912.84031302868
 20
-17426.82618276459
 30
0.0
 10
20912.84031302868
 20
-17428.4150949235
 30
0.0
  0
POLYLINE
  5
3A759E
330
18
100
AcDbEntity
  8
姿図
 62
     8
100
AcDb2dPolyline
 66
     1
 10
0.0
 20
0.0
 30
0.0
  0
VERTEX
  5
3A759F
330
3A759E
100
AcDbEntity
  8
姿図
 62
     8
100
AcDbVertex
100
AcDb2dVertex
 10
20934.20463753393
 20
-17427.20365523573
 30
0.0
  0
VERTEX
  5
3A75A0
330
3A759E
100
AcDbEntity
  8
姿図
 62
     8
100
AcDbVertex
100
AcDb2dVertex
 10
20934.20463753393
 20
-17426.57438745965
 30
0.0
  0
SEQEND
  5
3A75A1
330
3A759E
100
AcDbEntity
  8
姿図
 62
     8
  0
POLYLINE
  5
3A75A2
330
18
100
AcDbEntity
  8
姿図
 62
     8
100
AcDb2dPolyline
 66
     1
 10
0.0
 20
0.0
 30
0.0
  0
VERTEX
  5
3A75A3
330
3A75A2
100
AcDbEntity
  8
姿図
 62
     8
100
AcDbVertex
100
AcDb2dVertex
 10
20936.03229221139
 20
-17427.37669284984
 30
0.0
  0
VERTEX
  5
3A75A4
330
3A75A2
100
AcDbEntity
  8
姿図
 62
     8
100
AcDbVertex
100
AcDb2dVertex
 10
20936.03229221139
 20
-17426.71038338267
 30
0.0
  0
SEQEND
  5
3A75A5
330
3A75A2
100
AcDbEntity
  8
姿図
 62
     8
  0
SPLINE
  5
3A75A6
330
18
100
AcDbEntity
  8
姿図
 62
     8
100
AcDbSpline
210
0.0
220
0.0
230
1.0
 70
     8
 71
     3
 72
    17
 73
    13
 74
     0
 42
0.000000001
 43
0.0000000001
 40
0.0
 40
0.0
 40
0.0
 40
0.0
 40
1.0
 40
1.0
 40
1.0
 40
2.0
 40
2.0
 40
2.0
 40
3.0
 40
3.0
 40
3.0
 40
4.0
 40
4.0
 40
4.0
 40
4.0
 10
20920.09819142596
 20
-17427.93041509965
 30
0.0
 10
20920.09819142596
 20
-17427.93041509965
 30
0.0
 10
20919.3848742889
 20
-17427.93041509965
 30
0.0
 10
20919.3848742889
 20
-17427.93041509965
 30
0.0
 10
20919.3848742889
 20
-17427.93041509965
 30
0.0
 10
20918.78709195025
 20
-17427.85174560333
 30
0.0
 10
20918.78709195025
 20
-17427.85174560333
 30
0.0
 10
20918.78709195025
 20
-17427.85174560333
 30
0.0
 10
20916.97786992384
 20
-17427.85174560333
 30
0.0
 10
20916.97786992384
 20
-17427.85174560333
 30
0.0
 10
20916.97786992384
 20
-17427.85174560333
 30
0.0
 10
20916.60030925819
 20
-17428.16642358862
 30
0.0
 10
20916.60030925819
 20
-17428.73280868434
 30
0.0
  0
POLYLINE
  5
3A75A7
330
18
100
AcDbEntity
  8
姿図
 62
     8
100
AcDb2dPolyline
 66
     1
 10
0.0
 20
0.0
 30
0.0
  0
VERTEX
  5
3A75A8
330
3A75A7
100
AcDbEntity
  8
姿図
 62
     8
100
AcDbVertex
100
AcDb2dVertex
 10
20933.12451946054
 20
-17427.93041509965
 30
0.0
  0
VERTEX
  5
3A75A9
330
3A75A7
100
AcDbEntity
  8
姿図
 62
     8
100
AcDbVertex
100
AcDb2dVertex
 10
20922.07568856334
 20
-17427.93041509965
 30
0.0
  0
SEQEND
  5
3A75AA
330
3A75A7
100
AcDbEntity
  8
姿図
 62
     8
  0
POLYLINE
  5
3A75AB
330
18
100
AcDbEntity
  8
姿図
 62
     8
100
AcDb2dPolyline
 66
     1
 10
0.0
 20
0.0
 30
0.0
  0
VERTEX
  5
3A75AC
330
3A75AB
100
AcDbEntity
  8
姿図
 62
     8
100
AcDbVertex
100
AcDb2dVertex
 10
20936.15541173703
 20
-17427.85174560333
 30
0.0
  0
VERTEX
  5
3A75AD
330
3A75AB
100
AcDbEntity
  8
姿図
 62
     8
100
AcDbVertex
100
AcDb2dVertex
 10
20935.0672679639
 20
-17427.90263383133
 30
0.0
  0
SEQEND
  5
3A75AE
330
3A75AB
100
AcDbEntity
  8
姿図
 62
     8
  0
POLYLINE
  5
3A75AF
330
18
100
AcDbEntity
  8
姿図
 62
     8
100
AcDb2dPolyline
 66
     1
 10
0.0
 20
0.0
 30
0.0
  0
VERTEX
  5
3A75B0
330
3A75AF
100
AcDbEntity
  8
姿図
 62
     8
100
AcDbVertex
100
AcDb2dVertex
 10
20936.15541173703
 20
-17427.53403184248
 30
0.0
  0
VERTEX
  5
3A75B1
330
3A75AF
100
AcDbEntity
  8
姿図
 62
     8
100
AcDbVertex
100
AcDb2dVertex
 10
20936.15541173703
 20
-17427.53403184248
 30
0.0
  0
SEQEND
  5
3A75B2
330
3A75AF
100
AcDbEntity
  8
姿図
 62
     8
  0
POLYLINE
  5
3A75B3
330
18
100
AcDbEntity
  8
姿図
 62
     8
100
AcDb2dPolyline
 66
     1
 10
0.0
 20
0.0
 30
0.0
  0
VERTEX
  5
3A75B4
330
3A75B3
100
AcDbEntity
  8
姿図
 62
     8
100
AcDbVertex
100
AcDb2dVertex
 10
20918.78709195025
 20
-17427.53403184248
 30
0.0
  0
VERTEX
  5
3A75B5
330
3A75B3
100
AcDbEntity
  8
姿図
 62
     8
100
AcDbVertex
100
AcDb2dVertex
 10
20918.78709195025
 20
-17427.53403184248
 30
0.0
  0
SEQEND
  5
3A75B6
330
3A75B3
100
AcDbEntity
  8
姿図
 62
     8
  0
SPLINE
  5
3A75B7
330
18
100
AcDbEntity
  8
姿図
 62
     8
100
AcDbSpline
210
0.0
220
0.0
230
1.0
 70
     8
 71
     3
 72
    17
 73
    13
 74
     0
 42
0.000000001
 43
0.0000000001
 40
0.0
 40
0.0
 40
0.0
 40
0.0
 40
1.0
 40
1.0
 40
1.0
 40
2.0
 40
2.0
 40
2.0
 40
3.0
 40
3.0
 40
3.0
 40
4.0
 40
4.0
 40
4.0
 40
4.0
 10
20938.97163859417
 20
-17427.37669284984
 30
0.0
 10
20938.97163859417
 20
-17427.37669284984
 30
0.0
 10
20939.60072998124
 20
-17427.4869359781
 30
0.0
 10
20939.58503135978
 20
-17428.4150949235
 30
0.0
 10
20939.58503135978
 20
-17428.4150949235
 30
0.0
 10
20938.98733721563
 20
-17463.68672234984
 30
0.0
 10
20938.98733721563
 20
-17463.68672234984
 30
0.0
 10
20938.98733721563
 20
-17463.68672234984
 30
0.0
 10
20938.79842459106
 20
-17465.82632098301
 30
0.0
 10
20939.45917780457
 20
-17466.10942533637
 30
0.0
 10
20939.45917780457
 20
-17466.10942533637
 30
0.0
 10
20940.56945839784
 20
-17466.10942533637
 30
0.0
 10
20940.56945839784
 20
-17466.10942533637
 30
0.0
  0
POLYLINE
  5
3A75B8
330
18
100
AcDbEntity
  8
姿図
 62
     8
100
AcDb2dPolyline
 66
     1
 10
0.0
 20
0.0
 30
0.0
  0
VERTEX
  5
3A75B9
330
3A75B8
100
AcDbEntity
  8
姿図
 62
     8
100
AcDbVertex
100
AcDb2dVertex
 10
20939.63556680977
 20
-17463.81266409956
 30
0.0
  0
VERTEX
  5
3A75BA
330
3A75B8
100
AcDbEntity
  8
姿図
 62
     8
100
AcDbVertex
100
AcDb2dVertex
 10
20940.34024088558
 20
-17428.4150949235
 30
0.0
  0
SEQEND
  5
3A75BB
330
3A75B8
100
AcDbEntity
  8
姿図
 62
     8
  0
SPLINE
  5
3A75BC
330
18
100
AcDbEntity
  8
姿図
 62
     8
100
AcDbSpline
210
0.0
220
0.0
230
1.0
 70
     8
 71
     3
 72
    14
 73
    10
 74
     0
 42
0.000000001
 43
0.0000000001
 40
0.0
 40
0.0
 40
0.0
 40
0.0
 40
1.0
 40
1.0
 40
1.0
 40
2.0
 40
2.0
 40
2.0
 40
3.0
 40
3.0
 40
3.0
 40
3.0
 10
20938.90857952481
 20
-17426.71038338267
 30
0.0
 10
20938.90857952481
 20
-17426.71038338267
 30
0.0
 10
20941.91336622852
 20
-17427.043494019
 30
0.0
 10
20941.91336622852
 20
-17427.043494019
 30
0.0
 10
20941.91336622852
 20
-17427.043494019
 30
0.0
 10
20942.92019467025
 20
-17427.37669284984
 30
0.0
 10
20942.95176830218
 20
-17428.4150949235
 30
0.0
 10
20942.95176830218
 20
-17428.4150949235
 30
0.0
 10
20941.43552841341
 20
-17463.15984839129
 30
0.0
 10
20941.43552841341
 20
-17463.15984839129
 30
0.0
  0
POLYLINE
  5
3A75BD
330
18
100
AcDbEntity
  8
姿図
 62
     8
100
AcDb2dPolyline
 66
     1
 10
0.0
 20
0.0
 30
0.0
  0
VERTEX
  5
3A75BE
330
3A75BD
100
AcDbEntity
  8
姿図
 62
     8
100
AcDbVertex
100
AcDb2dVertex
 10
20936.15541173703
 20
-17427.85174560333
 30
0.0
  0
VERTEX
  5
3A75BF
330
3A75BD
100
AcDbEntity
  8
姿図
 62
     8
100
AcDbVertex
100
AcDb2dVertex
 10
20939.26850128993
 20
-17427.85174560333
 30
0.0
  0
SEQEND
  5
3A75C0
330
3A75BD
100
AcDbEntity
  8
姿図
 62
     8
  0
SPLINE
  5
3A75C1
330
18
100
AcDbEntity
  8
姿図
 62
     8
100
AcDbSpline
210
0.0
220
0.0
230
1.0
 70
     8
 71
     3
 72
    11
 73
     7
 74
     0
 42
0.000000001
 43
0.0000000001
 40
0.0
 40
0.0
 40
0.0
 40
0.0
 40
1.0
 40
1.0
 40
1.0
 40
2.0
 40
2.0
 40
2.0
 40
2.0
 10
20920.65928485152
 20
-17424.50560901207
 30
0.0
 10
20920.65928485152
 20
-17424.40568464063
 30
0.0
 10
20920.85648775935
 20
-17424.32472208723
 30
0.0
 10
20921.09972819753
 20
-17424.32472208723
 30
0.0
 10
20921.34305683021
 20
-17424.32472208723
 30
0.0
 10
20921.54025973803
 20
-17424.40568464063
 30
0.0
 10
20921.54025973803
 20
-17424.50560901207
 30
0.0
  0
POLYLINE
  5
3A75C2
330
18
100
AcDbEntity
  8
姿図
 62
     8
100
AcDb2dPolyline
 66
     1
 10
0.0
 20
0.0
 30
0.0
  0
VERTEX
  5
3A75C3
330
3A75C2
100
AcDbEntity
  8
姿図
 62
     8
100
AcDbVertex
100
AcDb2dVertex
 10
20920.65928485152
 20
-17424.50560901207
 30
0.0
  0
VERTEX
  5
3A75C4
330
3A75C2
100
AcDbEntity
  8
姿図
 62
     8
100
AcDbVertex
100
AcDb2dVertex
 10
20920.65928485152
 20
-17424.7808640547
 30
0.0
  0
SEQEND
  5
3A75C5
330
3A75C2
100
AcDbEntity
  8
姿図
 62
     8
  0
POLYLINE
  5
3A75C6
330
18
100
AcDbEntity
  8
姿図
 62
     8
100
AcDb2dPolyline
 66
     1
 10
0.0
 20
0.0
 30
0.0
  0
VERTEX
  5
3A75C7
330
3A75C6
100
AcDbEntity
  8
姿図
 62
     8
100
AcDbVertex
100
AcDb2dVertex
 10
20921.54025973803
 20
-17424.50560901207
 30
0.0
  0
VERTEX
  5
3A75C8
330
3A75C6
100
AcDbEntity
  8
姿図
 62
     8
100
AcDbVertex
100
AcDb2dVertex
 10
20921.54025973803
 20
-17424.7808640547
 30
0.0
  0
SEQEND
  5
3A75C9
330
3A75C6
100
AcDbEntity
  8
姿図
 62
     8
  0
SPLINE
  5
3A75CA
330
18
100
AcDbEntity
  8
姿図
 62
     8
100
AcDbSpline
210
0.0
220
0.0
230
1.0
 70
    11
 71
     3
 72
    17
 73
    13
 74
     0
 42
0.000000001
 43
0.0000000001
 40
0.0
 40
0.0
 40
0.0
 40
0.0
 40
1.0
 40
1.0
 40
1.0
 40
2.0
 40
2.0
 40
2.0
 40
3.0
 40
3.0
 40
3.0
 40
4.0
 40
4.0
 40
4.0
 40
4.0
 10
20922.00433921073
 20
-17428.05711343743
 30
0.0
 10
20922.00433921073
 20
-17428.15492114082
 30
0.0
 10
20921.59935005478
 20
-17428.23411980415
 30
0.0
 10
20921.09981639203
 20
-17428.23411980415
 30
0.0
 10
20920.60010634028
 20
-17428.23411980415
 30
0.0
 10
20920.19520537882
 20
-17428.15492114082
 30
0.0
 10
20920.19520537882
 20
-17428.05711343743
 30
0.0
 10
20920.19520537882
 20
-17427.95939392854
 30
0.0
 10
20920.60010634028
 20
-17427.8801070707
 30
0.0
 10
20921.09981639203
 20
-17427.8801070707
 30
0.0
 10
20921.59935005478
 20
-17427.8801070707
 30
0.0
 10
20922.00433921073
 20
-17427.95939392854
 30
0.0
 10
20922.00433921073
 20
-17428.05711343743
 30
0.0
  0
SPLINE
  5
3A75CB
330
18
100
AcDbEntity
  8
姿図
 62
     8
100
AcDbSpline
210
0.0
220
0.0
230
1.0
 70
     8
 71
     3
 72
    11
 73
     7
 74
     0
 42
0.000000001
 43
0.0000000001
 40
0.0
 40
0.0
 40
0.0
 40
0.0
 40
1.0
 40
1.0
 40
1.0
 40
2.0
 40
2.0
 40
2.0
 40
2.0
 10
20920.15851646574
 20
-17427.52203739013
 30
0.0
 10
20920.15851646574
 20
-17427.42026093413
 30
0.0
 10
20920.57990979918
 20
-17427.33788726869
 30
0.0
 10
20921.09981639203
 20
-17427.33788726869
 30
0.0
 10
20921.61963479038
 20
-17427.33788726869
 30
0.0
 10
20922.04093992931
 20
-17427.42026093413
 30
0.0
 10
20922.04093992931
 20
-17427.52203739013
 30
0.0
  0
SPLINE
  5
3A75CC
330
18
100
AcDbEntity
  8
姿図
 62
     8
100
AcDbSpline
210
0.0
220
0.0
230
1.0
 70
     8
 71
     3
 72
     8
 73
     4
 74
     0
 42
0.000000001
 43
0.0000000001
 40
0.0
 40
0.0
 40
0.0
 40
0.0
 40
1.0
 40
1.0
 40
1.0
 40
1.0
 10
20920.19520537882
 20
-17428.05711343743
 30
0.0
 10
20920.19520537882
 20
-17428.05711343743
 30
0.0
 10
20919.94094062781
 20
-17427.7616618537
 30
0.0
 10
20920.15851646574
 20
-17427.52203739013
 30
0.0
  0
SPLINE
  5
3A75CD
330
18
100
AcDbEntity
  8
姿図
 62
     8
100
AcDbSpline
210
0.0
220
0.0
230
1.0
 70
     8
 71
     3
 72
     8
 73
     4
 74
     0
 42
0.000000001
 43
0.0000000001
 40
0.0
 40
0.0
 40
0.0
 40
0.0
 40
1.0
 40
1.0
 40
1.0
 40
1.0
 10
20921.97858641597
 20
-17428.05711343743
 30
0.0
 10
20921.97858641597
 20
-17428.05711343743
 30
0.0
 10
20922.23285116698
 20
-17427.7616618537
 30
0.0
 10
20922.01527532906
 20
-17427.52203739013
 30
0.0
  0
SPLINE
  5
3A75CE
330
18
100
AcDbEntity
  8
姿図
 62
     8
100
AcDbSpline
210
0.0
220
0.0
230
1.0
 70
     8
 71
     3
 72
    11
 73
     7
 74
     0
 42
0.000000001
 43
0.0000000001
 40
0.0
 40
0.0
 40
0.0
 40
0.0
 40
1.0
 40
1.0
 40
1.0
 40
2.0
 40
2.0
 40
2.0
 40
2.0
 10
20933.6854364971
 20
-17424.50560901207
 30
0.0
 10
20933.6854364971
 20
-17424.40568464063
 30
0.0
 10
20933.88272759943
 20
-17424.32472208723
 30
0.0
 10
20934.12596803761
 20
-17424.32472208723
 30
0.0
 10
20934.36929667029
 20
-17424.32472208723
 30
0.0
 10
20934.56649957811
 20
-17424.40568464063
 30
0.0
 10
20934.56649957811
 20
-17424.50560901207
 30
0.0
  0
POLYLINE
  5
3A75CF
330
18
100
AcDbEntity
  8
姿図
 62
     8
100
AcDb2dPolyline
 66
     1
 10
0.0
 20
0.0
 30
0.0
  0
VERTEX
  5
3A75D0
330
3A75CF
100
AcDbEntity
  8
姿図
 62
     8
100
AcDbVertex
100
AcDb2dVertex
 10
20933.6854364971
 20
-17424.50560901207
 30
0.0
  0
VERTEX
  5
3A75D1
330
3A75CF
100
AcDbEntity
  8
姿図
 62
     8
100
AcDbVertex
100
AcDb2dVertex
 10
20933.6854364971
 20
-17424.7808640547
 30
0.0
  0
SEQEND
  5
3A75D2
330
3A75CF
100
AcDbEntity
  8
姿図
 62
     8
  0
POLYLINE
  5
3A75D3
330
18
100
AcDbEntity
  8
姿図
 62
     8
100
AcDb2dPolyline
 66
     1
 10
0.0
 20
0.0
 30
0.0
  0
VERTEX
  5
3A75D4
330
3A75D3
100
AcDbEntity
  8
姿図
 62
     8
100
AcDbVertex
100
AcDb2dVertex
 10
20934.56649957811
 20
-17424.50560901207
 30
0.0
  0
VERTEX
  5
3A75D5
330
3A75D3
100
AcDbEntity
  8
姿図
 62
     8
100
AcDbVertex
100
AcDb2dVertex
 10
20934.56649957811
 20
-17424.85327174134
 30
0.0
  0
SEQEND
  5
3A75D6
330
3A75D3
100
AcDbEntity
  8
姿図
 62
     8
  0
SPLINE
  5
3A75D7
330
18
100
AcDbEntity
  8
姿図
 62
     8
100
AcDbSpline
210
0.0
220
0.0
230
1.0
 70
    11
 71
     3
 72
    17
 73
    13
 74
     0
 42
0.000000001
 43
0.0000000001
 40
0.0
 40
0.0
 40
0.0
 40
0.0
 40
1.0
 40
1.0
 40
1.0
 40
2.0
 40
2.0
 40
2.0
 40
3.0
 40
3.0
 40
3.0
 40
4.0
 40
4.0
 40
4.0
 40
4.0
 10
20935.03057905081
 20
-17428.05711343743
 30
0.0
 10
20935.03057905081
 20
-17428.15492114082
 30
0.0
 10
20934.62558989486
 20
-17428.23411980415
 30
0.0
 10
20934.12614442661
 20
-17428.23411980415
 30
0.0
 10
20933.62643437486
 20
-17428.23411980415
 30
0.0
 10
20933.2214452189
 20
-17428.15492114082
 30
0.0
 10
20933.2214452189
 20
-17428.05711343743
 30
0.0
 10
20933.2214452189
 20
-17427.95939392854
 30
0.0
 10
20933.62643437486
 20
-17427.8801070707
 30
0.0
 10
20934.12614442661
 20
-17427.8801070707
 30
0.0
 10
20934.62558989486
 20
-17427.8801070707
 30
0.0
 10
20935.03057905081
 20
-17427.95939392854
 30
0.0
 10
20935.03057905081
 20
-17428.05711343743
 30
0.0
  0
SPLINE
  5
3A75D8
330
18
100
AcDbEntity
  8
姿図
 62
     8
100
AcDbSpline
210
0.0
220
0.0
230
1.0
 70
     8
 71
     3
 72
    11
 73
     7
 74
     0
 42
0.000000001
 43
0.0000000001
 40
0.0
 40
0.0
 40
0.0
 40
0.0
 40
1.0
 40
1.0
 40
1.0
 40
2.0
 40
2.0
 40
2.0
 40
2.0
 10
20933.18475630582
 20
-17427.52203739013
 30
0.0
 10
20933.18475630582
 20
-17427.42026093413
 30
0.0
 10
20933.60614963926
 20
-17427.33788726869
 30
0.0
 10
20934.12614442661
 20
-17427.33788726869
 30
0.0
 10
20934.64596282496
 20
-17427.33788726869
 30
0.0
 10
20935.0672679639
 20
-17427.42026093413
 30
0.0
 10
20935.0672679639
 20
-17427.52203739013
 30
0.0
  0
SPLINE
  5
3A75D9
330
18
100
AcDbEntity
  8
姿図
 62
     8
100
AcDbSpline
210
0.0
220
0.0
230
1.0
 70
     8
 71
     3
 72
     8
 73
     4
 74
     0
 42
0.000000001
 43
0.0000000001
 40
0.0
 40
0.0
 40
0.0
 40
0.0
 40
1.0
 40
1.0
 40
1.0
 40
1.0
 10
20933.2214452189
 20
-17428.05711343743
 30
0.0
 10
20933.2214452189
 20
-17428.05711343743
 30
0.0
 10
20932.96718046789
 20
-17427.7616618537
 30
0.0
 10
20933.18475630582
 20
-17427.52203739013
 30
0.0
  0
SPLINE
  5
3A75DA
330
18
100
AcDbEntity
  8
姿図
 62
     8
100
AcDbSpline
210
0.0
220
0.0
230
1.0
 70
     8
 71
     3
 72
     8
 73
     4
 74
     0
 42
0.000000001
 43
0.0000000001
 40
0.0
 40
0.0
 40
0.0
 40
0.0
 40
1.0
 40
1.0
 40
1.0
 40
1.0
 10
20935.00482625606
 20
-17428.05711343743
 30
0.0
 10
20935.00482625606
 20
-17428.05711343743
 30
0.0
 10
20935.25909100706
 20
-17427.7616618537
 30
0.0
 10
20935.04151516914
 20
-17427.52203739013
 30
0.0
  0
POLYLINE
  5
3A75DB
330
18
100
AcDbEntity
  8
姿図
 62
     8
100
AcDb2dPolyline
 66
     1
 10
0.0
 20
0.0
 30
0.0
  0
VERTEX
  5
3A75DC
330
3A75DB
100
AcDbEntity
  8
姿図
 62
     8
100
AcDbVertex
100
AcDb2dVertex
 10
20916.60030925819
 20
-17428.4150949235
 30
0.0
  0
VERTEX
  5
3A75DD
330
3A75DB
100
AcDbEntity
  8
姿図
 62
     8
100
AcDbVertex
100
AcDb2dVertex
 10
20915.99169245139
 20
-17453.60257587121
 30
0.0
  0
SEQEND
  5
3A75DE
330
3A75DB
100
AcDbEntity
  8
姿図
 62
     8
  0
POLYLINE
  5
3A75DF
330
18
100
AcDbEntity
  8
姿図
 62
     8
100
AcDb2dPolyline
 66
     1
 10
0.0
 20
0.0
 30
0.0
  0
VERTEX
  5
3A75E0
330
3A75DF
100
AcDbEntity
  8
姿図
 62
     8
100
AcDbVertex
100
AcDb2dVertex
 10
20913.35951406551
 20
-17428.4150949235
 30
0.0
  0
VERTEX
  5
3A75E1
330
3A75DF
100
AcDbEntity
  8
姿図
 62
     8
100
AcDbVertex
100
AcDb2dVertex
 10
20913.65840523483
 20
-17455.81324632439
 30
0.0
  0
SEQEND
  5
3A75E2
330
3A75DF
100
AcDbEntity
  8
姿図
 62
     8
  0
POLYLINE
  5
3A75E3
330
18
100
AcDbEntity
  8
姿図
 62
     8
100
AcDb2dPolyline
 66
     1
 10
0.0
 20
0.0
 30
0.0
  0
VERTEX
  5
3A75E4
330
3A75E3
100
AcDbEntity
  8
姿図
 62
     8
100
AcDbVertex
100
AcDb2dVertex
 10
20912.84031302868
 20
-17428.4150949235
 30
0.0
  0
VERTEX
  5
3A75E5
330
3A75E3
100
AcDbEntity
  8
姿図
 62
     8
100
AcDbVertex
100
AcDb2dVertex
 10
20913.15394042247
 20
-17456.33268090423
 30
0.0
  0
SEQEND
  5
3A75E6
330
3A75E3
100
AcDbEntity
  8
姿図
 62
     8
  0
SPLINE
  5
3A75E7
330
18
100
AcDbEntity
  8
姿図
100
AcDbSpline
210
0.0
220
0.0
230
1.0
 70
     8
 71
     3
 72
     8
 73
     4
 74
     0
 42
0.000000001
 43
0.0000000001
 40
0.0
 40
0.0
 40
0.0
 40
0.0
 40
1.0
 40
1.0
 40
1.0
 40
1.0
 10
20941.35121446892
 20
-17465.22730392133
 30
0.0
 10
20941.18435047
 20
-17465.75858760501
 30
0.0
 10
20940.8966600025
 20
-17466.10942533637
 30
0.0
 10
20940.56945839784
 20
-17466.10942533637
 30
0.0
  0
SPLINE
  5
3A75E8
330
18
100
AcDbEntity
  8
姿図
100
AcDbSpline
210
0.0
220
0.0
230
1.0
 70
     8
 71
     3
 72
    14
 73
    10
 74
     0
 42
0.000000001
 43
0.0000000001
 40
0.0
 40
0.0
 40
0.0
 40
0.0
 40
1.0
 40
1.0
 40
1.0
 40
2.0
 40
2.0
 40
2.0
 40
3.0
 40
3.0
 40
3.0
 40
3.0
 10
20940.56945839784
 20
-17466.10942533637
 30
0.0
 10
20940.05369694662
 20
-17466.10942533637
 30
0.0
 10
20939.63556680977
 20
-17465.23612337159
 30
0.0
 10
20939.63556680977
 20
-17464.15873932778
 30
0.0
 10
20939.63556680977
 20
-17463.08135528397
 30
0.0
 10
20940.05369694662
 20
-17462.20787693018
 30
0.0
 10
20940.56945839784
 20
-17462.20787693018
 30
0.0
 10
20940.89198569387
 20
-17462.20787693018
 30
0.0
 10
20941.17623657576
 20
-17462.54901326625
 30
0.0
 10
20941.34415890872
 20
-17463.06794971957
 30
0.0
  0
SPLINE
  5
3A75E9
330
18
100
AcDbEntity
  8
姿図
100
AcDbSpline
210
0.0
220
0.0
230
1.0
 70
     8
 71
     3
 72
    14
 73
    10
 74
     0
 42
0.000000001
 43
0.0000000001
 40
0.0
 40
0.0
 40
0.0
 40
0.0
 40
1.0
 40
1.0
 40
1.0
 40
2.0
 40
2.0
 40
2.0
 40
3.0
 40
3.0
 40
3.0
 40
3.0
 10
20940.6863161138
 20
-17465.3010345255
 30
0.0
 10
20940.38424994238
 20
-17465.3010345255
 30
0.0
 10
20940.13933380864
 20
-17464.7895064104
 30
0.0
 10
20940.13933380864
 20
-17464.15873932778
 30
0.0
 10
20940.13933380864
 20
-17463.52779585615
 30
0.0
 10
20940.38424994238
 20
-17463.01626774105
 30
0.0
 10
20940.6863161138
 20
-17463.01626774105
 30
0.0
 10
20940.6863161138
 20
-17463.01626774105
 30
0.0
 10
20940.86782040015
 20
-17462.94200796986
 30
0.0
 10
20941.23329841894
 20
-17463.05472054418
 30
0.0
  0
SPLINE
  5
3A75EA
330
18
100
AcDbEntity
  8
姿図
100
AcDbSpline
210
0.0
220
0.0
230
1.0
 70
    11
 71
     3
 72
    17
 73
    13
 74
     0
 42
0.000000001
 43
0.0000000001
 40
0.0
 40
0.0
 40
0.0
 40
0.0
 40
1.0
 40
1.0
 40
1.0
 40
2.0
 40
2.0
 40
2.0
 40
3.0
 40
3.0
 40
3.0
 40
4.0
 40
4.0
 40
4.0
 40
4.0
 10
20941.23329841894
 20
-17465.26240533336
 30
0.0
 10
20940.96977324516
 20
-17465.26240533336
 30
0.0
 10
20940.75607796535
 20
-17464.76816334077
 30
0.0
 10
20940.75607796535
 20
-17464.15856293877
 30
0.0
 10
20940.75607796535
 20
-17463.54896253677
 30
0.0
 10
20940.96977324516
 20
-17463.05472054418
 30
0.0
 10
20941.23329841894
 20
-17463.05472054418
 30
0.0
 10
20941.49673539822
 20
-17463.05472054418
 30
0.0
 10
20941.71043067803
 20
-17463.54896253677
 30
0.0
 10
20941.71043067803
 20
-17464.15856293877
 30
0.0
 10
20941.71043067803
 20
-17464.76816334077
 30
0.0
 10
20941.49673539822
 20
-17465.26240533336
 30
0.0
 10
20941.23329841894
 20
-17465.26240533336
 30
0.0
  0
SPLINE
  5
3A75EB
330
18
100
AcDbEntity
  8
姿図
100
AcDbSpline
210
0.0
220
0.0
230
1.0
 70
     8
 71
     3
 72
     8
 73
     4
 74
     0
 42
0.000000001
 43
0.0000000001
 40
0.0
 40
0.0
 40
0.0
 40
0.0
 40
1.0
 40
1.0
 40
1.0
 40
1.0
 10
20940.6863161138
 20
-17465.3010345255
 30
0.0
 10
20940.6863161138
 20
-17465.3010345255
 30
0.0
 10
20940.86782040015
 20
-17465.37511790769
 30
0.0
 10
20941.23329841894
 20
-17465.26240533336
 30
0.0
  0
SPLINE
  5
3A75EC
330
18
100
AcDbEntity
  8
姿図
100
AcDbSpline
210
0.0
220
0.0
230
1.0
 70
     8
 71
     3
 72
    11
 73
     7
 74
     0
 42
0.000000001
 43
0.0000000001
 40
0.0
 40
0.0
 40
0.0
 40
0.0
 40
1.0
 40
1.0
 40
1.0
 40
2.0
 40
2.0
 40
2.0
 40
2.0
 10
20911.10632091299
 20
-17459.81321979548
 30
0.0
 10
20911.32469050143
 20
-17458.87509487129
 30
0.0
 10
20911.73232549247
 20
-17458.02243042011
 30
0.0
 10
20912.34157311646
 20
-17457.2936792451
 30
0.0
 10
20913.47143288931
 20
-17455.9421866872
 30
0.0
 10
20915.14377704768
 20
-17455.19791327972
 30
0.0
 10
20917.02505398273
 20
-17454.98704022399
 30
0.0
  0
SPLINE
  5
3A75ED
330
18
100
AcDbEntity
  8
姿図
100
AcDbSpline
210
0.0
220
0.0
230
1.0
 70
     8
 71
     3
 72
    11
 73
     7
 74
     0
 42
0.000000001
 43
0.0000000001
 40
0.0
 40
0.0
 40
0.0
 40
0.0
 40
1.0
 40
1.0
 40
1.0
 40
2.0
 40
2.0
 40
2.0
 40
2.0
 10
20935.77626357033
 20
-17470.500276843
 30
0.0
 10
20935.99066440616
 20
-17472.51816706258
 30
0.0
 10
20935.56142176199
 20
-17474.35208354972
 30
0.0
 10
20934.40281058128
 20
-17475.73814835264
 30
0.0
 10
20933.80564560415
 20
-17476.45234743473
 30
0.0
 10
20933.05696247155
 20
-17476.99703668281
 30
0.0
 10
20932.19459662509
 20
-17477.37733137804
 30
0.0
  0
SPLINE
  5
3A75EE
330
18
100
AcDbEntity
  8
姿図
100
AcDbSpline
210
0.0
220
0.0
230
1.0
 70
     8
 71
     3
 72
    11
 73
     7
 74
     0
 42
0.000000001
 43
0.0000000001
 40
0.0
 40
0.0
 40
0.0
 40
0.0
 40
1.0
 40
1.0
 40
1.0
 40
2.0
 40
2.0
 40
2.0
 40
2.0
 10
20920.90614126431
 20
-17455.33223350719
 30
0.0
 10
20923.58540205891
 20
-17455.97790546075
 30
0.0
 10
20926.47994563437
 20
-17457.36185359561
 30
0.0
 10
20929.15541406536
 20
-17459.59864257065
 30
0.0
 10
20931.68333309349
 20
-17461.71222382555
 30
0.0
 10
20933.5668148911
 20
-17464.19278240578
 30
0.0
 10
20934.67727187338
 20
-17466.64494235618
 30
0.0
  0
SPLINE
  5
3A75EF
330
18
100
AcDbEntity
  8
姿図
100
AcDbSpline
210
0.0
220
0.0
230
1.0
 70
     8
 71
     3
 72
     8
 73
     4
 74
     0
 42
0.000000001
 43
0.0000000001
 40
0.0
 40
0.0
 40
0.0
 40
0.0
 40
1.0
 40
1.0
 40
1.0
 40
1.0
 10
20942.64582157265
 20
-17460.21767978443
 30
0.0
 10
20942.71937578782
 20
-17461.7512057957
 30
0.0
 10
20942.4141346143
 20
-17463.19565535934
 30
0.0
 10
20941.69623136311
 20
-17464.42402839161
 30
0.0
  0
SPLINE
  5
3A75F0
330
18
100
AcDbEntity
  8
姿図
100
AcDbSpline
210
0.0
220
0.0
230
1.0
 70
     8
 71
     3
 72
    11
 73
     7
 74
     0
 42
0.000000001
 43
0.0000000001
 40
0.0
 40
0.0
 40
0.0
 40
0.0
 40
1.0
 40
1.0
 40
1.0
 40
2.0
 40
2.0
 40
2.0
 40
2.0
 10
20929.98347225031
 20
-17446.65636389704
 30
0.0
 10
20932.36154881852
 20
-17447.15025311162
 30
0.0
 10
20934.84492962284
 20
-17448.33999695175
 30
0.0
 10
20937.06478525337
 20
-17450.19569748104
 30
0.0
 10
20937.84698229696
 20
-17450.84974791235
 30
0.0
 10
20938.55368484633
 20
-17451.55062962454
 30
0.0
 10
20939.18048317634
 20
-17452.28273219066
 30
0.0
  0
SPLINE
  5
3A75F1
330
18
100
AcDbEntity
  8
姿図
100
AcDbSpline
210
0.0
220
0.0
230
1.0
 70
     8
 71
     3
 72
     8
 73
     4
 74
     0
 42
0.000000001
 43
0.0000000001
 40
0.0
 40
0.0
 40
0.0
 40
0.0
 40
1.0
 40
1.0
 40
1.0
 40
1.0
 10
20922.21582962798
 20
-17448.17992392953
 30
0.0
 10
20923.25467267415
 20
-17447.28333861605
 30
0.0
 10
20924.56003950719
 20
-17446.72868338918
 30
0.0
 10
20926.01445504963
 20
-17446.50652143712
 30
0.0
  0
SPLINE
  5
3A75F2
330
18
100
AcDbEntity
  8
姿図
100
AcDbSpline
210
0.0
220
0.0
230
1.0
 70
     8
 71
     3
 72
     8
 73
     4
 74
     0
 42
0.000000001
 43
0.0000000001
 40
0.0
 40
0.0
 40
0.0
 40
0.0
 40
1.0
 40
1.0
 40
1.0
 40
1.0
 10
20922.216711573
 20
-17448.18036490204
 30
0.0
 10
20922.216711573
 20
-17448.18036490204
 30
0.0
 10
20913.66784204661
 20
-17455.33726059384
 30
0.0
 10
20912.34157311646
 20
-17457.2936792451
 30
0.0
  0
SPLINE
  5
3A75F3
330
18
100
AcDbEntity
  8
姿図
100
AcDbSpline
210
0.0
220
0.0
230
1.0
 70
     8
 71
     3
 72
     8
 73
     4
 74
     0
 42
0.000000001
 43
0.0000000001
 40
0.0
 40
0.0
 40
0.0
 40
0.0
 40
1.0
 40
1.0
 40
1.0
 40
1.0
 10
20940.761105052
 20
-17466.06797392015
 30
0.0
 10
20939.55151744879
 20
-17468.11620304862
 30
0.0
 10
20936.3035785014
 20
-17473.51688161006
 30
0.0
 10
20934.40281058128
 20
-17475.73814835264
 30
0.0
  0
SPLINE
  5
3A75F4
330
18
100
AcDbEntity
  8
姿図
100
AcDbSpline
210
0.0
220
0.0
230
1.0
 70
     8
 71
     3
 72
    11
 73
     7
 74
     0
 42
0.000000001
 43
0.0000000001
 40
0.0
 40
0.0
 40
0.0
 40
0.0
 40
1.0
 40
1.0
 40
1.0
 40
2.0
 40
2.0
 40
2.0
 40
2.0
 10
20911.78594775005
 20
-17459.75465864575
 30
0.0
 10
20912.00907984164
 20
-17459.11013322072
 30
0.0
 10
20912.33733978033
 20
-17458.51764255223
 30
0.0
 10
20912.77610743079
 20
-17457.99288526174
 30
0.0
 10
20913.74139626178
 20
-17456.83815463915
 30
0.0
 10
20915.12446245161
 20
-17456.15147224188
 30
0.0
 10
20916.74794685555
 20
-17455.9084081927
 30
0.0
  0
SPLINE
  5
3A75F5
330
18
100
AcDbEntity
  8
姿図
100
AcDbSpline
210
0.0
220
0.0
230
1.0
 70
     8
 71
     3
 72
    11
 73
     7
 74
     0
 42
0.000000001
 43
0.0000000001
 40
0.0
 40
0.0
 40
0.0
 40
0.0
 40
1.0
 40
1.0
 40
1.0
 40
2.0
 40
2.0
 40
2.0
 40
2.0
 10
20935.01823182045
 20
-17471.1673800607
 30
0.0
 10
20935.06991379898
 20
-17472.81485336933
 30
0.0
 10
20934.63952462627
 20
-17474.3039293513
 30
0.0
 10
20933.67097259867
 20
-17475.4622759485
 30
0.0
 10
20933.23740842388
 20
-17475.98085962381
 30
0.0
 10
20932.71961849909
 20
-17476.40507518133
 30
0.0
 10
20932.13356602929
 20
-17476.73703928914
 30
0.0
  0
SPLINE
  5
3A75F6
330
18
100
AcDbEntity
  8
姿図
100
AcDbSpline
210
0.0
220
0.0
230
1.0
 70
     8
 71
     3
 72
     8
 73
     4
 74
     0
 42
0.000000001
 43
0.0000000001
 40
0.0
 40
0.0
 40
0.0
 40
0.0
 40
1.0
 40
1.0
 40
1.0
 40
1.0
 10
20933.28432789926
 20
-17466.14964202956
 30
0.0
 10
20933.37428629192
 20
-17466.31456574943
 30
0.0
 10
20933.46018773745
 20
-17466.47984224731
 30
0.0
 10
20933.54203223587
 20
-17466.64476596717
 30
0.0
  0
SPLINE
  5
3A75F7
330
18
100
AcDbEntity
  8
姿図
100
AcDbSpline
210
0.0
220
0.0
230
1.0
 70
     8
 71
     3
 72
    17
 73
    13
 74
     0
 42
0.000000001
 43
0.0000000001
 40
0.0
 40
0.0
 40
0.0
 40
0.0
 40
1.0
 40
1.0
 40
1.0
 40
2.0
 40
2.0
 40
2.0
 40
3.0
 40
3.0
 40
3.0
 40
4.0
 40
4.0
 40
4.0
 40
4.0
 10
20920.66340379062
 20
-17456.33589592016
 30
0.0
 10
20921.05510177921
 20
-17456.42064186382
 30
0.0
 10
20921.53285139981
 20
-17456.54931764312
 30
0.0
 10
20922.01448157853
 20
-17456.70427538419
 30
0.0
 10
20922.01448157853
 20
-17456.70427538419
 30
0.0
 10
20922.16220737039
 20
-17456.48564121224
 30
0.0
 10
20922.16220737039
 20
-17456.48564121224
 30
0.0
 10
20924.34731436691
 20
-17457.18837500899
 30
0.0
 10
20926.6131193333
 20
-17458.43032999465
 30
0.0
 10
20928.70103598794
 20
-17460.17587559019
 30
0.0
 10
20930.7385053871
 20
-17461.87908782447
 30
0.0
 10
20932.3337675502
 20
-17463.8343599472
 30
0.0
 10
20933.41220992804
 20
-17465.81044597254
 30
0.0
  0
SPLINE
  5
3A75F8
330
18
100
AcDbEntity
  8
姿図
100
AcDbSpline
210
0.0
220
0.0
230
1.0
 70
     8
 71
     3
 72
     8
 73
     4
 74
     0
 42
0.000000001
 43
0.0000000001
 40
0.0
 40
0.0
 40
0.0
 40
0.0
 40
1.0
 40
1.0
 40
1.0
 40
1.0
 10
20920.90614126431
 20
-17455.33223350719
 30
0.0
 10
20920.90614126431
 20
-17455.33223350719
 30
0.0
 10
20929.84024437808
 20
-17446.62593679365
 30
0.0
 10
20929.98347225031
 20
-17446.65662848055
 30
0.0
  0
SPLINE
  5
3A75F9
330
18
100
AcDbEntity
  8
姿図
100
AcDbSpline
210
0.0
220
0.0
230
1.0
 70
     8
 71
     3
 72
    14
 73
    10
 74
     0
 42
0.000000001
 43
0.0000000001
 40
0.0
 40
0.0
 40
0.0
 40
0.0
 40
1.0
 40
1.0
 40
1.0
 40
2.0
 40
2.0
 40
2.0
 40
3.0
 40
3.0
 40
3.0
 40
3.0
 10
20920.90614126431
 20
-17455.33223350719
 30
0.0
 10
20920.90614126431
 20
-17455.33223350719
 30
0.0
 10
20921.08799832868
 20
-17456.18181115077
 30
0.0
 10
20921.08799832868
 20
-17456.18181115077
 30
0.0
 10
20920.72525433947
 20
-17456.08700206047
 30
0.0
 10
20917.3593993421
 20
-17458.52540366846
 30
0.0
 10
20915.71360172901
 20
-17459.73666696722
 30
0.0
 10
20915.71360172901
 20
-17459.73666696722
 30
0.0
 10
20915.41920847932
 20
-17460.06254565435
 30
0.0
 10
20915.71360172901
 20
-17460.13345403444
 30
0.0
  0
POLYLINE
  5
3A75FA
330
18
100
AcDbEntity
  8
姿図
100
AcDb2dPolyline
 66
     1
 10
0.0
 20
0.0
 30
0.0
  0
VERTEX
  5
3A75FB
330
3A75FA
100
AcDbEntity
  8
姿図
100
AcDbVertex
100
AcDb2dVertex
 10
20917.02505398273
 20
-17454.98704022399
 30
0.0
  0
VERTEX
  5
3A75FC
330
3A75FA
100
AcDbEntity
  8
姿図
100
AcDbVertex
100
AcDb2dVertex
 10
20917.14570406229
 20
-17455.56330310401
 30
0.0
  0
SEQEND
  5
3A75FD
330
3A75FA
100
AcDbEntity
  8
姿図
  0
POLYLINE
  5
3A75FE
330
18
100
AcDbEntity
  8
姿図
100
AcDb2dPolyline
 66
     1
 10
0.0
 20
0.0
 30
0.0
  0
VERTEX
  5
3A75FF
330
3A75FE
100
AcDbEntity
  8
姿図
100
AcDbVertex
100
AcDb2dVertex
 10
20926.4540164506
 20
-17446.8785258491
 30
0.0
  0
VERTEX
  5
3A7600
330
3A75FE
100
AcDbEntity
  8
姿図
100
AcDbVertex
100
AcDb2dVertex
 10
20926.01445504963
 20
-17446.50696240963
 30
0.0
  0
VERTEX
  5
3A7601
330
3A75FE
100
AcDbEntity
  8
姿図
100
AcDbVertex
100
AcDb2dVertex
 10
20917.02505398273
 20
-17454.98704022399
 30
0.0
  0
SEQEND
  5
3A7602
330
3A75FE
100
AcDbEntity
  8
姿図
  0
SPLINE
  5
3A7603
330
18
100
AcDbEntity
  8
姿図
100
AcDbSpline
210
0.0
220
0.0
230
1.0
 70
     8
 71
     3
 72
    17
 73
    13
 74
     0
 42
0.000000001
 43
0.0000000001
 40
0.0
 40
0.0
 40
0.0
 40
0.0
 40
1.0
 40
1.0
 40
1.0
 40
2.0
 40
2.0
 40
2.0
 40
3.0
 40
3.0
 40
3.0
 40
4.0
 40
4.0
 40
4.0
 40
4.0
 10
20912.32569810599
 20
-17459.74425169445
 30
0.0
 10
20912.63764206169
 20
-17459.64935440964
 30
0.0
 10
20912.99959230038
 20
-17459.46643901124
 30
0.0
 10
20913.35951406551
 20
-17459.12433253564
 30
0.0
 10
20913.35951406551
 20
-17459.12433253564
 30
0.0
 10
20926.0238918614
 20
-17447.19487952994
 30
0.0
 10
20926.9992348657
 20
-17446.39469080782
 30
0.0
 10
20926.9992348657
 20
-17446.39469080782
 30
0.0
 10
20927.34531009392
 20
-17446.11387951153
 30
0.0
 10
20927.88029794671
 20
-17446.11387951153
 30
0.0
 10
20928.41519760501
 20
-17446.11387951153
 30
0.0
 10
20929.41303020746
 20
-17446.50757977115
 30
0.0
 10
20929.68493385899
 20
-17446.90066266926
 30
0.0
  0
POLYLINE
  5
3A7604
330
18
100
AcDbEntity
  8
姿図
100
AcDb2dPolyline
 66
     1
 10
0.0
 20
0.0
 30
0.0
  0
VERTEX
  5
3A7605
330
3A7604
100
AcDbEntity
  8
姿図
100
AcDbVertex
100
AcDb2dVertex
 10
20934.67665451187
 20
-17466.64476596717
 30
0.0
  0
VERTEX
  5
3A7606
330
3A7604
100
AcDbEntity
  8
姿図
100
AcDbVertex
100
AcDb2dVertex
 10
20939.02746571432
 20
-17460.21767978443
 30
0.0
  0
SEQEND
  5
3A7607
330
3A7604
100
AcDbEntity
  8
姿図
  0
POLYLINE
  5
3A7608
330
18
100
AcDbEntity
  8
姿図
100
AcDb2dPolyline
 66
     1
 10
0.0
 20
0.0
 30
0.0
  0
VERTEX
  5
3A7609
330
3A7608
100
AcDbEntity
  8
姿図
100
AcDbVertex
100
AcDb2dVertex
 10
20933.54194404137
 20
-17466.64476596717
 30
0.0
  0
VERTEX
  5
3A760A
330
3A7608
100
AcDbEntity
  8
姿図
100
AcDbVertex
100
AcDb2dVertex
 10
20934.67665451187
 20
-17466.64476596717
 30
0.0
  0
SEQEND
  5
3A760B
330
3A7608
100
AcDbEntity
  8
姿図
  0
POLYLINE
  5
3A760C
330
18
100
AcDbEntity
  8
姿図
100
AcDb2dPolyline
 66
     1
 10
0.0
 20
0.0
 30
0.0
  0
VERTEX
  5
3A760D
330
3A760C
100
AcDbEntity
  8
姿図
100
AcDbVertex
100
AcDb2dVertex
 10
20935.77608718133
 20
-17470.500276843
 30
0.0
  0
VERTEX
  5
3A760E
330
3A760C
100
AcDbEntity
  8
姿図
100
AcDbVertex
100
AcDb2dVertex
 10
20938.94456288187
 20
-17466.10942533637
 30
0.0
  0
SEQEND
  5
3A760F
330
3A760C
100
AcDbEntity
  8
姿図
  0
SPLINE
  5
3A7610
330
18
100
AcDbEntity
  8
姿図
100
AcDbSpline
210
0.0
220
0.0
230
1.0
 70
     8
 71
     3
 72
    14
 73
    10
 74
     0
 42
0.000000001
 43
0.0000000001
 40
0.0
 40
0.0
 40
0.0
 40
0.0
 40
1.0
 40
1.0
 40
1.0
 40
2.0
 40
2.0
 40
2.0
 40
3.0
 40
3.0
 40
3.0
 40
3.0
 10
20939.45917780457
 20
-17466.10942533637
 30
0.0
 10
20939.45917780457
 20
-17466.10942533637
 30
0.0
 10
20938.40507710944
 20
-17466.10942533637
 30
0.0
 10
20938.40507710944
 20
-17466.10942533637
 30
0.0
 10
20938.40507710944
 20
-17466.10942533637
 30
0.0
 10
20938.19270474717
 20
-17466.04574890549
 30
0.0
 10
20937.67359190484
 20
-17466.7777632771
 30
0.0
 10
20937.24717148476
 20
-17467.37889700685
 30
0.0
 10
20933.27074594586
 20
-17473.23307170068
 30
0.0
 10
20931.86351446231
 20
-17475.30581890088
 30
0.0
  0
POLYLINE
  5
3A7611
330
18
100
AcDbEntity
  8
姿図
100
AcDb2dPolyline
 66
     1
 10
0.0
 20
0.0
 30
0.0
  0
VERTEX
  5
3A7612
330
3A7611
100
AcDbEntity
  8
姿図
100
AcDbVertex
100
AcDb2dVertex
 10
20935.02228876757
 20
-17471.1673800607
 30
0.0
  0
VERTEX
  5
3A7613
330
3A7611
100
AcDbEntity
  8
姿図
100
AcDbVertex
100
AcDb2dVertex
 10
20934.79695181342
 20
-17470.98869799842
 30
0.0
  0
SEQEND
  5
3A7614
330
3A7611
100
AcDbEntity
  8
姿図
  0
POLYLINE
  5
3A7615
330
18
100
AcDbEntity
  8
姿図
100
AcDb2dPolyline
 66
     1
 10
0.0
 20
0.0
 30
0.0
  0
VERTEX
  5
3A7616
330
3A7615
100
AcDbEntity
  8
姿図
100
AcDbVertex
100
AcDb2dVertex
 10
20933.41194534453
 20
-17465.81044597254
 30
0.0
  0
VERTEX
  5
3A7617
330
3A7615
100
AcDbEntity
  8
姿図
100
AcDbVertex
100
AcDb2dVertex
 10
20933.28432789926
 20
-17466.21173095939
 30
0.0
  0
SEQEND
  5
3A7618
330
3A7615
100
AcDbEntity
  8
姿図
  0
POLYLINE
  5
3A7619
330
18
100
AcDbEntity
  8
姿図
100
AcDb2dPolyline
 66
     1
 10
0.0
 20
0.0
 30
0.0
  0
VERTEX
  5
3A761A
330
3A7619
100
AcDbEntity
  8
姿図
100
AcDbVertex
100
AcDb2dVertex
 10
20935.8293566609
 20
-17470.42636984982
 30
0.0
  0
VERTEX
  5
3A761B
330
3A7619
100
AcDbEntity
  8
姿図
100
AcDbVertex
100
AcDb2dVertex
 10
20935.33731953087
 20
-17470.19459469698
 30
0.0
  0
SEQEND
  5
3A761C
330
3A7619
100
AcDbEntity
  8
姿図
  0
SPLINE
  5
3A761D
330
18
100
AcDbEntity
  8
姿図
100
AcDbSpline
210
0.0
220
0.0
230
1.0
 70
     8
 71
     3
 72
    14
 73
    10
 74
     0
 42
0.000000001
 43
0.0000000001
 40
0.0
 40
0.0
 40
0.0
 40
0.0
 40
1.0
 40
1.0
 40
1.0
 40
2.0
 40
2.0
 40
2.0
 40
3.0
 40
3.0
 40
3.0
 40
3.0
 10
20930.88105508564
 20
-17472.52672867683
 30
0.0
 10
20931.20761194645
 20
-17472.93726733895
 30
0.0
 10
20931.37288844433
 20
-17472.41815449662
 30
0.0
 10
20931.37288844433
 20
-17472.41815449662
 30
0.0
 10
20931.37288844433
 20
-17472.41815449662
 30
0.0
 10
20933.6854364971
 20
-17467.36796088852
 30
0.0
 10
20933.6854364971
 20
-17467.36796088852
 30
0.0
 10
20933.89789705387
 20
-17466.8724841729
 30
0.0
 10
20933.6854364971
 20
-17466.64494235618
 30
0.0
 10
20933.6854364971
 20
-17466.64494235618
 30
0.0
  0
SPLINE
  5
3A761E
330
18
100
AcDbEntity
  8
姿図
100
AcDbSpline
210
0.0
220
0.0
230
1.0
 70
     8
 71
     3
 72
     8
 73
     4
 74
     0
 42
0.000000001
 43
0.0000000001
 40
0.0
 40
0.0
 40
0.0
 40
0.0
 40
1.0
 40
1.0
 40
1.0
 40
1.0
 10
20930.93209232031
 20
-17472.59154488874
 30
0.0
 10
20930.89910757634
 20
-17472.55450319765
 30
0.0
 10
20930.8671811664
 20
-17472.51005316834
 30
0.0
 10
20930.83728323002
 20
-17472.45678368877
 30
0.0
  0
SPLINE
  5
3A761F
330
18
100
AcDbEntity
  8
姿図
100
AcDbSpline
210
0.0
220
0.0
230
1.0
 70
     8
 71
     3
 72
    11
 73
     7
 74
     0
 42
0.000000001
 43
0.0000000001
 40
0.0
 40
0.0
 40
0.0
 40
0.0
 40
1.0
 40
1.0
 40
1.0
 40
2.0
 40
2.0
 40
2.0
 40
2.0
 10
20934.90957619324
 20
-17466.30045462901
 30
0.0
 10
20934.90957619324
 20
-17466.30045462901
 30
0.0
 10
20931.5616246799
 20
-17472.6882060636
 30
0.0
 10
20931.5616246799
 20
-17472.6882060636
 30
0.0
 10
20931.5616246799
 20
-17472.6882060636
 30
0.0
 10
20931.20655361242
 20
-17472.89863814681
 30
0.0
 10
20930.93209232031
 20
-17472.59154488874
 30
0.0
  0
SPLINE
  5
3A7620
330
18
100
AcDbEntity
  8
姿図
100
AcDbSpline
210
0.0
220
0.0
230
1.0
 70
     8
 71
     3
 72
     8
 73
     4
 74
     0
 42
0.000000001
 43
0.0000000001
 40
0.0039469307402094
 40
0.0039469307402094
 40
0.0039469307402094
 40
0.0039469307402094
 40
1.0
 40
1.0
 40
1.0
 40
1.0
 10
20942.77303000115
 20
-17455.43903704984
 30
0.0
 10
20943.49251245143
 20
-17457.48633963501
 30
0.0
 10
20943.49382589465
 20
-17459.44951812323
 30
0.0
 10
20942.65164240982
 20
-17460.94387331886
 30
0.0
  0
SPLINE
  5
3A7621
330
18
100
AcDbEntity
  8
姿図
100
AcDbSpline
210
0.0
220
0.0
230
1.0
 70
     8
 71
     3
 72
     8
 73
     4
 74
     0
 42
0.000000001
 43
0.0000000001
 40
0.0
 40
0.0
 40
0.0
 40
0.0
 40
1.0
 40
1.0
 40
1.0
 40
1.0
 10
20941.85947938743
 20
-17453.4491926821
 30
0.0
 10
20942.06329688294
 20
-17453.80876166921
 30
0.0
 10
20942.24656505936
 20
-17454.16956537936
 30
0.0
 10
20942.40849016614
 20
-17454.52957533899
 30
0.0
  0
SPLINE
  5
3A7622
330
18
100
AcDbEntity
  8
姿図
100
AcDbSpline
210
0.0
220
0.0
230
1.0
 70
     8
 71
     3
 72
    11
 73
     7
 74
     0
 42
0.000000001
 43
0.0000000001
 40
0.0
 40
0.0
 40
0.0
 40
0.0
 40
1.0
 40
1.0
 40
1.0
 40
2.0
 40
2.0
 40
2.0
 40
2.0
 10
20936.22508539408
 20
-17447.62976662229
 30
0.0
 10
20936.8524128911
 20
-17448.02981688609
 30
0.0
 10
20937.47092093786
 20
-17448.48163732293
 30
0.0
 10
20938.0716136951
 20
-17448.98372862626
 30
0.0
 10
20938.47536812802
 20
-17449.32124898772
 30
0.0
 10
20938.85804407482
 20
-17449.67076380154
 30
0.0
 10
20939.21902417397
 20
-17450.02962723263
 30
0.0
  0
SPLINE
  5
3A7623
330
18
100
AcDbEntity
  8
姿図
100
AcDbSpline
210
0.0
220
0.0
230
1.0
 70
     8
 71
     3
 72
     8
 73
     4
 74
     0
 42
0.000000001
 43
0.0000000001
 40
0.0220224807344469
 40
0.0220224807344469
 40
0.0220224807344469
 40
0.0220224807344469
 40
1.0
 40
1.0
 40
1.0
 40
1.0
 10
20931.70833794459
 20
-17445.66467888189
 30
0.0
 10
20932.90857050644
 20
-17445.94961742581
 30
0.0
 10
20934.15666330303
 20
-17446.44042911728
 30
0.0
 10
20935.38662025783
 20
-17447.12820448597
 30
0.0
  0
SPLINE
  5
3A7624
330
18
100
AcDbEntity
  8
姿図
100
AcDbSpline
210
0.0
220
0.0
230
1.0
 70
     8
 71
     3
 72
     8
 73
     4
 74
     0
 42
0.000000001
 43
0.0000000001
 40
0.0
 40
0.0
 40
0.0
 40
0.0
 40
0.9930441751332382
 40
0.9930441751332382
 40
0.9930441751332382
 40
0.9930441751332382
 10
20925.41032270679
 20
-17446.66183195621
 30
0.0
 10
20926.68856794311
 20
-17445.55428216117
 30
0.0
 10
20928.56787555692
 20
-17445.17364299428
 30
0.0
 10
20930.66486297742
 20
-17445.46705792627
 30
0.0
  0
POLYLINE
  5
3A7625
330
18
100
AcDbEntity
  8
姿図
100
AcDb2dPolyline
 66
     1
 10
0.0
 20
0.0
 30
0.0
  0
VERTEX
  5
3A7626
330
3A7625
100
AcDbEntity
  8
姿図
100
AcDbVertex
100
AcDb2dVertex
 10
20941.47697982964
 20
-17462.20787693018
 30
0.0
  0
VERTEX
  5
3A7627
330
3A7625
100
AcDbEntity
  8
姿図
100
AcDbVertex
100
AcDb2dVertex
 10
20942.64555698914
 20
-17460.21767978443
 30
0.0
  0
VERTEX
  5
3A7628
330
3A7625
100
AcDbEntity
  8
姿図
100
AcDbVertex
100
AcDb2dVertex
 10
20942.64555698914
 20
-17460.21767978443
 30
0.0
  0
VERTEX
  5
3A7629
330
3A7625
100
AcDbEntity
  8
姿図
100
AcDbVertex
100
AcDb2dVertex
 10
20941.94485166595
 20
-17459.93457543107
 30
0.0
  0
SEQEND
  5
3A762A
330
3A7625
100
AcDbEntity
  8
姿図
  0
SPLINE
  5
3A762B
330
18
100
AcDbEntity
  8
姿図
100
AcDbSpline
210
0.0
220
0.0
230
1.0
 70
     8
 71
     3
 72
    11
 73
     7
 74
     0
 42
0.000000001
 43
0.0000000001
 40
0.0
 40
0.0
 40
0.0
 40
0.0
 40
1.0
 40
1.0
 40
1.0
 40
2.0
 40
2.0
 40
2.0
 40
2.0
 10
20941.5470062647
 20
-17460.6030897608
 30
0.0
 10
20941.5470062647
 20
-17460.6030897608
 30
0.0
 10
20942.81806543623
 20
-17458.51861269176
 30
0.0
 10
20942.81806543623
 20
-17458.51861269176
 30
0.0
 10
20942.81806543623
 20
-17458.51861269176
 30
0.0
 10
20943.14967676602
 20
-17457.48532589926
 30
0.0
 10
20941.71043067803
 20
-17456.59782461955
 30
0.0
  0
SPLINE
  5
3A762C
330
18
100
AcDbEntity
  8
姿図
100
AcDbSpline
210
0.0
220
0.0
230
1.0
 70
     8
 71
     3
 72
    29
 73
    25
 74
     0
 42
0.000000001
 43
0.0000000001
 40
0.0
 40
0.0
 40
0.0
 40
0.0
 40
1.0
 40
1.0
 40
1.0
 40
2.0
 40
2.0
 40
2.0
 40
3.0
 40
3.0
 40
3.0
 40
4.0
 40
4.0
 40
4.0
 40
5.0
 40
5.0
 40
5.0
 40
6.0
 40
6.0
 40
6.0
 40
7.0
 40
7.0
 40
7.0
 40
7.921323331948138
 40
7.921323331948138
 40
7.921323331948138
 40
7.921323331948138
 10
20932.47867111798
 20
-17445.87407865895
 30
0.0
 10
20932.47867111798
 20
-17445.87407865895
 30
0.0
 10
20932.45829818787
 20
-17445.37181096662
 30
0.0
 10
20932.45829818787
 20
-17445.37181096662
 30
0.0
 10
20932.45829818787
 20
-17445.37181096662
 30
0.0
 10
20931.40428568725
 20
-17445.78341471027
 30
0.0
 10
20931.40428568725
 20
-17445.78341471027
 30
0.0
 10
20930.9009596609
 20
-17446.05082044217
 30
0.0
 10
20930.66486297742
 20
-17445.64177433909
 30
0.0
 10
20930.66486297742
 20
-17445.64177433909
 30
0.0
 10
20930.66486297742
 20
-17445.64177433909
 30
0.0
 10
20930.66486297742
 20
-17444.71361539369
 30
0.0
 10
20930.66486297742
 20
-17444.71361539369
 30
0.0
 10
20930.66486297742
 20
-17444.71361539369
 30
0.0
 10
20931.75036091547
 20
-17443.39210896667
 30
0.0
 10
20931.75036091547
 20
-17443.39210896667
 30
0.0
 10
20931.75036091547
 20
-17443.39210896667
 30
0.0
 10
20937.58195781664
 20
-17437.63327253015
 30
0.0
 10
20937.58195781664
 20
-17437.63327253015
 30
0.0
 10
20937.58195781664
 20
-17437.63327253015
 30
0.0
 10
20937.84433646189
 20
-17437.31824176685
 30
0.0
 10
20938.20064225241
 20
-17437.82156779321
 30
0.0
 10
20938.20064225241
 20
-17437.82156779321
 30
0.0
 10
20938.20064225241
 20
-17442.73705457673
 30
0.0
 10
20938.20064225241
 20
-17443.5105228207
 30
0.0
  0
POLYLINE
  5
3A762D
330
18
100
AcDbEntity
  8
姿図
100
AcDb2dPolyline
 66
     1
 10
0.0
 20
0.0
 30
0.0
  0
VERTEX
  5
3A762E
330
3A762D
100
AcDbEntity
  8
姿図
100
AcDbVertex
100
AcDb2dVertex
 10
20931.89676378979
 20
-17445.5911506946
 30
0.0
  0
VERTEX
  5
3A762F
330
3A762D
100
AcDbEntity
  8
姿図
100
AcDbVertex
100
AcDb2dVertex
 10
20931.89676378979
 20
-17445.71109521814
 30
0.0
  0
SEQEND
  5
3A7630
330
3A762D
100
AcDbEntity
  8
姿図
  0
SPLINE
  5
3A7631
330
18
100
AcDbEntity
  8
姿図
100
AcDbSpline
210
0.0
220
0.0
230
1.0
 70
     8
 71
     3
 72
    11
 73
     7
 74
     0
 42
0.000000001
 43
0.0000000001
 40
0.0
 40
0.0
 40
0.0
 40
0.0
 40
1.0
 40
1.0
 40
1.0
 40
2.0
 40
2.0
 40
2.0
 40
2.0
 10
20931.2739342124
 20
-17445.84021196995
 30
0.0
 10
20931.2739342124
 20
-17445.84021196995
 30
0.0
 10
20931.2739342124
 20
-17444.77658626854
 30
0.0
 10
20931.2739342124
 20
-17444.77658626854
 30
0.0
 10
20931.2739342124
 20
-17444.77658626854
 30
0.0
 10
20930.79062833814
 20
-17444.49339372068
 30
0.0
 10
20930.66486297742
 20
-17444.71361539369
 30
0.0
  0
POLYLINE
  5
3A7632
330
18
100
AcDbEntity
  8
姿図
100
AcDb2dPolyline
 66
     1
 10
0.0
 20
0.0
 30
0.0
  0
VERTEX
  5
3A7633
330
3A7632
100
AcDbEntity
  8
姿図
100
AcDbVertex
100
AcDb2dVertex
 10
20931.2739342124
 20
-17444.77658626854
 30
0.0
  0
VERTEX
  5
3A7634
330
3A7632
100
AcDbEntity
  8
姿図
100
AcDbVertex
100
AcDb2dVertex
 10
20938.20064225241
 20
-17437.82156779321
 30
0.0
  0
SEQEND
  5
3A7635
330
3A7632
100
AcDbEntity
  8
姿図
  0
SPLINE
  5
3A7636
330
18
100
AcDbEntity
  8
姿図
100
AcDbSpline
210
0.0
220
0.0
230
1.0
 70
     8
 71
     3
 72
    29
 73
    25
 74
     0
 42
0.000000001
 43
0.0000000001
 40
0.0
 40
0.0
 40
0.0
 40
0.0
 40
1.0
 40
1.0
 40
1.0
 40
2.0
 40
2.0
 40
2.0
 40
3.0
 40
3.0
 40
3.0
 40
4.0
 40
4.0
 40
4.0
 40
5.0
 40
5.0
 40
5.0
 40
6.0
 40
6.0
 40
6.0
 40
7.0
 40
7.0
 40
7.0
 40
8.0
 40
8.0
 40
8.0
 40
8.0
 10
20934.73724413515
 20
-17440.37153544699
 30
0.0
 10
20934.73724413515
 20
-17440.37153544699
 30
0.0
 10
20933.41847173772
 20
-17437.49489535556
 30
0.0
 10
20933.41847173772
 20
-17437.49489535556
 30
0.0
 10
20933.41847173772
 20
-17437.49489535556
 30
0.0
 10
20933.27841886759
 20
-17437.3604869336
 30
0.0
 10
20932.97846936423
 20
-17437.57603429796
 30
0.0
 10
20932.97846936423
 20
-17437.57603429796
 30
0.0
 10
20926.74752775527
 20
-17443.72248557343
 30
0.0
 10
20926.74752775527
 20
-17443.72248557343
 30
0.0
 10
20926.74752775527
 20
-17443.72248557343
 30
0.0
 10
20926.1183481737
 20
-17444.77658626854
 30
0.0
 10
20926.1183481737
 20
-17444.77658626854
 30
0.0
 10
20926.1183481737
 20
-17444.77658626854
 30
0.0
 10
20926.50243523253
 20
-17445.51318675429
 30
0.0
 10
20926.50243523253
 20
-17445.51318675429
 30
0.0
 10
20926.50243523253
 20
-17445.51318675429
 30
0.0
 10
20926.5587915197
 20
-17445.65112295637
 30
0.0
 10
20926.92074175838
 20
-17445.51592078388
 30
0.0
 10
20927.15877872091
 20
-17445.42702072525
 30
0.0
 10
20928.54105116022
 20
-17444.93515998423
 30
0.0
 10
20928.54105116022
 20
-17444.93515998423
 30
0.0
 10
20928.54105116022
 20
-17444.93515998423
 30
0.0
 10
20928.76993107121
 20
-17445.39138236355
 30
0.0
 10
20928.76993107121
 20
-17445.39138236355
 30
0.0
  0
POLYLINE
  5
3A7637
330
18
100
AcDbEntity
  8
姿図
100
AcDb2dPolyline
 66
     1
 10
0.0
 20
0.0
 30
0.0
  0
VERTEX
  5
3A7638
330
3A7637
100
AcDbEntity
  8
姿図
100
AcDbVertex
100
AcDb2dVertex
 10
20928.3201239312
 20
-17445.01294753552
 30
0.0
  0
VERTEX
  5
3A7639
330
3A7637
100
AcDbEntity
  8
姿図
100
AcDbVertex
100
AcDb2dVertex
 10
20928.53065846785
 20
-17445.41208903427
 30
0.0
  0
SEQEND
  5
3A763A
330
3A7637
100
AcDbEntity
  8
姿図
  0
SPLINE
  5
3A763B
330
18
100
AcDbEntity
  8
姿図
100
AcDbSpline
210
0.0
220
0.0
230
1.0
 70
     8
 71
     3
 72
    14
 73
    10
 74
     0
 42
0.000000001
 43
0.0000000001
 40
0.0
 40
0.0
 40
0.0
 40
0.0
 40
1.0
 40
1.0
 40
1.0
 40
2.0
 40
2.0
 40
2.0
 40
3.0
 40
3.0
 40
3.0
 40
3.0
 10
20926.61920475398
 20
-17445.5911506946
 30
0.0
 10
20926.61920475398
 20
-17445.5911506946
 30
0.0
 10
20926.81684863432
 20
-17445.5911506946
 30
0.0
 10
20926.7791013872
 20
-17445.37181096662
 30
0.0
 10
20926.7791013872
 20
-17445.37181096662
 30
0.0
 10
20926.4540164506
 20
-17444.71361539369
 30
0.0
 10
20926.4540164506
 20
-17444.71361539369
 30
0.0
 10
20926.4540164506
 20
-17444.71361539369
 30
0.0
 10
20926.1183481737
 20
-17444.62974242171
 30
0.0
 10
20926.1183481737
 20
-17444.77658626854
 30
0.0
  0
POLYLINE
  5
3A763C
330
18
100
AcDbEntity
  8
姿図
100
AcDb2dPolyline
 66
     1
 10
0.0
 20
0.0
 30
0.0
  0
VERTEX
  5
3A763D
330
3A763C
100
AcDbEntity
  8
姿図
100
AcDbVertex
100
AcDb2dVertex
 10
20926.4540164506
 20
-17444.71361539369
 30
0.0
  0
VERTEX
  5
3A763E
330
3A763C
100
AcDbEntity
  8
姿図
100
AcDbVertex
100
AcDb2dVertex
 10
20927.08152033663
 20
-17443.758909903
 30
0.0
  0
VERTEX
  5
3A763F
330
3A763C
100
AcDbEntity
  8
姿図
100
AcDbVertex
100
AcDb2dVertex
 10
20933.43725716678
 20
-17437.53590579928
 30
0.0
  0
SEQEND
  5
3A7640
330
3A763C
100
AcDbEntity
  8
姿図
  0
SPLINE
  5
3A7641
330
18
100
AcDbEntity
  8
姿図
100
AcDbSpline
210
0.0
220
0.0
230
1.0
 70
     8
 71
     3
 72
    32
 73
    28
 74
     0
 42
0.000000001
 43
0.0000000001
 40
0.0
 40
0.0
 40
0.0
 40
0.0
 40
1.0
 40
1.0
 40
1.0
 40
2.0
 40
2.0
 40
2.0
 40
3.0
 40
3.0
 40
3.0
 40
4.0
 40
4.0
 40
4.0
 40
5.0
 40
5.0
 40
5.0
 40
6.0
 40
6.0
 40
6.0
 40
7.0
 40
7.0
 40
7.0
 40
8.0
 40
8.0
 40
8.0
 40
9.0
 40
9.0
 40
9.0
 40
9.0
 10
20930.62023655911
 20
-17439.90225249864
 30
0.0
 10
20930.62023655911
 20
-17439.90225249864
 30
0.0
 10
20929.76369154982
 20
-17439.01739705402
 30
0.0
 10
20929.76369154982
 20
-17439.01739705402
 30
0.0
 10
20929.76369154982
 20
-17439.01739705402
 30
0.0
 10
20929.70521859459
 20
-17438.8612045899
 30
0.0
 10
20928.72978739579
 20
-17439.80515035127
 30
0.0
 10
20928.72978739579
 20
-17439.80515035127
 30
0.0
 10
20923.50673256259
 20
-17444.68971468348
 30
0.0
 10
20923.50673256259
 20
-17444.68971468348
 30
0.0
 10
20923.50673256259
 20
-17444.68971468348
 30
0.0
 10
20922.51560274233
 20
-17446.11387951153
 30
0.0
 10
20922.51560274233
 20
-17446.11387951153
 30
0.0
 10
20922.51560274233
 20
-17446.11387951153
 30
0.0
 10
20922.38983738162
 20
-17446.19237261884
 30
0.0
 10
20922.67294173497
 20
-17446.50696240963
 30
0.0
 10
20922.67294173497
 20
-17446.50696240963
 30
0.0
 10
20923.16065733437
 20
-17446.96328076611
 30
0.0
 10
20923.16065733437
 20
-17446.96328076611
 30
0.0
 10
20923.16065733437
 20
-17446.96328076611
 30
0.0
 10
20923.22354001473
 20
-17447.02616344646
 30
0.0
 10
20923.4123644448
 20
-17446.96328076611
 30
0.0
 10
20923.4123644448
 20
-17446.96328076611
 30
0.0
 10
20925.33174140497
 20
-17446.01677736416
 30
0.0
 10
20925.33174140497
 20
-17446.01677736416
 30
0.0
 10
20925.33174140497
 20
-17446.01677736416
 30
0.0
 10
20925.69704303476
 20
-17446.43331999996
 30
0.0
 10
20925.69704303476
 20
-17446.43331999996
 30
0.0
  0
POLYLINE
  5
3A7642
330
18
100
AcDbEntity
  8
姿図
100
AcDb2dPolyline
 66
     1
 10
0.0
 20
0.0
 30
0.0
  0
VERTEX
  5
3A7643
330
3A7642
100
AcDbEntity
  8
姿図
100
AcDbVertex
100
AcDb2dVertex
 10
20925.13480308065
 20
-17446.11387951153
 30
0.0
  0
VERTEX
  5
3A7644
330
3A7642
100
AcDbEntity
  8
姿図
100
AcDbVertex
100
AcDb2dVertex
 10
20925.52047764054
 20
-17446.50696240963
 30
0.0
  0
SEQEND
  5
3A7645
330
3A7642
100
AcDbEntity
  8
姿図
  0
SPLINE
  5
3A7646
330
18
100
AcDbEntity
  8
姿図
100
AcDbSpline
210
0.0
220
0.0
230
1.0
 70
     8
 71
     3
 72
    14
 73
    10
 74
     0
 42
0.000000001
 43
0.0000000001
 40
0.0
 40
0.0
 40
0.0
 40
0.0
 40
1.0
 40
1.0
 40
1.0
 40
2.0
 40
2.0
 40
2.0
 40
3.0
 40
3.0
 40
3.0
 40
3.0
 10
20922.51560274233
 20
-17446.11387951153
 30
0.0
 10
20922.51560274233
 20
-17446.11387951153
 30
0.0
 10
20922.7043389779
 20
-17445.94084189742
 30
0.0
 10
20922.83019253312
 20
-17446.11387951153
 30
0.0
 10
20922.83019253312
 20
-17446.11387951153
 30
0.0
 10
20923.39666582334
 20
-17446.74314728761
 30
0.0
 10
20923.39666582334
 20
-17446.74314728761
 30
0.0
 10
20923.39666582334
 20
-17446.74314728761
 30
0.0
 10
20923.47533531966
 20
-17446.82164039492
 30
0.0
 10
20923.4123644448
 20
-17446.96328076611
 30
0.0
  0
POLYLINE
  5
3A7647
330
18
100
AcDbEntity
  8
姿図
100
AcDb2dPolyline
 66
     1
 10
0.0
 20
0.0
 30
0.0
  0
VERTEX
  5
3A7648
330
3A7647
100
AcDbEntity
  8
姿図
100
AcDbVertex
100
AcDb2dVertex
 10
20922.73582441533
 20
-17446.03697390526
 30
0.0
  0
VERTEX
  5
3A7649
330
3A7647
100
AcDbEntity
  8
姿図
100
AcDbVertex
100
AcDb2dVertex
 10
20923.7034063034
 20
-17444.68971468348
 30
0.0
  0
VERTEX
  5
3A764A
330
3A7647
100
AcDbEntity
  8
姿図
100
AcDbVertex
100
AcDb2dVertex
 10
20929.76369154982
 20
-17439.01739705402
 30
0.0
  0
SEQEND
  5
3A764B
330
3A7647
100
AcDbEntity
  8
姿図
  0
SPLINE
  5
3A764C
330
18
100
AcDbEntity
  8
姿図
100
AcDbSpline
210
0.0
220
0.0
230
1.0
 70
     8
 71
     3
 72
    26
 73
    22
 74
     0
 42
0.000000001
 43
0.0000000001
 40
0.0
 40
0.0
 40
0.0
 40
0.0
 40
1.0
 40
1.0
 40
1.0
 40
2.0
 40
2.0
 40
2.0
 40
3.0
 40
3.0
 40
3.0
 40
4.0
 40
4.0
 40
4.0
 40
5.0
 40
5.0
 40
5.0
 40
6.0
 40
6.0
 40
6.0
 40
7.0
 40
7.0
 40
7.0
 40
7.0
 10
20935.84355597582
 20
-17446.45298737404
 30
0.0
 10
20935.84355597582
 20
-17446.45298737404
 30
0.0
 10
20935.42322097641
 20
-17446.96328076611
 30
0.0
 10
20935.42322097641
 20
-17446.96328076611
 30
0.0
 10
20935.42322097641
 20
-17446.96328076611
 30
0.0
 10
20935.29013547198
 20
-17447.56900060999
 30
0.0
 10
20935.29013547198
 20
-17447.56900060999
 30
0.0
 10
20935.29013547198
 20
-17447.56900060999
 30
0.0
 10
20935.33731953087
 20
-17447.7286326597
 30
0.0
 10
20935.54969189314
 20
-17447.83764106492
 30
0.0
 10
20935.54969189314
 20
-17447.83764106492
 30
0.0
 10
20935.73851632322
 20
-17447.94100502197
 30
0.0
 10
20935.92725255879
 20
-17447.83764106492
 30
0.0
 10
20935.92725255879
 20
-17447.83764106492
 30
0.0
 10
20936.63527802569
 20
-17447.34313448882
 30
0.0
 10
20936.63527802569
 20
-17447.34313448882
 30
0.0
 10
20936.63527802569
 20
-17447.34313448882
 30
0.0
 10
20936.61146550999
 20
-17447.88359040078
 30
0.0
 10
20936.61146550999
 20
-17447.88359040078
 30
0.0
 10
20936.61146550999
 20
-17447.88359040078
 30
0.0
 10
20939.3078360381
 20
-17444.77658626854
 30
0.0
 10
20939.3078360381
 20
-17444.77658626854
 30
0.0
  0
POLYLINE
  5
3A764D
330
18
100
AcDbEntity
  8
姿図
100
AcDb2dPolyline
 66
     1
 10
0.0
 20
0.0
 30
0.0
  0
VERTEX
  5
3A764E
330
3A764D
100
AcDbEntity
  8
姿図
100
AcDbVertex
100
AcDb2dVertex
 10
20936.65529817779
 20
-17445.46759019645
 30
0.0
  0
VERTEX
  5
3A764F
330
3A764D
100
AcDbEntity
  8
姿図
100
AcDbVertex
100
AcDb2dVertex
 10
20935.84355597582
 20
-17446.45298737404
 30
0.0
  0
SEQEND
  5
3A7650
330
3A764D
100
AcDbEntity
  8
姿図
  0
POLYLINE
  5
3A7651
330
18
100
AcDbEntity
  8
姿図
100
AcDb2dPolyline
 66
     1
 10
0.0
 20
0.0
 30
0.0
  0
VERTEX
  5
3A7652
330
3A7651
100
AcDbEntity
  8
姿図
100
AcDbVertex
100
AcDb2dVertex
 10
20939.34796453678
 20
-17442.40097914641
 30
0.0
  0
VERTEX
  5
3A7653
330
3A7651
100
AcDbEntity
  8
姿図
100
AcDbVertex
100
AcDb2dVertex
 10
20937.2960312392
 20
-17444.68971468348
 30
0.0
  0
VERTEX
  5
3A7654
330
3A7651
100
AcDbEntity
  8
姿図
100
AcDbVertex
100
AcDb2dVertex
 10
20936.65529817779
 20
-17445.46759019645
 30
0.0
  0
SEQEND
  5
3A7655
330
3A7651
100
AcDbEntity
  8
姿図
  0
SPLINE
  5
3A7656
330
18
100
AcDbEntity
  8
姿図
100
AcDbSpline
210
0.0
220
0.0
230
1.0
 70
     8
 71
     3
 72
    11
 73
     7
 74
     0
 42
0.000000001
 43
0.0000000001
 40
0.0
 40
0.0
 40
0.0
 40
0.0
 40
1.0
 40
1.0
 40
1.0
 40
2.0
 40
2.0
 40
2.0
 40
2.0
 10
20935.42322097641
 20
-17446.96328076611
 30
0.0
 10
20935.91014282528
 20
-17446.71157365568
 30
0.0
 10
20936.09252905667
 20
-17447.21498787654
 30
0.0
 10
20936.09252905667
 20
-17447.21498787654
 30
0.0
 10
20936.09252905667
 20
-17447.21498787654
 30
0.0
 10
20935.92725255879
 20
-17447.83764106492
 30
0.0
 10
20935.92725255879
 20
-17447.83764106492
 30
0.0
  0
POLYLINE
  5
3A7657
330
18
100
AcDbEntity
  8
姿図
100
AcDb2dPolyline
 66
     1
 10
0.0
 20
0.0
 30
0.0
  0
VERTEX
  5
3A7658
330
3A7657
100
AcDbEntity
  8
姿図
100
AcDbVertex
100
AcDb2dVertex
 10
20936.09252905667
 20
-17447.21498787654
 30
0.0
  0
VERTEX
  5
3A7659
330
3A7657
100
AcDbEntity
  8
姿図
100
AcDbVertex
100
AcDb2dVertex
 10
20939.34796453678
 20
-17443.48647708446
 30
0.0
  0
SEQEND
  5
3A765A
330
3A7657
100
AcDbEntity
  8
姿図
  0
SPLINE
  5
3A765B
330
18
100
AcDbEntity
  8
姿図
100
AcDbSpline
210
0.0
220
0.0
230
1.0
 70
     8
 71
     3
 72
     8
 73
     4
 74
     0
 42
0.000000001
 43
0.0000000001
 40
0.0
 40
0.0
 40
0.0
 40
0.0
 40
1.0
 40
1.0
 40
1.0
 40
1.0
 10
20942.17080598162
 20
-17446.31037686333
 30
0.0
 10
20942.17080598162
 20
-17446.31037686333
 30
0.0
 10
20942.2752282727
 20
-17446.46771585598
 30
0.0
 10
20942.48768882947
 20
-17446.31037686333
 30
0.0
  0
SPLINE
  5
3A765C
330
18
100
AcDbEntity
  8
姿図
100
AcDbSpline
210
0.0
220
0.0
230
1.0
 70
     8
 71
     3
 72
    17
 73
    13
 74
     0
 42
0.000000001
 43
0.0000000001
 40
0.0
 40
0.0
 40
0.0
 40
0.0
 40
1.0
 40
1.0
 40
1.0
 40
2.0
 40
2.0
 40
2.0
 40
3.0
 40
3.0
 40
3.0
 40
4.0
 40
4.0
 40
4.0
 40
4.0
 10
20942.10854066278
 20
-17447.73621738693
 30
0.0
 10
20942.10854066278
 20
-17447.73621738693
 30
0.0
 10
20946.09819537707
 20
-17442.80217593876
 30
0.0
 10
20946.09819537707
 20
-17442.80217593876
 30
0.0
 10
20946.09819537707
 20
-17442.80217593876
 30
0.0
 10
20946.34390526132
 20
-17442.69969392673
 30
0.0
 10
20946.51041648224
 20
-17442.88437321518
 30
0.0
 10
20946.67675131415
 20
-17443.06914069814
 30
0.0
 10
20946.62912628275
 20
-17443.14437060886
 30
0.0
 10
20946.59384848171
 20
-17443.21519079445
 30
0.0
 10
20946.59384848171
 20
-17443.21519079445
 30
0.0
 10
20942.0448642319
 20
-17449.19654196104
 30
0.0
 10
20942.0448642319
 20
-17449.19654196104
 30
0.0
  0
POLYLINE
  5
3A765D
330
18
100
AcDbEntity
  8
姿図
100
AcDb2dPolyline
 66
     1
 10
0.0
 20
0.0
 30
0.0
  0
VERTEX
  5
3A765E
330
3A765D
100
AcDbEntity
  8
姿図
100
AcDbVertex
100
AcDb2dVertex
 10
20946.09819537707
 20
-17442.80217593876
 30
0.0
  0
VERTEX
  5
3A765F
330
3A765D
100
AcDbEntity
  8
姿図
100
AcDbVertex
100
AcDb2dVertex
 10
20942.19770530491
 20
-17445.69319173411
 30
0.0
  0
SEQEND
  5
3A7660
330
3A765D
100
AcDbEntity
  8
姿図
  0
SPLINE
  5
3A7661
330
18
100
AcDbEntity
  8
姿図
100
AcDbSpline
210
0.0
220
0.0
230
1.0
 70
     8
 71
     3
 72
    14
 73
    10
 74
     0
 42
0.000000001
 43
0.0000000001
 40
0.0
 40
0.0
 40
0.0
 40
0.0
 40
1.0
 40
1.0
 40
1.0
 40
2.0
 40
2.0
 40
2.0
 40
3.0
 40
3.0
 40
3.0
 40
3.0
 10
20942.95176830218
 20
-17448.00397589683
 30
0.0
 10
20942.95176830218
 20
-17448.00397589683
 30
0.0
 10
20943.4434526542
 20
-17448.60740268365
 30
0.0
 10
20943.4434526542
 20
-17448.60740268365
 30
0.0
 10
20943.4434526542
 20
-17448.60740268365
 30
0.0
 10
20943.66755488531
 20
-17448.81968685142
 30
0.0
 10
20944.09229960985
 20
-17448.70168260693
 30
0.0
 10
20944.09229960985
 20
-17448.70168260693
 30
0.0
 10
20941.95164264265
 20
-17451.33164267458
 30
0.0
 10
20941.95164264265
 20
-17451.33164267458
 30
0.0
  0
SPLINE
  5
3A7662
330
18
100
AcDbEntity
  8
姿図
100
AcDbSpline
210
0.0
220
0.0
230
1.0
 70
     8
 71
     3
 72
    38
 73
    34
 74
     0
 42
0.000000001
 43
0.0000000001
 40
0.0
 40
0.0
 40
0.0
 40
0.0
 40
1.0
 40
1.0
 40
1.0
 40
2.0
 40
2.0
 40
2.0
 40
3.0
 40
3.0
 40
3.0
 40
4.0
 40
4.0
 40
4.0
 40
5.0
 40
5.0
 40
5.0
 40
6.0
 40
6.0
 40
6.0
 40
7.0
 40
7.0
 40
7.0
 40
8.0
 40
8.0
 40
8.0
 40
9.0
 40
9.0
 40
9.0
 40
10.0
 40
10.0
 40
10.0
 40
11.0
 40
11.0
 40
11.0
 40
11.0
 10
20943.51409645078
 20
-17455.26211887762
 30
0.0
 10
20943.51409645078
 20
-17455.26211887762
 30
0.0
 10
20943.71394519368
 20
-17454.82705539628
 30
0.0
 10
20943.23989974218
 20
-17454.76258521487
 30
0.0
 10
20943.20206430057
 20
-17454.75755812822
 30
0.0
 10
20943.15990732832
 20
-17454.75464770964
 30
0.0
 10
20943.11307604744
 20
-17454.75464770964
 30
0.0
 10
20943.11307604744
 20
-17454.75464770964
 30
0.0
 10
20942.72360912394
 20
-17454.75464770964
 30
0.0
 10
20942.72360912394
 20
-17454.75464770964
 30
0.0
 10
20942.51114856717
 20
-17454.75464770964
 30
0.0
 10
20942.33423039495
 20
-17454.82546789523
 30
0.0
 10
20942.33423039495
 20
-17455.12047850644
 30
0.0
 10
20942.33423039495
 20
-17455.41540092314
 30
0.0
 10
20942.6646070017
 20
-17455.43903704984
 30
0.0
 10
20942.6646070017
 20
-17455.43903704984
 30
0.0
 10
20942.6646070017
 20
-17455.43903704984
 30
0.0
 10
20943.11307604744
 20
-17455.43903704984
 30
0.0
 10
20943.11307604744
 20
-17455.43903704984
 30
0.0
 10
20943.33717827855
 20
-17455.43903704984
 30
0.0
 10
20943.51409645078
 20
-17455.26211887762
 30
0.0
 10
20943.51409645078
 20
-17455.26211887762
 30
0.0
 10
20943.51409645078
 20
-17455.26211887762
 30
0.0
 10
20949.21304882003
 20
-17447.56900060999
 30
0.0
 10
20949.21304882003
 20
-17447.56900060999
 30
0.0
 10
20949.35468919122
 20
-17447.39208243777
 30
0.0
 10
20949.34463501792
 20
-17447.16577534408
 30
0.0
 10
20949.27778358494
 20
-17447.0173439962
 30
0.0
 10
20949.21075576296
 20
-17446.86873625932
 30
0.0
 10
20949.00085284677
 20
-17446.90824739648
 30
0.0
 10
20949.00085284677
 20
-17446.90824739648
 30
0.0
 10
20949.00085284677
 20
-17446.90824739648
 30
0.0
 10
20943.18513095607
 20
-17447.69705902777
 30
0.0
 10
20943.18513095607
 20
-17447.69705902777
 30
0.0
  0
SPLINE
  5
3A7663
330
18
100
AcDbEntity
  8
姿図
100
AcDbSpline
210
0.0
220
0.0
230
1.0
 70
     8
 71
     3
 72
    14
 73
    10
 74
     0
 42
0.000000001
 43
0.0000000001
 40
0.0
 40
0.0
 40
0.0
 40
0.0
 40
1.0
 40
1.0
 40
1.0
 40
2.0
 40
2.0
 40
2.0
 40
3.0
 40
3.0
 40
3.0
 40
3.0
 10
20949.12079737031
 20
-17446.90833559099
 30
0.0
 10
20949.12079737031
 20
-17446.90833559099
 30
0.0
 10
20949.27778358494
 20
-17447.0173439962
 30
0.0
 10
20949.27778358494
 20
-17447.0173439962
 30
0.0
 10
20949.27778358494
 20
-17447.0173439962
 30
0.0
 10
20949.11885709125
 20
-17446.77842508865
 30
0.0
 10
20948.63502204997
 20
-17447.43917830216
 30
0.0
 10
20948.63502204997
 20
-17447.43917830216
 30
0.0
 10
20943.23989974218
 20
-17454.76258521487
 30
0.0
 10
20943.23989974218
 20
-17454.76258521487
 30
0.0
  0
POLYLINE
  5
3A7664
330
18
100
AcDbEntity
  8
姿図
100
AcDb2dPolyline
 66
     1
 10
0.0
 20
0.0
 30
0.0
  0
VERTEX
  5
3A7665
330
3A7664
100
AcDbEntity
  8
姿図
100
AcDbVertex
100
AcDb2dVertex
 10
20942.33423039495
 20
-17455.12047850644
 30
0.0
  0
VERTEX
  5
3A7666
330
3A7664
100
AcDbEntity
  8
姿図
100
AcDbVertex
100
AcDb2dVertex
 10
20942.51114856717
 20
-17453.70460396164
 30
0.0
  0
VERTEX
  5
3A7667
330
3A7664
100
AcDbEntity
  8
姿図
100
AcDbVertex
100
AcDb2dVertex
 10
20942.0005905916
 20
-17453.70460396164
 30
0.0
  0
SEQEND
  5
3A7668
330
3A7664
100
AcDbEntity
  8
姿図
  0
POLYLINE
  5
3A7669
330
18
100
AcDbEntity
  8
姿図
100
AcDb2dPolyline
 66
     1
 10
0.0
 20
0.0
 30
0.0
  0
VERTEX
  5
3A766A
330
3A7669
100
AcDbEntity
  8
姿図
100
AcDbVertex
100
AcDb2dVertex
 10
20942.28819286459
 20
-17454.27037169584
 30
0.0
  0
VERTEX
  5
3A766B
330
3A7669
100
AcDbEntity
  8
姿図
100
AcDbVertex
100
AcDb2dVertex
 10
20942.44059296509
 20
-17454.27037169584
 30
0.0
  0
SEQEND
  5
3A766C
330
3A7669
100
AcDbEntity
  8
姿図
  0
SPLINE
  5
3A766D
330
18
100
AcDbEntity
  8
姿図
100
AcDbSpline
210
0.0
220
0.0
230
1.0
 70
     8
 71
     3
 72
    32
 73
    28
 74
     0
 42
0.000000001
 43
0.0000000001
 40
0.0
 40
0.0
 40
0.0
 40
0.0
 40
1.0
 40
1.0
 40
1.0
 40
2.0
 40
2.0
 40
2.0
 40
3.0
 40
3.0
 40
3.0
 40
4.0
 40
4.0
 40
4.0
 40
5.0
 40
5.0
 40
5.0
 40
6.0
 40
6.0
 40
6.0
 40
7.0
 40
7.0
 40
7.0
 40
8.0
 40
8.0
 40
8.0
 40
9.0
 40
9.0
 40
9.0
 40
9.0
 10
20947.02018070729
 20
-17450.52924908989
 30
0.0
 10
20947.02018070729
 20
-17450.52924908989
 30
0.0
 10
20950.09816884816
 20
-17451.25032734318
 30
0.0
 10
20950.09816884816
 20
-17451.25032734318
 30
0.0
 10
20950.09816884816
 20
-17451.25032734318
 30
0.0
 10
20950.36945513817
 20
-17451.4037857777
 30
0.0
 10
20950.09816884816
 20
-17451.84034856559
 30
0.0
 10
20950.09816884816
 20
-17451.84034856559
 30
0.0
 10
20946.00382725929
 20
-17458.17650621616
 30
0.0
 10
20946.00382725929
 20
-17458.17650621616
 30
0.0
 10
20946.00382725929
 20
-17458.17650621616
 30
0.0
 10
20944.57613465114
 20
-17459.71038500544
 30
0.0
 10
20944.57613465114
 20
-17459.71038500544
 30
0.0
 10
20944.57613465114
 20
-17459.71038500544
 30
0.0
 10
20944.48167833885
 20
-17459.76938712769
 30
0.0
 10
20944.23393998103
 20
-17459.71038500544
 30
0.0
 10
20944.23393998103
 20
-17459.71038500544
 30
0.0
 10
20943.7620111976
 20
-17459.56874463427
 30
0.0
 10
20943.7620111976
 20
-17459.56874463427
 30
0.0
 10
20943.7620111976
 20
-17459.56874463427
 30
0.0
 10
20943.56136870418
 20
-17459.53329044422
 30
0.0
 10
20943.54955064083
 20
-17459.34455420864
 30
0.0
 10
20943.54955064083
 20
-17459.34455420864
 30
0.0
 10
20943.60855276307
 20
-17458.27078613944
 30
0.0
 10
20943.60855276307
 20
-17458.27078613944
 30
0.0
 10
20943.60855276307
 20
-17458.27078613944
 30
0.0
 10
20943.29881366992
 20
-17458.27078613944
 30
0.0
 10
20943.29881366992
 20
-17458.27078613944
 30
0.0
  0
POLYLINE
  5
3A766E
330
18
100
AcDbEntity
  8
姿図
100
AcDb2dPolyline
 66
     1
 10
0.0
 20
0.0
 30
0.0
  0
VERTEX
  5
3A766F
330
3A766E
100
AcDbEntity
  8
姿図
100
AcDbVertex
100
AcDb2dVertex
 10
20943.27879351783
 20
-17457.76349136047
 30
0.0
  0
VERTEX
  5
3A7670
330
3A766E
100
AcDbEntity
  8
姿図
100
AcDbVertex
100
AcDb2dVertex
 10
20943.65573682196
 20
-17457.76349136047
 30
0.0
  0
VERTEX
  5
3A7671
330
3A766E
100
AcDbEntity
  8
姿図
100
AcDbVertex
100
AcDb2dVertex
 10
20943.60855276307
 20
-17458.27078613944
 30
0.0
  0
SEQEND
  5
3A7672
330
3A766E
100
AcDbEntity
  8
姿図
  0
SPLINE
  5
3A7673
330
18
100
AcDbEntity
  8
姿図
100
AcDbSpline
210
0.0
220
0.0
230
1.0
 70
     8
 71
     3
 72
    14
 73
    10
 74
     0
 42
0.000000001
 43
0.0000000001
 40
0.0
 40
0.0
 40
0.0
 40
0.0
 40
1.0
 40
1.0
 40
1.0
 40
2.0
 40
2.0
 40
2.0
 40
3.0
 40
3.0
 40
3.0
 40
3.0
 10
20943.54955064083
 20
-17459.34455420864
 30
0.0
 10
20943.54955064083
 20
-17459.34455420864
 30
0.0
 10
20943.59673469972
 20
-17459.14399990972
 30
0.0
 10
20943.77374106644
 20
-17459.19118396862
 30
0.0
 10
20943.77374106644
 20
-17459.19118396862
 30
0.0
 10
20944.50531446555
 20
-17459.40364452539
 30
0.0
 10
20944.50531446555
 20
-17459.40364452539
 30
0.0
 10
20944.50531446555
 20
-17459.40364452539
 30
0.0
 10
20944.67050276892
 20
-17459.53329044422
 30
0.0
 10
20944.57613465114
 20
-17459.71038500544
 30
0.0
  0
POLYLINE
  5
3A7674
330
18
100
AcDbEntity
  8
姿図
100
AcDb2dPolyline
 66
     1
 10
0.0
 20
0.0
 30
0.0
  0
VERTEX
  5
3A7675
330
3A7674
100
AcDbEntity
  8
姿図
100
AcDbVertex
100
AcDb2dVertex
 10
20950.17560362145
 20
-17451.33164267458
 30
0.0
  0
VERTEX
  5
3A7676
330
3A7674
100
AcDbEntity
  8
姿図
100
AcDbVertex
100
AcDb2dVertex
 10
20945.69699858472
 20
-17458.01713874995
 30
0.0
  0
VERTEX
  5
3A7677
330
3A7674
100
AcDbEntity
  8
姿図
100
AcDbVertex
100
AcDb2dVertex
 10
20944.50531446555
 20
-17459.40364452539
 30
0.0
  0
SEQEND
  5
3A7678
330
3A7674
100
AcDbEntity
  8
姿図
  0
SPLINE
  5
3A7679
330
18
100
AcDbEntity
  8
姿図
100
AcDbSpline
210
0.0
220
0.0
230
1.0
 70
     8
 71
     3
 72
     8
 73
     4
 74
     0
 42
0.000000001
 43
0.0000000001
 40
1.0
 40
1.0
 40
1.0
 40
1.0
 40
2.0
 40
2.0
 40
2.0
 40
2.0
 10
20943.65573682196
 20
-17463.63257092525
 30
0.0
 10
20943.65573682196
 20
-17463.63257092525
 30
0.0
 10
20943.83274318869
 20
-17463.52144585196
 30
0.0
 10
20943.65573682196
 20
-17463.34452767974
 30
0.0
  0
SPLINE
  5
3A767A
330
18
100
AcDbEntity
  8
姿図
100
AcDbSpline
210
0.0
220
0.0
230
1.0
 70
     8
 71
     3
 72
     8
 73
     4
 74
     0
 42
0.000000001
 43
0.0000000001
 40
2.0
 40
2.0
 40
2.0
 40
2.0
 40
3.0
 40
3.0
 40
3.0
 40
3.0
 10
20943.65573682196
 20
-17463.34452767974
 30
0.0
 10
20943.47873045524
 20
-17463.16743311851
 30
0.0
 10
20943.04225586185
 20
-17462.88432876515
 30
0.0
 10
20943.04225586185
 20
-17462.88432876515
 30
0.0
  0
SPLINE
  5
3A767B
330
18
100
AcDbEntity
  8
姿図
100
AcDbSpline
210
0.0
220
0.0
230
1.0
 70
     8
 71
     3
 72
     8
 73
     4
 74
     0
 42
0.000000001
 43
0.0000000001
 40
3.0
 40
3.0
 40
3.0
 40
3.0
 40
4.0
 40
4.0
 40
4.0
 40
4.0
 10
20943.04225586185
 20
-17462.88432876515
 30
0.0
 10
20942.90061549067
 20
-17462.78996064737
 30
0.0
 10
20942.8510501802
 20
-17462.90796489185
 30
0.0
 10
20942.8510501802
 20
-17462.90796489185
 30
0.0
  0
SPLINE
  5
3A767C
330
18
100
AcDbEntity
  8
姿図
100
AcDbSpline
210
0.0
220
0.0
230
1.0
 70
     8
 71
     3
 72
     8
 73
     4
 74
     0
 42
0.000000001
 43
0.0000000001
 40
4.0
 40
4.0
 40
4.0
 40
4.0
 40
5.0
 40
5.0
 40
5.0
 40
5.0
 10
20942.8510501802
 20
-17462.90796489185
 30
0.0
 10
20942.68348062526
 20
-17463.07306500072
 30
0.0
 10
20942.8510501802
 20
-17463.15984839129
 30
0.0
 10
20942.8510501802
 20
-17463.15984839129
 30
0.0
  0
SPLINE
  5
3A767D
330
18
100
AcDbEntity
  8
姿図
100
AcDbSpline
210
0.0
220
0.0
230
1.0
 70
    24
 71
     3
 72
     8
 73
     4
 74
     0
 42
0.000000001
 43
0.0000000001
 40
5.0
 40
5.0
 40
5.0
 40
5.0
 40
6.0
 40
6.0
 40
6.0
 40
6.0
 10
20942.8510501802
 20
-17463.15984839129
 30
0.0
 10
20942.8510501802
 20
-17463.15984839129
 30
0.0
 10
20943.34899634191
 20
-17463.53326391531
 30
0.0
 10
20943.34899634191
 20
-17463.53326391531
 30
0.0
  0
SPLINE
  5
3A767E
330
18
100
AcDbEntity
  8
姿図
100
AcDbSpline
210
0.0
220
0.0
230
1.0
 70
     8
 71
     3
 72
     8
 73
     4
 74
     0
 42
0.000000001
 43
0.0000000001
 40
6.0
 40
6.0
 40
6.0
 40
6.0
 40
7.0
 40
7.0
 40
7.0
 40
7.0
 10
20943.34899634191
 20
-17463.53326391531
 30
0.0
 10
20943.64391875861
 20
-17463.76927240428
 30
0.0
 10
20943.82092512534
 20
-17463.53326391531
 30
0.0
 10
20943.82092512534
 20
-17463.53326391531
 30
0.0
  0
SPLINE
  5
3A767F
330
18
100
AcDbEntity
  8
姿図
100
AcDbSpline
210
0.0
220
0.0
230
1.0
 70
    24
 71
     3
 72
     8
 73
     4
 74
     0
 42
0.000000001
 43
0.0000000001
 40
7.0
 40
7.0
 40
7.0
 40
7.0
 40
8.0
 40
8.0
 40
8.0
 40
8.0
 10
20943.82092512534
 20
-17463.53326391531
 30
0.0
 10
20943.82092512534
 20
-17463.53326391531
 30
0.0
 10
20944.97733144348
 20
-17462.32094228252
 30
0.0
 10
20944.97733144348
 20
-17462.32094228252
 30
0.0
  0
SPLINE
  5
3A7680
330
18
100
AcDbEntity
  8
姿図
100
AcDbSpline
210
0.0
220
0.0
230
1.0
 70
    24
 71
     3
 72
     8
 73
     4
 74
     0
 42
0.000000001
 43
0.0000000001
 40
8.0
 40
8.0
 40
8.0
 40
8.0
 40
9.0
 40
9.0
 40
9.0
 40
9.0
 10
20944.97733144348
 20
-17462.32094228252
 30
0.0
 10
20944.97733144348
 20
-17462.32094228252
 30
0.0
 10
20949.32487944933
 20
-17455.43903704984
 30
0.0
 10
20949.32487944933
 20
-17455.43903704984
 30
0.0
  0
SPLINE
  5
3A7681
330
18
100
AcDbEntity
  8
姿図
100
AcDbSpline
210
0.0
220
0.0
230
1.0
 70
     8
 71
     3
 72
     8
 73
     4
 74
     0
 42
0.000000001
 43
0.0000000001
 40
9.0
 40
9.0
 40
9.0
 40
9.0
 40
10.0
 40
10.0
 40
10.0
 40
10.0
 10
20949.32487944933
 20
-17455.43903704984
 30
0.0
 10
20949.48398233203
 20
-17455.19129869203
 30
0.0
 10
20949.27778358494
 20
-17455.04965832085
 30
0.0
 10
20949.27778358494
 20
-17455.04965832085
 30
0.0
  0
SPLINE
  5
3A7682
330
18
100
AcDbEntity
  8
姿図
100
AcDbSpline
210
0.0
220
0.0
230
1.0
 70
    24
 71
     3
 72
     8
 73
     4
 74
     0
 42
0.000000001
 43
0.0000000001
 40
10.0
 40
10.0
 40
10.0
 40
10.0
 40
11.0
 40
11.0
 40
11.0
 40
11.0
 10
20949.27778358494
 20
-17455.04965832085
 30
0.0
 10
20949.27778358494
 20
-17455.04965832085
 30
0.0
 10
20948.40712745524
 20
-17454.45734404136
 30
0.0
 10
20948.40712745524
 20
-17454.45734404136
 30
0.0
  0
POLYLINE
  5
3A7683
330
18
100
AcDbEntity
  8
姿図
100
AcDb2dPolyline
 66
     1
 10
0.0
 20
0.0
 30
0.0
  0
VERTEX
  5
3A7684
330
3A7683
100
AcDbEntity
  8
姿図
100
AcDbVertex
100
AcDb2dVertex
 10
20942.95176830218
 20
-17462.84816901909
 30
0.0
  0
VERTEX
  5
3A7685
330
3A7683
100
AcDbEntity
  8
姿図
100
AcDbVertex
100
AcDb2dVertex
 10
20943.17198997518
 20
-17461.18517347799
 30
0.0
  0
VERTEX
  5
3A7686
330
3A7683
100
AcDbEntity
  8
姿図
100
AcDbVertex
100
AcDb2dVertex
 10
20942.65164240982
 20
-17460.94387331886
 30
0.0
  0
SEQEND
  5
3A7687
330
3A7683
100
AcDbEntity
  8
姿図
  0
POLYLINE
  5
3A7688
330
18
100
AcDbEntity
  8
姿図
100
AcDb2dPolyline
 66
     1
 10
0.0
 20
0.0
 30
0.0
  0
VERTEX
  5
3A7689
330
3A7688
100
AcDbEntity
  8
姿図
100
AcDbVertex
100
AcDb2dVertex
 10
20942.99701208201
 20
-17461.47674450359
 30
0.0
  0
VERTEX
  5
3A768A
330
3A7688
100
AcDbEntity
  8
姿図
100
AcDbVertex
100
AcDb2dVertex
 10
20942.65164240982
 20
-17461.29541660624
 30
0.0
  0
SEQEND
  5
3A768B
330
3A7688
100
AcDbEntity
  8
姿図
  0
POLYLINE
  5
3A768C
330
18
100
AcDbEntity
  8
姿図
100
AcDb2dPolyline
 66
     1
 10
0.0
 20
0.0
 30
0.0
  0
VERTEX
  5
3A768D
330
3A768C
100
AcDbEntity
  8
姿図
100
AcDbVertex
100
AcDb2dVertex
 10
20942.7765258255
 20
-17463.05472054418
 30
0.0
  0
VERTEX
  5
3A768E
330
3A768C
100
AcDbEntity
  8
姿図
100
AcDbVertex
100
AcDb2dVertex
 10
20942.99701208201
 20
-17461.47674450359
 30
0.0
  0
VERTEX
  5
3A768F
330
3A768C
100
AcDbEntity
  8
姿図
100
AcDbVertex
100
AcDb2dVertex
 10
20943.17198997518
 20
-17461.18517347799
 30
0.0
  0
SEQEND
  5
3A7690
330
3A768C
100
AcDbEntity
  8
姿図
  0
SPLINE
  5
3A7691
330
18
100
AcDbEntity
  8
姿図
100
AcDbSpline
210
0.0
220
0.0
230
1.0
 70
     8
 71
     3
 72
    14
 73
    10
 74
     0
 42
0.000000001
 43
0.0000000001
 40
0.0
 40
0.0
 40
0.0
 40
0.0
 40
1.0
 40
1.0
 40
1.0
 40
2.0
 40
2.0
 40
2.0
 40
3.0
 40
3.0
 40
3.0
 40
3.0
 10
20940.82398773236
 20
-17465.9986530411
 30
0.0
 10
20940.82398773236
 20
-17465.9986530411
 30
0.0
 10
20941.15639281267
 20
-17466.30221851906
 30
0.0
 10
20941.34415890872
 20
-17466.10942533637
 30
0.0
 10
20941.34415890872
 20
-17466.10942533637
 30
0.0
 10
20942.3460484583
 20
-17465.0435065779
 30
0.0
 10
20942.3460484583
 20
-17465.0435065779
 30
0.0
 10
20942.3460484583
 20
-17465.0435065779
 30
0.0
 10
20943.40244221048
 20
-17463.57171671844
 30
0.0
 10
20943.40244221048
 20
-17463.57171671844
 30
0.0
  0
SPLINE
  5
3A7692
330
18
100
AcDbEntity
  8
姿図
100
AcDbSpline
210
0.0
220
0.0
230
1.0
 70
     8
 71
     3
 72
     8
 73
     4
 74
     0
 42
0.000000001
 43
0.0000000001
 40
0.0
 40
0.0
 40
0.0
 40
0.0
 40
1.0
 40
1.0
 40
1.0
 40
1.0
 10
20941.23329841894
 20
-17466.17627676934
 30
0.0
 10
20941.23329841894
 20
-17466.17627676934
 30
0.0
 10
20941.5470062647
 20
-17466.06797392015
 30
0.0
 10
20941.08751290614
 20
-17465.78134178668
 30
0.0
  0
POLYLINE
  5
3A7693
330
18
100
AcDbEntity
  8
姿図
100
AcDb2dPolyline
 66
     1
 10
0.0
 20
0.0
 30
0.0
  0
VERTEX
  5
3A7694
330
3A7693
100
AcDbEntity
  8
姿図
100
AcDbVertex
100
AcDb2dVertex
 10
20938.20064225241
 20
-17443.68076957369
 30
0.0
  0
VERTEX
  5
3A7695
330
3A7693
100
AcDbEntity
  8
姿図
100
AcDbVertex
100
AcDb2dVertex
 10
20938.20064225241
 20
-17443.68076957369
 30
0.0
  0
SEQEND
  5
3A7696
330
3A7693
100
AcDbEntity
  8
姿図
  0
SPLINE
  5
3A7697
330
18
100
AcDbEntity
  8
姿図
100
AcDbSpline
210
0.0
220
0.0
230
1.0
 70
     8
 71
     3
 72
    14
 73
    10
 74
     0
 42
0.000000001
 43
0.0000000001
 40
0.0478849985969701
 40
0.0478849985969701
 40
0.0478849985969701
 40
0.0478849985969701
 40
1.0
 40
1.0
 40
1.0
 40
2.0
 40
2.0
 40
2.0
 40
3.0
 40
3.0
 40
3.0
 40
3.0
 10
20938.30703328468
 20
-17443.56203850011
 30
0.0
 10
20937.77024030172
 20
-17443.29335038585
 30
0.0
 10
20937.01583418183
 20
-17443.05807669753
 30
0.0
 10
20936.46338694012
 20
-17442.93102810706
 30
0.0
 10
20936.46338694012
 20
-17442.93102810706
 30
0.0
 10
20936.09252905667
 20
-17442.92009198874
 30
0.0
 10
20936.09252905667
 20
-17442.40097914641
 30
0.0
 10
20936.09252905667
 20
-17442.40097914641
 30
0.0
 10
20932.82483454069
 20
-17445.98520373223
 30
0.0
 10
20932.82483454069
 20
-17445.98520373223
 30
0.0
  0
SPLINE
  5
3A7698
330
18
100
AcDbEntity
  8
姿図
100
AcDbSpline
210
0.0
220
0.0
230
1.0
 70
     8
 71
     3
 72
    14
 73
    10
 74
     0
 42
0.000000001
 43
0.0000000001
 40
0.0
 40
0.0
 40
0.0
 40
0.0
 40
1.0
 40
1.0
 40
1.0
 40
2.0
 40
2.0
 40
2.0
 40
3.0
 40
3.0
 40
3.0
 40
3.0
 10
20936.65520998328
 20
-17445.46617908441
 30
0.0
 10
20936.62460649088
 20
-17445.21006224885
 30
0.0
 10
20936.49557793357
 20
-17444.95297527375
 30
0.0
 10
20936.27553264957
 20
-17444.75533139342
 30
0.0
 10
20935.83544208158
 20
-17444.36022002175
 30
0.0
 10
20935.19744304974
 20
-17444.35325265605
 30
0.0
 10
20934.850574071
 20
-17444.73963277196
 30
0.0
 10
20934.850574071
 20
-17444.73963277196
 30
0.0
 10
20933.43725716678
 20
-17446.20692471178
 30
0.0
 10
20933.43725716678
 20
-17446.20692471178
 30
0.0
  0
SPLINE
  5
3A7699
330
18
100
AcDbEntity
  8
姿図
100
AcDbSpline
210
0.0
220
0.0
230
1.0
 70
     8
 71
     3
 72
    14
 73
    10
 74
     0
 42
0.000000001
 43
0.0000000001
 40
0.0
 40
0.0
 40
0.0
 40
0.0
 40
1.0
 40
1.0
 40
1.0
 40
2.0
 40
2.0
 40
2.0
 40
3.0
 40
3.0
 40
3.0
 40
3.0
 10
20936.25216110638
 20
-17445.89127658696
 30
0.0
 10
20936.20056732236
 20
-17445.79320430006
 30
0.0
 10
20936.12992352577
 20
-17445.70095285034
 30
0.0
 10
20936.04075888364
 20
-17445.62078404747
 30
0.0
 10
20935.6838357316
 20
-17445.30037341951
 30
0.0
 10
20935.16639858483
 20
-17445.29472897134
 30
0.0
 10
20934.88505812152
 20
-17445.6080840391
 30
0.0
 10
20934.88505812152
 20
-17445.6080840391
 30
0.0
 10
20934.15392569493
 20
-17446.50696240963
 30
0.0
 10
20934.15392569493
 20
-17446.50696240963
 30
0.0
  0
SPLINE
  5
3A769A
330
18
100
AcDbEntity
  8
姿図
100
AcDbSpline
210
0.0
220
0.0
230
1.0
 70
     8
 71
     3
 72
    11
 73
     7
 74
     0
 42
0.000000001
 43
0.0000000001
 40
0.0
 40
0.0
 40
0.0
 40
0.0
 40
1.0
 40
1.0
 40
1.0
 40
2.0
 40
2.0
 40
2.0
 40
2.0
 10
20930.83728323002
 20
-17472.45678368877
 30
0.0
 10
20930.83728323002
 20
-17472.45678368877
 30
0.0
 10
20932.82016023206
 20
-17468.06028773397
 30
0.0
 10
20932.82016023206
 20
-17468.06028773397
 30
0.0
 10
20932.82016023206
 20
-17468.06028773397
 30
0.0
 10
20932.90676723361
 20
-17467.68281526282
 30
0.0
 10
20933.34800433014
 20
-17468.06028773397
 30
0.0
  0
SPLINE
  5
3A769B
330
18
100
AcDbEntity
  8
姿図
100
AcDbSpline
210
0.0
220
0.0
230
1.0
 70
     8
 71
     3
 72
     8
 73
     4
 74
     0
 42
0.000000001
 43
0.0000000001
 40
0.0
 40
0.0
 40
0.0
 40
0.0
 40
1.0
 40
1.0
 40
1.0
 40
1.0
 10
20929.85373813698
 20
-17470.63292137492
 30
0.0
 10
20930.34462873847
 20
-17469.73598328344
 30
0.0
 10
20931.25885295246
 20
-17467.59885409634
 30
0.0
 10
20931.82761929975
 20
-17463.40308882947
 30
0.0
  0
SPLINE
  5
3A769C
330
18
100
AcDbEntity
  8
姿図
100
AcDbSpline
210
0.0
220
0.0
230
1.0
 70
     8
 71
     3
 72
     8
 73
     4
 74
     0
 42
0.000000001
 43
0.0000000001
 40
0.0
 40
0.0
 40
0.0
 40
0.0
 40
1.0
 40
1.0
 40
1.0
 40
1.0
 10
20916.9192205796
 20
-17460.45906813805
 30
0.0
 10
20917.6745182999
 20
-17459.85008509757
 30
0.0
 10
20919.77989746606
 20
-17458.31356047321
 30
0.0
 10
20923.33316578146
 20
-17456.91126788181
 30
0.0
  0
SPLINE
  5
3A769D
330
18
100
AcDbEntity
  8
姿図
100
AcDbSpline
210
0.0
220
0.0
230
1.0
 70
     8
 71
     3
 72
     8
 73
     4
 74
     0
 42
0.000000001
 43
0.0000000001
 40
0.0
 40
0.0
 40
0.0
 40
0.0
 40
1.0
 40
1.0
 40
1.0
 40
1.0
 10
20931.86377904582
 20
-17475.30599528989
 30
0.0
 10
20932.57921285094
 20
-17478.18589857791
 30
0.0
 10
20932.33464949522
 20
-17480.73225025709
 30
0.0
 10
20930.73876997061
 20
-17482.64113207144
 30
0.0
  0
SPLINE
  5
3A769E
330
18
100
AcDbEntity
  8
姿図
100
AcDbSpline
210
0.0
220
0.0
230
1.0
 70
     8
 71
     3
 72
    11
 73
     7
 74
     0
 42
0.000000001
 43
0.0000000001
 40
0.0
 40
0.0
 40
0.0
 40
0.0
 40
1.0
 40
1.0
 40
1.0
 40
2.0
 40
2.0
 40
2.0
 40
2.0
 10
20914.00915477169
 20
-17459.83218161354
 30
0.0
 10
20917.45226815334
 20
-17460.24113952212
 30
0.0
 10
20921.34076377314
 20
-17461.95511148572
 30
0.0
 10
20924.80980633856
 20
-17464.85529950935
 30
0.0
 10
20927.59066720016
 20
-17467.18028298698
 30
0.0
 10
20929.66897065402
 20
-17469.90549311744
 30
0.0
 10
20930.90563396953
 20
-17472.6035393411
 30
0.0
  0
SPLINE
  5
3A769F
330
18
100
AcDbEntity
  8
姿図
100
AcDbSpline
210
0.0
220
0.0
230
1.0
 70
     8
 71
     3
 72
     8
 73
     4
 74
     0
 42
0.000000001
 43
0.0000000001
 40
0.0
 40
0.0
 40
0.0
 40
0.0
 40
1.0
 40
1.0
 40
1.0
 40
1.0
 10
20911.10685008
 20
-17459.81330798999
 30
0.0
 10
20911.50240242418
 20
-17459.7663003201
 30
0.0
 10
20911.90915547019
 20
-17459.74090030335
 30
0.0
 10
20912.32552171698
 20
-17459.73701974523
 30
0.0
  0
SPLINE
  5
3A76A0
330
18
100
AcDbEntity
  8
姿図
100
AcDbSpline
210
0.0
220
0.0
230
1.0
 70
     8
 71
     3
 72
     8
 73
     4
 74
     0
 42
0.000000001
 43
0.0000000001
 40
0.0
 40
0.0
 40
0.0
 40
0.0
 40
1.0
 40
1.0
 40
1.0
 40
1.0
 10
20906.14714403157
 20
-17462.11985881658
 30
0.0
 10
20907.4284337654
 20
-17460.80770100684
 30
0.0
 10
20909.07255568294
 20
-17460.05531370513
 30
0.0
 10
20911.10685008
 20
-17459.81330798999
 30
0.0
  0
SPLINE
  5
3A76A1
330
18
100
AcDbEntity
  8
姿図
100
AcDbSpline
210
0.0
220
0.0
230
1.0
 70
     8
 71
     3
 72
    11
 73
     7
 74
     0
 42
0.000000001
 43
0.0000000001
 40
0.0
 40
0.0
 40
0.0
 40
0.0
 40
1.0
 40
1.0
 40
1.0
 40
2.0
 40
2.0
 40
2.0
 40
2.0
 10
20920.94800006967
 20
-17455.52778436655
 30
0.0
 10
20920.94800006967
 20
-17455.52778436655
 30
0.0
 10
20915.58280928164
 20
-17459.4075250835
 30
0.0
 10
20915.58280928164
 20
-17459.4075250835
 30
0.0
 10
20915.58280928164
 20
-17459.4075250835
 30
0.0
 10
20914.51715510669
 20
-17459.88395178657
 30
0.0
 10
20914.00924296619
 20
-17459.83262258605
 30
0.0
  0
SPLINE
  5
3A76A2
330
18
100
AcDbEntity
  8
姿図
100
AcDbSpline
210
0.0
220
0.0
230
1.0
 70
     8
 71
     3
 72
     8
 73
     4
 74
     0
 42
0.000000001
 43
0.0000000001
 40
0.0
 40
0.0
 40
0.0
 40
0.0
 40
1.0
 40
1.0
 40
1.0
 40
1.0
 10
20931.5616246799
 20
-17472.6882060636
 30
0.0
 10
20931.5616246799
 20
-17472.6882060636
 30
0.0
 10
20931.42254194929
 20
-17473.30874258392
 30
0.0
 10
20931.59751984246
 20
-17474.27747100052
 30
0.0
  0
SPLINE
  5
3A76A3
330
18
100
AcDbEntity
  8
姿図
100
AcDbSpline
210
0.0
220
0.0
230
1.0
 70
     8
 71
     3
 72
    17
 73
    13
 74
     0
 42
0.000000001
 43
0.0000000001
 40
0.044386709586503
 40
0.044386709586503
 40
0.044386709586503
 40
0.044386709586503
 40
1.0
 40
1.0
 40
1.0
 40
2.0
 40
2.0
 40
2.0
 40
3.0
 40
3.0
 40
3.0
 40
3.958697295048005
 40
3.958697295048005
 40
3.958697295048005
 40
3.958697295048005
 10
20899.13287927087
 20
-17471.9448448699
 30
0.0
 10
20899.12808640499
 20
-17470.43981863554
 30
0.0
 10
20899.5354693173
 20
-17469.1103744626
 30
0.0
 10
20900.40136038144
 20
-17468.07457524339
 30
0.0
 10
20903.61772569689
 20
-17464.2271782618
 30
0.0
 10
20911.94328674269
 20
-17465.88982102488
 30
0.0
 10
20918.99752403346
 20
-17471.787211025
 30
0.0
 10
20926.05149674072
 20
-17477.68477741412
 30
0.0
 10
20929.16255782007
 20
-17485.58400623433
 30
0.0
 10
20925.94610431011
 20
-17489.43140321592
 30
0.0
 10
20925.11783457281
 20
-17490.42201246891
 30
0.0
 10
20923.95073565838
 20
-17491.04736711133
 30
0.0
 10
20922.55391469608
 20
-17491.32922639976
 30
0.0
  0
SPLINE
  5
3A76A4
330
18
100
AcDbEntity
  8
姿図
100
AcDbSpline
210
0.0
220
0.0
230
1.0
 70
     8
 71
     3
 72
    11
 73
     7
 74
     0
 42
0.000000001
 43
0.0000000001
 40
0.0
 40
0.0
 40
0.0
 40
0.0
 40
1.0
 40
1.0
 40
1.0
 40
2.0
 40
2.0
 40
2.0
 40
2.0
 10
20900.7962953641
 20
-17469.7717902515
 30
0.0
 10
20903.60246804795
 20
-17466.45338389653
 30
0.0
 10
20911.11637508628
 20
-17468.19434337792
 30
0.0
 10
20917.5794446261
 20
-17473.65993309328
 30
0.0
 10
20924.0422495824
 20
-17479.12552280865
 30
0.0
 10
20927.00673139843
 20
-17486.24617055988
 30
0.0
 10
20924.20011774206
 20
-17489.56457691485
 30
0.0
  0
POLYLINE
  5
3A76A5
330
18
100
AcDbEntity
  8
姿図
100
AcDb2dPolyline
 66
     1
 10
0.0
 20
0.0
 30
0.0
  0
VERTEX
  5
3A76A6
330
3A76A5
100
AcDbEntity
  8
姿図
100
AcDbVertex
100
AcDb2dVertex
 10
20902.38106238138
 20
-17465.66827643435
 30
0.0
  0
VERTEX
  5
3A76A7
330
3A76A5
100
AcDbEntity
  8
姿図
100
AcDbVertex
100
AcDb2dVertex
 10
20906.14714403157
 20
-17462.11985881658
 30
0.0
  0
SEQEND
  5
3A76A8
330
3A76A5
100
AcDbEntity
  8
姿図
  0
SPLINE
  5
3A76A9
330
18
100
AcDbEntity
  8
姿図
100
AcDbSpline
210
0.0
220
0.0
230
1.0
 70
     8
 71
     3
 72
    17
 73
    13
 74
     0
 42
0.000000001
 43
0.0000000001
 40
0.0
 40
0.0
 40
0.0
 40
0.0
 40
1.0
 40
1.0
 40
1.0
 40
2.0
 40
2.0
 40
2.0
 40
3.0
 40
3.0
 40
3.0
 40
4.0
 40
4.0
 40
4.0
 40
4.0
 10
20925.94610431011
 20
-17489.43140321592
 30
0.0
 10
20925.94610431011
 20
-17489.43140321592
 30
0.0
 10
20927.686622819
 20
-17487.24135732726
 30
0.0
 10
20927.686622819
 20
-17487.24135732726
 30
0.0
 10
20931.02337363051
 20
-17483.25055608444
 30
0.0
 10
20928.0152355357
 20
-17475.23967302393
 30
0.0
 10
20920.96875936116
 20
-17469.34810386099
 30
0.0
 10
20913.9217540196
 20
-17463.45671108705
 30
0.0
 10
20905.5045588856
 20
-17461.91560034855
 30
0.0
 10
20902.1682490466
 20
-17465.90657798038
 30
0.0
 10
20902.1682490466
 20
-17465.90657798038
 30
0.0
 10
20900.69989877275
 20
-17467.74825558375
 30
0.0
 10
20900.69989877275
 20
-17467.74825558375
 30
0.0
  0
SPLINE
  5
3A76AA
330
18
100
AcDbEntity
  8
姿図
100
AcDbSpline
210
0.0
220
0.0
230
1.0
 70
     8
 71
     3
 72
    14
 73
    10
 74
     0
 42
0.000000001
 43
0.0000000001
 40
0.0
 40
0.0
 40
0.0
 40
0.0
 40
1.0
 40
1.0
 40
1.0
 40
2.0
 40
2.0
 40
2.0
 40
3.0
 40
3.0
 40
3.0
 40
3.0
 10
20928.26209194848
 20
-17486.40492066456
 30
0.0
 10
20928.26209194848
 20
-17486.40492066456
 30
0.0
 10
20930.63417129052
 20
-17482.8328669201
 30
0.0
 10
20930.63417129052
 20
-17482.8328669201
 30
0.0
 10
20933.53391834163
 20
-17478.43231401818
 30
0.0
 10
20930.81347071431
 20
-17470.71406031731
 30
0.0
 10
20924.29131085776
 20
-17465.26081783232
 30
0.0
 10
20918.6432467165
 20
-17460.53888416291
 30
0.0
 10
20911.77924496785
 20
-17458.95305881158
 30
0.0
 10
20907.59256373475
 20
-17460.96653930603
 30
0.0
  0
SPLINE
  5
3A76AB
330
18
100
AcDbEntity
  8
姿図
100
AcDbSpline
210
0.0
220
0.0
230
1.0
 70
     8
 71
     3
 72
    14
 73
    10
 74
     0
 42
0.000000001
 43
0.0000000001
 40
0.0
 40
0.0
 40
0.0
 40
0.0
 40
1.0
 40
1.0
 40
1.0
 40
2.0
 40
2.0
 40
2.0
 40
3.0
 40
3.0
 40
3.0
 40
3.0
 10
20939.01626501249
 20
-17461.96093232289
 30
0.0
 10
20939.01626501249
 20
-17461.96093232289
 30
0.0
 10
20938.8609544934
 20
-17461.93623786216
 30
0.0
 10
20938.8609544934
 20
-17461.93623786216
 30
0.0
 10
20938.27657771915
 20
-17461.93623786216
 30
0.0
 10
20937.80270865666
 20
-17462.92578018138
 30
0.0
 10
20937.80270865666
 20
-17464.14656848642
 30
0.0
 10
20937.80270865666
 20
-17465.01263850199
 30
0.0
 10
20938.0412747862
 20
-17465.76246816312
 30
0.0
 10
20938.38840834845
 20
-17466.12494756883
 30
0.0
  0
ARC
  5
3A76AC
330
18
100
AcDbEntity
  8
姿図
100
AcDbCircle
 10
20921.70025533229
 20
-17477.38835120589
 30
0.0
 40
10.37465278630733
100
AcDbArc
 50
17.44882884848328
 51
27.46470538246481
  0
SPLINE
  5
3A76AD
330
18
100
AcDbEntity
  8
姿図
100
AcDbSpline
210
0.0
220
0.0
230
1.0
 70
     8
 71
     3
 72
    17
 73
    13
 74
     0
 42
0.000000001
 43
0.0000000001
 40
0.0
 40
0.0
 40
0.0
 40
0.0
 40
1.0
 40
1.0
 40
1.0
 40
2.0
 40
2.0
 40
2.0
 40
3.0
 40
3.0
 40
3.0
 40
4.0
 40
4.0
 40
4.0
 40
4.0
 10
20920.66001184908
 20
-17449.50020342459
 30
0.0
 10
20920.66001184908
 20
-17449.50020342459
 30
0.0
 10
20920.39963611636
 20
-17449.17365802981
 30
0.0
 10
20920.39963611636
 20
-17449.17365802981
 30
0.0
 10
20920.39963611636
 20
-17449.17365802981
 30
0.0
 10
20920.34893672851
 20
-17449.09530443041
 30
0.0
 10
20920.40018920058
 20
-17449.02506273306
 30
0.0
 10
20920.43097755612
 20
-17448.98284397009
 30
0.0
 10
20920.49845383231
 20
-17448.94357498968
 30
0.0
 10
20920.63561872162
 20
-17448.92587629428
 30
0.0
 10
20920.63561872162
 20
-17448.92587629428
 30
0.0
 10
20920.95064628157
 20
-17449.25210380992
 30
0.0
 10
20920.95064628157
 20
-17449.25210380992
 30
0.0
  0
POLYLINE
  5
3A76AE
330
18
100
AcDbEntity
  8
姿図
100
AcDb2dPolyline
 66
     1
 10
0.0
 20
0.0
 30
0.0
  0
VERTEX
  5
3A76AF
330
3A76AE
100
AcDbEntity
  8
姿図
100
AcDbVertex
100
AcDb2dVertex
 10
20920.43540222997
 20
-17448.99104805285
 30
0.0
  0
VERTEX
  5
3A76B0
330
3A76AE
100
AcDbEntity
  8
姿図
100
AcDbVertex
100
AcDb2dVertex
 10
20921.63854479399
 20
-17447.45098501139
 30
0.0
  0
VERTEX
  5
3A76B1
330
3A76AE
100
AcDbEntity
  8
姿図
100
AcDbVertex
100
AcDb2dVertex
 10
20922.65315271297
 20
-17446.48459739064
 30
0.0
  0
SEQEND
  5
3A76B2
330
3A76AE
100
AcDbEntity
  8
姿図
  0
POLYLINE
  5
3A76B3
330
18
100
AcDbEntity
  8
姿図
100
AcDb2dPolyline
 66
     1
 10
0.0
 20
0.0
 30
0.0
  0
VERTEX
  5
3A76B4
330
3A76B3
100
AcDbEntity
  8
姿図
100
AcDbVertex
100
AcDb2dVertex
 10
20920.63561872162
 20
-17448.92587629428
 30
0.0
  0
VERTEX
  5
3A76B5
330
3A76B3
100
AcDbEntity
  8
姿図
100
AcDbVertex
100
AcDb2dVertex
 10
20921.81553174793
 20
-17447.43918588113
 30
0.0
  0
VERTEX
  5
3A76B6
330
3A76B3
100
AcDbEntity
  8
姿図
100
AcDbVertex
100
AcDb2dVertex
 10
20922.73586390846
 20
-17446.56577369954
 30
0.0
  0
SEQEND
  5
3A76B7
330
3A76B3
100
AcDbEntity
  8
姿図
  0
ARC
  5
3A76B8
330
18
100
AcDbEntity
  8
寸法線
 62
     8
100
AcDbCircle
 10
20925.16231324442
 20
-17379.75920970515
 30
0.0
 40
49.8268590305516
100
AcDbArc
 50
260.0933935589096
 51
270.3004738471657
  0
ARC
  5
3A76B9
330
18
100
AcDbEntity
  8
寸法線
 62
     8
100
AcDbCircle
 10
20927.2615872357
 20
-17359.10987962368
 30
0.0
 40
71.24555766151182
100
AcDbArc
 50
261.3715723392093
 51
268.3995539032964
  0
ARC
  5
3A76BA
330
18
100
AcDbEntity
  8
寸法線
 62
     8
100
AcDbCircle
 10
20929.70696177047
 20
-17366.56756870075
 30
0.0
 40
63.05125539892335
100
AcDbArc
 50
270.8295447480111
 51
279.0068605004225
  0
ARC
  5
3A76BB
330
18
100
AcDbEntity
  8
寸法線
 62
     8
100
AcDbCircle
 10
20931.33653808664
 20
-17382.0201330747
 30
0.0
 40
48.31834719616385
100
AcDbArc
 50
269.3363723999649
 51
279.8043528138588
  0
SPLINE
  5
3A76BC
330
18
100
AcDbEntity
  8
姿図
100
AcDbSpline
210
0.0
220
0.0
230
1.0
 70
    11
 71
     3
 72
    17
 73
    13
 74
     0
 42
0.000000001
 43
0.0000000001
 40
0.0
 40
0.0
 40
0.0
 40
0.0
 40
1.0
 40
1.0
 40
1.0
 40
2.0
 40
2.0
 40
2.0
 40
3.0
 40
3.0
 40
3.0
 40
4.0
 40
4.0
 40
4.0
 40
4.0
 10
20916.52406191051
 20
-17497.78557371635
 30
0.0
 10
20913.86579140753
 20
-17501.04753558965
 30
0.0
 10
20906.58471785607
 20
-17499.51365680037
 30
0.0
 10
20900.26055465786
 20
-17494.35992284622
 30
0.0
 10
20893.93674423766
 20
-17489.20583611405
 30
0.0
 10
20890.96503047242
 20
-17482.38381494864
 30
0.0
 10
20893.6233009754
 20
-17479.12202946434
 30
0.0
 10
20896.28165967288
 20
-17475.86024398003
 30
0.0
 10
20903.56290961335
 20
-17477.39394638031
 30
0.0
 10
20909.88707281157
 20
-17482.54768033448
 30
0.0
 10
20916.21088323177
 20
-17487.70159067763
 30
0.0
 10
20919.18277338601
 20
-17494.52361184304
 30
0.0
 10
20916.52406191051
 20
-17497.78557371635
 30
0.0
  0
SPLINE
  5
3A76BD
330
18
100
AcDbEntity
  8
姿図
100
AcDbSpline
210
0.0
220
0.0
230
1.0
 70
    11
 71
     3
 72
    17
 73
    13
 74
     0
 42
0.000000001
 43
0.0000000001
 40
0.0
 40
0.0
 40
0.0
 40
0.0
 40
1.0
 40
1.0
 40
1.0
 40
2.0
 40
2.0
 40
2.0
 40
3.0
 40
3.0
 40
3.0
 40
4.0
 40
4.0
 40
4.0
 40
4.0
 10
20916.27561799668
 20
-17497.72930562369
 30
0.0
 10
20913.73905590729
 20
-17500.84204239859
 30
0.0
 10
20906.63569427858
 20
-17499.25171912764
 30
0.0
 10
20900.40925058925
 20
-17494.17753661483
 30
0.0
 10
20894.18307148343
 20
-17489.10317771302
 30
0.0
 10
20891.19195492762
 20
-17482.46654139208
 30
0.0
 10
20893.72851701701
 20
-17479.35398100618
 30
0.0
 10
20896.2651673009
 20
-17476.2415970093
 30
0.0
 10
20903.36870531862
 20
-17477.83156750223
 30
0.0
 10
20909.59514900795
 20
-17482.90592640405
 30
0.0
 10
20915.82132811377
 20
-17487.98028530586
 30
0.0
 10
20918.81253286408
 20
-17494.6167452378
 30
0.0
 10
20916.27561799668
 20
-17497.72930562369
 30
0.0
  0
POLYLINE
  5
3A76BE
330
18
100
AcDbEntity
  8
姿図
100
AcDb2dPolyline
 66
     1
 10
0.0
 20
0.0
 30
0.0
  0
VERTEX
  5
3A76BF
330
3A76BE
100
AcDbEntity
  8
姿図
100
AcDbVertex
100
AcDb2dVertex
 10
20900.83166135964
 20
-17469.72998605726
 30
0.0
  0
VERTEX
  5
3A76C0
330
3A76BE
100
AcDbEntity
  8
姿図
100
AcDbVertex
100
AcDb2dVertex
 10
20893.68197263789
 20
-17479.05169434328
 30
0.0
  0
SEQEND
  5
3A76C1
330
3A76BE
100
AcDbEntity
  8
姿図
  0
POLYLINE
  5
3A76C2
330
18
100
AcDbEntity
  8
姿図
100
AcDb2dPolyline
 66
     1
 10
0.0
 20
0.0
 30
0.0
  0
VERTEX
  5
3A76C3
330
3A76C2
100
AcDbEntity
  8
姿図
100
AcDbVertex
100
AcDb2dVertex
 10
20924.20011774206
 20
-17489.56457691485
 30
0.0
  0
VERTEX
  5
3A76C4
330
3A76C2
100
AcDbEntity
  8
姿図
100
AcDbVertex
100
AcDb2dVertex
 10
20916.46625965246
 20
-17497.85489609966
 30
0.0
  0
SEQEND
  5
3A76C5
330
3A76C2
100
AcDbEntity
  8
姿図
  0
SPLINE
  5
3A76C6
330
18
100
AcDbEntity
  8
姿図
100
AcDbSpline
210
0.0
220
0.0
230
1.0
 70
     8
 71
     3
 72
    11
 73
     7
 74
     0
 42
0.000000001
 43
0.0000000001
 40
0.0514768077159905
 40
0.0514768077159905
 40
0.0514768077159905
 40
0.0514768077159905
 40
1.0
 40
1.0
 40
1.0
 40
1.99935959912693
 40
1.99935959912693
 40
1.99935959912693
 40
1.99935959912693
 10
20916.64362669934
 20
-17496.33422125005
 30
0.0
 10
20913.70258327866
 20
-17498.6726393158
 30
0.0
 10
20907.26601397668
 20
-17497.10545768338
 30
0.0
 10
20901.63982848408
 20
-17492.52018552189
 30
0.0
 10
20895.8644082662
 20
-17487.81326255403
 30
0.0
 10
20893.03117703502
 20
-17481.62780219938
 30
0.0
 10
20895.02140875756
 20
-17478.33284582417
 30
0.0
  0
SPLINE
  5
3A76C7
330
18
100
AcDbEntity
  8
姿図
100
AcDbSpline
210
0.0
220
0.0
230
1.0
 70
     8
 71
     3
 72
    11
 73
     7
 74
     0
 42
0.000000001
 43
0.0000000001
 40
0.0757593931857056
 40
0.0757593931857056
 40
0.0757593931857056
 40
0.0757593931857056
 40
1.0
 40
1.0
 40
1.0
 40
1.955653258244389
 40
1.955653258244389
 40
1.955653258244389
 40
1.955653258244389
 10
20916.8418857288
 20
-17495.9650948106
 30
0.0
 10
20913.80449199276
 20
-17498.04936455638
 30
0.0
 10
20907.5529165732
 20
-17496.44701705661
 30
0.0
 10
20902.07076375287
 20
-17491.97912975621
 30
0.0
 10
20896.54792777494
 20
-17487.4780609973
 30
0.0
 10
20893.71555885228
 20
-17481.62495260154
 30
0.0
 10
20895.21873960922
 20
-17478.24031883884
 30
0.0
  0
SPLINE
  5
3A76C8
330
18
100
AcDbEntity
  8
姿図
100
AcDbSpline
210
0.0
220
0.0
230
1.0
 70
     8
 71
     3
 72
    11
 73
     7
 74
     0
 42
0.000000001
 43
0.0000000001
 40
0.1032501974754412
 40
0.1032501974754412
 40
0.1032501974754412
 40
0.1032501974754412
 40
1.0
 40
1.0
 40
1.0
 40
1.916038734962438
 40
1.916038734962438
 40
1.916038734962438
 40
1.916038734962438
 10
20916.99336028746
 20
-17495.60026065799
 30
0.0
 10
20913.86421167186
 20
-17497.41045248372
 30
0.0
 10
20907.82078955155
 20
-17495.77306752445
 30
0.0
 10
20902.50169902166
 20
-17491.43807399052
 30
0.0
 10
20897.20780017395
 20
-17487.12358722838
 30
0.0
 10
20894.38593661132
 20
-17481.56682928415
 30
0.0
 10
20895.4849742491
 20
-17478.13262379819
 30
0.0
  0
SPLINE
  5
3A76C9
330
18
100
AcDbEntity
  8
姿図
100
AcDbSpline
210
0.0
220
0.0
230
1.0
 70
     8
 71
     3
 72
    11
 73
     7
 74
     0
 42
0.000000001
 43
0.0000000001
 40
0.1323499937987221
 40
0.1323499937987221
 40
0.1323499937987221
 40
0.1323499937987221
 40
1.0
 40
1.0
 40
1.0
 40
1.878224141983641
 40
1.878224141983641
 40
1.878224141983641
 40
1.878224141983641
 10
20917.1105881166
 20
-17495.22456318035
 30
0.0
 10
20913.90368800699
 20
-17496.76028882525
 30
0.0
 10
20908.07911875942
 20
-17495.09133993643
 30
0.0
 10
20902.93263429045
 20
-17490.89701822483
 30
0.0
 10
20897.85727055764
 20
-17486.76063589714
 30
0.0
 10
20895.05406066018
 20
-17481.48242875492
 30
0.0
 10
20895.79974556902
 20
-17478.02748014802
 30
0.0
  0
SPLINE
  5
3A76CA
330
18
100
AcDbEntity
  8
姿図
100
AcDbSpline
210
0.0
220
0.0
230
1.0
 70
     8
 71
     3
 72
    11
 73
     7
 74
     0
 42
0.000000001
 43
0.0000000001
 40
0.1641920493002541
 40
0.1641920493002541
 40
0.1641920493002541
 40
0.1641920493002541
 40
1.0
 40
1.0
 40
1.0
 40
1.841127923927267
 40
1.841127923927267
 40
1.841127923927267
 40
1.841127923927267
 10
20917.17803767096
 20
-17494.83967220575
 30
0.0
 10
20913.90802255306
 20
-17496.09333365309
 30
0.0
 10
20908.32118219864
 20
-17494.39635594649
 30
0.0
 10
20903.36356955923
 20
-17490.35596245915
 30
0.0
 10
20898.50258936561
 20
-17486.39430106368
 30
0.0
 10
20895.72586531801
 20
-17481.38523902555
 30
0.0
 10
20896.15508737946
 20
-17477.93377164814
 30
0.0
  0
SPLINE
  5
3A76CB
330
18
100
AcDbEntity
  8
姿図
100
AcDbSpline
210
0.0
220
0.0
230
1.0
 70
     8
 71
     3
 72
    11
 73
     7
 74
     0
 42
0.000000001
 43
0.0000000001
 40
0.2012469607704792
 40
0.2012469607704792
 40
0.2012469607704792
 40
0.2012469607704792
 40
1.0
 40
1.0
 40
1.0
 40
1.804139848512499
 40
1.804139848512499
 40
1.804139848512499
 40
1.804139848512499
 10
20917.16064740637
 20
-17494.44801107661
 30
0.0
 10
20913.84481792649
 20
-17495.39720340652
 30
0.0
 10
20908.53232547178
 20
-17493.67617240049
 30
0.0
 10
20903.79450482803
 20
-17489.81490669346
 30
0.0
 10
20899.14728320414
 20
-17486.02745688496
 30
0.0
 10
20896.40504042169
 20
-17481.28269860619
 30
0.0
 10
20896.54790140213
 20
-17477.8568587125
 30
0.0
  0
SPLINE
  5
3A76CC
330
18
100
AcDbEntity
  8
姿図
100
AcDbSpline
210
0.0
220
0.0
230
1.0
 70
     8
 71
     3
 72
    11
 73
     7
 74
     0
 42
0.000000001
 43
0.0000000001
 40
0.2383717968276542
 40
0.2383717968276542
 40
0.2383717968276542
 40
0.2383717968276542
 40
1.0
 40
1.0
 40
1.0
 40
1.766855141465714
 40
1.766855141465714
 40
1.766855141465714
 40
1.766855141465714
 10
20917.11655672275
 20
-17494.02205455541
 30
0.0
 10
20913.78316136316
 20
-17494.69154234979
 30
0.0
 10
20908.74305398576
 20
-17492.95565083084
 30
0.0
 10
20904.22544009682
 20
-17489.27385092777
 30
0.0
 10
20899.79369131282
 20
-17485.66200982318
 30
0.0
 10
20897.09436439321
 20
-17481.17957525647
 30
0.0
 10
20896.9774745184
 20
-17477.80060924642
 30
0.0
  0
SPLINE
  5
3A76CD
330
18
100
AcDbEntity
  8
姿図
100
AcDbSpline
210
0.0
220
0.0
230
1.0
 70
     8
 71
     3
 72
    11
 73
     7
 74
     0
 42
0.000000001
 43
0.0000000001
 40
0.2759365766446367
 40
0.2759365766446367
 40
0.2759365766446367
 40
0.2759365766446367
 40
1.0
 40
1.0
 40
1.0
 40
1.728960078216898
 40
1.728960078216898
 40
1.728960078216898
 40
1.728960078216898
 10
20917.04207812704
 20
-17493.56256052126
 30
0.0
 10
20913.71819457337
 20
-17493.97451875361
 30
0.0
 10
20908.95117296396
 20
-17492.23300252156
 30
0.0
 10
20904.6563753656
 20
-17488.73279516209
 30
0.0
 10
20900.44362674395
 20
-17485.29943750202
 30
0.0
 10
20897.79631109862
 20
-17481.07940325781
 30
0.0
 10
20897.44455459887
 20
-17477.76832607558
 30
0.0
  0
SPLINE
  5
3A76CE
330
18
100
AcDbEntity
  8
姿図
100
AcDbSpline
210
0.0
220
0.0
230
1.0
 70
     8
 71
     3
 72
    11
 73
     7
 74
     0
 42
0.000000001
 43
0.0000000001
 40
0.3142573428806394
 40
0.3142573428806394
 40
0.3142573428806394
 40
0.3142573428806394
 40
1.0
 40
1.0
 40
1.0
 40
1.690173445998052
 40
1.690173445998052
 40
1.690173445998052
 40
1.690173445998052
 10
20916.93342497653
 20
-17493.06887572086
 30
0.0
 10
20913.64586713489
 20
-17493.24419877492
 30
0.0
 10
20909.15480779264
 20
-17491.50669968542
 30
0.0
 10
20905.08731063439
 20
-17488.1917393964
 30
0.0
 10
20901.09871466019
 20
-17484.94106441653
 30
0.0
 10
20898.51339592455
 20
-17480.98520092883
 30
0.0
 10
20897.95102577974
 20
-17477.76326403245
 30
0.0
  0
SPLINE
  5
3A76CF
330
18
100
AcDbEntity
  8
姿図
100
AcDbSpline
210
0.0
220
0.0
230
1.0
 70
     8
 71
     3
 72
    11
 73
     7
 74
     0
 42
0.000000001
 43
0.0000000001
 40
0.3536413394393382
 40
0.3536413394393382
 40
0.3536413394393382
 40
0.3536413394393382
 40
1.0
 40
1.0
 40
1.0
 40
1.650209421469303
 40
1.650209421469303
 40
1.650209421469303
 40
1.650209421469303
 10
20916.78632004156
 20
-17492.53916290872
 30
0.0
 10
20913.56233292835
 20
-17492.49836149905
 30
0.0
 10
20909.35213604804
 20
-17490.77525706942
 30
0.0
 10
20905.51824590318
 20
-17487.65068363071
 30
0.0
 10
20901.76060686926
 20
-17484.58823677724
 30
0.0
 10
20899.24843850628
 20
-17480.89990390507
 30
0.0
 10
20898.49988001998
 20
-17477.78900343724
 30
0.0
  0
SPLINE
  5
3A76D0
330
18
100
AcDbEntity
  8
姿図
100
AcDbSpline
210
0.0
220
0.0
230
1.0
 70
     8
 71
     3
 72
    11
 73
     7
 74
     0
 42
0.000000001
 43
0.0000000001
 40
0.3944223840632796
 40
0.3944223840632796
 40
0.3944223840632796
 40
0.3944223840632796
 40
1.0
 40
1.0
 40
1.0
 40
1.60874644322287
 40
1.60874644322287
 40
1.60874644322287
 40
1.60874644322287
 10
20916.59558172413
 20
-17491.97036406589
 30
0.0
 10
20913.4634938939
 20
-17491.73429332012
 30
0.0
 10
20909.54117768312
 20
-17490.03706095951
 30
0.0
 10
20905.94918117197
 20
-17487.10962786503
 30
0.0
 10
20902.43116171349
 20
-17484.24246911885
 30
0.0
 10
20900.00483358762
 20
-17480.82670304072
 30
0.0
 10
20899.09539947224
 20
-17477.84981370854
 30
0.0
  0
SPLINE
  5
3A76D1
330
18
100
AcDbEntity
  8
姿図
100
AcDbSpline
210
0.0
220
0.0
230
1.0
 70
     8
 71
     3
 72
    11
 73
     7
 74
     0
 42
0.000000001
 43
0.0000000001
 40
0.4369980186941804
 40
0.4369980186941804
 40
0.4369980186941804
 40
0.4369980186941804
 40
1.0
 40
1.0
 40
1.0
 40
1.565392169551839
 40
1.565392169551839
 40
1.565392169551839
 40
1.565392169551839
 10
20916.35457625101
 20
-17491.35792994859
 30
0.0
 10
20913.34453853916
 20
-17490.94850613709
 30
0.0
 10
20909.71957466941
 20
-17489.2901895914
 30
0.0
 10
20906.38011644076
 20
-17486.56857209934
 30
0.0
 10
20903.11264658315
 20
-17483.90560934695
 30
0.0
 10
20900.78690707673
 20
-17480.76939911156
 30
0.0
 10
20899.7435696146
 20
-17477.95111202842
 30
0.0
  0
SPLINE
  5
3A76D2
330
18
100
AcDbEntity
  8
姿図
100
AcDbSpline
210
0.0
220
0.0
230
1.0
 70
     8
 71
     3
 72
    11
 73
     7
 74
     0
 42
0.000000001
 43
0.0000000001
 40
0.481879997568997
 40
0.481879997568997
 40
0.481879997568997
 40
0.481879997568997
 40
1.0
 40
1.0
 40
1.0
 40
1.519633642026464
 40
1.519633642026464
 40
1.519633642026464
 40
1.519633642026464
 10
20916.05437192867
 20
-17490.6952409745
 30
0.0
 10
20913.19933093461
 20
-17490.13629414582
 30
0.0
 10
20909.88429152574
 20
-17488.5321690852
 30
0.0
 10
20906.81105170955
 20
-17486.02751633365
 30
0.0
 10
20903.80802592717
 20
-17483.58007346457
 30
0.0
 10
20901.60046593927
 20
-17480.73288539817
 30
0.0
 10
20900.45284299209
 20
-17478.10015603848
 30
0.0
  0
SPLINE
  5
3A76D3
330
18
100
AcDbEntity
  8
姿図
100
AcDbSpline
210
0.0
220
0.0
230
1.0
 70
     8
 71
     3
 72
    11
 73
     7
 74
     0
 42
0.000000001
 43
0.0000000001
 40
0.5297770028492169
 40
0.5297770028492169
 40
0.5297770028492169
 40
0.5297770028492169
 40
1.0
 40
1.0
 40
1.0
 40
1.470753821489875
 40
1.470753821489875
 40
1.470753821489875
 40
1.470753821489875
 10
20915.68227547156
 20
-17489.97249004763
 30
0.0
 10
20913.01942261032
 20
-17489.29095961505
 30
0.0
 10
20910.03112468882
 20
-17487.75957358836
 30
0.0
 10
20907.24198697834
 20
-17485.48646056796
 30
0.0
 10
20904.52144360171
 20
-17483.26923868255
 30
0.0
 10
20902.45375216246
 20
-17480.72393930048
 30
0.0
 10
20901.23555102058
 20
-17478.30723228698
 30
0.0
  0
SPLINE
  5
3A76D4
330
18
100
AcDbEntity
  8
姿図
100
AcDbSpline
210
0.0
220
0.0
230
1.0
 70
     8
 71
     3
 72
    11
 73
     7
 74
     0
 42
0.000000001
 43
0.0000000001
 40
0.0386121084381379
 40
0.0386121084381379
 40
0.0386121084381379
 40
0.0386121084381379
 40
1.0
 40
1.0
 40
1.0
 40
1.99935959912693
 40
1.99935959912693
 40
1.99935959912693
 40
1.99935959912693
 10
20916.44327154458
 20
-17496.73037270276
 30
0.0
 10
20913.4463938209
 20
-17499.25565086901
 30
0.0
 10
20906.91138594533
 20
-17497.70870291154
 30
0.0
 10
20901.20889321529
 20
-17493.06124128758
 30
0.0
 10
20895.43347299741
 20
-17488.35431831971
 30
0.0
 10
20892.60024176623
 20
-17482.16885796507
 30
0.0
 10
20894.59047348877
 20
-17478.87390158986
 30
0.0
  0
SPLINE
  5
3A76D5
330
18
100
AcDbEntity
  8
姿図
100
AcDbSpline
210
0.0
220
0.0
230
1.0
 70
     8
 71
     3
 72
    11
 73
     7
 74
     0
 42
0.000000001
 43
0.0000000001
 40
0.0386121084381379
 40
0.0386121084381379
 40
0.0386121084381379
 40
0.0386121084381379
 40
1.0
 40
1.0
 40
1.0
 40
1.99935959912693
 40
1.99935959912693
 40
1.99935959912693
 40
1.99935959912693
 10
20915.95849145329
 20
-17497.36751596918
 30
0.0
 10
20913.07446661608
 20
-17499.84519435905
 30
0.0
 10
20906.5394587405
 20
-17498.29824640158
 30
0.0
 10
20900.83696601047
 20
-17493.65078477762
 30
0.0
 10
20895.06154579259
 20
-17488.94386180976
 30
0.0
 10
20892.22831456141
 20
-17482.75840145511
 30
0.0
 10
20894.21854628395
 20
-17479.46344507989
 30
0.0
  0
SPLINE
  5
3A76D6
330
18
100
AcDbEntity
  8
姿図
100
AcDbSpline
210
0.0
220
0.0
230
1.0
 70
     8
 71
     3
 72
    11
 73
     7
 74
     0
 42
0.000000001
 43
0.0000000001
 40
0.5818723173054643
 40
0.5818723173054643
 40
0.5818723173054643
 40
0.5818723173054643
 40
1.0
 40
1.0
 40
1.0
 40
1.417796651066386
 40
1.417796651066386
 40
1.417796651066386
 40
1.417796651066386
 10
20915.2202665415
 20
-17489.17649416948
 30
0.0
 10
20912.79403084635
 20
-17488.40420355492
 30
0.0
 10
20910.15642221263
 20
-17486.96940672143
 30
0.0
 10
20907.67628896806
 20
-17484.94812855027
 30
0.0
 10
20905.26179149624
 20
-17482.98033171866
 30
0.0
 10
20903.36152341834
 20
-17480.75411933736
 30
0.0
 10
20902.1129463817
 20
-17478.58873019564
 30
0.0
  0
SPLINE
  5
3A76D7
330
18
100
AcDbEntity
  8
姿図
100
AcDbSpline
210
0.0
220
0.0
230
1.0
 70
     8
 71
     3
 72
    11
 73
     7
 74
     0
 42
0.000000001
 43
0.0000000001
 40
0.6396781780111179
 40
0.6396781780111179
 40
0.6396781780111179
 40
0.6396781780111179
 40
1.0
 40
1.0
 40
1.0
 40
1.358708750309475
 40
1.358708750309475
 40
1.358708750309475
 40
1.358708750309475
 10
20914.63378042153
 20
-17488.27734618459
 30
0.0
 10
20912.49868081125
 20
-17487.45521912339
 30
0.0
 10
20910.24448078896
 20
-17486.14891065738
 30
0.0
 10
20908.10722423685
 20
-17484.40707278458
 30
0.0
 10
20906.03420290331
 20
-17482.717576374
 30
0.0
 10
20904.34024416416
 20
-17480.83758974669
 30
0.0
 10
20903.11234668545
 20
-17478.96915724993
 30
0.0
  0
SPLINE
  5
3A76D8
330
18
100
AcDbEntity
  8
姿図
100
AcDbSpline
210
0.0
220
0.0
230
1.0
 70
     8
 71
     3
 72
    11
 73
     7
 74
     0
 42
0.000000001
 43
0.0000000001
 40
0.7067134213786423
 40
0.7067134213786423
 40
0.7067134213786423
 40
0.7067134213786423
 40
1.0
 40
1.0
 40
1.0
 40
1.290157983230625
 40
1.290157983230625
 40
1.290157983230625
 40
1.290157983230625
 10
20913.86220970937
 20
-17487.22747620399
 30
0.0
 10
20912.09490881282
 20
-17486.41303056506
 30
0.0
 10
20910.2777950857
 20
-17485.28379867698
 30
0.0
 10
20908.53815950564
 20
-17483.86601701889
 30
0.0
 10
20906.86130136149
 20
-17482.49939055454
 30
0.0
 10
20905.43246854769
 20
-17481.00812399212
 30
0.0
 10
20904.29770688863
 20
-17479.49915343716
 30
0.0
  0
SPLINE
  5
3A76D9
330
18
100
AcDbEntity
  8
姿図
100
AcDbSpline
210
0.0
220
0.0
230
1.0
 70
     8
 71
     3
 72
    11
 73
     7
 74
     0
 42
0.000000001
 43
0.0000000001
 40
0.7916731903329797
 40
0.7916731903329797
 40
0.7916731903329797
 40
0.7916731903329797
 40
1.0
 40
1.0
 40
1.0
 40
1.203459633550784
 40
1.203459633550784
 40
1.203459633550784
 40
1.203459633550784
 10
20912.7512013387
 20
-17485.90274550169
 30
0.0
 10
20911.4829430572
 20
-17485.19624900869
 30
0.0
 10
20910.20815639855
 20
-17484.33476118935
 30
0.0
 10
20908.97246149535
 20
-17483.3276850012
 30
0.0
 10
20907.79664361943
 20
-17482.36940249405
 30
0.0
 10
20906.74277622088
 20
-17481.34983624852
 30
0.0
 10
20905.82673458194
 20
-17480.30585477282
 30
0.0
  0
SPLINE
  5
3A76DA
330
18
100
AcDbEntity
  8
姿図
100
AcDbSpline
210
0.0
220
0.0
230
1.0
 70
     8
 71
     3
 72
    11
 73
     7
 74
     0
 42
0.000000001
 43
0.0000000001
 40
0.9558280587290073
 40
0.9558280587290073
 40
0.9558280587290073
 40
0.9558280587290073
 40
1.0
 40
1.0
 40
1.0
 40
1.035516544624892
 40
1.035516544624892
 40
1.035516544624892
 40
1.035516544624892
 10
20910.19425472975
 20
-17483.40750071967
 30
0.0
 10
20909.92916785233
 20
-17483.20714861021
 30
0.0
 10
20909.66540357344
 20
-17483.00016157112
 30
0.0
 10
20909.40339676414
 20
-17482.78662923551
 30
0.0
 10
20909.19814234914
 20
-17482.61934846913
 30
0.0
 10
20908.99660404278
 20
-17482.45020024773
 30
0.0
 10
20908.79886629102
 20
-17482.27938068728
 30
0.0
  0
ENDSEC
  0
SECTION
  2
OBJECTS
  0
DICTIONARY
  5
C
330
0
100
AcDbDictionary
281
     1
  3
ACAD_GROUP
350
D
  3
ACAD_IMAGE_VARS
350
2F1759
  3
ACAD_LAYOUT
350
353
  3
ACAD_MLINESTYLE
350
E
  3
ACAD_PLOTSETTINGS
350
354
  3
ACAD_PLOTSTYLENAME
350
351
  3
ACAD_SCALELIST
350
CD53
  3
AcadDim
350
5182D
  3
AcDbVariableDictionary
350
E0D
  3
AEC_DISP_REPS
350
3A6E41
  3
AEC_DISPLAY_PROPS_DEFAULTS
350
3A6E43
  3
AEC_VARS
350
3A6E3F
  3
APPDATA
350
2F1758
  3
DWGPROPS
350
3A79D0
  0
DICTIONARY
  5
559E
330
2
100
AcDbDictionary
280
     1
281
     1
  3
ACAD_LAYERFILTERS
360
29A509
  3
ACAD_LAYERSTATES
360
559F
  3
ACLYDICTIONARY
360
29A508
  0
DICTIONARY
  5
CD7F
330
F
100
AcDbDictionary
280
     1
281
     1
  3
ADSK_XREC_LAYER_RECONCILED
360
CD80
  0
DICTIONARY
  5
CD85
330
34
100
AcDbDictionary
280
     1
281
     1
  3
ADSK_XREC_LAYER_RECONCILED
360
CD86
  0
DICTIONARY
  5
CD8D
330
2F4
100
AcDbDictionary
280
     1
281
     1
  3
ADSK_XREC_LAYER_RECONCILED
360
CD8E
  0
DICTIONARY
  5
D25F
330
18
100
AcDbDictionary
280
     1
281
     1
  3
ACAD_SORTENTS
360
D260
  0
DICTIONARY
  5
D
102
{ACAD_REACTORS
330
C
102
}
330
C
100
AcDbDictionary
281
     1
  0
RASTERVARIABLES
  5
2F1759
102
{ACAD_REACTORS
330
C
102
}
330
C
100
AcDbRasterVariables
 90
        0
 70
     1
 71
     1
 72
     0
  0
DICTIONARY
  5
353
102
{ACAD_REACTORS
330
C
102
}
330
C
100
AcDbDictionary
281
     1
  3
Model
350
355
  3
ﾚｲｱｳﾄ1
350
356
  0
DICTIONARY
  5
E
102
{ACAD_REACTORS
330
C
102
}
330
C
100
AcDbDictionary
281
     1
  3
STANDARD
350
1B
  0
DICTIONARY
  5
354
102
{ACAD_REACTORS
330
C
102
}
330
C
100
AcDbDictionary
281
     1
  0
ACDBDICTIONARYWDFLT
  5
351
102
{ACAD_REACTORS
330
C
102
}
330
C
100
AcDbDictionary
281
     1
  3
Normal
350
352
100
AcDbDictionaryWithDefault
340
352
  0
DICTIONARY
  5
CD53
102
{ACAD_REACTORS
330
C
102
}
330
C
100
AcDbDictionary
281
     1
  3
A0
350
CD54
  3
A1
350
35DF8
  3
A2
350
35DF9
  3
A3
350
35DFA
  3
A4
350
35DFB
  3
A5
350
35DFC
  3
A6
350
35DFD
  3
A7
350
35DFE
  3
A8
350
35DFF
  3
A9
350
35E00
  3
B0
350
35E01
  3
B1
350
35E02
  3
B2
350
35E03
  3
B3
350
35E04
  3
B4
350
35E05
  3
B5
350
35E06
  3
B6
350
35E07
  3
B7
350
35E08
  3
B8
350
35E09
  3
B9
350
35E0A
  3
C0
350
35E0B
  3
C1
350
35E0C
  3
C2
350
35E0D
  3
C3
350
35E0E
  3
C4
350
35E0F
  3
C5
350
35E10
  3
C6
350
35E11
  3
C7
350
35E12
  3
C8
350
35E13
  3
C9
350
35E14
  3
D0
350
35E15
  3
D1
350
35E16
  3
D2
350
35E17
  0
XRECORD
  5
5182D
102
{ACAD_REACTORS
330
C
102
}
330
C
100
AcDbXrecord
280
     1
 90
   990106
  3
OPEN30
 60
     0
 61
     0
 62
     4
 63
     4
 64
     1
 65
     0
 66
     0
 67
     3
 68
     1
 69
     0
 70
     0
 71
     0
 72
     0
 40
0.0
170
     0
340
0
  0
DICTIONARY
  5
E0D
102
{ACAD_REACTORS
330
C
102
}
330
C
100
AcDbDictionary
281
     1
  3
DIMASSOC
350
E0E
  3
INDEXCTL
350
D04A
  3
PROJECTNAME
350
E0F
  3
SORTENTS
350
D049
  0
DICTIONARY
  5
3A6E41
102
{ACAD_REACTORS
330
C
102
}
330
C
100
AcDbDictionary
281
     1
  3
AecDbDispRep2dSection
350
3A6E42
  3
AecDbDispRepAnchor
350
3A6E78
  3
AecDbDispRepAnchorEntToNode
350
3A6E79
  3
AecDbDispRepClipVolModel
350
3A6E45
  3
AecDbDispRepClipVolPlan
350
3A6E47
  3
AecDbDispRepClipVolResSubDiv
350
3A6E4A
  3
AecDbDispRepClipVolResult
350
3A6E49
  3
AecDbDispRepDisplayTheme
350
3A6E4C
  3
AecDbDispRepEditInPlaceProfile
350
3A6E7D
  3
AecDbDispRepEntRef
350
3A6E4E
  3
AecDbDispRepLayoutCurve
350
3A6E50
  3
AecDbDispRepLayoutGrid2d
350
3A6E52
  3
AecDbDispRepLayoutGrid3d
350
3A6E54
  3
AecDbDispRepMaskBlockRef
350
3A6E56
  3
AecDbDispRepMaskBlockRefRcp
350
3A6E58
  3
AecDbDispRepMassElemModel
350
3A6E5A
  3
AecDbDispRepMassElemPlan100
350
3A6E60
  3
AecDbDispRepMassElemPlan50
350
3A6E5E
  3
AecDbDispRepMassElemRcp
350
3A6E62
  3
AecDbDispRepMassElemSchem
350
3A6E5C
  3
AecDbDispRepMassGroupModel
350
3A6E64
  3
AecDbDispRepMassGroupPlan
350
3A6E66
  3
AecDbDispRepMassGroupPlan100
350
3A6E6A
  3
AecDbDispRepMassGroupPlan50
350
3A6E68
  3
AecDbDispRepMassGroupRcp
350
3A6E6C
  3
AecDbDispRepMaterial
350
3A6E7B
  3
AecDbDispRepMvBlockRef
350
3A6E6E
  3
AecDbDispRepMvBlockRefModel
350
3A6E6F
  3
AecDbDispRepMvBlockRefPlan100
350
3A6E70
  3
AecDbDispRepMvBlockRefPlan50
350
3A6E71
  3
AecDbDispRepPolygonModel
350
3A6E72
  3
AecDbDispRepPolygonTrueColour
350
3A6E74
  3
AecDbDispRepSlice
350
3A6E76
  0
DICTIONARY
  5
3A6E43
102
{ACAD_REACTORS
330
C
102
}
330
C
100
AcDbDictionary
281
     1
  3
*A1
350
3A6E44
  3
*A10
350
3A6E57
  3
*A11
350
3A6E59
  3
*A12
350
3A6E5B
  3
*A13
350
3A6E5D
  3
*A14
350
3A6E5F
  3
*A15
350
3A6E61
  3
*A16
350
3A6E63
  3
*A17
350
3A6E65
  3
*A18
350
3A6E67
  3
*A19
350
3A6E69
  3
*A2
350
3A6E46
  3
*A20
350
3A6E6B
  3
*A21
350
3A6E6D
  3
*A22
350
3A6E73
  3
*A23
350
3A6E75
  3
*A24
350
3A6E77
  3
*A25
350
3A6E7A
  3
*A26
350
3A6E7C
  3
*A27
350
3A6E7E
  3
*A3
350
3A6E48
  3
*A4
350
3A6E4B
  3
*A5
350
3A6E4D
  3
*A6
350
3A6E4F
  3
*A7
350
3A6E51
  3
*A8
350
3A6E53
  3
*A9
350
3A6E55
  0
DICTIONARY
  5
3A6E3F
102
{ACAD_REACTORS
330
C
102
}
330
C
100
AcDbDictionary
281
     1
  3
AEC_VARS_DWG_SETUP
350
3A6E40
  0
DICTIONARY
  5
2F1758
102
{ACAD_REACTORS
330
C
102
}
330
C
100
AcDbDictionary
281
     1
  0
XRECORD
  5
3A79D0
102
{ACAD_REACTORS
330
C
102
}
330
C
100
AcDbXrecord
280
     1
  1
DWGPROPS COOKIE
  2

  3

  4

  6

  7

  8
SPAX
  9

300
=
301
=
302
=
303
=
304
=
305
=
306
=
307
=
308
=
309
=
 40
0.0
 41
2448636.244629629
 42
2456825.392973322
  1

 90
        0
  0
DICTIONARY
  5
29A509
102
{ACAD_REACTORS
330
559E
102
}
330
559E
100
AcDbDictionary
281
     1
  0
DICTIONARY
  5
559F
102
{ACAD_REACTORS
330
559E
102
}
330
559E
100
AcDbDictionary
281
     1
  0
DICTIONARY
  5
29A508
102
{ACAD_REACTORS
330
559E
102
}
330
559E
100
AcDbDictionary
281
     1
1001
ACAD
1000
<All
  0
XRECORD
  5
CD80
102
{ACAD_REACTORS
330
CD7F
102
}
330
CD7F
100
AcDbXrecord
280
     1
290
     1
  0
XRECORD
  5
CD86
102
{ACAD_REACTORS
330
CD85
102
}
330
CD85
100
AcDbXrecord
280
     1
290
     1
  0
XRECORD
  5
CD8E
102
{ACAD_REACTORS
330
CD8D
102
}
330
CD8D
100
AcDbXrecord
280
     1
290
     1
  0
SORTENTSTABLE
  5
D260
102
{ACAD_REACTORS
330
D25F
102
}
330
D25F
100
AcDbSortentsTable
330
18
331
8182F
  5
307455
331
3073B9
  5
33CEEB
  0
LAYOUT
  5
355
102
{ACAD_REACTORS
330
353
102
}
330
353
100
AcDbPlotSettings
  1

  2
ApeosPort-IV C3370
  4
A4
  6

 40
4.900083065032959
 41
4.900054931640625
 42
4.90008544921875
 43
4.90008544921875
 44
210.0156707763672
 45
297.0106506347656
 46
-4.892248868942261
 47
-4.894744873046875
 48
19575.83938702182
 49
-3951.642105398166
140
19872.83938702182
141
-3741.642105398166
142
1.0
143
1.0
 70
  3748
 72
     1
 73
     1
 74
     4
  7
spax form.ctb
 75
     0
147
0.5298262113580999
148
-19575.83938702182
149
3951.642105398166
100
AcDbLayout
  1
Model
 70
     1
 71
     0
 10
0.0
 20
0.0
 11
12.0
 21
9.0
 12
0.0
 22
0.0
 32
0.0
 14
20882.71380938632
 24
-17535.80114620225
 34
0.0
 15
20957.46380938632
 25
-17407.92456183281
 35
0.0
146
0.0
 13
0.0
 23
0.0
 33
0.0
 16
1.0
 26
0.0
 36
0.0
 17
0.0
 27
1.0
 37
0.0
 76
     0
330
18
331
3A6E3B
1001
ACAD_PSEXT
1000
ApeosPort-IV C3370
1000
FX ApeosPort-IV C3370
1000
192.168.6.107
1000

1070
     0
  0
LAYOUT
  5
356
102
{ACAD_REACTORS
330
353
102
}
330
353
100
AcDbPlotSettings
  1

  2
Canon LASER SHOT LBP-750
  4

  6

 40
0.0
 41
0.0
 42
0.0
 43
0.0
 44
0.0
 45
0.0
 46
0.0
 47
0.0
 48
0.0
 49
0.0
140
0.0
141
0.0
142
1.0
143
1.0
 70
   688
 72
     0
 73
     0
 74
     5
  7
spax form.ctb
 75
    16
147
1.0
148
0.0
149
0.0
100
AcDbLayout
  1
ﾚｲｱｳﾄ1
 70
     0
 71
     1
 10
0.0
 20
0.0
 11
12.0
 21
9.0
 12
0.0
 22
0.0
 32
0.0
 14
1.000000000000000E+20
 24
1.000000000000000E+20
 34
1.000000000000000E+20
 15
-1.000000000000000E+20
 25
-1.000000000000000E+20
 35
-1.000000000000000E+20
146
0.0
 13
0.0
 23
0.0
 33
0.0
 16
1.0
 26
0.0
 36
0.0
 17
0.0
 27
1.0
 37
0.0
 76
     0
330
15
  0
MLINESTYLE
  5
1B
102
{ACAD_REACTORS
330
E
102
}
330
E
100
AcDbMlineStyle
  2
STANDARD
 70
     0
  3

 62
     0
 51
90.0
 52
90.0
 71
     2
 49
0.5
 62
   256
  6
BYLAYER
 49
-0.5
 62
   256
  6
BYLAYER
  0
ACDBPLACEHOLDER
  5
352
102
{ACAD_REACTORS
330
351
102
}
330
351
  0
SCALE
  5
CD54
102
{ACAD_REACTORS
330
CD53
102
}
330
CD53
100
AcDbScale
 70
     0
300
1:1
140
1.0
141
1.0
290
     1
1001
ACAD
1000
AcRTDxfName
1000
SCALE
1000
AcRTDxfName
1000
SCALE
  0
SCALE
  5
35DF8
102
{ACAD_REACTORS
330
CD53
102
}
330
CD53
100
AcDbScale
 70
     0
300
1:2
140
1.0
141
2.0
290
     0
1001
ACAD
1000
AcRTDxfName
1000
SCALE
1000
AcRTDxfName
1000
SCALE
  0
SCALE
  5
35DF9
102
{ACAD_REACTORS
330
CD53
102
}
330
CD53
100
AcDbScale
 70
     0
300
1:4
140
1.0
141
4.0
290
     0
1001
ACAD
1000
AcRTDxfName
1000
SCALE
1000
AcRTDxfName
1000
SCALE
  0
SCALE
  5
35DFA
102
{ACAD_REACTORS
330
CD53
102
}
330
CD53
100
AcDbScale
 70
     0
300
1:5
140
1.0
141
5.0
290
     0
1001
ACAD
1000
AcRTDxfName
1000
SCALE
1000
AcRTDxfName
1000
SCALE
  0
SCALE
  5
35DFB
102
{ACAD_REACTORS
330
CD53
102
}
330
CD53
100
AcDbScale
 70
     0
300
1:8
140
1.0
141
8.0
290
     0
1001
ACAD
1000
AcRTDxfName
1000
SCALE
1000
AcRTDxfName
1000
SCALE
  0
SCALE
  5
35DFC
102
{ACAD_REACTORS
330
CD53
102
}
330
CD53
100
AcDbScale
 70
     0
300
1:10
140
1.0
141
10.0
290
     0
1001
ACAD
1000
AcRTDxfName
1000
SCALE
1000
AcRTDxfName
1000
SCALE
  0
SCALE
  5
35DFD
102
{ACAD_REACTORS
330
CD53
102
}
330
CD53
100
AcDbScale
 70
     0
300
1:16
140
1.0
141
16.0
290
     0
1001
ACAD
1000
AcRTDxfName
1000
SCALE
1000
AcRTDxfName
1000
SCALE
  0
SCALE
  5
35DFE
102
{ACAD_REACTORS
330
CD53
102
}
330
CD53
100
AcDbScale
 70
     0
300
1:20
140
1.0
141
20.0
290
     0
1001
ACAD
1000
AcRTDxfName
1000
SCALE
1000
AcRTDxfName
1000
SCALE
  0
SCALE
  5
35DFF
102
{ACAD_REACTORS
330
CD53
102
}
330
CD53
100
AcDbScale
 70
     0
300
1:30
140
1.0
141
30.0
290
     0
1001
ACAD
1000
AcRTDxfName
1000
SCALE
1000
AcRTDxfName
1000
SCALE
  0
SCALE
  5
35E00
102
{ACAD_REACTORS
330
CD53
102
}
330
CD53
100
AcDbScale
 70
     0
300
1:40
140
1.0
141
40.0
290
     0
1001
ACAD
1000
AcRTDxfName
1000
SCALE
1000
AcRTDxfName
1000
SCALE
  0
SCALE
  5
35E01
102
{ACAD_REACTORS
330
CD53
102
}
330
CD53
100
AcDbScale
 70
     0
300
1:50
140
1.0
141
50.0
290
     0
1001
ACAD
1000
AcRTDxfName
1000
SCALE
1000
AcRTDxfName
1000
SCALE
  0
SCALE
  5
35E02
102
{ACAD_REACTORS
330
CD53
102
}
330
CD53
100
AcDbScale
 70
     0
300
1:100
140
1.0
141
100.0
290
     0
1001
ACAD
1000
AcRTDxfName
1000
SCALE
1000
AcRTDxfName
1000
SCALE
  0
SCALE
  5
35E03
102
{ACAD_REACTORS
330
CD53
102
}
330
CD53
100
AcDbScale
 70
     0
300
2:1
140
2.0
141
1.0
290
     0
1001
ACAD
1000
AcRTDxfName
1000
SCALE
1000
AcRTDxfName
1000
SCALE
  0
SCALE
  5
35E04
102
{ACAD_REACTORS
330
CD53
102
}
330
CD53
100
AcDbScale
 70
     0
300
4:1
140
4.0
141
1.0
290
     0
1001
ACAD
1000
AcRTDxfName
1000
SCALE
1000
AcRTDxfName
1000
SCALE
  0
SCALE
  5
35E05
102
{ACAD_REACTORS
330
CD53
102
}
330
CD53
100
AcDbScale
 70
     0
300
8:1
140
8.0
141
1.0
290
     0
1001
ACAD
1000
AcRTDxfName
1000
SCALE
1000
AcRTDxfName
1000
SCALE
  0
SCALE
  5
35E06
102
{ACAD_REACTORS
330
CD53
102
}
330
CD53
100
AcDbScale
 70
     0
300
10:1
140
10.0
141
1.0
290
     0
1001
ACAD
1000
AcRTDxfName
1000
SCALE
1000
AcRTDxfName
1000
SCALE
  0
SCALE
  5
35E07
102
{ACAD_REACTORS
330
CD53
102
}
330
CD53
100
AcDbScale
 70
     0
300
100:1
140
100.0
141
1.0
290
     0
1001
ACAD
1000
AcRTDxfName
1000
SCALE
1000
AcRTDxfName
1000
SCALE
  0
SCALE
  5
35E08
102
{ACAD_REACTORS
330
CD53
102
}
330
CD53
100
AcDbScale
 70
     0
300
1/128" = 1'-0"
140
0.0078125
141
12.0
290
     0
1001
ACAD
1000
AcRTDxfName
1000
SCALE
1000
AcRTDxfName
1000
SCALE
  0
SCALE
  5
35E09
102
{ACAD_REACTORS
330
CD53
102
}
330
CD53
100
AcDbScale
 70
     0
300
1/64" = 1'-0"
140
0.015625
141
12.0
290
     0
1001
ACAD
1000
AcRTDxfName
1000
SCALE
1000
AcRTDxfName
1000
SCALE
  0
SCALE
  5
35E0A
102
{ACAD_REACTORS
330
CD53
102
}
330
CD53
100
AcDbScale
 70
     0
300
1/32" = 1'-0"
140
0.03125
141
12.0
290
     0
1001
ACAD
1000
AcRTDxfName
1000
SCALE
1000
AcRTDxfName
1000
SCALE
  0
SCALE
  5
35E0B
102
{ACAD_REACTORS
330
CD53
102
}
330
CD53
100
AcDbScale
 70
     0
300
1/16" = 1'-0"
140
0.0625
141
12.0
290
     0
1001
ACAD
1000
AcRTDxfName
1000
SCALE
1000
AcRTDxfName
1000
SCALE
  0
SCALE
  5
35E0C
102
{ACAD_REACTORS
330
CD53
102
}
330
CD53
100
AcDbScale
 70
     0
300
3/32" = 1'-0"
140
0.09375
141
12.0
290
     0
1001
ACAD
1000
AcRTDxfName
1000
SCALE
1000
AcRTDxfName
1000
SCALE
  0
SCALE
  5
35E0D
102
{ACAD_REACTORS
330
CD53
102
}
330
CD53
100
AcDbScale
 70
     0
300
1/8" = 1'-0"
140
0.125
141
12.0
290
     0
1001
ACAD
1000
AcRTDxfName
1000
SCALE
1000
AcRTDxfName
1000
SCALE
  0
SCALE
  5
35E0E
102
{ACAD_REACTORS
330
CD53
102
}
330
CD53
100
AcDbScale
 70
     0
300
3/16" = 1'-0"
140
0.1875
141
12.0
290
     0
1001
ACAD
1000
AcRTDxfName
1000
SCALE
1000
AcRTDxfName
1000
SCALE
  0
SCALE
  5
35E0F
102
{ACAD_REACTORS
330
CD53
102
}
330
CD53
100
AcDbScale
 70
     0
300
1/4" = 1'-0"
140
0.25
141
12.0
290
     0
1001
ACAD
1000
AcRTDxfName
1000
SCALE
1000
AcRTDxfName
1000
SCALE
  0
SCALE
  5
35E10
102
{ACAD_REACTORS
330
CD53
102
}
330
CD53
100
AcDbScale
 70
     0
300
3/8" = 1'-0"
140
0.375
141
12.0
290
     0
1001
ACAD
1000
AcRTDxfName
1000
SCALE
1000
AcRTDxfName
1000
SCALE
  0
SCALE
  5
35E11
102
{ACAD_REACTORS
330
CD53
102
}
330
CD53
100
AcDbScale
 70
     0
300
1/2" = 1'-0"
140
0.5
141
12.0
290
     0
1001
ACAD
1000
AcRTDxfName
1000
SCALE
1000
AcRTDxfName
1000
SCALE
  0
SCALE
  5
35E12
102
{ACAD_REACTORS
330
CD53
102
}
330
CD53
100
AcDbScale
 70
     0
300
3/4" = 1'-0"
140
0.75
141
12.0
290
     0
1001
ACAD
1000
AcRTDxfName
1000
SCALE
1000
AcRTDxfName
1000
SCALE
  0
SCALE
  5
35E13
102
{ACAD_REACTORS
330
CD53
102
}
330
CD53
100
AcDbScale
 70
     0
300
1" = 1'-0"
140
1.0
141
12.0
290
     0
1001
ACAD
1000
AcRTDxfName
1000
SCALE
1000
AcRTDxfName
1000
SCALE
  0
SCALE
  5
35E14
102
{ACAD_REACTORS
330
CD53
102
}
330
CD53
100
AcDbScale
 70
     0
300
1-1/2" = 1'-0"
140
1.5
141
12.0
290
     0
1001
ACAD
1000
AcRTDxfName
1000
SCALE
1000
AcRTDxfName
1000
SCALE
  0
SCALE
  5
35E15
102
{ACAD_REACTORS
330
CD53
102
}
330
CD53
100
AcDbScale
 70
     0
300
3" = 1'-0"
140
3.0
141
12.0
290
     0
1001
ACAD
1000
AcRTDxfName
1000
SCALE
1000
AcRTDxfName
1000
SCALE
  0
SCALE
  5
35E16
102
{ACAD_REACTORS
330
CD53
102
}
330
CD53
100
AcDbScale
 70
     0
300
6" = 1'-0"
140
6.0
141
12.0
290
     0
1001
ACAD
1000
AcRTDxfName
1000
SCALE
1000
AcRTDxfName
1000
SCALE
  0
SCALE
  5
35E17
102
{ACAD_REACTORS
330
CD53
102
}
330
CD53
100
AcDbScale
 70
     0
300
1'-0" = 1'-0"
140
12.0
141
12.0
290
     0
1001
ACAD
1000
AcRTDxfName
1000
SCALE
1000
AcRTDxfName
1000
SCALE
  0
DICTIONARYVAR
  5
E0E
102
{ACAD_REACTORS
330
E0D
102
}
330
E0D
100
DictionaryVariables
280
     0
  1
1
  0
DICTIONARYVAR
  5
D04A
102
{ACAD_REACTORS
330
E0D
102
}
330
E0D
100
DictionaryVariables
280
     0
  1
0
  0
DICTIONARYVAR
  5
E0F
102
{ACAD_REACTORS
330
E0D
102
}
330
E0D
100
DictionaryVariables
280
     0
  1

  0
DICTIONARYVAR
  5
D049
102
{ACAD_REACTORS
330
E0D
102
}
330
E0D
100
DictionaryVariables
280
     0
  1
127
  0
ENDSEC
  0
EOF
