  0
SECTION
  2
HEADER
  9
$ACADVER
  1
AC1015
  9
$ACADMAINTVER
 70
     6
  9
$DWGCODEPAGE
  3
ANSI_932
  9
$INSBASE
 10
0.0
 20
0.0
 30
0.0
  9
$EXTMIN
 10
4300.858198333138
 20
2184.577643549537
 30
0.0
  9
$EXTMAX
 10
4384.858198333138
 20
2266.089280281142
 30
0.0
  9
$LIMMIN
 10
0.0
 20
0.0
  9
$LIMMAX
 10
840.0
 20
594.0
  9
$ORTHOMODE
 70
     1
  9
$REGENMODE
 70
     1
  9
$FILLMODE
 70
     1
  9
$QTEXTMODE
 70
     0
  9
$MIRRTEXT
 70
     1
  9
$LTSCALE
 40
7.0
  9
$ATTMODE
 70
     0
  9
$TEXTSIZE
 40
6.0
  9
$TRACEWID
 40
1.0
  9
$TEXTSTYLE
  7
STANDARD
  9
$CLAYER
  8
寸法線
  9
$CELTYPE
  6
BYLAYER
  9
$CECOLOR
 62
   256
  9
$CELTSCALE
 40
1.0
  9
$DISPSILH
 70
     0
  9
$DIMSCALE
 40
1.0
  9
$DIMASZ
 40
4.0
  9
$DIMEXO
 40
3.0
  9
$DIMDLI
 40
7.149999999999999
  9
$DIMRND
 40
0.0
  9
$DIMDLE
 40
0.0
  9
$DIMEXE
 40
2.0
  9
$DIMTP
 40
0.0
  9
$DIMTM
 40
0.0
  9
$DIMTXT
 40
5.0
  9
$DIMCEN
 40
0.0
  9
$DIMTSZ
 40
0.0
  9
$DIMTOL
 70
     0
  9
$DIMLIM
 70
     0
  9
$DIMTIH
 70
     0
  9
$DIMTOH
 70
     0
  9
$DIMSE1
 70
     0
  9
$DIMSE2
 70
     0
  9
$DIMTAD
 70
     3
  9
$DIMZIN
 70
     8
  9
$DIMBLK
  1
OPEN
  9
$DIMASO
 70
     1
  9
$DIMSHO
 70
     0
  9
$DIMPOST
  1

  9
$DIMAPOST
  1

  9
$DIMALT
 70
     0
  9
$DIMALTD
 70
     2
  9
$DIMALTF
 40
25.4
  9
$DIMLFAC
 40
1.0
  9
$DIMTOFL
 70
     0
  9
$DIMTVP
 40
0.0
  9
$DIMTIX
 70
     0
  9
$DIMSOXD
 70
     0
  9
$DIMSAH
 70
     0
  9
$DIMBLK1
  1

  9
$DIMBLK2
  1

  9
$DIMSTYLE
  2
STANDARD
  9
$DIMCLRD
 70
     8
  9
$DIMCLRE
 70
     8
  9
$DIMCLRT
 70
     0
  9
$DIMTFAC
 40
1.0
  9
$DIMGAP
 40
2.0
  9
$DIMJUST
 70
     0
  9
$DIMSD1
 70
     0
  9
$DIMSD2
 70
     0
  9
$DIMTOLJ
 70
     1
  9
$DIMTZIN
 70
     0
  9
$DIMALTZ
 70
     0
  9
$DIMALTTZ
 70
     0
  9
$DIMUPT
 70
     1
  9
$DIMDEC
 70
     2
  9
$DIMTDEC
 70
     2
  9
$DIMALTU
 70
     2
  9
$DIMALTTD
 70
     2
  9
$DIMTXSTY
  7
STANDARD
  9
$DIMAUNIT
 70
     0
  9
$DIMADEC
 70
     2
  9
$DIMALTRND
 40
0.0
  9
$DIMAZIN
 70
     2
  9
$DIMDSEP
 70
    46
  9
$DIMATFIT
 70
     3
  9
$DIMFRAC
 70
     0
  9
$DIMLDRBLK
  1
OPEN
  9
$DIMLUNIT
 70
     2
  9
$DIMLWD
 70
    -2
  9
$DIMLWE
 70
    -2
  9
$DIMTMOVE
 70
     0
  9
$LUNITS
 70
     2
  9
$LUPREC
 70
     2
  9
$SKETCHINC
 40
0.1
  9
$FILLETRAD
 40
0.0
  9
$AUNITS
 70
     0
  9
$AUPREC
 70
     2
  9
$MENU
  1
ACAD
  9
$ELEVATION
 40
0.0
  9
$PELEVATION
 40
0.0
  9
$THICKNESS
 40
0.0
  9
$LIMCHECK
 70
     0
  9
$CHAMFERA
 40
0.0
  9
$CHAMFERB
 40
0.0
  9
$CHAMFERC
 40
0.0
  9
$CHAMFERD
 40
0.0
  9
$SKPOLY
 70
     0
  9
$TDCREATE
 40
2453703.481561227
  9
$TDUCREATE
 40
2453703.106561227
  9
$TDUPDATE
 40
2456821.568519526
  9
$TDUUPDATE
 40
2456821.193519526
  9
$TDINDWG
 40
0.4531904977
  9
$TDUSRTIMER
 40
2456821.193352361
  9
$USRTIMER
 70
     1
  9
$ANGBASE
 50
0.0
  9
$ANGDIR
 70
     0
  9
$PDMODE
 70
     3
  9
$PDSIZE
 40
0.0
  9
$PLINEWID
 40
0.0
  9
$SPLFRAME
 70
     0
  9
$SPLINETYPE
 70
     6
  9
$SPLINESEGS
 70
     8
  9
$HANDSEED
  5
2CC05
  9
$SURFTAB1
 70
     6
  9
$SURFTAB2
 70
     6
  9
$SURFTYPE
 70
     6
  9
$SURFU
 70
     6
  9
$SURFV
 70
     6
  9
$UCSBASE
  2

  9
$UCSNAME
  2

  9
$UCSORG
 10
0.0
 20
0.0
 30
0.0
  9
$UCSXDIR
 10
1.0
 20
0.0
 30
0.0
  9
$UCSYDIR
 10
0.0
 20
1.0
 30
0.0
  9
$UCSORTHOREF
  2

  9
$UCSORTHOVIEW
 70
     0
  9
$UCSORGTOP
 10
0.0
 20
0.0
 30
0.0
  9
$UCSORGBOTTOM
 10
0.0
 20
0.0
 30
0.0
  9
$UCSORGLEFT
 10
0.0
 20
0.0
 30
0.0
  9
$UCSORGRIGHT
 10
0.0
 20
0.0
 30
0.0
  9
$UCSORGFRONT
 10
0.0
 20
0.0
 30
0.0
  9
$UCSORGBACK
 10
0.0
 20
0.0
 30
0.0
  9
$PUCSBASE
  2

  9
$PUCSNAME
  2

  9
$PUCSORG
 10
0.0
 20
0.0
 30
0.0
  9
$PUCSXDIR
 10
1.0
 20
0.0
 30
0.0
  9
$PUCSYDIR
 10
0.0
 20
1.0
 30
0.0
  9
$PUCSORTHOREF
  2

  9
$PUCSORTHOVIEW
 70
     0
  9
$PUCSORGTOP
 10
0.0
 20
0.0
 30
0.0
  9
$PUCSORGBOTTOM
 10
0.0
 20
0.0
 30
0.0
  9
$PUCSORGLEFT
 10
0.0
 20
0.0
 30
0.0
  9
$PUCSORGRIGHT
 10
0.0
 20
0.0
 30
0.0
  9
$PUCSORGFRONT
 10
0.0
 20
0.0
 30
0.0
  9
$PUCSORGBACK
 10
0.0
 20
0.0
 30
0.0
  9
$USERI1
 70
     0
  9
$USERI2
 70
     0
  9
$USERI3
 70
     0
  9
$USERI4
 70
     0
  9
$USERI5
 70
     0
  9
$USERR1
 40
0.0
  9
$USERR2
 40
0.0
  9
$USERR3
 40
0.0
  9
$USERR4
 40
0.0
  9
$USERR5
 40
0.0
  9
$WORLDVIEW
 70
     0
  9
$SHADEDGE
 70
     3
  9
$SHADEDIF
 70
    70
  9
$TILEMODE
 70
     1
  9
$MAXACTVP
 70
    16
  9
$PINSBASE
 10
0.0
 20
0.0
 30
0.0
  9
$PLIMCHECK
 70
     0
  9
$PEXTMIN
 10
1.000000000000000E+20
 20
1.000000000000000E+20
 30
1.000000000000000E+20
  9
$PEXTMAX
 10
-1.000000000000000E+20
 20
-1.000000000000000E+20
 30
-1.000000000000000E+20
  9
$PLIMMIN
 10
0.0
 20
0.0
  9
$PLIMMAX
 10
0.0
 20
0.0
  9
$UNITMODE
 70
     0
  9
$VISRETAIN
 70
     0
  9
$PLINEGEN
 70
     0
  9
$PSLTSCALE
 70
     0
  9
$TREEDEPTH
 70
  3020
  9
$CMLSTYLE
  2
STANDARD
  9
$CMLJUST
 70
     0
  9
$CMLSCALE
 40
1.0
  9
$PROXYGRAPHICS
 70
     1
  9
$MEASUREMENT
 70
     0
  9
$CELWEIGHT
370
    -1
  9
$ENDCAPS
280
     0
  9
$JOINSTYLE
280
     0
  9
$LWDISPLAY
290
     0
  9
$INSUNITS
 70
     0
  9
$HYPERLINKBASE
  1

  9
$STYLESHEET
  1
spax form.ctb
  9
$XEDIT
290
     1
  9
$CEPSNTYPE
380
     0
  9
$PSTYLEMODE
290
     1
  9
$FINGERPRINTGUID
  2
{C1CFCF3E-DF91-11D3-B30C-0060B0FA8DFC}
  9
$VERSIONGUID
  2
{25107E10-217B-4FED-950F-F1D58C24124C}
  9
$EXTNAMES
290
     1
  9
$PSVPSCALE
 40
0.0
  9
$OLESTARTUP
290
     0
  0
ENDSEC
  0
SECTION
  2
CLASSES
  0
CLASS
  1
LWPOLYLINE
  2
AcDbPolyline
  3
ObjectDBX Classes
 90
        0
280
     0
281
     1
  0
CLASS
  1
ACDBDICTIONARYWDFLT
  2
AcDbDictionaryWithDefault
  3
ObjectDBX Classes
 90
        0
280
     0
281
     0
  0
CLASS
  1
ACDBPLACEHOLDER
  2
AcDbPlaceHolder
  3
ObjectDBX Classes
 90
        0
280
     0
281
     0
  0
CLASS
  1
LAYOUT
  2
AcDbLayout
  3
ObjectDBX Classes
 90
        0
280
     0
281
     0
  0
CLASS
  1
DICTIONARYVAR
  2
AcDbDictionaryVar
  3
ObjectDBX Classes
 90
        0
280
     0
281
     0
  0
CLASS
  1
LONG_TRANSACTION
  2
AcDbLongTransaction
  3
ObjectDBX Classes
 90
        0
280
     0
281
     0
  0
CLASS
  1
LWPOLYLINE
  2
AcDbPolyline
  3
ObjectDBX Classes
 90
        0
280
     0
281
     1
  0
CLASS
  1
HATCH
  2
AcDbHatch
  3
ObjectDBX Classes
 90
        0
280
     0
281
     1
  0
CLASS
  1
XRECORD
  2
AcDbXrecord
  3
ObjectDBX Classes
 90
        0
280
     0
281
     0
  0
CLASS
  1
MATERIAL
  2
AcDbMaterial
  3
ObjectDBX Classes
 90
     1153
280
     0
281
     0
  0
CLASS
  1
VISUALSTYLE
  2
AcDbVisualStyle
  3
ObjectDBX Classes
 90
     4095
280
     0
281
     0
  0
CLASS
  1
TABLESTYLE
  2
AcDbTableStyle
  3
ObjectDBX Classes
 90
     4095
280
     0
281
     0
  0
CLASS
  1
SCALE
  2
AcDbScale
  3
ObjectDBX Classes
 90
     1153
280
     0
281
     0
  0
CLASS
  1
MLEADERSTYLE
  2
AcDbMLeaderStyle
  3
ACDB_MLEADERSTYLE_CLASS
 90
     4095
280
     0
281
     0
  0
CLASS
  1
CELLSTYLEMAP
  2
AcDbCellStyleMap
  3
ObjectDBX Classes
 90
     1152
280
     0
281
     0
  0
CLASS
  1
SORTENTSTABLE
  2
AcDbSortentsTable
  3
ObjectDBX Classes
 90
        0
280
     0
281
     0
  0
CLASS
  1
RASTERVARIABLES
  2
AcDbRasterVariables
  3
ISM
 90
        0
280
     0
281
     0
  0
CLASS
  1
SUN
  2
AcDbSun
  3
SCENEOE
 90
     1153
280
     0
281
     0
  0
ENDSEC
  0
SECTION
  2
TABLES
  0
TABLE
  2
VPORT
  5
8
330
0
100
AcDbSymbolTable
 70
     1
  0
VPORT
  5
2C20B
330
8
100
AcDbSymbolTableRecord
100
AcDbViewportTableRecord
  2
*Active
 70
     0
 10
0.0
 20
0.0
 11
1.0
 21
1.0
 12
4342.858198333138
 22
2225.333461915339
 13
0.0
 23
0.0
 14
1.0
 24
1.0
 15
20.0
 25
20.0
 16
0.0
 26
0.0
 36
1.0
 17
0.0
 27
0.0
 37
0.0
 40
83.14186946623663
 41
1.731829573934837
 42
50.0
 43
0.0
 44
0.0
 50
0.0
 51
0.0
 71
    16
 72
  2000
 73
     1
 74
     0
 75
     0
 76
     0
 77
     0
 78
     1
281
     0
 65
     1
110
0.0
120
0.0
130
0.0
111
1.0
121
0.0
131
0.0
112
0.0
122
1.0
132
0.0
 79
     0
146
0.0
  0
ENDTAB
  0
TABLE
  2
LTYPE
  5
5
330
0
100
AcDbSymbolTable
 70
     4
  0
LTYPE
  5
12
330
5
100
AcDbSymbolTableRecord
100
AcDbLinetypeTableRecord
  2
BYBLOCK
 70
     0
  3

 72
    65
 73
     0
 40
0.0
  0
LTYPE
  5
13
330
5
100
AcDbSymbolTableRecord
100
AcDbLinetypeTableRecord
  2
BYLAYER
 70
     0
  3

 72
    65
 73
     0
 40
0.0
  0
LTYPE
  5
14
330
5
100
AcDbSymbolTableRecord
100
AcDbLinetypeTableRecord
  2
CONTINUOUS
 70
     0
  3
Solid line
 72
    65
 73
     0
 40
0.0
  0
LTYPE
  5
176F8
330
5
100
AcDbSymbolTableRecord
100
AcDbLinetypeTableRecord
  2
CENTER
 70
     0
  3
____ _ ____ _ ____ _ ____ _ ____ _ ____ _ ____ 
 72
    65
 73
     4
 40
2.0
 49
1.25
 74
     0
 49
-0.25
 74
     0
 49
0.25
 74
     0
 49
-0.25
 74
     0
  0
ENDTAB
  0
TABLE
  2
LAYER
  5
2
102
{ACAD_XDICTIONARY
360
17708
102
}
330
0
100
AcDbSymbolTable
 70
     9
  0
LAYER
  5
F
102
{ACAD_XDICTIONARY
360
2A376
102
}
330
2
100
AcDbSymbolTableRecord
100
AcDbLayerTableRecord
  2
0
 70
     0
 62
     7
  6
CONTINUOUS
370
    -3
390
40CA
  0
LAYER
  5
4C
102
{ACAD_XDICTIONARY
360
2A378
102
}
330
2
100
AcDbSymbolTableRecord
100
AcDbLayerTableRecord
  2
寸法線
 70
     0
 62
     7
  6
CONTINUOUS
370
    -3
390
40CA
  0
LAYER
  5
40D4
102
{ACAD_XDICTIONARY
360
2A37C
102
}
330
2
100
AcDbSymbolTableRecord
100
AcDbLayerTableRecord
  2
文字
 70
     0
 62
     7
  6
CONTINUOUS
370
    -3
390
40CA
  0
LAYER
  5
176FE
102
{ACAD_XDICTIONARY
360
2A384
102
}
330
2
100
AcDbSymbolTableRecord
100
AcDbLayerTableRecord
  2
姿図
 70
     0
 62
     8
  6
CONTINUOUS
370
    -3
390
40CA
  0
ENDTAB
  0
TABLE
  2
STYLE
  5
3
330
0
100
AcDbSymbolTable
 70
     1
  0
STYLE
  5
10
330
3
100
AcDbSymbolTableRecord
100
AcDbTextStyleTableRecord
  2
STANDARD
 70
     0
 40
0.0
 41
1.0
 50
0.0
 71
     0
 42
6.0
  3
MONOTXT
  4
BIGFONT
  0
ENDTAB
  0
TABLE
  2
VIEW
  5
6
330
0
100
AcDbSymbolTable
 70
     1
  0
VIEW
  5
41
330
6
100
AcDbSymbolTableRecord
100
AcDbViewTableRecord
  2
CUT1
 70
     0
 40
612.7795527156796
 10
420.0000000000169
 20
306.3897763578398
 41
840.0000000000338
 11
0.0
 21
0.0
 31
1.0
 12
0.0
 22
0.0
 32
0.0
 42
50.0
 43
0.0
 44
0.0
 50
0.0
 71
     0
281
     0
 72
     0
  0
ENDTAB
  0
TABLE
  2
UCS
  5
7
330
0
100
AcDbSymbolTable
 70
     0
  0
ENDTAB
  0
TABLE
  2
APPID
  5
9
330
0
100
AcDbSymbolTable
 70
     7
  0
APPID
  5
11
330
9
100
AcDbSymbolTableRecord
100
AcDbRegAppTableRecord
  2
ACAD
 70
     0
  0
APPID
  5
29700
330
9
100
AcDbSymbolTableRecord
100
AcDbRegAppTableRecord
  2
ACAD_MLEADERVER
 70
     0
  0
APPID
  5
2A0B5
330
9
100
AcDbSymbolTableRecord
100
AcDbRegAppTableRecord
  2
ACAD_EXEMPT_FROM_CAD_STANDARDS
 70
     0
  0
APPID
  5
2A0BD
330
9
100
AcDbSymbolTableRecord
100
AcDbRegAppTableRecord
  2
ACAD_DSTYLE_DIMJAG
 70
     0
  0
APPID
  5
2A0BE
330
9
100
AcDbSymbolTableRecord
100
AcDbRegAppTableRecord
  2
ACAD_DSTYLE_DIMTALN
 70
     0
  0
APPID
  5
2A0BF
330
9
100
AcDbSymbolTableRecord
100
AcDbRegAppTableRecord
  2
AcAecLayerStandard
 70
     0
  0
APPID
  5
2A391
330
9
100
AcDbSymbolTableRecord
100
AcDbRegAppTableRecord
  2
ACAD_PSEXT
 70
     0
  0
ENDTAB
  0
TABLE
  2
DIMSTYLE
  5
A
330
0
100
AcDbSymbolTable
 70
     1
100
AcDbDimStyleTable
  0
DIMSTYLE
105
1B3A
330
A
100
AcDbSymbolTableRecord
100
AcDbDimStyleTableRecord
  2
STANDARD
 70
     0
 41
4.0
 42
3.0
 43
7.149999999999999
 44
2.0
 73
     0
 74
     0
 77
     3
 78
     8
 79
     2
140
5.0
141
0.0
147
2.0
176
     8
177
     8
178
     0
179
     2
271
     2
272
     2
288
     1
340
10
341
49C3
342
49C3
  0
ENDTAB
  0
TABLE
  2
BLOCK_RECORD
  5
1
330
0
100
AcDbSymbolTable
 70
    15
  0
BLOCK_RECORD
  5
18
330
1
100
AcDbSymbolTableRecord
100
AcDbBlockTableRecord
  2
*MODEL_SPACE
340
40CD
  0
BLOCK_RECORD
  5
15
330
1
100
AcDbSymbolTableRecord
100
AcDbBlockTableRecord
  2
*PAPER_SPACE
340
40CE
  0
BLOCK_RECORD
  5
49C3
330
1
100
AcDbSymbolTableRecord
100
AcDbBlockTableRecord
  2
_OPEN
340
0
102
{BLKREFS
331
2869A
331
2869B
331
28BDA
331
28BDB
331
2961E
331
2961F
331
29627
331
29628
331
2A0A5
331
2A0A6
331
2A0AE
331
2A0AF
331
2AD56
331
2AD57
331
2AD5F
331
2AD60
331
2B839
331
2B83A
331
2B844
331
2B845
331
2C1F3
331
2C1F4
331
2C1FC
331
2C1FD
331
2CBA8
331
2CBA9
331
2CBB1
331
2CBB2
102
}
  0
ENDTAB
  0
ENDSEC
  0
SECTION
  2
BLOCKS
  0
BLOCK
  5
52
330
18
100
AcDbEntity
  8
0
100
AcDbBlockBegin
  2
*MODEL_SPACE
 70
     0
 10
0.0
 20
0.0
 30
0.0
  3
*MODEL_SPACE
  1
*MODEL_SPACE
  0
ENDBLK
  5
53
330
18
100
AcDbEntity
  8
0
100
AcDbBlockEnd
  0
BLOCK
  5
50
330
15
100
AcDbEntity
 67
     1
  8
0
100
AcDbBlockBegin
  2
*PAPER_SPACE
 70
     0
 10
0.0
 20
0.0
 30
0.0
  3
*PAPER_SPACE
  1
*PAPER_SPACE
  0
ENDBLK
  5
51
330
15
100
AcDbEntity
 67
     1
  8
0
100
AcDbBlockEnd
  0
BLOCK
  5
49C7
330
49C3
100
AcDbEntity
  8
0
100
AcDbBlockBegin
  2
_OPEN
 70
     0
 10
0.0
 20
0.0
 30
0.0
  3
_OPEN
  1
_OPEN
  0
LINE
  5
49C4
330
49C3
100
AcDbEntity
  8
0
  6
ByBlock
 62
     0
100
AcDbLine
 10
-1.0
 20
0.1666666666666667
 30
0.0
 11
0.0
 21
0.0
 31
0.0
  0
LINE
  5
49C5
330
49C3
100
AcDbEntity
  8
0
  6
ByBlock
 62
     0
100
AcDbLine
 10
0.0
 20
0.0
 30
0.0
 11
-1.0
 21
-0.1666666666666667
 31
0.0
  0
LINE
  5
49C6
330
49C3
100
AcDbEntity
  8
0
  6
ByBlock
 62
     0
100
AcDbLine
 10
0.0
 20
0.0
 30
0.0
 11
-1.0
 21
0.0
 31
0.0
  0
ENDBLK
  5
49C8
330
49C3
100
AcDbEntity
  8
0
100
AcDbBlockEnd
  0
ENDSEC
  0
SECTION
  2
ENTITIES
  0
TEXT
  5
25FFE
330
18
100
AcDbEntity
  8
文字
100
AcDbText
 10
3610.46400429503
 20
2256.126268841174
 30
0.0
 40
4.0
  1

100
AcDbText
  0
TEXT
  5
25FFF
330
18
100
AcDbEntity
  8
文字
100
AcDbText
 10
3610.46400429503
 20
2262.215500980381
 30
0.0
 40
4.0
  1

100
AcDbText
  0
ELLIPSE
  5
2C22A
330
18
100
AcDbEntity
  8
姿図
100
AcDbEllipse
 10
4342.432352443524
 20
2223.504138731687
 30
0.0
 11
16.56549654917292
 21
-0.4207617220392123
 31
0.0
210
0.0
220
0.0
230
1.0
 40
0.3448003519872257
 41
6.046470008658831
 42
9.770236737213507
  0
ELLIPSE
  5
2C22B
330
18
100
AcDbEntity
  8
姿図
100
AcDbEllipse
 10
4342.432352443524
 20
2222.674778540795
 30
0.0
 11
16.14715164558163
 21
-0.4101358092258596
 31
0.0
210
0.0
220
0.0
230
1.0
 40
0.3537335355713295
 41
6.085581631244131
 42
9.530819255371117
  0
ARC
  5
2C22C
330
18
100
AcDbEntity
  8
姿図
100
AcDbCircle
 10
4348.815685913771
 20
2216.986220793852
 30
0.0
 40
22.57532294063875
100
AcDbArc
 50
157.8650730096325
 51
178.3131705594427
  0
SPLINE
  5
2C35E
330
18
100
AcDbEntity
  8
姿図
100
AcDbSpline
210
0.0
220
0.0
230
1.0
 70
    11
 71
     3
 72
    70
 73
    66
 74
     0
 42
0.000000001
 43
0.0000000001
 40
0.0
 40
0.0
 40
0.0
 40
0.0
 40
0.1325511003420694
 40
0.1325511003420694
 40
0.2651022006841388
 40
0.2651022006841388
 40
0.3976533010262082
 40
0.3976533010262082
 40
0.5302044013682776
 40
0.5302044013682776
 40
0.7397248520178367
 40
0.7397248520178367
 40
0.9492453026673957
 40
0.9492453026673957
 40
1.158765753316955
 40
1.158765753316955
 40
1.368286203966514
 40
1.368286203966514
 40
1.660455600340546
 40
1.660455600340546
 40
1.952624996714579
 40
1.952624996714579
 40
2.244794393088612
 40
2.244794393088612
 40
2.469780447170401
 40
2.469780447170401
 40
2.69476650125219
 40
2.69476650125219
 40
2.851074505126578
 40
2.851074505126578
 40
3.007382509000966
 40
3.007382509000966
 40
3.163690512875355
 40
3.163690512875355
 40
3.319998516749743
 40
3.319998516749743
 40
3.476306520624131
 40
3.476306520624131
 40
3.632614524498519
 40
3.632614524498519
 40
3.788922528372907
 40
3.788922528372907
 40
3.945230532247295
 40
3.945230532247295
 40
4.1996485318078
 40
4.1996485318078
 40
4.454066531368306
 40
4.454066531368306
 40
4.708484530928811
 40
4.708484530928811
 40
4.962902530489317
 40
4.962902530489317
 40
5.217320530049823
 40
5.217320530049823
 40
5.471738529610328
 40
5.471738529610328
 40
5.726156529170834
 40
5.726156529170834
 40
5.897880152543986
 40
5.897880152543986
 40
6.069603775917138
 40
6.069603775917138
 40
6.20406405414118
 40
6.20406405414118
 40
6.283185307179586
 40
6.283185307179586
 40
6.283185307179586
 40
6.283185307179586
 10
4325.763798745977
 20
2213.37546705415
 30
0.0
 10
4325.757528442247
 20
2213.151562677911
 30
0.0
 10
4325.784043873865
 20
2212.926232354343
 30
0.0
 10
4325.912380109259
 20
2212.453636585419
 30
0.0
 10
4326.014968616028
 20
2212.206225669312
 30
0.0
 10
4326.313005586255
 20
2211.689435377139
 30
0.0
 10
4326.508659374207
 20
2211.420520204199
 30
0.0
 10
4326.999993004901
 20
2210.873970238424
 30
0.0
 10
4327.295535189764
 20
2210.59656639099
 30
0.0
 10
4328.183816032833
 20
2209.88738319474
 30
0.0
 10
4328.849639547654
 20
2209.459996838117
 30
0.0
 10
4330.391772933834
 20
2208.659535450371
 30
0.0
 10
4331.267746463689
 20
2208.286267904062
 30
0.0
 10
4333.184564755577
 20
2207.620251669299
 30
0.0
 10
4334.225311967394
 20
2207.327393271233
 30
0.0
 10
4336.420390079928
 20
2206.839527671593
 30
0.0
 10
4337.574658818279
 20
2206.644480873039
 30
0.0
 10
4340.408510279086
 20
2206.307250749982
 30
0.0
 10
4342.115629084639
 20
2206.216715200912
 30
0.0
 10
4345.488388495957
 20
2206.256151206673
 30
0.0
 10
4347.153689825866
 20
2206.386158180395
 30
0.0
 10
4350.289608357959
 20
2206.852216653977
 30
0.0
 10
4351.759906797402
 20
2207.188471888371
 30
0.0
 10
4354.06545302463
 20
2207.930046014863
 30
0.0
 10
4354.968983668294
 20
2208.301606580068
 30
0.0
 10
4356.522549966598
 20
2209.108500135052
 30
0.0
 10
4357.171838721693
 20
2209.544084883629
 30
0.0
 10
4358.027455979025
 20
2210.289643122455
 30
0.0
 10
4358.3085036312
 20
2210.59682044788
 30
0.0
 10
4358.736206650799
 20
2211.192104254075
 30
0.0
 10
4358.883046664216
 20
2211.4792018477
 30
0.0
 10
4359.067631275117
 20
2212.027638516192
 30
0.0
 10
4359.107065840546
 20
2212.289209313346
 30
0.0
 10
4359.095414701683
 20
2212.818785380354
 30
0.0
 10
4359.04390732659
 20
2213.088939499756
 30
0.0
 10
4358.827690472737
 20
2213.664082110949
 30
0.0
 10
4358.661550157753
 20
2213.968646206135
 30
0.0
 10
4358.192346256006
 20
2214.600139797172
 30
0.0
 10
4357.889361829365
 20
2214.926227885877
 30
0.0
 10
4357.145554283285
 20
2215.576552712889
 30
0.0
 10
4356.705037832124
 20
2215.900616090579
 30
0.0
 10
4355.69776787301
 20
2216.527603743088
 30
0.0
 10
4355.131152369115
 20
2216.830561613888
 30
0.0
 10
4353.498357675293
 20
2217.580613559477
 30
0.0
 10
4352.341619166367
 20
2217.998411783366
 30
0.0
 10
4349.823076661367
 20
2218.700104771957
 30
0.0
 10
4348.46146060592
 20
2218.984178642537
 30
0.0
 10
4345.629747918718
 20
2219.395315884945
 30
0.0
 10
4344.159815986375
 20
2219.522422169389
 30
0.0
 10
4341.213529807275
 20
2219.610016620099
 30
0.0
 10
4339.737347314431
 20
2219.570500503522
 30
0.0
 10
4336.88108285113
 20
2219.328414489792
 30
0.0
 10
4335.501163342935
 20
2219.125794727361
 30
0.0
 10
4332.93533816426
 20
2218.574985373837
 30
0.0
 10
4331.749607555244
 20
2218.226613271343
 30
0.0
 10
4329.660606191674
 20
2217.418728647233
 30
0.0
 10
4328.757888568371
 20
2216.958727450853
 30
0.0
 10
4327.541331969538
 20
2216.14613823949
 30
0.0
 10
4327.131533386084
 20
2215.807644309782
 30
0.0
 10
4326.480359060879
 20
2215.137142275862
 30
0.0
 10
4326.239453605564
 20
2214.806061205059
 30
0.0
 10
4325.94387940426
 20
2214.244413973669
 30
0.0
 10
4325.85934198522
 20
2214.007863006595
 30
0.0
 10
4325.783140311103
 20
2213.642478838
 30
0.0
 10
4325.767541561287
 20
2213.509118112219
 30
0.0
 10
4325.763798745977
 20
2213.37546705415
 30
0.0
  0
ELLIPSE
  5
2C35F
330
18
100
AcDbEntity
  8
姿図
100
AcDbEllipse
 10
4342.432352443524
 20
2212.908674505703
 30
0.0
 11
-17.9280599133497
 21
0.5020642418964099
 31
0.0
210
0.0
220
0.0
230
1.0
 40
0.4417103177870492
 41
3.260304975124833
 42
6.284314280045355
  0
ELLIPSE
  5
2C360
330
18
100
AcDbEntity
  8
姿図
100
AcDbEllipse
 10
4342.432352443525
 20
2213.87408526699
 30
0.0
 11
-17.9280599133497
 21
0.5020642418964099
 31
0.0
210
0.0
220
0.0
230
1.0
 40
0.4416765280515081
 41
0.0
 42
6.283185307179586
  0
SPLINE
  5
2C361
330
18
100
AcDbEntity
  8
姿図
100
AcDbSpline
210
0.0
220
0.0
230
1.0
 70
     8
 71
     3
 72
    20
 73
    16
 74
     0
 42
0.000000001
 43
0.0000000001
 40
0.8603225299771156
 40
0.8603225299771156
 40
0.8603225299771156
 40
0.8603225299771156
 40
0.9492453026673957
 40
0.9492453026673957
 40
1.158765753316955
 40
1.158765753316955
 40
1.368286203966514
 40
1.368286203966514
 40
1.660455600340546
 40
1.660455600340546
 40
1.952624996714579
 40
1.952624996714579
 40
2.244794393088612
 40
2.244794393088612
 40
2.302371271135109
 40
2.302371271135109
 40
2.302371271135109
 40
2.302371271135109
 10
4331.240785811817
 20
2218.252130510818
 30
0.0
 10
4331.611959426407
 20
2218.099031462637
 30
0.0
 10
4331.999515509477
 20
2217.952098390281
 30
0.0
 10
4333.349515449167
 20
2217.48302843171
 30
0.0
 10
4334.378698803075
 20
2217.193424015845
 30
0.0
 10
4336.549387158802
 20
2216.71097914509
 30
0.0
 10
4337.690830688949
 20
2216.518099533188
 30
0.0
 10
4340.493194911303
 20
2216.184616411498
 30
0.0
 10
4342.181345730129
 20
2216.095086812973
 30
0.0
 10
4345.516630036876
 20
2216.134084640892
 30
0.0
 10
4347.163428018674
 20
2216.262647092683
 30
0.0
 10
4350.264503011522
 20
2216.723527138782
 30
0.0
 10
4351.718464801638
 20
2217.056046203905
 30
0.0
 10
4353.260354555295
 20
2217.551991821351
 30
0.0
 10
4353.507744582184
 20
2217.636806408957
 30
0.0
 10
4353.748239664179
 20
2217.724507997324
 30
0.0
  0
SPLINE
  5
2C362
330
18
100
AcDbEntity
  8
姿図
100
AcDbSpline
210
0.0
220
0.0
230
1.0
 70
     8
 71
     3
 72
    22
 73
    18
 74
     0
 42
0.000000001
 43
0.0000000001
 40
0.734614039002979
 40
0.734614039002979
 40
0.734614039002979
 40
0.734614039002979
 40
0.7397248520178367
 40
0.7397248520178367
 40
0.9492453026673957
 40
0.9492453026673957
 40
1.158765753316955
 40
1.158765753316955
 40
1.368286203966514
 40
1.368286203966514
 40
1.660455600340546
 40
1.660455600340546
 40
1.952624996714579
 40
1.952624996714579
 40
2.244794393088612
 40
2.244794393088612
 40
2.428034951064766
 40
2.428034951064766
 40
2.428034951064766
 40
2.428034951064766
 10
4329.769642651181
 20
2217.639379000402
 30
0.0
 10
4329.788118138258
 20
2217.629693017955
 30
0.0
 10
4329.806655787583
 20
2217.620022724564
 30
0.0
 10
4330.587754647664
 20
2217.214584723472
 30
0.0
 10
4331.453995138299
 20
2216.845464594345
 30
0.0
 10
4333.349515449167
 20
2216.186848539968
 30
0.0
 10
4334.378698803075
 20
2215.897244124103
 30
0.0
 10
4336.549387158802
 20
2215.414799253348
 30
0.0
 10
4337.690830688949
 20
2215.221919641444
 30
0.0
 10
4340.493194911303
 20
2214.888436519755
 30
0.0
 10
4342.181345730129
 20
2214.79890692123
 30
0.0
 10
4345.516630036876
 20
2214.83790474915
 30
0.0
 10
4347.163428018674
 20
2214.966467200941
 30
0.0
 10
4350.264503011522
 20
2215.427347247039
 30
0.0
 10
4351.718464801638
 20
2215.759866312162
 30
0.0
 10
4353.814354853972
 20
2216.43400496808
 30
0.0
 10
4354.556928857744
 20
2216.725947205332
 30
0.0
 10
4355.219679162152
 20
2217.040881547368
 30
0.0
  0
SPLINE
  5
2C363
330
18
100
AcDbEntity
  8
姿図
100
AcDbSpline
210
0.0
220
0.0
230
1.0
 70
     8
 71
     3
 72
    20
 73
    16
 74
     0
 42
0.000000001
 43
0.0000000001
 40
0.7979399139812271
 40
0.7979399139812271
 40
0.7979399139812271
 40
0.7979399139812271
 40
0.9492453026673957
 40
0.9492453026673957
 40
1.158765753316955
 40
1.158765753316955
 40
1.368286203966514
 40
1.368286203966514
 40
1.660455600340546
 40
1.660455600340546
 40
1.952624996714579
 40
1.952624996714579
 40
2.244794393088612
 40
2.244794393088612
 40
2.364720152282226
 40
2.364720152282226
 40
2.364720152282226
 40
2.364720152282226
 10
4330.484384354089
 20
2217.957469717052
 30
0.0
 10
4331.075416200485
 20
2217.683087222481
 30
0.0
 10
4331.717329414279
 20
2217.42451503424
 30
0.0
 10
4333.349515449167
 20
2216.857396908339
 30
0.0
 10
4334.378698803075
 20
2216.567792492474
 30
0.0
 10
4336.549387158802
 20
2216.085347621719
 30
0.0
 10
4337.690830688949
 20
2215.892468009816
 30
0.0
 10
4340.493194911303
 20
2215.558984888126
 30
0.0
 10
4342.181345730129
 20
2215.469455289602
 30
0.0
 10
4345.516630036876
 20
2215.508453117521
 30
0.0
 10
4347.163428018674
 20
2215.637015569312
 30
0.0
 10
4350.264503011522
 20
2216.09789561541
 30
0.0
 10
4351.718464801638
 20
2216.430414680533
 30
0.0
 10
4353.535225534699
 20
2217.014771974155
 30
0.0
 10
4354.035976876599
 20
2217.198579888687
 30
0.0
 10
4354.504692605478
 20
2217.393584700869
 30
0.0
  0
SPLINE
  5
2C364
330
18
100
AcDbEntity
  8
姿図
100
AcDbSpline
210
0.0
220
0.0
230
1.0
 70
     8
 71
     3
 72
    24
 73
    20
 74
     0
 42
0.000000001
 43
0.0000000001
 40
0.6739897110637463
 40
0.6739897110637463
 40
0.6739897110637463
 40
0.6739897110637463
 40
0.7397248520178367
 40
0.7397248520178367
 40
0.9492453026673957
 40
0.9492453026673957
 40
1.158765753316955
 40
1.158765753316955
 40
1.368286203966514
 40
1.368286203966514
 40
1.660455600340546
 40
1.660455600340546
 40
1.952624996714579
 40
1.952624996714579
 40
2.244794393088612
 40
2.244794393088612
 40
2.469780447170401
 40
2.469780447170401
 40
2.488655450135048
 40
2.488655450135048
 40
2.488655450135048
 40
2.488655450135048
 10
4329.138810692057
 20
2217.319654679046
 30
0.0
 10
4329.357045228966
 20
2217.190810286535
 30
0.0
 10
4329.586028127669
 20
2217.063993421759
 30
0.0
 10
4330.587754647664
 20
2216.544036193984
 30
0.0
 10
4331.453995138299
 20
2216.174916064857
 30
0.0
 10
4333.349515449167
 20
2215.516300010479
 30
0.0
 10
4334.378698803075
 20
2215.226695594614
 30
0.0
 10
4336.549387158802
 20
2214.744250723859
 30
0.0
 10
4337.690830688949
 20
2214.551371111956
 30
0.0
 10
4340.493194911303
 20
2214.217887990267
 30
0.0
 10
4342.181345730129
 20
2214.128358391741
 30
0.0
 10
4345.516630036876
 20
2214.167356219661
 30
0.0
 10
4347.163428018674
 20
2214.295918671452
 30
0.0
 10
4350.264503011522
 20
2214.756798717551
 30
0.0
 10
4351.718464801638
 20
2215.089317782673
 30
0.0
 10
4353.998393848564
 20
2215.822652196649
 30
0.0
 10
4354.891885262854
 20
2216.190084311129
 30
0.0
 10
4355.724480929247
 20
2216.62251907613
 30
0.0
 10
4355.788037007103
 20
2216.656213486465
 30
0.0
 10
4355.850695836453
 20
2216.690115345551
 30
0.0
  0
SPLINE
  5
2C365
330
18
100
AcDbEntity
  8
姿図
100
AcDbSpline
210
0.0
220
0.0
230
1.0
 70
     8
 71
     3
 72
    24
 73
    20
 74
     0
 42
0.000000001
 43
0.0000000001
 40
0.6153340928930858
 40
0.6153340928930858
 40
0.6153340928930858
 40
0.6153340928930858
 40
0.7397248520178367
 40
0.7397248520178367
 40
0.9492453026673957
 40
0.9492453026673957
 40
1.158765753316955
 40
1.158765753316955
 40
1.368286203966514
 40
1.368286203966514
 40
1.660455600340546
 40
1.660455600340546
 40
1.952624996714579
 40
1.952624996714579
 40
2.244794393088612
 40
2.244794393088612
 40
2.469780447170401
 40
2.469780447170401
 40
2.547299382396412
 40
2.547299382396412
 40
2.547299382396412
 40
2.547299382396412
 10
4328.580648881692
 20
2216.99841623727
 30
0.0
 10
4328.956557864914
 20
2216.74868450405
 30
0.0
 10
4329.372565113435
 20
2216.504245391502
 30
0.0
 10
4330.587754647664
 20
2215.873487825613
 30
0.0
 10
4331.453995138299
 20
2215.504367696485
 30
0.0
 10
4333.349515449167
 20
2214.845751642109
 30
0.0
 10
4334.378698803075
 20
2214.556147226243
 30
0.0
 10
4336.549387158802
 20
2214.073702355488
 30
0.0
 10
4337.690830688949
 20
2213.880822743585
 30
0.0
 10
4340.493194911303
 20
2213.547339621895
 30
0.0
 10
4342.181345730129
 20
2213.45781002337
 30
0.0
 10
4345.516630036876
 20
2213.496807851289
 30
0.0
 10
4347.163428018674
 20
2213.625370303081
 30
0.0
 10
4350.264503011522
 20
2214.086250349179
 30
0.0
 10
4351.718464801638
 20
2214.418769414302
 30
0.0
 10
4353.998393848564
 20
2215.152103828277
 30
0.0
 10
4354.891885262854
 20
2215.519535942758
 30
0.0
 10
4355.924704304199
 20
2216.055963019501
 30
0.0
 10
4356.174403836727
 20
2216.197198917793
 30
0.0
 10
4356.408451307953
 20
2216.341083230988
 30
0.0
  0
SPLINE
  5
2C366
330
18
100
AcDbEntity
  8
姿図
100
AcDbSpline
210
0.0
220
0.0
230
1.0
 70
    11
 71
     3
 72
    70
 73
    66
 74
     0
 42
0.000000001
 43
0.0000000001
 40
0.0
 40
0.0
 40
0.0
 40
0.0
 40
0.1325511003420694
 40
0.1325511003420694
 40
0.2651022006841388
 40
0.2651022006841388
 40
0.3976533010262082
 40
0.3976533010262082
 40
0.5302044013682776
 40
0.5302044013682776
 40
0.7397248520178367
 40
0.7397248520178367
 40
0.9492453026673957
 40
0.9492453026673957
 40
1.158765753316955
 40
1.158765753316955
 40
1.368286203966514
 40
1.368286203966514
 40
1.660455600340546
 40
1.660455600340546
 40
1.952624996714579
 40
1.952624996714579
 40
2.244794393088612
 40
2.244794393088612
 40
2.469780447170401
 40
2.469780447170401
 40
2.69476650125219
 40
2.69476650125219
 40
2.851074505126578
 40
2.851074505126578
 40
3.007382509000966
 40
3.007382509000966
 40
3.163690512875355
 40
3.163690512875355
 40
3.319998516749743
 40
3.319998516749743
 40
3.476306520624131
 40
3.476306520624131
 40
3.632614524498519
 40
3.632614524498519
 40
3.788922528372907
 40
3.788922528372907
 40
3.945230532247295
 40
3.945230532247295
 40
4.1996485318078
 40
4.1996485318078
 40
4.454066531368306
 40
4.454066531368306
 40
4.708484530928811
 40
4.708484530928811
 40
4.962902530489317
 40
4.962902530489317
 40
5.217320530049823
 40
5.217320530049823
 40
5.471738529610328
 40
5.471738529610328
 40
5.726156529170834
 40
5.726156529170834
 40
5.897880152543986
 40
5.897880152543986
 40
6.069603775917138
 40
6.069603775917138
 40
6.20406405414118
 40
6.20406405414118
 40
6.283185307179586
 40
6.283185307179586
 40
6.283185307179586
 40
6.283185307179586
 10
4326.011202395228
 20
2213.7255171037
 30
0.0
 10
4326.005001761541
 20
2213.504100553863
 30
0.0
 10
4326.03122257725
 20
2213.281273900557
 30
0.0
 10
4326.158132854474
 20
2212.813929195732
 30
0.0
 10
4326.259581488946
 20
2212.569267289804
 30
0.0
 10
4326.554306937282
 20
2212.058219111989
 30
0.0
 10
4326.747786794256
 20
2211.792291885415
 30
0.0
 10
4327.233661162387
 20
2211.251814697037
 30
0.0
 10
4327.525919545195
 20
2210.977493114575
 30
0.0
 10
4328.404330601121
 20
2210.276189731617
 30
0.0
 10
4329.062756076886
 20
2209.853552112289
 30
0.0
 10
4330.587754647664
 20
2209.061984739962
 30
0.0
 10
4331.453995138299
 20
2208.692864610834
 30
0.0
 10
4333.349515449167
 20
2208.034248556458
 30
0.0
 10
4334.378698803075
 20
2207.744644140592
 30
0.0
 10
4336.549387158802
 20
2207.262199269838
 30
0.0
 10
4337.690830688949
 20
2207.069319657934
 30
0.0
 10
4340.493194911303
 20
2206.735836536244
 30
0.0
 10
4342.181345730129
 20
2206.64630693772
 30
0.0
 10
4345.516630036876
 20
2206.685304765639
 30
0.0
 10
4347.163428018674
 20
2206.81386721743
 30
0.0
 10
4350.264503011522
 20
2207.274747263528
 30
0.0
 10
4351.718464801638
 20
2207.607266328651
 30
0.0
 10
4353.998393848564
 20
2208.340600742627
 30
0.0
 10
4354.891885262854
 20
2208.708032857107
 30
0.0
 10
4356.428189713399
 20
2209.505960928147
 30
0.0
 10
4357.070264148992
 20
2209.936705846184
 30
0.0
 10
4357.916374547909
 20
2210.673980104579
 30
0.0
 10
4358.194299448394
 20
2210.97774434861
 30
0.0
 10
4358.617250212221
 20
2211.566413890292
 30
0.0
 10
4358.762458669931
 20
2211.850321510654
 30
0.0
 10
4358.944992340712
 20
2212.392664438386
 30
0.0
 10
4358.983988744301
 20
2212.651328893349
 30
0.0
 10
4358.972467062538
 20
2213.175020781834
 30
0.0
 10
4358.921531991613
 20
2213.442173188798
 30
0.0
 10
4358.707717547248
 20
2214.010925326535
 30
0.0
 10
4358.543423235762
 20
2214.312105376218
 30
0.0
 10
4358.079432710701
 20
2214.936582371799
 30
0.0
 10
4357.77981477769
 20
2215.259047259518
 30
0.0
 10
4357.0442717599
 20
2215.902146255119
 30
0.0
 10
4356.608649935974
 20
2216.222608928612
 30
0.0
 10
4355.612571865295
 20
2216.842630051648
 30
0.0
 10
4355.05225208922
 20
2217.142221723885
 30
0.0
 10
4353.437599558663
 20
2217.883939758967
 30
0.0
 10
4352.293713699836
 20
2218.297095780369
 30
0.0
 10
4349.803155000447
 20
2218.990992180197
 30
0.0
 10
4348.456668012283
 20
2219.271909674438
 30
0.0
 10
4345.656418799384
 20
2219.678478725264
 30
0.0
 10
4344.202819444066
 20
2219.804172717658
 30
0.0
 10
4341.289269778068
 20
2219.890793896694
 30
0.0
 10
4339.82948931292
 20
2219.851716848078
 30
0.0
 10
4337.004961121434
 20
2219.612320678945
 30
0.0
 10
4335.64037405222
 20
2219.411952247208
 30
0.0
 10
4333.103058042198
 20
2218.867262997612
 30
0.0
 10
4331.930502217726
 20
2218.522761696257
 30
0.0
 10
4329.864711980417
 20
2217.723853567972
 30
0.0
 10
4328.972024552928
 20
2217.268963495995
 30
0.0
 10
4327.76898524964
 20
2216.465403053647
 30
0.0
 10
4327.363739983779
 20
2216.130670167602
 30
0.0
 10
4326.719800928853
 20
2215.467618156282
 30
0.0
 10
4326.481572200821
 20
2215.140215764042
 30
0.0
 10
4326.189282157307
 20
2214.584809057446
 30
0.0
 10
4326.105684042926
 20
2214.35088643445
 30
0.0
 10
4326.030329054075
 20
2213.989562089951
 30
0.0
 10
4326.014903623702
 20
2213.857683150012
 30
0.0
 10
4326.011202395228
 20
2213.7255171037
 30
0.0
  0
SPLINE
  5
2C367
330
18
100
AcDbEntity
  8
姿図
100
AcDbSpline
210
0.0
220
0.0
230
1.0
 70
     8
 71
     3
 72
    30
 73
    26
 74
     0
 42
0.000000001
 43
0.0000000001
 40
0.3354232995066272
 40
0.3354232995066272
 40
0.3354232995066272
 40
0.3354232995066272
 40
0.3976533010262082
 40
0.3976533010262082
 40
0.5302044013682776
 40
0.5302044013682776
 40
0.7397248520178367
 40
0.7397248520178367
 40
0.9492453026673957
 40
0.9492453026673957
 40
1.158765753316955
 40
1.158765753316955
 40
1.368286203966514
 40
1.368286203966514
 40
1.660455600340546
 40
1.660455600340546
 40
1.952624996714579
 40
1.952624996714579
 40
2.244794393088612
 40
2.244794393088612
 40
2.469780447170401
 40
2.469780447170401
 40
2.69476650125219
 40
2.69476650125219
 40
2.828108566806494
 40
2.828108566806494
 40
2.828108566806494
 40
2.828108566806494
 10
4326.680919175737
 20
2215.386038343818
 30
0.0
 10
4326.773516937441
 20
2215.261697820726
 30
0.0
 10
4326.876669992391
 20
2215.135776659271
 30
0.0
 10
4327.233661162387
 20
2214.738666631472
 30
0.0
 10
4327.525919545195
 20
2214.46434504901
 30
0.0
 10
4328.404330601121
 20
2213.763041666052
 30
0.0
 10
4329.062756076886
 20
2213.340404046724
 30
0.0
 10
4330.587754647664
 20
2212.548836674398
 30
0.0
 10
4331.453995138299
 20
2212.17971654527
 30
0.0
 10
4333.349515449167
 20
2211.521100490893
 30
0.0
 10
4334.378698803075
 20
2211.231496075028
 30
0.0
 10
4336.549387158802
 20
2210.749051204273
 30
0.0
 10
4337.690830688949
 20
2210.55617159237
 30
0.0
 10
4340.493194911303
 20
2210.222688470681
 30
0.0
 10
4342.181345730129
 20
2210.133158872155
 30
0.0
 10
4345.516630036876
 20
2210.172156700075
 30
0.0
 10
4347.163428018674
 20
2210.300719151866
 30
0.0
 10
4350.264503011522
 20
2210.761599197964
 30
0.0
 10
4351.718464801638
 20
2211.094118263087
 30
0.0
 10
4353.998393848564
 20
2211.827452677063
 30
0.0
 10
4354.891885262854
 20
2212.194884791543
 30
0.0
 10
4356.428189713399
 20
2212.992812862582
 30
0.0
 10
4357.070264148992
 20
2213.423557780619
 30
0.0
 10
4357.865411993345
 20
2214.116424855662
 30
0.0
 10
4358.111141802579
 20
2214.375366594402
 30
0.0
 10
4358.308248865544
 20
2214.628617536853
 30
0.0
  0
SPLINE
  5
2C368
330
18
100
AcDbEntity
  8
姿図
100
AcDbSpline
210
0.0
220
0.0
230
1.0
 70
     8
 71
     3
 72
    34
 73
    30
 74
     0
 42
0.000000001
 43
0.0000000001
 40
0.2139299656021869
 40
0.2139299656021869
 40
0.2139299656021869
 40
0.2139299656021869
 40
0.2651022006841388
 40
0.2651022006841388
 40
0.3976533010262082
 40
0.3976533010262082
 40
0.5302044013682776
 40
0.5302044013682776
 40
0.7397248520178367
 40
0.7397248520178367
 40
0.9492453026673957
 40
0.9492453026673957
 40
1.158765753316955
 40
1.158765753316955
 40
1.368286203966514
 40
1.368286203966514
 40
1.660455600340546
 40
1.660455600340546
 40
1.952624996714579
 40
1.952624996714579
 40
2.244794393088612
 40
2.244794393088612
 40
2.469780447170401
 40
2.469780447170401
 40
2.69476650125219
 40
2.69476650125219
 40
2.851074505126578
 40
2.851074505126578
 40
2.950762975643702
 40
2.950762975643702
 40
2.950762975643702
 40
2.950762975643702
 10
4326.25634646899
 20
2214.705871343807
 30
0.0
 10
4326.300006515112
 20
2214.610469690061
 30
0.0
 10
4326.350053852007
 20
2214.513441810718
 30
0.0
 10
4326.554306937282
 20
2214.159270945489
 30
0.0
 10
4326.747786794256
 20
2213.893343718914
 30
0.0
 10
4327.233661162387
 20
2213.352866530537
 30
0.0
 10
4327.525919545195
 20
2213.078544948075
 30
0.0
 10
4328.404330601121
 20
2212.377241565116
 30
0.0
 10
4329.062756076886
 20
2211.954603945789
 30
0.0
 10
4330.587754647664
 20
2211.163036573462
 30
0.0
 10
4331.453995138299
 20
2210.793916444335
 30
0.0
 10
4333.349515449167
 20
2210.135300389958
 30
0.0
 10
4334.378698803075
 20
2209.845695974092
 30
0.0
 10
4336.549387158802
 20
2209.363251103337
 30
0.0
 10
4337.690830688949
 20
2209.170371491435
 30
0.0
 10
4340.493194911303
 20
2208.836888369745
 30
0.0
 10
4342.181345730129
 20
2208.747358771219
 30
0.0
 10
4345.516630036876
 20
2208.786356599139
 30
0.0
 10
4347.163428018674
 20
2208.914919050931
 30
0.0
 10
4350.264503011522
 20
2209.375799097029
 30
0.0
 10
4351.718464801638
 20
2209.708318162151
 30
0.0
 10
4353.998393848564
 20
2210.441652576127
 30
0.0
 10
4354.891885262854
 20
2210.809084690607
 30
0.0
 10
4356.428189713399
 20
2211.607012761647
 30
0.0
 10
4357.070264148992
 20
2212.037757679685
 30
0.0
 10
4357.916374547909
 20
2212.775031938079
 30
0.0
 10
4358.194299448394
 20
2213.07879618211
 30
0.0
 10
4358.540647369477
 20
2213.560848679477
 30
0.0
 10
4358.648565845288
 20
2213.744325163815
 30
0.0
 10
4358.732727596947
 20
2213.922961420597
 30
0.0
  0
SPLINE
  5
2C369
330
18
100
AcDbEntity
  8
姿図
100
AcDbSpline
210
0.0
220
0.0
230
1.0
 70
     8
 71
     3
 72
    32
 73
    28
 74
     0
 42
0.000000001
 43
0.0000000001
 40
0.2736862359558179
 40
0.2736862359558179
 40
0.2736862359558179
 40
0.2736862359558179
 40
0.3976533010262082
 40
0.3976533010262082
 40
0.5302044013682776
 40
0.5302044013682776
 40
0.7397248520178367
 40
0.7397248520178367
 40
0.9492453026673957
 40
0.9492453026673957
 40
1.158765753316955
 40
1.158765753316955
 40
1.368286203966514
 40
1.368286203966514
 40
1.660455600340546
 40
1.660455600340546
 40
1.952624996714579
 40
1.952624996714579
 40
2.244794393088612
 40
2.244794393088612
 40
2.469780447170401
 40
2.469780447170401
 40
2.69476650125219
 40
2.69476650125219
 40
2.851074505126578
 40
2.851074505126578
 40
2.890390267939805
 40
2.890390267939805
 40
2.890390267939805
 40
2.890390267939805
 10
4326.436155066693
 20
2215.03557079821
 30
0.0
 10
4326.579573942543
 20
2214.795358233725
 30
0.0
 10
4326.763519453973
 20
2214.546391382891
 30
0.0
 10
4327.233661162387
 20
2214.023414898908
 30
0.0
 10
4327.525919545195
 20
2213.749093316446
 30
0.0
 10
4328.404330601121
 20
2213.047789933487
 30
0.0
 10
4329.062756076886
 20
2212.62515231416
 30
0.0
 10
4330.587754647664
 20
2211.833584941833
 30
0.0
 10
4331.453995138299
 20
2211.464464812706
 30
0.0
 10
4333.349515449167
 20
2210.805848758328
 30
0.0
 10
4334.378698803075
 20
2210.516244342463
 30
0.0
 10
4336.549387158802
 20
2210.033799471708
 30
0.0
 10
4337.690830688949
 20
2209.840919859806
 30
0.0
 10
4340.493194911303
 20
2209.507436738116
 30
0.0
 10
4342.181345730129
 20
2209.417907139591
 30
0.0
 10
4345.516630036876
 20
2209.45690496751
 30
0.0
 10
4347.163428018674
 20
2209.585467419301
 30
0.0
 10
4350.264503011522
 20
2210.0463474654
 30
0.0
 10
4351.718464801638
 20
2210.378866530523
 30
0.0
 10
4353.998393848564
 20
2211.112200944498
 30
0.0
 10
4354.891885262854
 20
2211.479633058979
 30
0.0
 10
4356.428189713399
 20
2212.277561130018
 30
0.0
 10
4357.070264148992
 20
2212.708306048055
 30
0.0
 10
4357.916374547909
 20
2213.44558030645
 30
0.0
 10
4358.194299448394
 20
2213.749344550481
 30
0.0
 10
4358.458966706283
 20
2214.117712612972
 30
0.0
 10
4358.507966133224
 20
2214.191086219606
 30
0.0
 10
4358.552969245646
 20
2214.263763397638
 30
0.0
  0
SPLINE
  5
2C36A
330
18
100
AcDbEntity
  8
姿図
100
AcDbSpline
210
0.0
220
0.0
230
1.0
 70
     8
 71
     3
 72
    36
 73
    32
 74
     0
 42
0.000000001
 43
0.0000000001
 40
0.1519250428741453
 40
0.1519250428741453
 40
0.1519250428741453
 40
0.1519250428741453
 40
0.2651022006841388
 40
0.2651022006841388
 40
0.3976533010262082
 40
0.3976533010262082
 40
0.5302044013682776
 40
0.5302044013682776
 40
0.7397248520178367
 40
0.7397248520178367
 40
0.9492453026673957
 40
0.9492453026673957
 40
1.158765753316955
 40
1.158765753316955
 40
1.368286203966514
 40
1.368286203966514
 40
1.660455600340546
 40
1.660455600340546
 40
1.952624996714579
 40
1.952624996714579
 40
2.244794393088612
 40
2.244794393088612
 40
2.469780447170401
 40
2.469780447170401
 40
2.69476650125219
 40
2.69476650125219
 40
2.851074505126578
 40
2.851074505126578
 40
3.007382509000966
 40
3.007382509000966
 40
3.013465200237514
 40
3.013465200237514
 40
3.013465200237514
 40
3.013465200237514
 10
4326.124961655232
 20
2214.37493882824
 30
0.0
 10
4326.188769617
 20
2214.172679868385
 30
0.0
 10
4326.281120329002
 20
2213.962422665346
 30
0.0
 10
4326.554306937282
 20
2213.488722416
 30
0.0
 10
4326.747786794256
 20
2213.222795189426
 30
0.0
 10
4327.233661162387
 20
2212.682318001048
 30
0.0
 10
4327.525919545195
 20
2212.407996418587
 30
0.0
 10
4328.404330601121
 20
2211.706693035628
 30
0.0
 10
4329.062756076886
 20
2211.2840554163
 30
0.0
 10
4330.587754647664
 20
2210.492488043973
 30
0.0
 10
4331.453995138299
 20
2210.123367914846
 30
0.0
 10
4333.349515449167
 20
2209.464751860469
 30
0.0
 10
4334.378698803075
 20
2209.175147444604
 30
0.0
 10
4336.549387158802
 20
2208.692702573849
 30
0.0
 10
4337.690830688949
 20
2208.499822961946
 30
0.0
 10
4340.493194911303
 20
2208.166339840256
 30
0.0
 10
4342.181345730129
 20
2208.076810241731
 30
0.0
 10
4345.516630036876
 20
2208.11580806965
 30
0.0
 10
4347.163428018674
 20
2208.244370521442
 30
0.0
 10
4350.264503011522
 20
2208.70525056754
 30
0.0
 10
4351.718464801638
 20
2209.037769632662
 30
0.0
 10
4353.998393848564
 20
2209.771104046638
 30
0.0
 10
4354.891885262854
 20
2210.138536161118
 30
0.0
 10
4356.428189713399
 20
2210.936464232158
 30
0.0
 10
4357.070264148992
 20
2211.367209150196
 30
0.0
 10
4357.916374547909
 20
2212.104483408591
 30
0.0
 10
4358.194299448394
 20
2212.408247652621
 30
0.0
 10
4358.617250212221
 20
2212.996917194304
 30
0.0
 10
4358.762458669931
 20
2213.280824814666
 30
0.0
 10
4358.85727713394
 20
2213.562548855789
 30
0.0
 10
4358.86074960631
 20
2213.573082492933
 30
0.0
 10
4358.864143365194
 20
2213.583598114503
 30
0.0
  0
SPLINE
  5
2C36B
330
18
100
AcDbEntity
  8
姿図
100
AcDbSpline
210
0.0
220
0.0
230
1.0
 70
     8
 71
     3
 72
    38
 73
    34
 74
     0
 42
0.000000001
 43
0.0000000001
 40
0.0875809345588952
 40
0.0875809345588952
 40
0.0875809345588952
 40
0.0875809345588952
 40
0.1325511003420694
 40
0.1325511003420694
 40
0.2651022006841388
 40
0.2651022006841388
 40
0.3976533010262082
 40
0.3976533010262082
 40
0.5302044013682776
 40
0.5302044013682776
 40
0.7397248520178367
 40
0.7397248520178367
 40
0.9492453026673957
 40
0.9492453026673957
 40
1.158765753316955
 40
1.158765753316955
 40
1.368286203966514
 40
1.368286203966514
 40
1.660455600340546
 40
1.660455600340546
 40
1.952624996714579
 40
1.952624996714579
 40
2.244794393088612
 40
2.244794393088612
 40
2.469780447170401
 40
2.469780447170401
 40
2.69476650125219
 40
2.69476650125219
 40
2.851074505126578
 40
2.851074505126578
 40
3.007382509000966
 40
3.007382509000966
 40
3.07848309170727
 40
3.07848309170727
 40
3.07848309170727
 40
3.07848309170727
 10
4326.042762356359
 20
2214.042011563871
 30
0.0
 10
4326.055907032594
 20
2213.964862589163
 30
0.0
 10
4326.07314950451
 20
2213.886833716488
 30
0.0
 10
4326.158132854474
 20
2213.573884131372
 30
0.0
 10
4326.259581488946
 20
2213.329222225444
 30
0.0
 10
4326.554306937282
 20
2212.818174047629
 30
0.0
 10
4326.747786794256
 20
2212.552246821055
 30
0.0
 10
4327.233661162387
 20
2212.011769632677
 30
0.0
 10
4327.525919545195
 20
2211.737448050215
 30
0.0
 10
4328.404330601121
 20
2211.036144667257
 30
0.0
 10
4329.062756076886
 20
2210.613507047929
 30
0.0
 10
4330.587754647664
 20
2209.821939675602
 30
0.0
 10
4331.453995138299
 20
2209.452819546475
 30
0.0
 10
4333.349515449167
 20
2208.794203492098
 30
0.0
 10
4334.378698803075
 20
2208.504599076233
 30
0.0
 10
4336.549387158802
 20
2208.022154205478
 30
0.0
 10
4337.690830688949
 20
2207.829274593574
 30
0.0
 10
4340.493194911303
 20
2207.495791471885
 30
0.0
 10
4342.181345730129
 20
2207.40626187336
 30
0.0
 10
4345.516630036876
 20
2207.44525970128
 30
0.0
 10
4347.163428018674
 20
2207.573822153071
 30
0.0
 10
4350.264503011522
 20
2208.034702199168
 30
0.0
 10
4351.718464801638
 20
2208.367221264291
 30
0.0
 10
4353.998393848564
 20
2209.100555678267
 30
0.0
 10
4354.891885262854
 20
2209.467987792747
 30
0.0
 10
4356.428189713399
 20
2210.265915863787
 30
0.0
 10
4357.070264148992
 20
2210.696660781824
 30
0.0
 10
4357.916374547909
 20
2211.43393504022
 30
0.0
 10
4358.194299448394
 20
2211.73769928425
 30
0.0
 10
4358.617250212221
 20
2212.326368825932
 30
0.0
 10
4358.762458669931
 20
2212.610276446294
 30
0.0
 10
4358.895240495067
 20
2213.004796994124
 30
0.0
 10
4358.925940149868
 20
2213.125558238544
 30
0.0
 10
4358.946531601
 20
2213.245208224163
 30
0.0
  0
SPLINE
  5
2C36C
330
18
100
AcDbEntity
  8
姿図
100
AcDbSpline
210
0.0
220
0.0
230
1.0
 70
     8
 71
     3
 72
    24
 73
    20
 74
     0
 42
0.000000001
 43
0.0000000001
 40
0.5543166416818401
 40
0.5543166416818401
 40
0.5543166416818401
 40
0.5543166416818401
 40
0.7397248520178367
 40
0.7397248520178367
 40
0.9492453026673957
 40
0.9492453026673957
 40
1.158765753316955
 40
1.158765753316955
 40
1.368286203966514
 40
1.368286203966514
 40
1.660455600340546
 40
1.660455600340546
 40
1.952624996714579
 40
1.952624996714579
 40
2.244794393088612
 40
2.244794393088612
 40
2.469780447170401
 40
2.469780447170401
 40
2.608359762056138
 40
2.608359762056138
 40
2.608359762056138
 40
2.608359762056138
 10
4328.056812962024
 20
2216.65399557307
 30
0.0
 10
4328.557256111861
 20
2216.275519937348
 30
0.0
 10
4329.15050677593
 20
2215.904255494647
 30
0.0
 10
4330.587754647664
 20
2215.158236093048
 30
0.0
 10
4331.453995138299
 20
2214.789115963921
 30
0.0
 10
4333.349515449167
 20
2214.130499909544
 30
0.0
 10
4334.378698803075
 20
2213.840895493679
 30
0.0
 10
4336.549387158802
 20
2213.358450622924
 30
0.0
 10
4337.690830688949
 20
2213.165571011021
 30
0.0
 10
4340.493194911303
 20
2212.832087889331
 30
0.0
 10
4342.181345730129
 20
2212.742558290806
 30
0.0
 10
4345.516630036876
 20
2212.781556118725
 30
0.0
 10
4347.163428018674
 20
2212.910118570517
 30
0.0
 10
4350.264503011522
 20
2213.370998616615
 30
0.0
 10
4351.718464801638
 20
2213.703517681737
 30
0.0
 10
4353.998393848564
 20
2214.436852095713
 30
0.0
 10
4354.891885262854
 20
2214.804284210193
 30
0.0
 10
4356.133177965836
 20
2215.448988644744
 30
0.0
 10
4356.558485819278
 20
2215.706786385645
 30
0.0
 10
4356.932048844581
 20
2215.970217417771
 30
0.0
  0
SPLINE
  5
2C36D
330
18
100
AcDbEntity
  8
姿図
100
AcDbSpline
210
0.0
220
0.0
230
1.0
 70
     8
 71
     3
 72
    30
 73
    26
 74
     0
 42
0.000000001
 43
0.0000000001
 40
0.3920830818550671
 40
0.3920830818550671
 40
0.3920830818550671
 40
0.3920830818550671
 40
0.3976533010262082
 40
0.3976533010262082
 40
0.5302044013682776
 40
0.5302044013682776
 40
0.7397248520178367
 40
0.7397248520178367
 40
0.9492453026673957
 40
0.9492453026673957
 40
1.158765753316955
 40
1.158765753316955
 40
1.368286203966514
 40
1.368286203966514
 40
1.660455600340546
 40
1.660455600340546
 40
1.952624996714579
 40
1.952624996714579
 40
2.244794393088612
 40
2.244794393088612
 40
2.469780447170401
 40
2.469780447170401
 40
2.69476650125219
 40
2.69476650125219
 40
2.771095018135638
 40
2.771095018135638
 40
2.771095018135638
 40
2.771095018135638
 10
4326.96035876627
 20
2215.713499158847
 30
0.0
 10
4326.970393329808
 20
2215.702158552276
 30
0.0
 10
4326.980514984532
 20
2215.690809879979
 30
0.0
 10
4327.233661162387
 20
2215.409214999843
 30
0.0
 10
4327.525919545195
 20
2215.134893417381
 30
0.0
 10
4328.404330601121
 20
2214.433590034423
 30
0.0
 10
4329.062756076886
 20
2214.010952415096
 30
0.0
 10
4330.587754647664
 20
2213.219385042768
 30
0.0
 10
4331.453995138299
 20
2212.850264913642
 30
0.0
 10
4333.349515449167
 20
2212.191648859264
 30
0.0
 10
4334.378698803075
 20
2211.902044443399
 30
0.0
 10
4336.549387158802
 20
2211.419599572644
 30
0.0
 10
4337.690830688949
 20
2211.226719960741
 30
0.0
 10
4340.493194911303
 20
2210.893236839051
 30
0.0
 10
4342.181345730129
 20
2210.803707240527
 30
0.0
 10
4345.516630036876
 20
2210.842705068446
 30
0.0
 10
4347.163428018674
 20
2210.971267520237
 30
0.0
 10
4350.264503011522
 20
2211.432147566336
 30
0.0
 10
4351.718464801638
 20
2211.764666631458
 30
0.0
 10
4353.998393848564
 20
2212.498001045434
 30
0.0
 10
4354.891885262854
 20
2212.865433159914
 30
0.0
 10
4356.428189713399
 20
2213.663361230953
 30
0.0
 10
4357.070264148992
 20
2214.094106148991
 30
0.0
 10
4357.73889610514
 20
2214.676731218059
 30
0.0
 10
4357.891835908436
 20
2214.824684600695
 30
0.0
 10
4358.028627627846
 20
2214.971726100661
 30
0.0
  0
SPLINE
  5
2C36E
330
18
100
AcDbEntity
  8
姿図
100
AcDbSpline
210
0.0
220
0.0
230
1.0
 70
     8
 71
     3
 72
    26
 73
    22
 74
     0
 42
0.000000001
 43
0.0000000001
 40
0.5041065256970889
 40
0.5041065256970889
 40
0.5041065256970889
 40
0.5041065256970889
 40
0.5302044013682776
 40
0.5302044013682776
 40
0.7397248520178367
 40
0.7397248520178367
 40
0.9492453026673957
 40
0.9492453026673957
 40
1.158765753316955
 40
1.158765753316955
 40
1.368286203966514
 40
1.368286203966514
 40
1.660455600340546
 40
1.660455600340546
 40
1.952624996714579
 40
1.952624996714579
 40
2.244794393088612
 40
2.244794393088612
 40
2.469780447170401
 40
2.469780447170401
 40
2.658672262395626
 40
2.658672262395626
 40
2.658672262395626
 40
2.658672262395626
 10
4327.670853707334
 20
2216.365001587149
 30
0.0
 10
4327.734130797904
 20
2216.311348150994
 30
0.0
 10
4327.799282498702
 20
2216.257743558467
 30
0.0
 10
4328.404330601121
 20
2215.774686932283
 30
0.0
 10
4329.062756076886
 20
2215.352049312955
 30
0.0
 10
4330.587754647664
 20
2214.560481940628
 30
0.0
 10
4331.453995138299
 20
2214.191361811501
 30
0.0
 10
4333.349515449167
 20
2213.532745757124
 30
0.0
 10
4334.378698803075
 20
2213.243141341259
 30
0.0
 10
4336.549387158802
 20
2212.760696470504
 30
0.0
 10
4337.690830688949
 20
2212.567816858601
 30
0.0
 10
4340.493194911303
 20
2212.234333736911
 30
0.0
 10
4342.181345730129
 20
2212.144804138386
 30
0.0
 10
4345.516630036876
 20
2212.183801966306
 30
0.0
 10
4347.163428018674
 20
2212.312364418097
 30
0.0
 10
4350.264503011522
 20
2212.773244464195
 30
0.0
 10
4351.718464801638
 20
2213.105763529317
 30
0.0
 10
4353.998393848564
 20
2213.839097943293
 30
0.0
 10
4354.891885262854
 20
2214.206530057774
 30
0.0
 10
4356.30495598671
 20
2214.940452814119
 30
0.0
 10
4356.861004794549
 20
2215.297813237959
 30
0.0
 10
4357.318276375408
 20
2215.661306653726
 30
0.0
  0
SPLINE
  5
2C36F
330
18
100
AcDbEntity
  8
姿図
100
AcDbSpline
210
0.0
220
0.0
230
1.0
 70
     8
 71
     3
 72
    28
 73
    24
 74
     0
 42
0.000000001
 43
0.0000000001
 40
0.4481365490448796
 40
0.4481365490448796
 40
0.4481365490448796
 40
0.4481365490448796
 40
0.5302044013682776
 40
0.5302044013682776
 40
0.7397248520178367
 40
0.7397248520178367
 40
0.9492453026673957
 40
0.9492453026673957
 40
1.158765753316955
 40
1.158765753316955
 40
1.368286203966514
 40
1.368286203966514
 40
1.660455600340546
 40
1.660455600340546
 40
1.952624996714579
 40
1.952624996714579
 40
2.244794393088612
 40
2.244794393088612
 40
2.469780447170401
 40
2.469780447170401
 40
2.69476650125219
 40
2.69476650125219
 40
2.714790372245272
 40
2.714790372245272
 40
2.714790372245272
 40
2.714790372245272
 10
4327.289694601628
 20
2216.039824695382
 30
0.0
 10
4327.463259714219
 20
2215.871180738709
 30
0.0
 10
4327.65555629245
 20
2215.701942920086
 30
0.0
 10
4328.404330601121
 20
2215.104138563912
 30
0.0
 10
4329.062756076886
 20
2214.681500944585
 30
0.0
 10
4330.587754647664
 20
2213.889933572257
 30
0.0
 10
4331.453995138299
 20
2213.52081344313
 30
0.0
 10
4333.349515449167
 20
2212.862197388753
 30
0.0
 10
4334.378698803075
 20
2212.572592972888
 30
0.0
 10
4336.549387158802
 20
2212.090148102133
 30
0.0
 10
4337.690830688949
 20
2211.89726849023
 30
0.0
 10
4340.493194911303
 20
2211.56378536854
 30
0.0
 10
4342.181345730129
 20
2211.474255770015
 30
0.0
 10
4345.516630036876
 20
2211.513253597935
 30
0.0
 10
4347.163428018674
 20
2211.641816049726
 30
0.0
 10
4350.264503011522
 20
2212.102696095824
 30
0.0
 10
4351.718464801638
 20
2212.435215160946
 30
0.0
 10
4353.998393848564
 20
2213.168549574923
 30
0.0
 10
4354.891885262854
 20
2213.535981689402
 30
0.0
 10
4356.428189713399
 20
2214.333909760442
 30
0.0
 10
4357.070264148992
 20
2214.76465467848
 30
0.0
 10
4357.613953307316
 20
2215.238408483554
 30
0.0
 10
4357.657256057242
 20
2215.277151887724
 30
0.0
 10
4357.699432811063
 20
2215.315897294706
 30
0.0
  0
SPLINE
  5
2C37A
330
18
100
AcDbEntity
  8
姿図
100
AcDbSpline
210
0.0
220
0.0
230
1.0
 70
     8
 71
     3
 72
    12
 73
     8
 74
     0
 42
0.000000001
 43
0.0000000001
 40
1.326784550487973
 40
1.326784550487973
 40
1.326784550487973
 40
1.326784550487973
 40
1.368286203966514
 40
1.368286203966514
 40
1.660455600340546
 40
1.660455600340546
 40
1.836188845990134
 40
1.836188845990134
 40
1.836188845990134
 40
1.836188845990134
 10
4338.169328247036
 20
2219.710135350273
 30
0.0
 10
4338.398670622554
 20
2219.678382695463
 30
0.0
 10
4338.629358483897
 20
2219.648692428072
 30
0.0
 10
4340.493194911303
 20
2219.426894709854
 30
0.0
 10
4342.181345730129
 20
2219.33736511133
 30
0.0
 10
4344.852036703232
 20
2219.368592178475
 30
0.0
 10
4345.847544625196
 20
2219.419776780482
 30
0.0
 10
4346.819101107512
 20
2219.508854169557
 30
0.0
  0
SPLINE
  5
2C37B
330
18
100
AcDbEntity
  8
姿図
100
AcDbSpline
210
0.0
220
0.0
230
1.0
 70
     8
 71
     3
 72
    14
 73
    10
 74
     0
 42
0.000000001
 43
0.0000000001
 40
1.190660659220019
 40
1.190660659220019
 40
1.190660659220019
 40
1.190660659220019
 40
1.368286203966514
 40
1.368286203966514
 40
1.660455600340546
 40
1.660455600340546
 40
1.952624996714579
 40
1.952624996714579
 40
1.972280409730163
 40
1.972280409730163
 40
1.972280409730163
 40
1.972280409730163
 10
4335.963506828217
 20
2219.435522723393
 30
0.0
 10
4336.897576638344
 20
2219.243602290752
 30
0.0
 10
4337.868990848475
 20
2219.087002648894
 30
0.0
 10
4340.493194911303
 20
2218.774720699302
 30
0.0
 10
4342.181345730129
 20
2218.685191100777
 30
0.0
 10
4345.516630036876
 20
2218.724188928696
 30
0.0
 10
4347.163428018674
 20
2218.852751380487
 30
0.0
 10
4348.818276422628
 20
2219.09869403278
 30
0.0
 10
4348.922150248287
 20
2219.114658650867
 30
0.0
 10
4349.02556588343
 20
2219.13107907788
 30
0.0
  0
SPLINE
  5
2C37C
330
18
100
AcDbEntity
  8
姿図
100
AcDbSpline
210
0.0
220
0.0
230
1.0
 70
     8
 71
     3
 72
    18
 73
    14
 74
     0
 42
0.000000001
 43
0.0000000001
 40
0.9319726051199986
 40
0.9319726051199986
 40
0.9319726051199986
 40
0.9319726051199986
 40
0.9492453026673957
 40
0.9492453026673957
 40
1.158765753316955
 40
1.158765753316955
 40
1.368286203966514
 40
1.368286203966514
 40
1.660455600340546
 40
1.660455600340546
 40
1.952624996714579
 40
1.952624996714579
 40
2.230780318692987
 40
2.230780318692987
 40
2.230780318692987
 40
2.230780318692987
 10
4332.169032064572
 20
2218.565132843239
 30
0.0
 10
4332.246044148513
 20
2218.537451177271
 30
0.0
 10
4332.323622708291
 20
2218.510032716347
 30
0.0
 10
4333.349515449167
 20
2218.153576800082
 30
0.0
 10
4334.378698803075
 20
2217.863972384216
 30
0.0
 10
4336.549387158802
 20
2217.381527513462
 30
0.0
 10
4337.690830688949
 20
2217.188647901558
 30
0.0
 10
4340.493194911303
 20
2216.855164779869
 30
0.0
 10
4342.181345730129
 20
2216.765635181344
 30
0.0
 10
4345.516630036876
 20
2216.804633009263
 30
0.0
 10
4347.163428018674
 20
2216.933195461054
 30
0.0
 10
4350.190130582041
 20
2217.383022317917
 30
0.0
 10
4351.578762370686
 20
2217.694930485926
 30
0.0
 10
4352.820036819974
 20
2218.081845470237
 30
0.0
  0
SPLINE
  5
2C37D
330
18
100
AcDbEntity
  8
姿図
100
AcDbSpline
210
0.0
220
0.0
230
1.0
 70
     8
 71
     3
 72
    16
 73
    12
 74
     0
 42
0.000000001
 43
0.0000000001
 40
1.091313670261284
 40
1.091313670261284
 40
1.091313670261284
 40
1.091313670261284
 40
1.158765753316955
 40
1.158765753316955
 40
1.368286203966514
 40
1.368286203966514
 40
1.660455600340546
 40
1.660455600340546
 40
1.952624996714579
 40
1.952624996714579
 40
2.071539202576769
 40
2.071539202576769
 40
2.071539202576769
 40
2.071539202576769
 10
4334.434115187221
 20
2219.152928478828
 30
0.0
 10
4334.771041863678
 20
2219.065531104789
 30
0.0
 10
4335.114632098123
 20
2218.982858596049
 30
0.0
 10
4336.549387158802
 20
2218.663978081493
 30
0.0
 10
4337.690830688949
 20
2218.471098469589
 30
0.0
 10
4340.493194911303
 20
2218.1376153479
 30
0.0
 10
4342.181345730129
 20
2218.048085749375
 30
0.0
 10
4345.516630036876
 20
2218.087083577295
 30
0.0
 10
4347.163428018674
 20
2218.215646029086
 30
0.0
 10
4349.3450409711
 20
2218.539876136517
 30
0.0
 10
4349.960118418492
 20
2218.65057587092
 30
0.0
 10
4350.554523574414
 20
2218.776816779027
 30
0.0
  0
SPLINE
  5
2C37E
330
18
100
AcDbEntity
  8
姿図
100
AcDbSpline
210
0.0
220
0.0
230
1.0
 70
     8
 71
     3
 72
    16
 73
    12
 74
     0
 42
0.000000001
 43
0.0000000001
 40
1.006434101146146
 40
1.006434101146146
 40
1.006434101146146
 40
1.006434101146146
 40
1.158765753316955
 40
1.158765753316955
 40
1.368286203966514
 40
1.368286203966514
 40
1.660455600340546
 40
1.660455600340546
 40
1.952624996714579
 40
1.952624996714579
 40
2.156373646803174
 40
2.156373646803174
 40
2.156373646803174
 40
2.156373646803174
 10
4333.19551619638
 20
2218.859385895606
 30
0.0
 10
4333.915532628156
 20
2218.636191135596
 30
0.0
 10
4334.674944488283
 20
2218.435235851437
 30
0.0
 10
4336.549387158802
 20
2218.018632864863
 30
0.0
 10
4337.690830688949
 20
2217.825753252961
 30
0.0
 10
4340.493194911303
 20
2217.492270131271
 30
0.0
 10
4342.181345730129
 20
2217.402740532746
 30
0.0
 10
4345.516630036876
 20
2217.441738360665
 30
0.0
 10
4347.163428018674
 20
2217.570300812456
 30
0.0
 10
4349.795255772493
 20
2217.961441594057
 30
0.0
 10
4350.829579559158
 20
2218.171785192663
 30
0.0
 10
4351.793424419417
 20
2218.424887957459
 30
0.0
  0
ARC
  5
2C6A7
330
18
100
AcDbEntity
  8
姿図
100
AcDbCircle
 10
4336.049018973278
 20
2216.986220793852
 30
0.0
 40
22.57532294063875
100
AcDbArc
 50
359.8120111135875
 51
19.60569653690395
  0
ARC
  5
2C6AD
330
18
100
AcDbEntity
  8
姿図
100
AcDbCircle
 10
4344.76509402271
 20
2227.399113354905
 30
0.0
 40
17.54544594868594
100
AcDbArc
 50
54.506114448735
 51
66.66077417707314
  0
ARC
  5
2C6AE
330
18
100
AcDbEntity
  8
姿図
100
AcDbCircle
 10
4292.16640930506
 20
2243.395289064834
 30
0.0
 40
61.46968647557878
100
AcDbArc
 50
0.8600872037600282
 51
6.115015456986675
  0
ARC
  5
2C6AF
330
18
100
AcDbEntity
  8
姿図
100
AcDbCircle
 10
4348.265678070056
 20
2234.906620914315
 30
0.0
 40
10.66172277543556
100
AcDbArc
 50
52.63587060393846
 51
70.78208324591264
  0
ARC
  5
2C6B0
330
18
100
AcDbEntity
  8
姿図
100
AcDbCircle
 10
4344.76509402271
 20
2227.399113354905
 30
0.0
 40
17.90544594868594
100
AcDbArc
 50
54.506114448735
 51
66.66077417707314
  0
ARC
  5
2C6B1
330
18
100
AcDbEntity
  8
姿図
100
AcDbCircle
 10
4349.392899234535
 20
2226.730661497846
 30
0.0
 40
8.306122265047806
100
AcDbArc
 50
39.85466092806683
 51
66.39763958291392
  0
ARC
  5
2C6B2
330
18
100
AcDbEntity
  8
姿図
100
AcDbCircle
 10
4350.565446533608
 20
2227.845031659412
 30
0.0
 40
6.445804968387948
100
AcDbArc
 50
30.95011755231134
 51
71.26245843854505
  0
ARC
  5
2C6B3
330
18
100
AcDbEntity
  8
姿図
100
AcDbCircle
 10
4350.097785976357
 20
2226.193040313824
 30
0.0
 40
7.092167772646583
100
AcDbArc
 50
24.05434525454061
 51
69.02899391903892
  0
ARC
  5
2C6B4
330
18
100
AcDbEntity
  8
姿図
100
AcDbCircle
 10
4347.943966510486
 20
2223.592428957263
 30
0.0
 40
9.214199751715508
100
AcDbArc
 50
35.70579080943549
 51
59.43891704340124
  0
ARC
  5
2C6B5
330
18
100
AcDbEntity
  8
姿図
100
AcDbCircle
 10
4347.091888706226
 20
2225.105314102232
 30
0.0
 40
12.30249718714882
100
AcDbArc
 50
44.34359490365352
 51
79.22366257854154
  0
ARC
  5
2C6B6
330
18
100
AcDbEntity
  8
姿図
100
AcDbCircle
 10
4347.091888706226
 20
2225.105314102232
 30
0.0
 40
12.12249718714882
100
AcDbArc
 50
44.34359490365352
 51
79.22366257854154
  0
ARC
  5
2C6B7
330
18
100
AcDbEntity
  8
姿図
100
AcDbCircle
 10
4345.614083597563
 20
2219.887007517917
 30
0.0
 40
14.12225554600108
100
AcDbArc
 50
43.82683793537276
 51
81.83462171419774
  0
ARC
  5
2C6B9
330
18
100
AcDbEntity
  8
姿図
100
AcDbCircle
 10
4352.7350100846
 20
2234.236807432105
 30
0.0
 40
0.1064169349669472
100
AcDbArc
 50
98.89207980329883
 51
158.4095215871844
  0
LINE
  5
2C6BA
330
18
100
AcDbEntity
  8
姿図
100
AcDbLine
 10
4352.636059611965
 20
2234.275965675337
 30
0.0
 11
4352.63604073189
 21
2232.81543463245
 31
0.0
  0
LINE
  5
2C6BB
330
18
100
AcDbEntity
  8
姿図
100
AcDbLine
 10
4350.938286058135
 20
2234.93989109752
 30
0.0
 11
4350.932387575434
 21
2233.597194621648
 31
0.0
  0
LINE
  5
2C6BC
330
18
100
AcDbEntity
  8
姿図
100
AcDbLine
 10
4351.065757704731
 20
2234.892369331776
 30
0.0
 11
4351.090347583552
 21
2233.537802343199
 31
0.0
  0
SPLINE
  5
2C6BD
330
18
100
AcDbEntity
  8
姿図
100
AcDbSpline
210
0.0
220
0.0
230
1.0
 70
     8
 71
     3
 72
     8
 73
     4
 74
     0
 42
0.000000001
 43
0.0000000001
 40
94.0
 40
94.0
 40
94.0
 40
94.0
 40
95.0
 40
95.0
 40
95.0
 40
95.0
 10
4352.450171026378
 20
2255.300146398977
 30
0.0
 10
4352.998850713879
 20
2252.007820227102
 30
0.0
 10
4353.286337042004
 20
2250.152429602102
 30
0.0
 10
4353.286337042004
 20
2249.943326086477
 30
0.0
  0
SPLINE
  5
2C6BE
330
18
100
AcDbEntity
  8
姿図
100
AcDbSpline
210
0.0
220
0.0
230
1.0
 70
     8
 71
     3
 72
    11
 73
     7
 74
     0
 42
0.000000001
 43
0.0000000001
 40
3.0
 40
3.0
 40
3.0
 40
3.0
 40
4.0
 40
4.0
 40
4.0
 40
5.0
 40
5.0
 40
5.0
 40
5.0
 10
4351.775111456066
 20
2244.974203039602
 30
0.0
 10
4351.854610479504
 20
2245.172640539601
 30
0.0
 10
4351.834642706066
 20
2245.867171789601
 30
0.0
 10
4351.616361456066
 20
2247.117452063039
 30
0.0
 10
4351.398080206066
 20
2248.367732336476
 30
0.0
 10
4351.417923956065
 20
2248.467075109914
 30
0.0
 10
4351.318705206066
 20
2248.923481359914
 30
0.0
  0
ARC
  5
2C6BF
330
18
100
AcDbEntity
  8
姿図
100
AcDbCircle
 10
4342.792759304633
 20
2254.371394909141
 30
0.0
 40
10.22278598436362
100
AcDbArc
 50
62.7685028556909
 51
70.88433192246349
  0
ARC
  5
2C6C0
330
18
100
AcDbEntity
  8
姿図
100
AcDbCircle
 10
4343.398117411793
 20
2257.015376796269
 30
0.0
 40
7.49820056416878
100
AcDbArc
 50
72.48901557824034
 51
83.37017240572861
  0
ARC
  5
2C6C1
330
18
100
AcDbEntity
  8
姿図
100
AcDbCircle
 10
4342.559854112206
 20
2252.035201401414
 30
0.0
 40
12.5183471768788
100
AcDbArc
 50
84.45978160155543
 51
90.80287533105246
  0
ARC
  5
2C6C2
330
18
100
AcDbEntity
  8
姿図
100
AcDbCircle
 10
4342.261312153007
 20
2258.419379892903
 30
0.0
 40
6.141332273846576
100
AcDbArc
 50
93.2436521284612
 51
106.6502285820056
  0
ARC
  5
2C6C3
330
18
100
AcDbEntity
  8
姿図
100
AcDbCircle
 10
4340.817628712766
 20
2260.487321410334
 30
0.0
 40
3.805988655204647
100
AcDbArc
 50
103.2376313139114
 51
125.1451841017673
  0
LINE
  5
2C6C4
330
18
100
AcDbEntity
  8
姿図
100
AcDbLine
 10
4328.44115158131
 20
2240.275374187422
 30
0.0
 11
4329.003216871128
 21
2240.982534876907
 31
0.0
  0
LINE
  5
2C6C5
330
18
100
AcDbEntity
  8
姿図
100
AcDbLine
 10
4328.556621709973
 20
2245.680268469289
 30
0.0
 11
4328.424964176287
 21
2239.517678549078
 31
0.0
  0
ARC
  5
2C6C6
330
18
100
AcDbEntity
  8
姿図
100
AcDbCircle
 10
4342.98277723544
 20
2239.387639797328
 30
0.0
 40
17.04720475928148
100
AcDbArc
 50
69.64678306274077
 51
110.8157935129272
  0
ARC
  5
2C6C7
330
18
100
AcDbEntity
  8
姿図
100
AcDbCircle
 10
4342.609538032279
 20
2212.00606633619
 30
0.0
 40
26.08263536002879
100
AcDbArc
 50
74.89723041579192
 51
103.6002725992935
  0
ARC
  5
2C6C8
330
18
100
AcDbEntity
  8
姿図
100
AcDbCircle
 10
4338.896516865372
 20
2223.644344087939
 30
0.0
 40
13.92529216795379
100
AcDbArc
 50
99.96213688778852
 51
131.4432276129822
  0
ARC
  5
2C6C9
330
18
100
AcDbEntity
  8
姿図
100
AcDbCircle
 10
4333.158573281073
 20
2230.464460928313
 30
0.0
 40
5.019717803373259
100
AcDbArc
 50
133.963920072144
 51
164.6147139170572
  0
LINE
  5
2C6CA
330
18
100
AcDbEntity
  8
姿図
100
AcDbLine
 10
4328.830856161394
 20
2241.810192149794
 30
0.0
 11
4328.759719898285
 21
2241.338941773804
 31
0.0
  0
ARC
  5
2C6CB
330
18
100
AcDbEntity
  8
姿図
100
AcDbCircle
 10
4342.482705676619
 20
2218.613064736663
 30
0.0
 40
26.6389859756891
100
AcDbArc
 50
80.53548983358121
 51
101.9272810341534
  0
ARC
  5
2C6CC
330
18
100
AcDbEntity
  8
姿図
100
AcDbCircle
 10
4340.616786993416
 20
2226.427678232838
 30
0.0
 40
18.60862403315867
100
AcDbArc
 50
101.2911751080621
 51
116.7488075271166
  0
ARC
  5
2C6CD
330
18
100
AcDbEntity
  8
姿図
100
AcDbCircle
 10
4335.481761856582
 20
2235.709743245543
 30
0.0
 40
8.01865105716256
100
AcDbArc
 50
113.9969872917378
 51
151.6481519903386
  0
ARC
  5
2C6CE
330
18
100
AcDbEntity
  8
姿図
100
AcDbCircle
 10
4342.840940122011
 20
2205.971335757486
 30
0.0
 40
30.00706843485315
100
AcDbArc
 50
94.3133279251343
 51
106.4527785740842
  0
ARC
  5
2C6CF
330
18
100
AcDbEntity
  8
姿図
100
AcDbCircle
 10
4345.411916673731
 20
2261.586126027666
 30
0.0
 40
2.304033628122458
100
AcDbArc
 50
71.54136661979265
 51
83.70799580805796
  0
ARC
  5
2C6D0
330
18
100
AcDbEntity
  8
姿図
100
AcDbCircle
 10
4343.501109852057
 20
2261.19889748039
 30
0.0
 40
3.037997754302832
100
AcDbArc
 50
75.66568337680155
 51
84.9581804163478
  0
ARC
  5
2C6D1
330
18
100
AcDbEntity
  8
姿図
100
AcDbCircle
 10
4342.608218923713
 20
2253.210157141062
 30
0.0
 40
11.03172668071826
100
AcDbArc
 50
91.08276367019977
 51
93.63957692303383
  0
ARC
  5
2C6D2
330
18
100
AcDbEntity
  8
姿図
100
AcDbCircle
 10
4340.749225768914
 20
2261.958386017761
 30
0.0
 40
2.060179311386563
100
AcDbArc
 50
96.54474250752902
 51
112.5115656931259
  0
LINE
  5
2C6D3
330
18
100
AcDbEntity
  8
姿図
100
AcDbLine
 10
4347.549125416981
 20
2263.306476270292
 30
0.0
 11
4347.981854620129
 21
2263.29599942632
 31
0.0
  0
LINE
  5
2C6D4
330
18
100
AcDbEntity
  8
姿図
100
AcDbLine
 10
4338.104628057628
 20
2263.478933996633
 30
0.0
 11
4338.647346571224
 21
2263.492442500821
 31
0.0
  0
LINE
  5
2C6D5
330
18
100
AcDbEntity
  8
姿図
100
AcDbLine
 10
4327.111840396003
 20
2244.075199965871
 30
0.0
 11
4327.630956667083
 21
2244.057587826783
 31
0.0
  0
LINE
  5
2C6D6
330
18
100
AcDbEntity
  8
姿図
100
AcDbLine
 10
4341.004036213299
 20
2251.685929894053
 30
0.0
 11
4341.484799171281
 21
2252.025979666645
 31
0.0
  0
LINE
  5
2C6D7
330
18
100
AcDbEntity
  8
姿図
100
AcDbLine
 10
4345.262200740914
 20
2251.758110572297
 30
0.0
 11
4345.475699330067
 21
2251.607793319314
 31
0.0
  0
ARC
  5
2C6D8
330
18
100
AcDbEntity
  8
姿図
100
AcDbCircle
 10
4343.441595912003
 20
2248.73973632139
 30
0.0
 40
3.576283893433354
100
AcDbArc
 50
54.80213643769846
 51
92.576480809209
  0
ARC
  5
2C6D9
330
18
100
AcDbEntity
  8
姿図
100
AcDbCircle
 10
4342.917071019878
 20
2248.819137501926
 30
0.0
 40
3.512155935847192
100
AcDbArc
 50
84.05510899897504
 51
126.4514804045721
  0
ARC
  5
2C6DA
330
18
100
AcDbEntity
  8
姿図
100
AcDbCircle
 10
4343.098552543057
 20
2244.663407825155
 30
0.0
 40
9.055480311453088
100
AcDbArc
 50
113.4799962304484
 51
120.667134343862
  0
ARC
  5
2C6DB
330
18
100
AcDbEntity
  8
姿図
100
AcDbCircle
 10
4340.325646048961
 20
2253.279179640478
 30
0.0
 40
0.9127834094668069
100
AcDbArc
 50
232.8158063709313
 51
301.7080059436973
  0
LINE
  5
2C6DC
330
18
100
AcDbEntity
  8
姿図
100
AcDbLine
 10
4339.937600806088
 20
2252.145390026865
 30
0.0
 11
4340.040961130387
 21
2252.412282871012
 31
0.0
  0
ARC
  5
2C6DD
330
18
100
AcDbEntity
  8
姿図
100
AcDbCircle
 10
4340.273521294588
 20
2252.746983683431
 30
0.0
 40
0.6890264887612664
100
AcDbArc
 50
240.8216921979822
 51
334.1651458234052
  0
ARC
  5
2C6DE
330
18
100
AcDbEntity
  8
姿図
100
AcDbCircle
 10
4340.309209076628
 20
2252.522037435416
 30
0.0
 40
1.032349362678307
100
AcDbArc
 50
80.46365615661644
 51
137.3425886584359
  0
LINE
  5
2C6DF
330
18
100
AcDbEntity
  8
姿図
100
AcDbLine
 10
4339.490587755796
 20
2252.969087434013
 30
0.0
 11
4339.937600806088
 21
2252.145390026865
 31
0.0
  0
LINE
  5
2C6E0
330
18
100
AcDbEntity
  8
姿図
100
AcDbLine
 10
4339.550000281099
 20
2253.221571002455
 30
0.0
 11
4339.490587755796
 21
2252.969087434013
 31
0.0
  0
LINE
  5
2C6E1
330
18
100
AcDbEntity
  8
姿図
100
AcDbLine
 10
4340.488854947507
 20
2253.040772519047
 30
0.0
 11
4340.893682235099
 21
2252.446720615308
 31
0.0
  0
LINE
  5
2C6E2
330
18
100
AcDbEntity
  8
姿図
100
AcDbLine
 10
4340.480241691865
 20
2253.540120463045
 30
0.0
 11
4340.488854947507
 21
2253.040772519047
 31
0.0
  0
ARC
  5
2C6E3
330
18
100
AcDbEntity
  8
姿図
100
AcDbCircle
 10
4343.098552543057
 20
2244.663407825155
 30
0.0
 40
9.055480311453088
100
AcDbArc
 50
60.34291278487574
 51
106.7829454507887
  0
ARC
  5
2C6E4
330
18
100
AcDbEntity
  8
姿図
100
AcDbCircle
 10
4342.964136378723
 20
2253.826627401227
 30
0.0
 40
2.442594144222008
100
AcDbArc
 50
64.6645389535342
 51
111.9618139013439
  0
LINE
  5
2C6E5
330
18
100
AcDbEntity
  8
姿図
100
AcDbLine
 10
4344.000276302149
 20
2256.40445165367
 30
0.0
 11
4344.015240229295
 21
2255.794984266171
 31
0.0
  0
LINE
  5
2C6E6
330
18
100
AcDbEntity
  8
姿図
100
AcDbLine
 10
4342.041277161517
 20
2255.79241358977
 30
0.0
 11
4342.060564330019
 21
2256.409881525783
 31
0.0
  0
ARC
  5
2C6E7
330
18
100
AcDbEntity
  8
姿図
100
AcDbCircle
 10
4344.217851776368
 20
2251.736462563496
 30
0.0
 40
4.06357599290132
100
AcDbArc
 50
36.95215183161798
 51
92.85797582244233
  0
ARC
  5
2C6E8
330
18
100
AcDbEntity
  8
姿図
100
AcDbCircle
 10
4342.000604036954
 20
2251.229731614652
 30
0.0
 40
4.56286325777215
100
AcDbArc
 50
89.48926165255462
 51
137.58317597318
  0
ARC
  5
2C6E9
330
18
100
AcDbEntity
  8
姿図
100
AcDbCircle
 10
4342.549951758861
 20
2251.494295515549
 30
0.0
 40
5.085182540573665
100
AcDbArc
 50
351.4172257850249
 51
8.065037385851713
  0
ARC
  5
2C6EA
330
18
100
AcDbEntity
  8
姿図
100
AcDbCircle
 10
4354.104152828966
 20
2253.671029775753
 30
0.0
 40
15.68863784102488
100
AcDbArc
 50
185.2576811854621
 51
190.5437002023205
  0
LINE
  5
2C6EB
330
18
100
AcDbEntity
  8
姿図
100
AcDbLine
 10
4347.523007608948
 20
2255.819118679655
 30
0.0
 11
4347.584839063096
 21
2252.207731780824
 31
0.0
  0
LINE
  5
2C6EC
330
18
100
AcDbEntity
  8
姿図
100
AcDbLine
 10
4338.467765267776
 20
2253.991238653113
 30
0.0
 11
4338.481522551092
 21
2252.233399605065
 31
0.0
  0
LINE
  5
2C6ED
330
18
100
AcDbEntity
  8
姿図
100
AcDbLine
 10
4338.632036881276
 20
2254.307470464331
 30
0.0
 11
4338.467765267776
 21
2253.991238653113
 31
0.0
  0
LINE
  5
2C6EE
330
18
100
AcDbEntity
  8
姿図
100
AcDbLine
 10
4338.676408516676
 20
2255.881953319355
 30
0.0
 11
4338.632036881276
 21
2254.307470464331
 31
0.0
  0
ARC
  5
2C6EF
330
18
100
AcDbEntity
  8
姿図
100
AcDbCircle
 10
4346.657963317551
 20
2248.512252738362
 30
0.0
 40
2.21239093574927
100
AcDbArc
 50
14.15502751960306
 51
35.05628734041781
  0
ARC
  5
2C6F0
330
18
100
AcDbEntity
  8
姿図
100
AcDbCircle
 10
4345.175225349916
 20
2247.594977983606
 30
0.0
 40
3.954292400972742
100
AcDbArc
 50
33.5957874863705
 51
69.3947057744533
  0
ARC
  5
2C6F1
330
18
100
AcDbEntity
  8
姿図
100
AcDbCircle
 10
4343.073710880602
 20
2241.126723344215
 30
0.0
 40
10.75278458513335
100
AcDbArc
 50
71.04295375029113
 51
92.69225774055056
  0
ARC
  5
2C6F2
330
18
100
AcDbEntity
  8
姿図
100
AcDbCircle
 10
4342.623758600868
 20
2244.566201376233
 30
0.0
 40
7.301646032248016
100
AcDbArc
 50
90.4325434324148
 51
124.3684461405218
  0
ARC
  5
2C6F3
330
18
100
AcDbEntity
  8
姿図
100
AcDbCircle
 10
4339.648764019919
 20
2248.693845685379
 30
0.0
 40
2.218719332907516
100
AcDbArc
 50
121.1251399641517
 51
174.1952847466447
  0
LINE
  5
2C6F4
330
18
100
AcDbEntity
  8
姿図
100
AcDbLine
 10
4348.803180748971
 20
2249.053284922723
 30
0.0
 11
4348.758613409191
 21
2247.514451086477
 31
0.0
  0
LINE
  5
2C6F5
330
18
100
AcDbEntity
  8
姿図
100
AcDbLine
 10
4337.505904913098
 20
2247.653357336477
 30
0.0
 11
4337.441421416979
 21
2248.918242903413
 31
0.0
  0
ARC
  5
2C6F6
330
18
100
AcDbEntity
  8
姿図
100
AcDbCircle
 10
4338.958008411933
 20
2253.358183805588
 30
0.0
 40
5.354064230733493
100
AcDbArc
 50
217.896227934235
 51
254.2401560289684
  0
ARC
  5
2C6F7
330
18
100
AcDbEntity
  8
姿図
100
AcDbCircle
 10
4345.413208888964
 20
2262.318903066963
 30
0.0
 40
2.353176628855195
100
AcDbArc
 50
24.81417256258008
 51
33.26335909417794
  0
ARC
  5
2C6F8
330
18
100
AcDbEntity
  8
姿図
100
AcDbCircle
 10
4338.96292709983
 20
2263.608794294796
 30
0.0
 40
0.3363462650242364
100
AcDbArc
 50
157.0047897508197
 51
200.2384915195059
  0
ARC
  5
2C6F9
330
18
100
AcDbEntity
  8
姿図
100
AcDbCircle
 10
4357.799648173017
 20
2257.176332317933
 30
0.0
 40
20.64606372466649
100
AcDbArc
 50
164.9003244817366
 51
183.4293730745962
  0
ARC
  5
2C6FA
330
18
100
AcDbEntity
  8
姿図
100
AcDbCircle
 10
4345.488557768665
 20
2264.167754290053
 30
0.0
 40
0.3170251650578048
100
AcDbArc
 50
59.73516729331704
 51
73.62991183402796
  0
ARC
  5
2C6FB
330
18
100
AcDbEntity
  8
姿図
100
AcDbCircle
 10
4366.26917096646
 20
2264.745667175912
 30
0.0
 40
20.62307542250036
100
AcDbArc
 50
178.9519072955405
 51
182.4160770027777
  0
ARC
  5
2C6FC
330
18
100
AcDbEntity
  8
姿図
100
AcDbCircle
 10
4285.914210452641
 20
2266.221768592846
 30
0.0
 40
58.37609345540698
100
AcDbArc
 50
357.9585972417775
 51
358.5388039584643
  0
ARC
  5
2C6FD
330
18
100
AcDbEntity
  8
姿図
100
AcDbCircle
 10
4347.773433026805
 20
2264.355161414774
 30
0.0
 40
4.007445133883937
100
AcDbArc
 50
174.1392337818201
 51
181.8592762369217
  0
ARC
  5
2C6FE
330
18
100
AcDbEntity
  8
姿図
100
AcDbCircle
 10
4346.445267679654
 20
2264.594795508143
 30
0.0
 40
4.061047289207732
100
AcDbArc
 50
176.9402153515069
 51
185.0132830991897
  0
ARC
  5
2C6FF
330
18
100
AcDbEntity
  8
姿図
100
AcDbCircle
 10
4406.86162594845
 20
2263.229125728079
 30
0.0
 40
64.961251727473
100
AcDbArc
 50
178.6041508399731
 51
179.1263384126918
  0
ARC
  5
2C700
330
18
100
AcDbEntity
  8
姿図
100
AcDbCircle
 10
4332.645278070622
 20
2263.817532493145
 30
0.0
 40
7.871366429208836
100
AcDbArc
 50
1.365722849775119
 51
5.341181684558665
  0
ARC
  5
2C701
330
18
100
AcDbEntity
  8
姿図
100
AcDbCircle
 10
4343.243747655657
 20
2264.169717214761
 30
0.0
 40
3.297729771971056
100
AcDbArc
 50
174.7419248562935
 51
185.3614170438439
  0
ARC
  5
2C702
330
18
100
AcDbEntity
  8
姿図
100
AcDbCircle
 10
4342.265041082246
 20
2253.143730290004
 30
0.0
 40
10.96282618659023
100
AcDbArc
 50
102.1351952757639
 51
109.2685643810362
  0
ARC
  5
2C703
330
18
100
AcDbEntity
  8
姿図
100
AcDbCircle
 10
4342.036675408823
 20
2258.749269338322
 30
0.0
 40
5.471879688903019
100
AcDbArc
 50
91.34825162537344
 51
106.1526956119195
  0
ARC
  5
2C704
330
18
100
AcDbEntity
  8
姿図
100
AcDbCircle
 10
4342.918374490931
 20
2248.898683248847
 30
0.0
 40
15.34999435262498
100
AcDbArc
 50
86.82667943648595
 51
91.93617680841405
  0
ARC
  5
2C705
330
18
100
AcDbEntity
  8
姿図
100
AcDbCircle
 10
4344.071576714789
 20
2259.302819668803
 30
0.0
 40
4.842904449114553
100
AcDbArc
 50
70.79771794576814
 51
87.85007887216375
  0
ARC
  5
2C706
330
18
100
AcDbEntity
  8
姿図
100
AcDbCircle
 10
4340.92034830169
 20
2263.882095163175
 30
0.0
 40
5.222239874812963
100
AcDbArc
 50
358.7878634453216
 51
4.468807970952553
  0
ARC
  5
2C707
330
18
100
AcDbEntity
  8
姿図
100
AcDbCircle
 10
4344.657182115039
 20
2256.917077992572
 30
0.0
 40
7.013397636878466
100
AcDbArc
 50
65.6477360425849
 51
77.78217439901714
  0
ARC
  5
2C708
330
18
100
AcDbEntity
  8
姿図
100
AcDbCircle
 10
4321.892510624182
 20
2253.73387973401
 30
0.0
 40
27.58178528774918
100
AcDbArc
 50
4.590443487697372
 51
18.65099996679329
  0
ARC
  5
2C709
330
18
100
AcDbEntity
  8
姿図
100
AcDbCircle
 10
4342.98277723544
 20
2239.387639797328
 30
0.0
 40
17.33520475928148
100
AcDbArc
 50
71.35276458398913
 51
109.4717975942663
  0
ARC
  5
2C70A
330
18
100
AcDbEntity
  8
姿図
100
AcDbCircle
 10
4345.877342794925
 20
2249.509726955732
 30
0.0
 40
10.67389565927747
100
AcDbArc
 50
144.3463591481289
 51
155.8581663282393
  0
ARC
  5
2C70B
330
18
100
AcDbEntity
  8
姿図
100
AcDbCircle
 10
4362.088204025125
 20
2242.139400612458
 30
0.0
 40
28.48148714661508
100
AcDbArc
 50
155.6660590133417
 51
165.0660546530638
  0
ARC
  5
2C70C
330
18
100
AcDbEntity
  8
姿図
100
AcDbCircle
 10
4341.763917086313
 20
2249.516588547032
 30
0.0
 40
9.239174097593345
100
AcDbArc
 50
28.27476313283024
 51
42.95884801494012
  0
ARC
  5
2C70D
330
18
100
AcDbEntity
  8
姿図
100
AcDbCircle
 10
4342.600366519393
 20
2220.164378536258
 30
0.0
 40
26.58464639976069
100
AcDbArc
 50
76.60595789985419
 51
100.9608874613418
  0
ARC
  5
2C70E
330
18
100
AcDbEntity
  8
姿図
100
AcDbCircle
 10
4391.584936854661
 20
2243.471105378723
 30
0.0
 40
59.34637850583563
100
AcDbArc
 50
173.1011023855655
 51
178.4510389818543
  0
ARC
  5
2C70F
330
18
100
AcDbEntity
  8
姿図
100
AcDbCircle
 10
4334.080379098648
 20
2245.031368792294
 30
0.0
 40
1.820665326432491
100
AcDbArc
 50
178.617117758602
 51
192.6231261899865
  0
ARC
  5
2C710
330
18
100
AcDbEntity
  8
姿図
100
AcDbCircle
 10
4335.9933504867
 20
2236.829345281866
 30
0.0
 40
8.632379147507207
100
AcDbArc
 50
104.3475444510762
 51
115.3037709219268
  0
ARC
  5
2C711
330
18
100
AcDbEntity
  8
姿図
100
AcDbCircle
 10
4333.075324658113
 20
2242.31182143863
 30
0.0
 40
2.446527445037582
100
AcDbArc
 50
108.3841773672833
 51
118.9609150740287
  0
ARC
  5
2C712
330
18
100
AcDbEntity
  8
姿図
100
AcDbCircle
 10
4330.963089179198
 20
2245.423822548499
 30
0.0
 40
1.343157947365103
100
AcDbArc
 50
313.6782427030365
 51
344.9611396807978
  0
ARC
  5
2C713
330
18
100
AcDbEntity
  8
姿図
100
AcDbCircle
 10
4337.985370792781
 20
2233.922443941588
 30
0.0
 40
12.16656936040578
100
AcDbArc
 50
120.0620188068539
 51
126.7889442656494
  0
ARC
  5
2C714
330
18
100
AcDbEntity
  8
姿図
100
AcDbCircle
 10
4331.822303969328
 20
2241.745020167368
 30
0.0
 40
2.174074389492293
100
AcDbArc
 50
124.5846265695701
 51
135.7229484200005
  0
LINE
  5
2C715
330
18
100
AcDbEntity
  8
姿図
100
AcDbLine
 10
4328.845348272473
 20
2244.446607336477
 30
0.0
 11
4328.775627730985
 21
2242.781771295738
 31
0.0
  0
LINE
  5
2C716
330
18
100
AcDbEntity
  8
姿図
100
AcDbLine
 10
4327.728122390576
 20
2244.44314429412
 30
0.0
 11
4327.052716760918
 21
2244.473370911828
 31
0.0
  0
LINE
  5
2C717
330
18
100
AcDbEntity
  8
姿図
100
AcDbLine
 10
4327.705043181359
 20
2243.729091129134
 30
0.0
 11
4327.728122390576
 21
2244.44314429412
 31
0.0
  0
LINE
  5
2C718
330
18
100
AcDbEntity
  8
姿図
100
AcDbLine
 10
4327.037367903258
 20
2243.752355152013
 30
0.0
 11
4327.705043181359
 21
2243.729091129134
 31
0.0
  0
LINE
  5
2C719
330
18
100
AcDbEntity
  8
姿図
100
AcDbLine
 10
4327.06052698341
 20
2244.840257727102
 30
0.0
 11
4327.008003057628
 21
2242.372935461476
 31
0.0
  0
LINE
  5
2C71A
330
18
100
AcDbEntity
  8
姿図
100
AcDbLine
 10
4327.847951788097
 20
2244.866550695851
 30
0.0
 11
4327.821658819347
 21
2242.268011633351
 31
0.0
  0
ARC
  5
2C71B
330
18
100
AcDbEntity
  8
姿図
100
AcDbCircle
 10
4342.482705676619
 20
2218.613064736663
 30
0.0
 40
26.99898597568909
100
AcDbArc
 50
80.53548983358121
 51
101.9272810341534
  0
ARC
  5
2C71C
330
18
100
AcDbEntity
  8
姿図
100
AcDbCircle
 10
4340.616786993416
 20
2226.427678232838
 30
0.0
 40
18.96862403315867
100
AcDbArc
 50
101.2911751080621
 51
116.7488075271166
  0
ARC
  5
2C71D
330
18
100
AcDbEntity
  8
姿図
100
AcDbCircle
 10
4335.095087111329
 20
2236.298311029544
 30
0.0
 40
7.684584313784696
100
AcDbArc
 50
113.1060635940838
 51
142.4422239073843
  0
ARC
  5
2C71E
330
18
100
AcDbEntity
  8
姿図
100
AcDbCircle
 10
4334.423445437356
 20
2227.699577872527
 30
0.0
 40
5.690408274763003
100
AcDbArc
 50
109.0089422507594
 51
132.6441520738921
  0
ARC
  5
2C71F
330
18
100
AcDbEntity
  8
姿図
100
AcDbCircle
 10
4335.89963561357
 20
2225.495797712071
 30
0.0
 40
8.321452490610396
100
AcDbArc
 50
129.8401163891946
 51
151.4081270048953
  0
LINE
  5
2C720
330
18
100
AcDbEntity
  8
姿図
100
AcDbLine
 10
4328.592977050461
 20
2230.680808417083
 30
0.0
 11
4328.8421932008
 21
2230.658162658847
 31
0.0
  0
ARC
  5
2C721
330
18
100
AcDbEntity
  8
姿図
100
AcDbCircle
 10
4334.424092658897
 20
2228.449369594686
 30
0.0
 40
6.243494891248547
100
AcDbArc
 50
107.0981770184415
 51
159.0592581893318
  0
ARC
  5
2C722
330
18
100
AcDbEntity
  8
姿図
100
AcDbCircle
 10
4334.673748931511
 20
2227.924651360434
 30
0.0
 40
6.440429043078867
100
AcDbArc
 50
108.9438959803166
 51
154.885410397746
  0
LINE
  5
2C723
330
18
100
AcDbEntity
  8
姿図
100
AcDbLine
 10
4328.8421932008
 20
2230.658162658847
 30
0.0
 11
4328.853503831444
 21
2229.922828145939
 31
0.0
  0
LINE
  5
2C724
330
18
100
AcDbEntity
  8
姿図
100
AcDbLine
 10
4328.592977050461
 20
2230.680808417083
 30
0.0
 11
4328.592977050461
 21
2229.478172907306
 31
0.0
  0
LINE
  5
2C725
330
18
100
AcDbEntity
  8
姿図
100
AcDbLine
 10
4332.58844325919
 20
2234.416916807603
 30
0.0
 11
4332.5699900136
 21
2233.079675392612
 31
0.0
  0
ARC
  5
2C726
330
18
100
AcDbEntity
  8
姿図
100
AcDbCircle
 10
4344.721627520464
 20
2236.185103671756
 30
0.0
 40
0.05752461702122
100
AcDbArc
 50
64.78605873795254
 51
201.0373661889485
  0
ARC
  5
2C727
330
18
100
AcDbEntity
  8
姿図
100
AcDbCircle
 10
4341.579571701824
 20
2216.301155362247
 30
0.0
 40
19.98643454519643
100
AcDbArc
 50
92.82796783640627
 51
99.69259792309356
  0
ARC
  5
2C728
330
18
100
AcDbEntity
  8
姿図
100
AcDbCircle
 10
4341.41804613455
 20
2212.867407587668
 30
0.0
 40
23.35561321167296
100
AcDbArc
 50
97.8834796779995
 51
103.259381772706
  0
ARC
  5
2C729
330
18
100
AcDbEntity
  8
姿図
100
AcDbCircle
 10
4339.02806254674
 20
2221.212441351581
 30
0.0
 40
14.69066322907383
100
AcDbArc
 50
101.6513119512676
 51
109.1305283859228
  0
ARC
  5
2C72A
330
18
100
AcDbEntity
  8
姿図
100
AcDbCircle
 10
4335.182212474666
 20
2274.741265396352
 30
0.0
 40
40.13533750000914
100
AcDbArc
 50
274.7050686475696
 51
277.7010870989286
  0
ARC
  5
2C72B
330
18
100
AcDbEntity
  8
姿図
100
AcDbCircle
 10
4342.092108289748
 20
2209.118262253936
 30
0.0
 40
25.87705149707777
100
AcDbArc
 50
98.03653202735242
 51
104.0295974476451
  0
ARC
  5
2C72C
330
18
100
AcDbEntity
  8
姿図
100
AcDbCircle
 10
4338.563924780159
 20
2220.873436915405
 30
0.0
 40
13.62927251268403
100
AcDbArc
 50
101.6191646447263
 51
108.7268299157164
  0
LINE
  5
2C72D
330
18
100
AcDbEntity
  8
姿図
100
AcDbLine
 10
4334.349911981351
 20
2235.138334263622
 30
0.0
 11
4334.323947883295
 21
2233.832074478114
 31
0.0
  0
LINE
  5
2C72E
330
18
100
AcDbEntity
  8
姿図
100
AcDbLine
 10
4334.213618693284
 20
2235.091804322986
 30
0.0
 11
4334.18815816897
 21
2233.781176291043
 31
0.0
  0
LINE
  5
2C72F
330
18
100
AcDbEntity
  8
姿図
100
AcDbLine
 10
4344.667937119717
 20
2236.164453673422
 30
0.0
 11
4344.689901776093
 21
2234.891080735017
 31
0.0
  0
LINE
  5
2C730
330
18
100
AcDbEntity
  8
姿図
100
AcDbLine
 10
4340.593494744391
 20
2236.263249893219
 30
0.0
 11
4340.560547885489
 21
2234.967922257406
 31
0.0
  0
ARC
  5
2C731
330
18
100
AcDbEntity
  8
姿図
100
AcDbCircle
 10
4342.609538032279
 20
2212.00606633619
 30
0.0
 40
25.90263536002879
100
AcDbArc
 50
74.89723041579192
 51
103.6002725992935
  0
ARC
  5
2C732
330
18
100
AcDbEntity
  8
姿図
100
AcDbCircle
 10
4338.896516865372
 20
2223.644344087939
 30
0.0
 40
13.74529216795379
100
AcDbArc
 50
99.96213688778852
 51
131.4432276129822
  0
ARC
  5
2C733
330
18
100
AcDbEntity
  8
姿図
100
AcDbCircle
 10
4333.158573281073
 20
2230.464460928313
 30
0.0
 40
4.83971780337326
100
AcDbArc
 50
133.963920072144
 51
170.8405462653849
  0
ARC
  5
2C734
330
18
100
AcDbEntity
  8
姿図
100
AcDbCircle
 10
4342.707908741409
 20
2210.508557217041
 30
0.0
 40
23.86843151733634
100
AcDbArc
 50
78.12404047177421
 51
94.74995000107518
  0
ARC
  5
2C735
330
18
100
AcDbEntity
  8
姿図
100
AcDbCircle
 10
4340.97563269563
 20
2214.818889373581
 30
0.0
 40
19.47765596462921
100
AcDbArc
 50
90.7183767634397
 51
112.1242565673989
  0
ARC
  5
2C736
330
18
100
AcDbEntity
  8
姿図
100
AcDbCircle
 10
4337.077653746199
 20
2222.781244405718
 30
0.0
 40
10.65114100617826
100
AcDbArc
 50
108.8291533387819
 51
134.98498150977
  0
ARC
  5
2C737
330
18
100
AcDbEntity
  8
姿図
100
AcDbCircle
 10
4332.63146006687
 20
2227.454887308053
 30
0.0
 40
4.205412943753292
100
AcDbArc
 50
137.1536766610124
 51
186.3238021850829
  0
ARC
  5
2C738
330
18
100
AcDbEntity
  8
姿図
100
AcDbCircle
 10
4342.270225527919
 20
2205.491785584267
 30
0.0
 40
28.35676898832303
100
AcDbArc
 50
80.20625711297684
 51
96.4259007215808
  0
ARC
  5
2C739
330
18
100
AcDbEntity
  8
姿図
100
AcDbCircle
 10
4340.105326234243
 20
2217.784930207064
 30
0.0
 40
15.91746646332639
100
AcDbArc
 50
93.63344175986113
 51
121.9914343462556
  0
ARC
  5
2C73A
330
18
100
AcDbEntity
  8
姿図
100
AcDbCircle
 10
4334.483136168226
 20
2226.217489492077
 30
0.0
 40
5.794802346187666
100
AcDbArc
 50
119.015692092419
 51
147.9017269467097
  0
SPLINE
  5
2C73B
330
18
100
AcDbEntity
  8
姿図
100
AcDbSpline
210
0.0
220
0.0
230
1.0
 70
     8
 71
     3
 72
     8
 73
     4
 74
     0
 42
0.000000001
 43
0.0000000001
 40
92.0
 40
92.0
 40
92.0
 40
92.0
 40
93.0
 40
93.0
 40
93.0
 40
93.0
 10
4349.419038213879
 20
2263.505040930227
 30
0.0
 10
4349.784783331066
 20
2263.531209875539
 30
0.0
 10
4350.281373174816
 20
2263.478933996633
 30
0.0
 10
4350.464307745129
 20
2262.904085363821
 30
0.0
  0
SPLINE
  5
2C73C
330
18
100
AcDbEntity
  8
姿図
100
AcDbSpline
210
0.0
220
0.0
230
1.0
 70
     8
 71
     3
 72
     8
 73
     4
 74
     0
 42
0.000000001
 43
0.0000000001
 40
91.0
 40
91.0
 40
91.0
 40
91.0
 40
92.0
 40
92.0
 40
92.0
 40
92.0
 10
4347.981854620129
 20
2263.29599942632
 30
0.0
 10
4347.981854620129
 20
2263.29599942632
 30
0.0
 10
4349.053293096691
 20
2263.478933996633
 30
0.0
 10
4349.419038213879
 20
2263.505040930227
 30
0.0
  0
SPLINE
  5
2C73D
330
18
100
AcDbEntity
  8
姿図
100
AcDbSpline
210
0.0
220
0.0
230
1.0
 70
     8
 71
     3
 72
     8
 73
     4
 74
     0
 42
0.000000001
 43
0.0000000001
 40
90.0
 40
90.0
 40
90.0
 40
90.0
 40
91.0
 40
91.0
 40
91.0
 40
91.0
 10
4347.903471807629
 20
2264.759289953664
 30
0.0
 10
4347.929640752941
 20
2264.602524328664
 30
0.0
 10
4347.981854620129
 20
2263.29599942632
 30
0.0
 10
4347.981854620129
 20
2263.29599942632
 30
0.0
  0
SPLINE
  5
2C73E
330
18
100
AcDbEntity
  8
姿図
100
AcDbSpline
210
0.0
220
0.0
230
1.0
 70
     8
 71
     3
 72
    11
 73
     7
 74
     0
 42
0.000000001
 43
0.0000000001
 40
88.0
 40
88.0
 40
88.0
 40
88.0
 40
89.0
 40
89.0
 40
89.0
 40
90.0
 40
90.0
 40
90.0
 40
90.0
 10
4347.511557745129
 20
2264.811565832571
 30
0.0
 10
4347.511557745129
 20
2264.811565832571
 30
0.0
 10
4347.537726690442
 20
2265.020607336476
 30
0.0
 10
4347.694368292004
 20
2265.020607336476
 30
0.0
 10
4347.851257940441
 20
2265.020607336476
 30
0.0
 10
4347.877302862316
 20
2264.916117590383
 30
0.0
 10
4347.903471807629
 20
2264.759289953664
 30
0.0
  0
SPLINE
  5
2C73F
330
18
100
AcDbEntity
  8
姿図
100
AcDbSpline
210
0.0
220
0.0
230
1.0
 70
     8
 71
     3
 72
     8
 73
     4
 74
     0
 42
0.000000001
 43
0.0000000001
 40
87.0
 40
87.0
 40
87.0
 40
87.0
 40
88.0
 40
88.0
 40
88.0
 40
88.0
 10
4347.380837042003
 20
2263.609592688039
 30
0.0
 10
4347.485388799816
 20
2264.132165441945
 30
0.0
 10
4347.511557745129
 20
2264.811565832571
 30
0.0
 10
4347.511557745129
 20
2264.811565832571
 30
0.0
  0
SPLINE
  5
2C740
330
18
100
AcDbEntity
  8
姿図
100
AcDbSpline
210
0.0
220
0.0
230
1.0
 70
     8
 71
     3
 72
     8
 73
     4
 74
     0
 42
0.000000001
 43
0.0000000001
 40
86.0
 40
86.0
 40
86.0
 40
86.0
 40
87.0
 40
87.0
 40
87.0
 40
87.0
 10
4346.126712042003
 20
2264.288993078664
 30
0.0
 10
4346.126712042003
 20
2264.288993078664
 30
0.0
 10
4347.171857549816
 20
2263.870848059133
 30
0.0
 10
4347.380837042003
 20
2263.609592688039
 30
0.0
  0
SPLINE
  5
2C741
330
18
100
AcDbEntity
  8
姿図
100
AcDbSpline
210
0.0
220
0.0
230
1.0
 70
     8
 71
     3
 72
    17
 73
    13
 74
     0
 42
0.000000001
 43
0.0000000001
 40
82.0
 40
82.0
 40
82.0
 40
82.0
 40
83.0
 40
83.0
 40
83.0
 40
84.0
 40
84.0
 40
84.0
 40
85.0
 40
85.0
 40
85.0
 40
86.0
 40
86.0
 40
86.0
 40
86.0
 10
4345.577908331066
 20
2264.471927648977
 30
0.0
 10
4345.656291143567
 20
2265.046776281789
 30
0.0
 10
4345.656291143567
 20
2265.229586828664
 30
0.0
 10
4345.656291143567
 20
2265.334138586477
 30
0.0
 10
4345.656291143567
 20
2265.438690344289
 30
0.0
 10
4345.577908331066
 20
2265.700007727101
 30
0.0
 10
4345.891439581066
 20
2265.700007727101
 30
0.0
 10
4346.204970831066
 20
2265.700007727101
 30
0.0
 10
4346.100543096691
 20
2265.464797277883
 30
0.0
 10
4346.100543096691
 20
2265.334138586477
 30
0.0
 10
4346.100543096691
 20
2265.20347989507
 30
0.0
 10
4346.126712042003
 20
2264.288993078664
 30
0.0
 10
4346.126712042003
 20
2264.288993078664
 30
0.0
  0
SPLINE
  5
2C742
330
18
100
AcDbEntity
  8
姿図
100
AcDbSpline
210
0.0
220
0.0
230
1.0
 70
     8
 71
     3
 72
     8
 73
     4
 74
     0
 42
0.000000001
 43
0.0000000001
 40
81.0
 40
81.0
 40
81.0
 40
81.0
 40
82.0
 40
82.0
 40
82.0
 40
82.0
 10
4344.271321417003
 20
2264.73318302007
 30
0.0
 10
4344.271321417003
 20
2264.73318302007
 30
0.0
 10
4345.264377081066
 20
2264.576355383351
 30
0.0
 10
4345.577908331066
 20
2264.471927648977
 30
0.0
  0
SPLINE
  5
2C743
330
18
100
AcDbEntity
  8
姿図
100
AcDbSpline
210
0.0
220
0.0
230
1.0
 70
     8
 71
     3
 72
    14
 73
    10
 74
     0
 42
0.000000001
 43
0.0000000001
 40
78.0
 40
78.0
 40
78.0
 40
78.0
 40
79.0
 40
79.0
 40
79.0
 40
80.0
 40
80.0
 40
80.0
 40
81.0
 40
81.0
 40
81.0
 40
81.0
 10
4343.801024542004
 20
2265.830666418507
 30
0.0
 10
4343.801024542004
 20
2265.830666418507
 30
0.0
 10
4343.827193487316
 20
2266.065814856008
 30
0.0
 10
4344.010004034191
 20
2266.065814856008
 30
0.0
 10
4344.192938604503
 20
2266.065814856008
 30
0.0
 10
4344.271321417003
 20
2265.882942297414
 30
0.0
 10
4344.271321417003
 20
2265.726114660695
 30
0.0
 10
4344.271321417003
 20
2265.569349035695
 30
0.0
 10
4344.271321417003
 20
2264.73318302007
 30
0.0
 10
4344.271321417003
 20
2264.73318302007
 30
0.0
  0
SPLINE
  5
2C744
330
18
100
AcDbEntity
  8
姿図
100
AcDbSpline
210
0.0
220
0.0
230
1.0
 70
     8
 71
     3
 72
     8
 73
     4
 74
     0
 42
0.000000001
 43
0.0000000001
 40
77.0
 40
77.0
 40
77.0
 40
77.0
 40
78.0
 40
78.0
 40
78.0
 40
78.0
 10
4343.786934920896
 20
2264.764367173127
 30
0.0
 10
4343.774855596691
 20
2265.20347989507
 30
0.0
 10
4343.801024542004
 20
2265.830666418507
 30
0.0
 10
4343.801024542004
 20
2265.830666418507
 30
0.0
  0
SPLINE
  5
2C745
330
18
100
AcDbEntity
  8
姿図
100
AcDbSpline
210
0.0
220
0.0
230
1.0
 70
     8
 71
     3
 72
     8
 73
     4
 74
     0
 42
0.000000001
 43
0.0000000001
 40
76.0
 40
76.0
 40
76.0
 40
76.0
 40
77.0
 40
77.0
 40
77.0
 40
77.0
 10
4342.390009893566
 20
2264.811565832571
 30
0.0
 10
4342.390009893566
 20
2264.811565832571
 30
0.0
 10
4343.173962042003
 20
2264.863841711477
 30
0.0
 10
4343.786934920896
 20
2264.764367173127
 30
0.0
  0
SPLINE
  5
2C746
330
18
100
AcDbEntity
  8
姿図
100
AcDbSpline
210
0.0
220
0.0
230
1.0
 70
     8
 71
     3
 72
    14
 73
    10
 74
     0
 42
0.000000001
 43
0.0000000001
 40
73.0
 40
73.0
 40
73.0
 40
73.0
 40
74.0
 40
74.0
 40
74.0
 40
75.0
 40
75.0
 40
75.0
 40
76.0
 40
76.0
 40
76.0
 40
76.0
 10
4341.94581995216
 20
2265.856773352101
 30
0.0
 10
4341.94581995216
 20
2265.856711340382
 30
0.0
 10
4341.893544073253
 20
2266.091921789602
 30
0.0
 10
4342.128692510754
 20
2266.091921789602
 30
0.0
 10
4342.363840948254
 20
2266.091921789602
 30
0.0
 10
4342.363840948254
 20
2265.961263098196
 30
0.0
 10
4342.363840948254
 20
2265.804559484914
 30
0.0
 10
4342.363840948254
 20
2265.647731848196
 30
0.0
 10
4342.390009893566
 20
2264.811565832571
 30
0.0
 10
4342.390009893566
 20
2264.811565832571
 30
0.0
  0
SPLINE
  5
2C747
330
18
100
AcDbEntity
  8
姿図
100
AcDbSpline
210
0.0
220
0.0
230
1.0
 70
     8
 71
     3
 72
     8
 73
     4
 74
     0
 42
0.000000001
 43
0.0000000001
 40
72.0
 40
72.0
 40
72.0
 40
72.0
 40
73.0
 40
73.0
 40
73.0
 40
73.0
 10
4341.919651006847
 20
2264.811565832571
 30
0.0
 10
4341.919651006847
 20
2265.360307531789
 30
0.0
 10
4341.94581995216
 20
2265.856773352101
 30
0.0
 10
4341.94581995216
 20
2265.856773352101
 30
0.0
  0
SPLINE
  5
2C748
330
18
100
AcDbEntity
  8
姿図
100
AcDbSpline
210
0.0
220
0.0
230
1.0
 70
     8
 71
     3
 72
     8
 73
     4
 74
     0
 42
0.000000001
 43
0.0000000001
 40
71.0
 40
71.0
 40
71.0
 40
71.0
 40
72.0
 40
72.0
 40
72.0
 40
72.0
 10
4340.482467413098
 20
2264.550248449758
 30
0.0
 10
4340.482467413098
 20
2264.550248449758
 30
0.0
 10
4341.344802374035
 20
2264.759289953664
 30
0.0
 10
4341.919651006847
 20
2264.811565832571
 30
0.0
  0
SPLINE
  5
2C749
330
18
100
AcDbEntity
  8
姿図
100
AcDbSpline
210
0.0
220
0.0
230
1.0
 70
     8
 71
     3
 72
    14
 73
    10
 74
     0
 42
0.000000001
 43
0.0000000001
 40
68.0
 40
68.0
 40
68.0
 40
68.0
 40
69.0
 40
69.0
 40
69.0
 40
70.0
 40
70.0
 40
70.0
 40
71.0
 40
71.0
 40
71.0
 40
71.0
 10
4339.95989465919
 20
2264.471927648977
 30
0.0
 10
4339.986063604503
 20
2264.88994864507
 30
0.0
 10
4339.933787725597
 20
2265.882942297414
 30
0.0
 10
4340.221150030285
 20
2265.882942297414
 30
0.0
 10
4340.508636358411
 20
2265.882942297414
 30
0.0
 10
4340.456360479504
 20
2265.726114660695
 30
0.0
 10
4340.456360479504
 20
2265.490966223195
 30
0.0
 10
4340.456360479504
 20
2265.255755773976
 30
0.0
 10
4340.482467413098
 20
2264.550248449758
 30
0.0
 10
4340.482467413098
 20
2264.550248449758
 30
0.0
  0
SPLINE
  5
2C74A
330
18
100
AcDbEntity
  8
姿図
100
AcDbSpline
210
0.0
220
0.0
230
1.0
 70
     8
 71
     3
 72
     8
 73
     4
 74
     0
 42
0.000000001
 43
0.0000000001
 40
67.0
 40
67.0
 40
67.0
 40
67.0
 40
68.0
 40
68.0
 40
68.0
 40
68.0
 10
4338.653307745129
 20
2263.740189367727
 30
0.0
 10
4338.653307745129
 20
2263.740189367727
 30
0.0
 10
4339.07145276466
 20
2264.106058508351
 30
0.0
 10
4339.95989465919
 20
2264.471927648977
 30
0.0
  0
SPLINE
  5
2C74B
330
18
100
AcDbEntity
  8
姿図
100
AcDbSpline
210
0.0
220
0.0
230
1.0
 70
     8
 71
     3
 72
    14
 73
    10
 74
     0
 42
0.000000001
 43
0.0000000001
 40
64.0
 40
64.0
 40
64.0
 40
64.0
 40
65.0
 40
65.0
 40
65.0
 40
66.0
 40
66.0
 40
66.0
 40
67.0
 40
67.0
 40
67.0
 40
67.0
 10
4338.104628057628
 20
2263.478933996633
 30
0.0
 10
4338.130734991222
 20
2264.079889563039
 30
0.0
 10
4338.026245245128
 20
2265.20347989507
 30
0.0
 10
4338.339776495129
 20
2265.20347989507
 30
0.0
 10
4338.653307745129
 20
2265.20347989507
 30
0.0
 10
4338.574924932629
 20
2265.046776281789
 30
0.0
 10
4338.574924932629
 20
2264.88994864507
 30
0.0
 10
4338.574924932629
 20
2264.73318302007
 30
0.0
 10
4338.653307745129
 20
2263.740189367727
 30
0.0
 10
4338.653307745129
 20
2263.740189367727
 30
0.0
  0
SPLINE
  5
2C74C
330
18
100
AcDbEntity
  8
姿図
100
AcDbSpline
210
0.0
220
0.0
230
1.0
 70
     8
 71
     3
 72
     8
 73
     4
 74
     0
 42
0.000000001
 43
0.0000000001
 40
63.0
 40
63.0
 40
63.0
 40
63.0
 40
64.0
 40
64.0
 40
64.0
 40
64.0
 10
4336.589061651379
 20
2263.661806555227
 30
0.0
 10
4337.059358526379
 20
2263.714144445852
 30
0.0
 10
4337.94780042091
 20
2263.426658117726
 30
0.0
 10
4338.104628057628
 20
2263.478933996633
 30
0.0
  0
SPLINE
  5
2C74D
330
18
100
AcDbEntity
  8
姿図
100
AcDbSpline
210
0.0
220
0.0
230
1.0
 70
     8
 71
     3
 72
     8
 73
     4
 74
     0
 42
0.000000001
 43
0.0000000001
 40
62.0
 40
62.0
 40
62.0
 40
62.0
 40
63.0
 40
63.0
 40
63.0
 40
63.0
 10
4335.752895635754
 20
2263.217616613821
 30
0.0
 10
4335.88355432716
 20
2263.583423742727
 30
0.0
 10
4336.221766241222
 20
2263.621064856008
 30
0.0
 10
4336.589061651379
 20
2263.661806555227
 30
0.0
  0
SPLINE
  5
2C74E
330
18
100
AcDbEntity
  8
姿図
100
AcDbSpline
210
0.0
220
0.0
230
1.0
 70
     8
 71
     3
 72
     8
 73
     4
 74
     0
 42
0.000000001
 43
0.0000000001
 40
61.0
 40
61.0
 40
61.0
 40
61.0
 40
62.0
 40
62.0
 40
62.0
 40
62.0
 10
4333.949904913097
 20
2257.704154699758
 30
0.0
 10
4334.629305303723
 20
2260.290973547414
 30
0.0
 10
4335.622298956067
 20
2262.851809484914
 30
0.0
 10
4335.752895635754
 20
2263.217616613821
 30
0.0
  0
SPLINE
  5
2C74F
330
18
100
AcDbEntity
  8
姿図
100
AcDbSpline
210
0.0
220
0.0
230
1.0
 70
     8
 71
     3
 72
     8
 73
     4
 74
     0
 42
0.000000001
 43
0.0000000001
 40
60.0
 40
60.0
 40
60.0
 40
60.0
 40
61.0
 40
61.0
 40
61.0
 40
61.0
 10
4332.668246709973
 20
2250.599658117727
 30
0.0
 10
4332.766411260754
 20
2251.618386633351
 30
0.0
 10
4333.270504522472
 20
2255.117211828664
 30
0.0
 10
4333.949904913097
 20
2257.704154699758
 30
0.0
  0
SPLINE
  5
2C750
330
18
100
AcDbEntity
  8
姿図
100
AcDbSpline
210
0.0
220
0.0
230
1.0
 70
    24
 71
     3
 72
     8
 73
     4
 74
     0
 42
0.000000001
 43
0.0000000001
 40
55.0
 40
55.0
 40
55.0
 40
55.0
 40
56.0
 40
56.0
 40
56.0
 40
56.0
 10
4330.58824963966
 20
2243.534911047414
 30
0.0
 10
4330.58824963966
 20
2243.534911047414
 30
0.0
 10
4330.699188604503
 20
2243.666003820852
 30
0.0
 10
4330.699188604503
 20
2243.666003820852
 30
0.0
  0
SPLINE
  5
2C751
330
18
100
AcDbEntity
  8
姿図
100
AcDbSpline
210
0.0
220
0.0
230
1.0
 70
     8
 71
     3
 72
     8
 73
     4
 74
     0
 42
0.000000001
 43
0.0000000001
 40
54.0
 40
54.0
 40
54.0
 40
54.0
 40
55.0
 40
55.0
 40
55.0
 40
55.0
 10
4330.225419073253
 20
2243.927941320851
 30
0.0
 10
4330.285942510754
 20
2243.867541906789
 30
0.0
 10
4330.58824963966
 20
2243.534911047414
 30
0.0
 10
4330.58824963966
 20
2243.534911047414
 30
0.0
  0
SPLINE
  5
2C752
330
18
100
AcDbEntity
  8
姿図
100
AcDbSpline
210
0.0
220
0.0
230
1.0
 70
     8
 71
     3
 72
     8
 73
     4
 74
     0
 42
0.000000001
 43
0.0000000001
 40
53.0
 40
53.0
 40
53.0
 40
53.0
 40
54.0
 40
54.0
 40
54.0
 40
54.0
 10
4330.104496221691
 20
2243.897679602102
 30
0.0
 10
4330.104496221691
 20
2243.897679602102
 30
0.0
 10
4330.164957647472
 20
2243.988464758351
 30
0.0
 10
4330.225419073253
 20
2243.927941320851
 30
0.0
  0
SPLINE
  5
2C753
330
18
100
AcDbEntity
  8
姿図
100
AcDbSpline
210
0.0
220
0.0
230
1.0
 70
    24
 71
     3
 72
     8
 73
     4
 74
     0
 42
0.000000001
 43
0.0000000001
 40
52.0
 40
52.0
 40
52.0
 40
52.0
 40
53.0
 40
53.0
 40
53.0
 40
53.0
 10
4330.114604131848
 20
2243.444249914602
 30
0.0
 10
4330.114604131848
 20
2243.444249914602
 30
0.0
 10
4330.104496221691
 20
2243.897679602102
 30
0.0
 10
4330.104496221691
 20
2243.897679602102
 30
0.0
  0
SPLINE
  5
2C754
330
18
100
AcDbEntity
  8
姿図
100
AcDbSpline
210
0.0
220
0.0
230
1.0
 70
     8
 71
     3
 72
     8
 73
     4
 74
     0
 42
0.000000001
 43
0.0000000001
 40
51.0
 40
51.0
 40
51.0
 40
51.0
 40
52.0
 40
52.0
 40
52.0
 40
52.0
 10
4330.265726690441
 20
2243.262803625539
 30
0.0
 10
4330.124650030284
 20
2243.424034094289
 30
0.0
 10
4330.114604131848
 20
2243.444249914602
 30
0.0
 10
4330.114604131848
 20
2243.444249914602
 30
0.0
  0
SPLINE
  5
2C755
330
18
100
AcDbEntity
  8
姿図
100
AcDbSpline
210
0.0
220
0.0
230
1.0
 70
     8
 71
     3
 72
     8
 73
     4
 74
     0
 42
0.000000001
 43
0.0000000001
 40
50.0
 40
50.0
 40
50.0
 40
50.0
 40
51.0
 40
51.0
 40
51.0
 40
51.0
 10
4328.830856161394
 20
2241.810192149794
 30
0.0
 10
4328.830856161394
 20
2241.810192149794
 30
0.0
 10
4329.751773565441
 20
2242.909956945851
 30
0.0
 10
4330.265726690441
 20
2243.262803625539
 30
0.0
  0
SPLINE
  5
2C756
330
18
100
AcDbEntity
  8
姿図
100
AcDbSpline
210
0.0
220
0.0
230
1.0
 70
    24
 71
     3
 72
     8
 73
     4
 74
     0
 42
0.000000001
 43
0.0000000001
 40
49.0
 40
49.0
 40
49.0
 40
49.0
 40
50.0
 40
50.0
 40
50.0
 40
50.0
 10
4328.775627730985
 20
2242.781771295738
 30
0.0
 10
4328.775627730985
 20
2242.781771295738
 30
0.0
 10
4328.830856161394
 20
2241.810192149794
 30
0.0
 10
4328.830856161394
 20
2241.810192149794
 30
0.0
  0
SPLINE
  5
2C757
330
18
100
AcDbEntity
  8
姿図
100
AcDbSpline
210
0.0
220
0.0
230
1.0
 70
    24
 71
     3
 72
     8
 73
     4
 74
     0
 42
0.000000001
 43
0.0000000001
 40
48.0
 40
48.0
 40
48.0
 40
48.0
 40
49.0
 40
49.0
 40
49.0
 40
49.0
 10
4329.197388799816
 20
2242.748726477102
 30
0.0
 10
4328.775627730985
 20
2242.781771295738
 30
0.0
 10
4328.775627730985
 20
2242.781771295738
 30
0.0
 10
4328.775627730985
 20
2242.781771295738
 30
0.0
  0
SPLINE
  5
2C758
330
18
100
AcDbEntity
  8
姿図
100
AcDbSpline
210
0.0
220
0.0
230
1.0
 70
     8
 71
     3
 72
     8
 73
     4
 74
     0
 42
0.000000001
 43
0.0000000001
 40
47.0
 40
47.0
 40
47.0
 40
47.0
 40
48.0
 40
48.0
 40
48.0
 40
48.0
 10
4329.600588995128
 20
2242.900035070852
 30
0.0
 10
4329.600588995128
 20
2242.900035070852
 30
0.0
 10
4329.489712042004
 20
2242.708418859914
 30
0.0
 10
4329.197388799816
 20
2242.748726477102
 30
0.0
  0
SPLINE
  5
2C759
330
18
100
AcDbEntity
  8
姿図
100
AcDbSpline
210
0.0
220
0.0
230
1.0
 70
     8
 71
     3
 72
     8
 73
     4
 74
     0
 42
0.000000001
 43
0.0000000001
 40
46.0
 40
46.0
 40
46.0
 40
46.0
 40
47.0
 40
47.0
 40
47.0
 40
47.0
 10
4329.640896612316
 20
2243.403818273977
 30
0.0
 10
4329.651004522472
 20
2243.333372961477
 30
0.0
 10
4329.600588995128
 20
2242.900035070852
 30
0.0
 10
4329.600588995128
 20
2242.900035070852
 30
0.0
  0
SPLINE
  5
2C75A
330
18
100
AcDbEntity
  8
姿図
100
AcDbSpline
210
0.0
220
0.0
230
1.0
 70
     8
 71
     3
 72
     8
 73
     4
 74
     0
 42
0.000000001
 43
0.0000000001
 40
45.0
 40
45.0
 40
45.0
 40
45.0
 40
46.0
 40
46.0
 40
46.0
 40
46.0
 10
4329.781973272473
 20
2243.645788000539
 30
0.0
 10
4329.771927374035
 20
2243.555126867726
 30
0.0
 10
4329.630850713878
 20
2243.474511633352
 30
0.0
 10
4329.640896612316
 20
2243.403818273977
 30
0.0
  0
SPLINE
  5
2C75B
330
18
100
AcDbEntity
  8
姿図
100
AcDbSpline
210
0.0
220
0.0
230
1.0
 70
     8
 71
     3
 72
     8
 73
     4
 74
     0
 42
0.000000001
 43
0.0000000001
 40
44.0
 40
44.0
 40
44.0
 40
44.0
 40
45.0
 40
45.0
 40
45.0
 40
45.0
 10
4329.661050420909
 20
2243.907849523976
 30
0.0
 10
4329.781973272473
 20
2243.746619055227
 30
0.0
 10
4329.792081182628
 20
2243.736449133352
 30
0.0
 10
4329.781973272473
 20
2243.645788000539
 30
0.0
  0
SPLINE
  5
2C75C
330
18
100
AcDbEntity
  8
姿図
100
AcDbSpline
210
0.0
220
0.0
230
1.0
 70
     8
 71
     3
 72
     8
 73
     4
 74
     0
 42
0.000000001
 43
0.0000000001
 40
43.0
 40
43.0
 40
43.0
 40
43.0
 40
44.0
 40
44.0
 40
44.0
 40
44.0
 10
4329.21754260841
 20
2244.492496008352
 30
0.0
 10
4329.449404424817
 20
2244.391540930226
 30
0.0
 10
4329.540065557629
 20
2244.069079992727
 30
0.0
 10
4329.661050420909
 20
2243.907849523976
 30
0.0
  0
SPLINE
  5
2C75D
330
18
100
AcDbEntity
  8
姿図
100
AcDbSpline
210
0.0
220
0.0
230
1.0
 70
     8
 71
     3
 72
     8
 73
     4
 74
     0
 42
0.000000001
 43
0.0000000001
 40
42.0
 40
42.0
 40
42.0
 40
42.0
 40
43.0
 40
43.0
 40
43.0
 40
43.0
 10
4328.845348272473
 20
2244.446607336477
 30
0.0
 10
4328.88565588966
 20
2244.456653234914
 30
0.0
 10
4328.985804815441
 20
2244.593203039602
 30
0.0
 10
4329.21754260841
 20
2244.492496008352
 30
0.0
  0
SPLINE
  5
2C75E
330
18
100
AcDbEntity
  8
姿図
100
AcDbSpline
210
0.0
220
0.0
230
1.0
 70
     8
 71
     3
 72
    11
 73
     7
 74
     0
 42
0.000000001
 43
0.0000000001
 40
40.0
 40
40.0
 40
40.0
 40
40.0
 40
41.0
 40
41.0
 40
41.0
 40
42.0
 40
42.0
 40
42.0
 40
42.0
 10
4328.661607549816
 20
2245.863947180226
 30
0.0
 10
4328.661607549816
 20
2245.863947180226
 30
0.0
 10
4328.845348272473
 20
2245.916533117726
 30
0.0
 10
4328.845348272473
 20
2245.759023352101
 30
0.0
 10
4328.845348272473
 20
2245.601513586476
 30
0.0
 10
4328.845348272473
 20
2244.446607336477
 30
0.0
 10
4328.845348272473
 20
2244.446607336477
 30
0.0
  0
SPLINE
  5
2C75F
330
18
100
AcDbEntity
  8
姿図
100
AcDbSpline
210
0.0
220
0.0
230
1.0
 70
     8
 71
     3
 72
     8
 73
     4
 74
     0
 42
0.000000001
 43
0.0000000001
 40
39.0
 40
39.0
 40
39.0
 40
39.0
 40
40.0
 40
40.0
 40
40.0
 40
40.0
 10
4328.556621709972
 20
2245.680268469289
 30
0.0
 10
4328.661607549816
 20
2245.522758703664
 30
0.0
 10
4328.661607549816
 20
2245.863947180226
 30
0.0
 10
4328.661607549816
 20
2245.863947180226
 30
0.0
  0
SPLINE
  5
2C760
330
18
100
AcDbEntity
  8
姿図
100
AcDbSpline
210
0.0
220
0.0
230
1.0
 70
     8
 71
     3
 72
     8
 73
     4
 74
     0
 42
0.000000001
 43
0.0000000001
 40
38.0
 40
38.0
 40
38.0
 40
38.0
 40
39.0
 40
39.0
 40
39.0
 40
39.0
 10
4327.952937627941
 20
2245.863947180226
 30
0.0
 10
4327.952937627941
 20
2245.863947180226
 30
0.0
 10
4328.451635870128
 20
2245.837654211477
 30
0.0
 10
4328.556621709972
 20
2245.680268469289
 30
0.0
  0
SPLINE
  5
2C761
330
18
100
AcDbEntity
  8
姿図
100
AcDbSpline
210
0.0
220
0.0
230
1.0
 70
    24
 71
     3
 72
     8
 73
     4
 74
     0
 42
0.000000001
 43
0.0000000001
 40
37.0
 40
37.0
 40
37.0
 40
37.0
 40
38.0
 40
38.0
 40
38.0
 40
38.0
 10
4327.847951788097
 20
2244.866550695851
 30
0.0
 10
4327.847951788097
 20
2244.866550695851
 30
0.0
 10
4327.952937627941
 20
2245.863947180226
 30
0.0
 10
4327.952937627941
 20
2245.863947180226
 30
0.0
  0
SPLINE
  5
2C762
330
18
100
AcDbEntity
  8
姿図
100
AcDbSpline
210
0.0
220
0.0
230
1.0
 70
     8
 71
     3
 72
     8
 73
     4
 74
     0
 42
0.000000001
 43
0.0000000001
 40
36.0
 40
36.0
 40
36.0
 40
36.0
 40
37.0
 40
37.0
 40
37.0
 40
37.0
 10
4327.06052698341
 20
2244.840257727102
 30
0.0
 10
4327.34925354591
 20
2244.866550695851
 30
0.0
 10
4327.847951788097
 20
2244.866550695851
 30
0.0
 10
4327.847951788097
 20
2244.866550695851
 30
0.0
  0
SPLINE
  5
2C763
330
18
100
AcDbEntity
  8
姿図
100
AcDbSpline
210
0.0
220
0.0
230
1.0
 70
     8
 71
     3
 72
     8
 73
     4
 74
     0
 42
0.000000001
 43
0.0000000001
 40
35.0
 40
35.0
 40
35.0
 40
35.0
 40
36.0
 40
36.0
 40
36.0
 40
36.0
 10
4326.71921448341
 20
2244.866550695851
 30
0.0
 10
4326.903017217785
 20
2245.102691320852
 30
0.0
 10
4327.06052698341
 20
2245.128984289601
 30
0.0
 10
4327.06052698341
 20
2244.840257727102
 30
0.0
  0
SPLINE
  5
2C764
330
18
100
AcDbEntity
  8
姿図
100
AcDbSpline
210
0.0
220
0.0
230
1.0
 70
     8
 71
     3
 72
    14
 73
    10
 74
     0
 42
0.000000001
 43
0.0000000001
 40
32.0
 40
32.0
 40
32.0
 40
32.0
 40
33.0
 40
33.0
 40
33.0
 40
34.0
 40
34.0
 40
34.0
 40
35.0
 40
35.0
 40
35.0
 40
35.0
 10
4327.008003057628
 20
2242.372935461476
 30
0.0
 10
4327.008003057628
 20
2242.372935461476
 30
0.0
 10
4327.086757940441
 20
2242.163087805226
 30
0.0
 10
4326.798031377941
 20
2242.189256750539
 30
0.0
 10
4326.509304815441
 20
2242.215425695852
 30
0.0
 10
4326.535535772473
 20
2243.239115148976
 30
0.0
 10
4326.535535772473
 20
2243.527841711477
 30
0.0
 10
4326.535535772473
 20
2243.816568273976
 30
0.0
 10
4326.535535772473
 20
2244.630410070851
 30
0.0
 10
4326.71921448341
 20
2244.866550695851
 30
0.0
  0
SPLINE
  5
2C765
330
18
100
AcDbEntity
  8
姿図
100
AcDbSpline
210
0.0
220
0.0
230
1.0
 70
    24
 71
     3
 72
     8
 73
     4
 74
     0
 42
0.000000001
 43
0.0000000001
 40
31.0
 40
31.0
 40
31.0
 40
31.0
 40
32.0
 40
32.0
 40
32.0
 40
32.0
 10
4327.821658819347
 20
2242.268011633351
 30
0.0
 10
4327.821658819347
 20
2242.268011633351
 30
0.0
 10
4327.008003057628
 20
2242.372935461476
 30
0.0
 10
4327.008003057628
 20
2242.372935461476
 30
0.0
  0
SPLINE
  5
2C766
330
18
100
AcDbEntity
  8
姿図
100
AcDbSpline
210
0.0
220
0.0
230
1.0
 70
    24
 71
     3
 72
     8
 73
     4
 74
     0
 42
0.000000001
 43
0.0000000001
 40
30.0
 40
30.0
 40
30.0
 40
30.0
 40
31.0
 40
31.0
 40
31.0
 40
31.0
 10
4327.821658819347
 20
2241.375538977101
 30
0.0
 10
4327.821658819347
 20
2241.375538977101
 30
0.0
 10
4327.821658819347
 20
2242.268011633351
 30
0.0
 10
4327.821658819347
 20
2242.268011633351
 30
0.0
  0
SPLINE
  5
2C767
330
18
100
AcDbEntity
  8
姿図
100
AcDbSpline
210
0.0
220
0.0
230
1.0
 70
    24
 71
     3
 72
     8
 73
     4
 74
     0
 42
0.000000001
 43
0.0000000001
 40
29.0
 40
29.0
 40
29.0
 40
29.0
 40
30.0
 40
30.0
 40
30.0
 40
30.0
 10
4327.979168584972
 20
2241.375538977101
 30
0.0
 10
4327.979168584972
 20
2241.375538977101
 30
0.0
 10
4327.821658819347
 20
2241.375538977101
 30
0.0
 10
4327.821658819347
 20
2241.375538977101
 30
0.0
  0
SPLINE
  5
2C768
330
18
100
AcDbEntity
  8
姿図
100
AcDbSpline
210
0.0
220
0.0
230
1.0
 70
     8
 71
     3
 72
     8
 73
     4
 74
     0
 42
0.000000001
 43
0.0000000001
 40
28.0
 40
28.0
 40
28.0
 40
28.0
 40
29.0
 40
29.0
 40
29.0
 40
29.0
 10
4327.952937627941
 20
2237.044640539601
 30
0.0
 10
4327.92670667091
 20
2239.564548742726
 30
0.0
 10
4327.979168584972
 20
2241.375538977101
 30
0.0
 10
4327.979168584972
 20
2241.375538977101
 30
0.0
  0
SPLINE
  5
2C769
330
18
100
AcDbEntity
  8
姿図
100
AcDbSpline
210
0.0
220
0.0
230
1.0
 70
     8
 71
     3
 72
     8
 73
     4
 74
     0
 42
0.000000001
 43
0.0000000001
 40
27.0
 40
27.0
 40
27.0
 40
27.0
 40
28.0
 40
28.0
 40
28.0
 40
28.0
 10
4328.399111944347
 20
2231.060137609914
 30
0.0
 10
4328.37964026466
 20
2231.294169836477
 30
0.0
 10
4327.979168584972
 20
2234.524856359914
 30
0.0
 10
4327.952937627941
 20
2237.044640539601
 30
0.0
  0
SPLINE
  5
2C76A
330
18
100
AcDbEntity
  8
姿図
100
AcDbSpline
210
0.0
220
0.0
230
1.0
 70
     8
 71
     3
 72
     8
 73
     4
 74
     0
 42
0.000000001
 43
0.0000000001
 40
26.0
 40
26.0
 40
26.0
 40
26.0
 40
27.0
 40
27.0
 40
27.0
 40
27.0
 10
4328.399111944347
 20
2229.380240148977
 30
0.0
 10
4328.425404913098
 20
2230.613901281789
 30
0.0
 10
4328.425404913098
 20
2230.745118078664
 30
0.0
 10
4328.399111944347
 20
2231.060137609914
 30
0.0
  0
SPLINE
  5
2C76B
330
18
100
AcDbEntity
  8
姿図
100
AcDbSpline
210
0.0
220
0.0
230
1.0
 70
     8
 71
     3
 72
     8
 73
     4
 74
     0
 42
0.000000001
 43
0.0000000001
 40
25.0
 40
25.0
 40
25.0
 40
25.0
 40
26.0
 40
26.0
 40
26.0
 40
26.0
 10
4328.451635870128
 20
2226.991672766164
 30
0.0
 10
4328.451635870128
 20
2226.991672766164
 30
0.0
 10
4328.267895147472
 20
2227.989069250539
 30
0.0
 10
4328.399111944347
 20
2229.380240148977
 30
0.0
  0
SPLINE
  5
2C76C
330
18
100
AcDbEntity
  8
姿図
100
AcDbSpline
210
0.0
220
0.0
230
1.0
 70
     8
 71
     3
 72
     8
 73
     4
 74
     0
 42
0.000000001
 43
0.0000000001
 40
4.0
 40
4.0
 40
4.0
 40
4.0
 40
5.0
 40
5.0
 40
5.0
 40
5.0
 10
4335.97775012794
 20
2248.347888586476
 30
0.0
 10
4335.243407354504
 20
2248.844106359914
 30
0.0
 10
4334.806844854504
 20
2249.201293859914
 30
0.0
 10
4334.568719854504
 20
2249.479230383352
 30
0.0
  0
SPLINE
  5
2C76D
330
18
100
AcDbEntity
  8
姿図
100
AcDbSpline
210
0.0
220
0.0
230
1.0
 70
     8
 71
     3
 72
     8
 73
     4
 74
     0
 42
0.000000001
 43
0.0000000001
 40
3.0
 40
3.0
 40
3.0
 40
3.0
 40
4.0
 40
4.0
 40
4.0
 40
4.0
 10
4337.505904913098
 20
2247.653357336477
 30
0.0
 10
4337.505904913098
 20
2247.653357336477
 30
0.0
 10
4336.91046838966
 20
2247.772419836477
 30
0.0
 10
4335.97775012794
 20
2248.347888586476
 30
0.0
  0
SPLINE
  5
2C76E
330
18
100
AcDbEntity
  8
姿図
100
AcDbSpline
210
0.0
220
0.0
230
1.0
 70
     8
 71
     3
 72
     8
 73
     4
 74
     0
 42
0.000000001
 43
0.0000000001
 40
2.0
 40
2.0
 40
2.0
 40
2.0
 40
3.0
 40
3.0
 40
3.0
 40
3.0
 10
4337.545592413097
 20
2246.264046789602
 30
0.0
 10
4337.505904913098
 20
2246.700609289602
 30
0.0
 10
4337.505904913098
 20
2247.653357336477
 30
0.0
 10
4337.505904913098
 20
2247.653357336477
 30
0.0
  0
SPLINE
  5
2C76F
330
18
100
AcDbEntity
  8
姿図
100
AcDbSpline
210
0.0
220
0.0
230
1.0
 70
     8
 71
     3
 72
     8
 73
     4
 74
     0
 42
0.000000001
 43
0.0000000001
 40
1.0
 40
1.0
 40
1.0
 40
1.0
 40
2.0
 40
2.0
 40
2.0
 40
2.0
 10
4333.854220831066
 20
2245.192484289601
 30
0.0
 10
4334.271001592784
 20
2245.331390539602
 30
0.0
 10
4335.660188116222
 20
2245.827484289602
 30
0.0
 10
4337.545592413097
 20
2246.264046789602
 30
0.0
  0
SPLINE
  5
2C770
330
18
100
AcDbEntity
  8
姿図
100
AcDbSpline
210
0.0
220
0.0
230
1.0
 70
     8
 71
     3
 72
     8
 73
     4
 74
     0
 42
0.000000001
 43
0.0000000001
 40
0.0
 40
0.0
 40
0.0
 40
0.0
 40
1.0
 40
1.0
 40
1.0
 40
1.0
 10
4334.568719854504
 20
2249.479230383352
 30
0.0
 10
4334.409907842784
 20
2249.022700109914
 30
0.0
 10
4333.834377081066
 20
2246.105296789601
 30
0.0
 10
4333.854220831066
 20
2245.192484289601
 30
0.0
  0
SPLINE
  5
2C771
330
18
100
AcDbEntity
  8
姿図
100
AcDbSpline
210
0.0
220
0.0
230
1.0
 70
     8
 71
     3
 72
     8
 73
     4
 74
     0
 42
0.000000001
 43
0.0000000001
 40
1.0
 40
1.0
 40
1.0
 40
1.0
 40
2.0
 40
2.0
 40
2.0
 40
2.0
 10
4348.758613409191
 20
2247.514451086477
 30
0.0
 10
4348.73876965919
 20
2247.256358313039
 30
0.0
 10
4348.758613409191
 20
2246.085453039602
 30
0.0
 10
4348.758613409191
 20
2246.025921789602
 30
0.0
  0
ARC
  5
2C772
330
18
100
AcDbEntity
  8
姿図
100
AcDbCircle
 10
4348.815685913771
 20
2216.986220793852
 30
0.0
 40
22.57532294063875
100
AcDbArc
 50
142.1300901191505
 51
153.8561626608886
  0
ARC
  5
2C773
330
18
100
AcDbEntity
  8
姿図
100
AcDbCircle
 10
4344.477433060058
 20
2227.280811147393
 30
0.0
 40
17.76933376856992
100
AcDbArc
 50
65.97414726763859
 51
82.24955976118801
  0
ARC
  5
2C774
330
18
100
AcDbEntity
  8
姿図
100
AcDbCircle
 10
4342.347973042111
 20
2208.636202866924
 30
0.0
 40
27.31411363335211
100
AcDbArc
 50
71.67295501632339
 51
85.11625161579612
  0
ARC
  5
2C775
330
18
100
AcDbEntity
  8
姿図
100
AcDbCircle
 10
4347.125693318379
 20
2253.916562902252
 30
0.0
 40
6.23813699003056
100
AcDbArc
 50
285.7123076237768
 51
311.5945141074763
  0
ARC
  5
2C776
330
18
100
AcDbEntity
  8
姿図
100
AcDbCircle
 10
4331.533082961547
 20
2245.96531597285
 30
0.0
 40
20.0055389844919
100
AcDbArc
 50
8.50335465973953
 51
23.34607013288077
  0
ARC
  5
2C777
330
18
100
AcDbEntity
  8
姿図
100
AcDbCircle
 10
4344.477433060058
 20
2227.280811147393
 30
0.0
 40
18.12933376856992
100
AcDbArc
 50
65.97414726763859
 51
82.24955976118801
  0
ARC
  5
2C778
330
18
100
AcDbEntity
  8
姿図
100
AcDbCircle
 10
4343.567273633002
 20
2213.769148075345
 30
0.0
 40
21.15174539434977
100
AcDbArc
 50
69.16539260965735
 51
86.95759899233144
  0
ARC
  5
2C779
330
18
100
AcDbEntity
  8
姿図
100
AcDbCircle
 10
4343.466920692554
 20
2214.704091777737
 30
0.0
 40
21.57101932075856
100
AcDbArc
 50
69.37373870165698
 51
86.60023055440318
  0
ARC
  5
2C77A
330
18
100
AcDbEntity
  8
姿図
100
AcDbCircle
 10
4345.009150028551
 20
2218.409060383034
 30
0.0
 40
15.1701482379715
100
AcDbArc
 50
59.84827434687212
 51
82.10167315234378
  0
SPLINE
  5
2C77B
330
18
100
AcDbEntity
  8
姿図
100
AcDbSpline
210
0.0
220
0.0
230
1.0
 70
     8
 71
     3
 72
     8
 73
     4
 74
     0
 42
0.000000001
 43
0.0000000001
 40
93.0
 40
93.0
 40
93.0
 40
93.0
 40
94.0
 40
94.0
 40
94.0
 40
94.0
 10
4350.464307745129
 20
2262.904085363821
 30
0.0
 10
4350.647118292003
 20
2262.329174719289
 30
0.0
 10
4351.901491338878
 20
2258.592596594289
 30
0.0
 10
4352.450171026378
 20
2255.300146398977
 30
0.0
  0
SPLINE
  5
2C77C
330
18
100
AcDbEntity
  8
姿図
100
AcDbSpline
210
0.0
220
0.0
230
1.0
 70
     8
 71
     3
 72
     8
 73
     4
 74
     0
 42
0.000000001
 43
0.0000000001
 40
2.0
 40
2.0
 40
2.0
 40
2.0
 40
3.0
 40
3.0
 40
3.0
 40
3.0
 10
4348.758613409191
 20
2246.025921789602
 30
0.0
 10
4348.996738409191
 20
2246.006078039602
 30
0.0
 10
4351.517142706066
 20
2245.152796789602
 30
0.0
 10
4351.775111456066
 20
2244.974203039602
 30
0.0
  0
SPLINE
  5
2C77D
330
18
100
AcDbEntity
  8
姿図
100
AcDbSpline
210
0.0
220
0.0
230
1.0
 70
     8
 71
     3
 72
     8
 73
     4
 74
     0
 42
0.000000001
 43
0.0000000001
 40
0.0
 40
0.0
 40
0.0
 40
0.0
 40
1.0
 40
1.0
 40
1.0
 40
1.0
 10
4351.318705206066
 20
2248.923481359914
 30
0.0
 10
4351.120267706066
 20
2248.724919836476
 30
0.0
 10
4350.445456182628
 20
2248.109763586476
 30
0.0
 10
4348.758613409191
 20
2247.514451086477
 30
0.0
  0
LINE
  5
2C7B3
330
18
100
AcDbEntity
  8
姿図
100
AcDbLine
 10
4357.832862075191
 20
2243.51632016348
 30
0.0
 11
4358.343519413483
 21
2243.497415476355
 31
0.0
  0
LINE
  5
2C7B4
330
18
100
AcDbEntity
  8
姿図
100
AcDbLine
 10
4357.766665767524
 20
2243.280011818802
 30
0.0
 11
4358.403730825912
 21
2243.199702148392
 31
0.0
  0
LINE
  5
2C7B5
330
18
100
AcDbEntity
  8
姿図
100
AcDbLine
 10
4358.423750671014
 20
2243.912525538252
 30
0.0
 11
4357.766665767524
 21
2243.922770529362
 31
0.0
  0
SPLINE
  5
2C7B6
330
18
100
AcDbEntity
  8
姿図
100
AcDbSpline
210
0.0
220
0.0
230
1.0
 70
     8
 71
     3
 72
     8
 73
     4
 74
     0
 42
0.000000001
 43
0.0000000001
 40
122.0
 40
122.0
 40
122.0
 40
122.0
 40
123.0
 40
123.0
 40
123.0
 40
123.0
 10
4358.365344854503
 20
2241.832937414601
 30
0.0
 10
4358.229415167003
 20
2241.832937414601
 30
0.0
 10
4357.576803838879
 20
2241.778615148976
 30
0.0
 10
4357.576803838879
 20
2241.778615148976
 30
0.0
  0
SPLINE
  5
2C7B7
330
18
100
AcDbEntity
  8
姿図
100
AcDbSpline
210
0.0
220
0.0
230
1.0
 70
     8
 71
     3
 72
     8
 73
     4
 74
     0
 42
0.000000001
 43
0.0000000001
 40
116.0
 40
116.0
 40
116.0
 40
116.0
 40
117.0
 40
117.0
 40
117.0
 40
117.0
 10
4357.644768682629
 20
2244.348132727102
 30
0.0
 10
4357.644768682629
 20
2244.348132727102
 30
0.0
 10
4358.338183721691
 20
2244.375417883351
 30
0.0
 10
4358.433309698254
 20
2244.252882727102
 30
0.0
  0
ARC
  5
2C7B8
330
18
100
AcDbEntity
  8
姿図
100
AcDbCircle
 10
4354.15188121231
 20
2241.83031042069
 30
0.0
 40
1.607862445810594
100
AcDbArc
 50
42.69636713775285
 51
56.12973347160505
  0
LINE
  5
2C7B9
330
18
100
AcDbEntity
  8
姿図
100
AcDbLine
 10
4356.937835088878
 20
2245.177477453664
 30
0.0
 11
4357.003343428083
 21
2238.980596469931
 31
0.0
  0
ARC
  5
2C7BA
330
18
100
AcDbEntity
  8
姿図
100
AcDbCircle
 10
4353.607175466574
 20
2231.117225836171
 30
0.0
 40
3.450845033596016
100
AcDbArc
 50
12.81913927440636
 51
48.80510402841485
  0
LINE
  5
2C7BB
330
18
100
AcDbEntity
  8
姿図
100
AcDbLine
 10
4356.726421380734
 20
2241.382161331891
 30
0.0
 11
4356.76362568995
 21
2240.703243163476
 31
0.0
  0
ARC
  5
2C7BC
330
18
100
AcDbEntity
  8
姿図
100
AcDbCircle
 10
4350.5862670933
 20
2235.682398510296
 30
0.0
 40
7.215052215152664
100
AcDbArc
 50
27.20189775311794
 51
35.00004946461915
  0
LINE
  5
2C7BD
330
18
100
AcDbEntity
  8
姿図
100
AcDbLine
 10
4356.489881803338
 20
2240.085607696757
 30
0.0
 11
4356.477202545459
 21
2239.846264078489
 31
0.0
  0
ARC
  5
2C7BE
330
18
100
AcDbEntity
  8
姿図
100
AcDbCircle
 10
4350.843383293288
 20
2236.192942186297
 30
0.0
 40
6.858264372298297
100
AcDbArc
 50
34.58216941684147
 51
53.25955639034089
  0
LINE
  5
2C7BF
330
18
100
AcDbEntity
  8
姿図
100
AcDbLine
 10
4357.766665767524
 20
2243.922770529362
 30
0.0
 11
4357.766665767524
 21
2243.280011818802
 31
0.0
  0
LINE
  5
2C7C0
330
18
100
AcDbEntity
  8
姿図
100
AcDbLine
 10
4356.730354043673
 20
2242.265123015642
 30
0.0
 11
4356.726421380734
 21
2241.382161331891
 31
0.0
  0
ARC
  5
2C7C1
330
18
100
AcDbEntity
  8
姿図
100
AcDbCircle
 10
4341.051662802402
 20
2228.970474520561
 30
0.0
 40
19.99369965743132
100
AcDbArc
 50
38.37310906748083
 51
42.37078970392479
  0
LINE
  5
2C7C2
330
18
100
AcDbEntity
  8
姿図
100
AcDbLine
 10
4356.534942816874
 20
2242.295963474841
 30
0.0
 11
4356.730354043673
 21
2242.265123015642
 31
0.0
  0
LINE
  5
2C7C3
330
18
100
AcDbEntity
  8
姿図
100
AcDbLine
 10
4356.298392437342
 20
2242.203442260172
 30
0.0
 11
4356.534942816874
 21
2242.295963474841
 31
0.0
  0
LINE
  5
2C7C4
330
18
100
AcDbEntity
  8
姿図
100
AcDbLine
 10
4356.004073315769
 20
2242.238239028238
 30
0.0
 11
4356.298392437342
 21
2242.203442260172
 31
0.0
  0
LINE
  5
2C7C5
330
18
100
AcDbEntity
  8
姿図
100
AcDbLine
 10
4356.665851690441
 20
2243.899415930226
 30
0.0
 11
4356.730354043673
 21
2242.265123015642
 31
0.0
  0
LINE
  5
2C7C6
330
18
100
AcDbEntity
  8
姿図
100
AcDbLine
 10
4357.644768682629
 20
2244.348132727102
 30
0.0
 11
4357.576803838879
 21
2241.778615148976
 31
0.0
  0
ARC
  5
2C7C7
330
18
100
AcDbEntity
  8
姿図
100
AcDbCircle
 10
4355.520993275088
 20
2244.150468904663
 30
0.0
 40
1.89922636815973
100
AcDbArc
 50
174.9394242146343
 51
180.7612721143542
  0
ARC
  5
2C7C8
330
18
100
AcDbEntity
  8
姿図
100
AcDbCircle
 10
4353.376392567521
 20
2243.88033636786
 30
0.0
 40
0.5054145232443293
100
AcDbArc
 50
10.76860951313054
 51
59.99080121585912
  0
ARC
  5
2C7C9
330
18
100
AcDbEntity
  8
姿図
100
AcDbCircle
 10
4352.071549831235
 20
2237.58554389798
 30
0.0
 40
5.369747723572417
100
AcDbArc
 50
23.51302691710416
 51
54.87259797793384
  0
ARC
  5
2C7CA
330
18
100
AcDbEntity
  8
姿図
100
AcDbCircle
 10
4353.545627773517
 20
2229.895519878024
 30
0.0
 40
3.098683840935339
100
AcDbArc
 50
9.47192765074869
 51
44.14231619187409
  0
LINE
  5
2C7CB
330
18
100
AcDbEntity
  8
姿図
100
AcDbLine
 10
4356.413904449215
 20
2230.415052902158
 30
0.0
 11
4356.602065240528
 21
2230.405452771972
 31
0.0
  0
LINE
  5
2C7CC
330
18
100
AcDbEntity
  8
姿図
100
AcDbLine
 10
4356.574064620078
 20
2229.083828899009
 30
0.0
 11
4356.602065240528
 21
2230.405452771972
 31
0.0
  0
LINE
  5
2C7CD
330
18
100
AcDbEntity
  8
姿図
100
AcDbLine
 10
4356.413904449215
 20
2230.415052902158
 30
0.0
 11
4356.393099403482
 21
2229.459211247749
 31
0.0
  0
ARC
  5
2C7CE
330
18
100
AcDbEntity
  8
姿図
100
AcDbCircle
 10
4354.443340259533
 20
2230.008897458105
 30
0.0
 40
2.011985454815605
100
AcDbArc
 50
11.64621484543756
 51
34.90029506550214
  0
ARC
  5
2C7CF
330
18
100
AcDbEntity
  8
姿図
100
AcDbCircle
 10
4353.607175466574
 20
2231.117225836171
 30
0.0
 40
3.270845033596017
100
AcDbArc
 50
355.3470820426405
 51
48.80510402841485
  0
ARC
  5
2C7D0
330
18
100
AcDbEntity
  8
姿図
100
AcDbCircle
 10
4353.009249999128
 20
2227.489014798268
 30
0.0
 40
3.541557972086268
100
AcDbArc
 50
4.009409755499929
 51
37.93819005736977
  0
SPLINE
  5
2C7D1
330
18
100
AcDbEntity
  8
姿図
100
AcDbSpline
210
0.0
220
0.0
230
1.0
 70
     8
 71
     3
 72
     8
 73
     4
 74
     0
 42
0.000000001
 43
0.0000000001
 40
127.0
 40
127.0
 40
127.0
 40
127.0
 40
128.0
 40
128.0
 40
128.0
 40
128.0
 10
4356.829066534191
 20
2230.602863195852
 30
0.0
 10
4356.829066534191
 20
2230.208592688039
 30
0.0
 10
4356.842709112316
 20
2228.169275305227
 30
0.0
 10
4356.842709112316
 20
2228.169275305227
 30
0.0
  0
SPLINE
  5
2C7D2
330
18
100
AcDbEntity
  8
姿図
100
AcDbSpline
210
0.0
220
0.0
230
1.0
 70
     8
 71
     3
 72
     8
 73
     4
 74
     0
 42
0.000000001
 43
0.0000000001
 40
126.0
 40
126.0
 40
126.0
 40
126.0
 40
127.0
 40
127.0
 40
127.0
 40
127.0
 10
4357.345624151379
 20
2236.625813391164
 30
0.0
 10
4357.250498174816
 20
2234.980642492726
 30
0.0
 10
4356.897031377941
 20
2230.793239172414
 30
0.0
 10
4356.829066534191
 20
2230.602863195852
 30
0.0
  0
SPLINE
  5
2C7D3
330
18
100
AcDbEntity
  8
姿図
100
AcDbSpline
210
0.0
220
0.0
230
1.0
 70
     8
 71
     3
 72
     8
 73
     4
 74
     0
 42
0.000000001
 43
0.0000000001
 40
125.0
 40
125.0
 40
125.0
 40
125.0
 40
126.0
 40
126.0
 40
126.0
 40
126.0
 10
4357.359266729503
 20
2240.854020422414
 30
0.0
 10
4357.359266729503
 20
2240.854020422414
 30
0.0
 10
4357.440874151378
 20
2238.270984289602
 30
0.0
 10
4357.345624151379
 20
2236.625813391164
 30
0.0
  0
SPLINE
  5
2C7D4
330
18
100
AcDbEntity
  8
姿図
100
AcDbSpline
210
0.0
220
0.0
230
1.0
 70
     8
 71
     3
 72
     8
 73
     4
 74
     0
 42
0.000000001
 43
0.0000000001
 40
124.0
 40
124.0
 40
124.0
 40
124.0
 40
125.0
 40
125.0
 40
125.0
 40
125.0
 10
4357.522357549817
 20
2240.881181555226
 30
0.0
 10
4357.440874151378
 20
2240.799574133352
 30
0.0
 10
4357.359266729503
 20
2240.854020422414
 30
0.0
 10
4357.359266729503
 20
2240.854020422414
 30
0.0
  0
SPLINE
  5
2C7D5
330
18
100
AcDbEntity
  8
姿図
100
AcDbSpline
210
0.0
220
0.0
230
1.0
 70
     8
 71
     3
 72
     8
 73
     4
 74
     0
 42
0.000000001
 43
0.0000000001
 40
123.0
 40
123.0
 40
123.0
 40
123.0
 40
124.0
 40
124.0
 40
124.0
 40
124.0
 10
4357.576803838879
 20
2241.778615148976
 30
0.0
 10
4357.576803838879
 20
2241.778615148976
 30
0.0
 10
4357.603964971691
 20
2240.962788977102
 30
0.0
 10
4357.522357549817
 20
2240.881181555226
 30
0.0
  0
SPLINE
  5
2C7D6
330
18
100
AcDbEntity
  8
姿図
100
AcDbSpline
210
0.0
220
0.0
230
1.0
 70
     8
 71
     3
 72
    14
 73
    10
 74
     0
 42
0.000000001
 43
0.0000000001
 40
113.0
 40
113.0
 40
113.0
 40
113.0
 40
114.0
 40
114.0
 40
114.0
 40
115.0
 40
115.0
 40
115.0
 40
116.0
 40
116.0
 40
116.0
 40
116.0
 10
4356.937835088878
 20
2245.177477453664
 30
0.0
 10
4356.937835088878
 20
2245.177477453664
 30
0.0
 10
4356.964996221692
 20
2245.313531164601
 30
0.0
 10
4357.169014776378
 20
2245.313531164601
 30
0.0
 10
4357.372909307629
 20
2245.313531164601
 30
0.0
 10
4357.617607549816
 20
2245.313531164601
 30
0.0
 10
4357.617607549816
 20
2245.109388586477
 30
0.0
 10
4357.617607549816
 20
2244.905494055227
 30
0.0
 10
4357.644768682629
 20
2244.348132727102
 30
0.0
 10
4357.644768682629
 20
2244.348132727102
 30
0.0
  0
SPLINE
  5
2C7D7
330
18
100
AcDbEntity
  8
姿図
100
AcDbSpline
210
0.0
220
0.0
230
1.0
 70
     8
 71
     3
 72
    11
 73
     7
 74
     0
 42
0.000000001
 43
0.0000000001
 40
111.0
 40
111.0
 40
111.0
 40
111.0
 40
112.0
 40
112.0
 40
112.0
 40
113.0
 40
113.0
 40
113.0
 40
113.0
 10
4356.665851690441
 20
2245.245442297414
 30
0.0
 10
4356.665851690441
 20
2245.245442297414
 30
0.0
 10
4356.706655401378
 20
2245.354210852101
 30
0.0
 10
4356.788262823254
 20
2245.354210852101
 30
0.0
 10
4356.869746221691
 20
2245.354210852101
 30
0.0
 10
4356.937835088878
 20
2245.177477453664
 30
0.0
 10
4356.937835088878
 20
2245.177477453664
 30
0.0
  0
SPLINE
  5
2C7D8
330
18
100
AcDbEntity
  8
姿図
100
AcDbSpline
210
0.0
220
0.0
230
1.0
 70
    24
 71
     3
 72
     8
 73
     4
 74
     0
 42
0.000000001
 43
0.0000000001
 40
110.0
 40
110.0
 40
110.0
 40
110.0
 40
111.0
 40
111.0
 40
111.0
 40
111.0
 10
4356.665851690441
 20
2243.899415930226
 30
0.0
 10
4356.665851690441
 20
2243.899415930226
 30
0.0
 10
4356.665851690441
 20
2245.245442297414
 30
0.0
 10
4356.665851690441
 20
2245.245442297414
 30
0.0
  0
SPLINE
  5
2C7D9
330
18
100
AcDbEntity
  8
姿図
100
AcDbSpline
210
0.0
220
0.0
230
1.0
 70
     8
 71
     3
 72
    11
 73
     7
 74
     0
 42
0.000000001
 43
0.0000000001
 40
108.0
 40
108.0
 40
108.0
 40
108.0
 40
109.0
 40
109.0
 40
109.0
 40
110.0
 40
110.0
 40
110.0
 40
110.0
 10
4355.999721807629
 20
2243.831451086477
 30
0.0
 10
4356.067686651379
 20
2243.940343664602
 30
0.0
 10
4356.176455206067
 20
2244.008308508352
 30
0.0
 10
4356.366831182629
 20
2244.008308508352
 30
0.0
 10
4356.557207159191
 20
2244.008308508352
 30
0.0
 10
4356.665851690441
 20
2243.899415930226
 30
0.0
 10
4356.665851690441
 20
2243.899415930226
 30
0.0
  0
SPLINE
  5
2C7DA
330
18
100
AcDbEntity
  8
姿図
100
AcDbSpline
210
0.0
220
0.0
230
1.0
 70
     8
 71
     3
 72
     8
 73
     4
 74
     0
 42
0.000000001
 43
0.0000000001
 40
107.0
 40
107.0
 40
107.0
 40
107.0
 40
108.0
 40
108.0
 40
108.0
 40
108.0
 10
4355.95891809669
 20
2243.491626867727
 30
0.0
 10
4355.95891809669
 20
2243.491626867727
 30
0.0
 10
4355.931632940441
 20
2243.722806555226
 30
0.0
 10
4355.999721807629
 20
2243.831451086477
 30
0.0
  0
SPLINE
  5
2C7DB
330
18
100
AcDbEntity
  8
姿図
100
AcDbSpline
210
0.0
220
0.0
230
1.0
 70
     8
 71
     3
 72
    11
 73
     7
 74
     0
 42
0.000000001
 43
0.0000000001
 40
105.0
 40
105.0
 40
105.0
 40
105.0
 40
106.0
 40
106.0
 40
106.0
 40
107.0
 40
107.0
 40
107.0
 40
107.0
 10
4355.863792120128
 20
2242.906980383352
 30
0.0
 10
4355.741380987316
 20
2242.961302648977
 30
0.0
 10
4355.714219854503
 20
2243.029267492727
 30
0.0
 10
4355.714219854503
 20
2243.124517492726
 30
0.0
 10
4355.714219854503
 20
2243.21964346929
 30
0.0
 10
4355.95891809669
 20
2243.491626867727
 30
0.0
 10
4355.95891809669
 20
2243.491626867727
 30
0.0
  0
SPLINE
  5
2C7DC
330
18
100
AcDbEntity
  8
姿図
100
AcDbSpline
210
0.0
220
0.0
230
1.0
 70
     8
 71
     3
 72
     8
 73
     4
 74
     0
 42
0.000000001
 43
0.0000000001
 40
104.0
 40
104.0
 40
104.0
 40
104.0
 40
105.0
 40
105.0
 40
105.0
 40
105.0
 10
4355.822988409191
 20
2242.444745031789
 30
0.0
 10
4355.822988409191
 20
2242.444745031789
 30
0.0
 10
4355.768542120129
 20
2242.798211828664
 30
0.0
 10
4355.863792120128
 20
2242.906980383352
 30
0.0
  0
SPLINE
  5
2C7DD
330
18
100
AcDbEntity
  8
姿図
100
AcDbSpline
210
0.0
220
0.0
230
1.0
 70
    24
 71
     3
 72
     8
 73
     4
 74
     0
 42
0.000000001
 43
0.0000000001
 40
103.0
 40
103.0
 40
103.0
 40
103.0
 40
104.0
 40
104.0
 40
104.0
 40
104.0
 10
4355.333591924817
 20
2242.920622961477
 30
0.0
 10
4355.333591924817
 20
2242.920622961477
 30
0.0
 10
4355.822988409191
 20
2242.444745031789
 30
0.0
 10
4355.822988409191
 20
2242.444745031789
 30
0.0
  0
SPLINE
  5
2C7DE
330
18
100
AcDbEntity
  8
姿図
100
AcDbSpline
210
0.0
220
0.0
230
1.0
 70
    24
 71
     3
 72
     8
 73
     4
 74
     0
 42
0.000000001
 43
0.0000000001
 40
102.0
 40
102.0
 40
102.0
 40
102.0
 40
103.0
 40
103.0
 40
103.0
 40
103.0
 10
4355.455879034191
 20
2242.988587805226
 30
0.0
 10
4355.455879034191
 20
2242.988587805226
 30
0.0
 10
4355.333591924817
 20
2242.920622961477
 30
0.0
 10
4355.333591924817
 20
2242.920622961477
 30
0.0
  0
SPLINE
  5
2C7DF
330
18
100
AcDbEntity
  8
姿図
100
AcDbSpline
210
0.0
220
0.0
230
1.0
 70
     8
 71
     3
 72
    11
 73
     7
 74
     0
 42
0.000000001
 43
0.0000000001
 40
100.0
 40
100.0
 40
100.0
 40
100.0
 40
101.0
 40
101.0
 40
101.0
 40
102.0
 40
102.0
 40
102.0
 40
102.0
 10
4355.374271612316
 20
2243.477984289601
 30
0.0
 10
4355.374271612316
 20
2243.477984289601
 30
0.0
 10
4355.496682745128
 20
2243.505269445852
 30
0.0
 10
4355.496682745128
 20
2243.410019445852
 30
0.0
 10
4355.496682745128
 20
2243.314769445851
 30
0.0
 10
4355.455879034191
 20
2242.988587805226
 30
0.0
 10
4355.455879034191
 20
2242.988587805226
 30
0.0
  0
SPLINE
  5
2C7E0
330
18
100
AcDbEntity
  8
姿図
100
AcDbSpline
210
0.0
220
0.0
230
1.0
 70
    24
 71
     3
 72
     8
 73
     4
 74
     0
 42
0.000000001
 43
0.0000000001
 40
99.0
 40
99.0
 40
99.0
 40
99.0
 40
100.0
 40
100.0
 40
100.0
 40
100.0
 10
4355.047965948253
 20
2243.165321203664
 30
0.0
 10
4355.047965948253
 20
2243.165321203664
 30
0.0
 10
4355.374271612316
 20
2243.477984289601
 30
0.0
 10
4355.374271612316
 20
2243.477984289601
 30
0.0
  0
SPLINE
  5
2C7E1
330
18
100
AcDbEntity
  8
姿図
100
AcDbSpline
210
0.0
220
0.0
230
1.0
 70
    24
 71
     3
 72
     8
 73
     4
 74
     0
 42
0.000000001
 43
0.0000000001
 40
98.0
 40
98.0
 40
98.0
 40
98.0
 40
99.0
 40
99.0
 40
99.0
 40
99.0
 10
4354.736047002942
 20
2243.380501867727
 30
0.0
 10
4354.736047002942
 20
2243.380501867727
 30
0.0
 10
4355.047965948253
 20
2243.165321203664
 30
0.0
 10
4355.047965948253
 20
2243.165321203664
 30
0.0
  0
ARC
  5
2C7E2
330
18
100
AcDbEntity
  8
姿図
100
AcDbCircle
 10
4336.049018973278
 20
2216.986220793852
 30
0.0
 40
22.57532294063875
100
AcDbArc
 50
23.76234228696855
 51
37.86990988084948
  0
LINE
  5
2C7E3
330
18
100
AcDbEntity
  8
姿図
100
AcDbLine
 10
4358.433309698254
 20
2244.252882727102
 30
0.0
 11
4358.365344854503
 21
2241.832937414601
 31
0.0
  0
SPLINE
  5
2C7E4
330
18
100
AcDbEntity
  8
姿図
100
AcDbSpline
210
0.0
220
0.0
230
1.0
 70
     8
 71
     3
 72
     8
 73
     4
 74
     0
 42
0.000000001
 43
0.0000000001
 40
121.0
 40
121.0
 40
121.0
 40
121.0
 40
122.0
 40
122.0
 40
122.0
 40
122.0
 10
4358.582881963879
 20
2241.642685461477
 30
0.0
 10
4358.474113409191
 20
2241.615400305226
 30
0.0
 10
4358.378987432628
 20
2241.642685461477
 30
0.0
 10
4358.365344854503
 20
2241.832937414601
 30
0.0
  0
SPLINE
  5
2C7E5
330
18
100
AcDbEntity
  8
姿図
100
AcDbSpline
210
0.0
220
0.0
230
1.0
 70
     8
 71
     3
 72
     8
 73
     4
 74
     0
 42
0.000000001
 43
0.0000000001
 40
120.0
 40
120.0
 40
120.0
 40
120.0
 40
121.0
 40
121.0
 40
121.0
 40
121.0
 10
4358.854741338879
 20
2242.200046789601
 30
0.0
 10
4358.800419073254
 20
2242.00967081304
 30
0.0
 10
4358.691650518565
 20
2241.669846594289
 30
0.0
 10
4358.582881963879
 20
2241.642685461477
 30
0.0
  0
SPLINE
  5
2C7E6
330
18
100
AcDbEntity
  8
姿図
100
AcDbSpline
210
0.0
220
0.0
230
1.0
 70
     8
 71
     3
 72
     8
 73
     4
 74
     0
 42
0.000000001
 43
0.0000000001
 40
119.0
 40
119.0
 40
119.0
 40
119.0
 40
120.0
 40
120.0
 40
120.0
 40
120.0
 10
4358.895545049816
 20
2243.967380773976
 30
0.0
 10
4358.909187627942
 20
2243.668360266164
 30
0.0
 10
4358.909187627942
 20
2242.390298742726
 30
0.0
 10
4358.854741338879
 20
2242.200046789601
 30
0.0
  0
SPLINE
  5
2C7E7
330
18
100
AcDbEntity
  8
姿図
100
AcDbSpline
210
0.0
220
0.0
230
1.0
 70
     8
 71
     3
 72
    11
 73
     7
 74
     0
 42
0.000000001
 43
0.0000000001
 40
117.0
 40
117.0
 40
117.0
 40
117.0
 40
118.0
 40
118.0
 40
118.0
 40
119.0
 40
119.0
 40
119.0
 40
119.0
 10
4358.433309698254
 20
2244.252882727102
 30
0.0
 10
4358.446952276378
 20
2244.416097570852
 30
0.0
 10
4358.406148565441
 20
2244.484062414602
 30
0.0
 10
4358.542078252941
 20
2244.484062414602
 30
0.0
 10
4358.678131963879
 20
2244.484062414602
 30
0.0
 10
4358.882026495128
 20
2244.266525305226
 30
0.0
 10
4358.895545049816
 20
2243.967380773976
 30
0.0
  0
TEXT
  5
2CB87
330
18
100
AcDbEntity
  8
文字
100
AcDbText
 10
4300.858198333138
 20
2184.577643549537
 30
0.0
 40
7.199999999999999
  1
SL-B1342D/BF
100
AcDbText
  0
ENDSEC
  0
SECTION
  2
OBJECTS
  0
DICTIONARY
  5
C
330
0
100
AcDbDictionary
281
     1
  3
ACAD_GROUP
350
D
  3
ACAD_IMAGE_VARS
350
2CBE0
  3
ACAD_LAYOUT
350
40CB
  3
ACAD_MLINESTYLE
350
E
  3
ACAD_PLOTSETTINGS
350
40CC
  3
ACAD_PLOTSTYLENAME
350
40C9
  3
ACAD_SCALELIST
350
296DC
  3
AcDbVariableDictionary
350
6377
  3
APPDATA
350
2CBDF
  3
DWGPROPS
350
2CC04
  0
DICTIONARY
  5
17708
330
2
100
AcDbDictionary
280
     1
281
     1
  3
ACAD_LAYERSTATES
360
17709
  0
DICTIONARY
  5
2A376
330
F
100
AcDbDictionary
280
     1
281
     1
  3
ADSK_XREC_LAYER_RECONCILED
360
2A377
  0
DICTIONARY
  5
2A378
330
4C
100
AcDbDictionary
280
     1
281
     1
  3
ADSK_XREC_LAYER_RECONCILED
360
2A379
  0
DICTIONARY
  5
2A37C
330
40D4
100
AcDbDictionary
280
     1
281
     1
  3
ADSK_XREC_LAYER_RECONCILED
360
2A37D
  0
DICTIONARY
  5
2A384
330
176FE
100
AcDbDictionary
280
     1
281
     1
  3
ADSK_XREC_LAYER_RECONCILED
360
2A385
  0
DICTIONARY
  5
D
102
{ACAD_REACTORS
330
C
102
}
330
C
100
AcDbDictionary
281
     1
  0
RASTERVARIABLES
  5
2CBE0
102
{ACAD_REACTORS
330
C
102
}
330
C
100
AcDbRasterVariables
 90
        0
 70
     1
 71
     1
 72
     0
  0
DICTIONARY
  5
40CB
102
{ACAD_REACTORS
330
C
102
}
330
C
100
AcDbDictionary
281
     1
  3
Model
350
40CD
  3
ﾚｲｱｳﾄ1
350
40CE
  0
DICTIONARY
  5
E
102
{ACAD_REACTORS
330
C
102
}
330
C
100
AcDbDictionary
281
     1
  3
STANDARD
350
1B
  0
DICTIONARY
  5
40CC
102
{ACAD_REACTORS
330
C
102
}
330
C
100
AcDbDictionary
281
     1
  0
ACDBDICTIONARYWDFLT
  5
40C9
102
{ACAD_REACTORS
330
C
102
}
330
C
100
AcDbDictionary
281
     1
  3
Normal
350
40CA
100
AcDbDictionaryWithDefault
340
40CA
  0
DICTIONARY
  5
296DC
102
{ACAD_REACTORS
330
C
102
}
330
C
100
AcDbDictionary
281
     1
  3
A0
350
296DD
  3
A1
350
296DE
  3
A2
350
296DF
  3
A3
350
296E0
  3
A4
350
296E1
  3
A5
350
296E2
  3
A6
350
296E3
  3
A7
350
296E4
  3
A8
350
296E5
  3
A9
350
296E6
  3
B0
350
296E7
  3
B1
350
296E8
  3
B2
350
296E9
  3
B3
350
296EA
  3
B4
350
296EB
  3
B5
350
296EC
  3
B6
350
296ED
  3
B7
350
296EE
  3
B8
350
296EF
  3
B9
350
296F0
  3
C0
350
296F1
  3
C1
350
296F2
  3
C2
350
296F3
  3
C3
350
296F4
  3
C4
350
296F5
  3
C5
350
296F6
  3
C6
350
296F7
  3
C7
350
296F8
  3
C8
350
296F9
  3
C9
350
296FA
  3
D0
350
296FB
  3
D1
350
296FC
  3
D2
350
296FD
  0
DICTIONARY
  5
6377
102
{ACAD_REACTORS
330
C
102
}
330
C
100
AcDbDictionary
281
     1
  3
DIMASSOC
350
73F2
  3
INDEXCTL
350
2B858
  3
PROJECTNAME
350
FE7D
  3
SORTENTS
350
6378
  0
DICTIONARY
  5
2CBDF
102
{ACAD_REACTORS
330
C
102
}
330
C
100
AcDbDictionary
281
     1
  0
XRECORD
  5
2CC04
102
{ACAD_REACTORS
330
C
102
}
330
C
100
AcDbXrecord
280
     1
  1
DWGPROPS COOKIE
  2

  3

  4

  6

  7

  8
SPAX
  9

300
=
301
=
302
=
303
=
304
=
305
=
306
=
307
=
308
=
309
=
 40
0.0
 41
2453703.106561227
 42
2456821.193519526
  1

 90
        0
  0
DICTIONARY
  5
17709
102
{ACAD_REACTORS
330
17708
102
}
330
17708
100
AcDbDictionary
281
     1
  0
XRECORD
  5
2A377
102
{ACAD_REACTORS
330
2A376
102
}
330
2A376
100
AcDbXrecord
280
     1
290
     1
  0
XRECORD
  5
2A379
102
{ACAD_REACTORS
330
2A378
102
}
330
2A378
100
AcDbXrecord
280
     1
290
     1
  0
XRECORD
  5
2A37D
102
{ACAD_REACTORS
330
2A37C
102
}
330
2A37C
100
AcDbXrecord
280
     1
290
     1
  0
XRECORD
  5
2A385
102
{ACAD_REACTORS
330
2A384
102
}
330
2A384
100
AcDbXrecord
280
     1
290
     1
  0
LAYOUT
  5
40CD
102
{ACAD_REACTORS
330
40CB
102
}
330
40CB
100
AcDbPlotSettings
  1

  2
JUST PDF 2
  4
A4
  6
CUT1
 40
3.174999952316284
 41
3.174999952316284
 42
3.175003051757812
 43
3.17498779296875
 44
209.8886566162109
 45
297.0530090332031
 46
14.27171755861536
 47
9.855173074625213
 48
4304.278659431113
 49
1774.219284619651
140
4654.269096420925
141
2316.204634896987
142
1.0
143
2.0
 70
 11956
 72
     1
 73
     0
 74
     4
  7
spax form.ctb
 75
    17
147
0.5
148
-4304.278659431113
149
-1774.219284619651
100
AcDbLayout
  1
Model
 70
     1
 71
     0
 10
0.0
 20
0.0
 11
12.0
 21
9.0
 12
0.0
 22
0.0
 32
0.0
 14
4300.858198333138
 24
2184.577643549537
 34
0.0
 15
4384.858198333138
 25
2266.089280281142
 35
0.0
146
0.0
 13
0.0
 23
0.0
 33
0.0
 16
1.0
 26
0.0
 36
0.0
 17
0.0
 27
1.0
 37
0.0
 76
     0
330
18
331
2C20B
1001
ACAD_PSEXT
1000
JUST PDF 2
1000
JUST PDF 2
1000
JUST PDF 2 Port:
1000

1070
     0
  0
LAYOUT
  5
40CE
102
{ACAD_REACTORS
330
40CB
102
}
330
40CB
100
AcDbPlotSettings
  1

  2
なし
  4

  6

 40
0.0
 41
0.0
 42
0.0
 43
0.0
 44
0.0
 45
0.0
 46
0.0
 47
0.0
 48
0.0
 49
0.0
140
0.0
141
0.0
142
1.0
143
1.0
 70
   688
 72
     0
 73
     0
 74
     5
  7
Aiba.ctb
 75
    16
147
1.0
148
0.0
149
0.0
100
AcDbLayout
  1
ﾚｲｱｳﾄ1
 70
     0
 71
     1
 10
0.0
 20
0.0
 11
12.0
 21
9.0
 12
0.0
 22
0.0
 32
0.0
 14
1.000000000000000E+20
 24
1.000000000000000E+20
 34
1.000000000000000E+20
 15
-1.000000000000000E+20
 25
-1.000000000000000E+20
 35
-1.000000000000000E+20
146
0.0
 13
0.0
 23
0.0
 33
0.0
 16
1.0
 26
0.0
 36
0.0
 17
0.0
 27
1.0
 37
0.0
 76
     0
330
15
  0
MLINESTYLE
  5
1B
102
{ACAD_REACTORS
330
E
102
}
330
E
100
AcDbMlineStyle
  2
STANDARD
 70
     0
  3

 62
     0
 51
90.0
 52
90.0
 71
     2
 49
0.5
 62
   256
  6
BYLAYER
 49
-0.5
 62
   256
  6
BYLAYER
  0
ACDBPLACEHOLDER
  5
40CA
102
{ACAD_REACTORS
330
40C9
102
}
330
40C9
  0
SCALE
  5
296DD
102
{ACAD_REACTORS
330
296DC
102
}
330
296DC
100
AcDbScale
 70
     0
300
1:1
140
1.0
141
1.0
290
     1
  0
SCALE
  5
296DE
102
{ACAD_REACTORS
330
296DC
102
}
330
296DC
100
AcDbScale
 70
     0
300
1:2
140
1.0
141
2.0
290
     0
  0
SCALE
  5
296DF
102
{ACAD_REACTORS
330
296DC
102
}
330
296DC
100
AcDbScale
 70
     0
300
1:4
140
1.0
141
4.0
290
     0
  0
SCALE
  5
296E0
102
{ACAD_REACTORS
330
296DC
102
}
330
296DC
100
AcDbScale
 70
     0
300
1:5
140
1.0
141
5.0
290
     0
  0
SCALE
  5
296E1
102
{ACAD_REACTORS
330
296DC
102
}
330
296DC
100
AcDbScale
 70
     0
300
1:8
140
1.0
141
8.0
290
     0
  0
SCALE
  5
296E2
102
{ACAD_REACTORS
330
296DC
102
}
330
296DC
100
AcDbScale
 70
     0
300
1:10
140
1.0
141
10.0
290
     0
  0
SCALE
  5
296E3
102
{ACAD_REACTORS
330
296DC
102
}
330
296DC
100
AcDbScale
 70
     0
300
1:16
140
1.0
141
16.0
290
     0
  0
SCALE
  5
296E4
102
{ACAD_REACTORS
330
296DC
102
}
330
296DC
100
AcDbScale
 70
     0
300
1:20
140
1.0
141
20.0
290
     0
  0
SCALE
  5
296E5
102
{ACAD_REACTORS
330
296DC
102
}
330
296DC
100
AcDbScale
 70
     0
300
1:30
140
1.0
141
30.0
290
     0
  0
SCALE
  5
296E6
102
{ACAD_REACTORS
330
296DC
102
}
330
296DC
100
AcDbScale
 70
     0
300
1:40
140
1.0
141
40.0
290
     0
  0
SCALE
  5
296E7
102
{ACAD_REACTORS
330
296DC
102
}
330
296DC
100
AcDbScale
 70
     0
300
1:50
140
1.0
141
50.0
290
     0
  0
SCALE
  5
296E8
102
{ACAD_REACTORS
330
296DC
102
}
330
296DC
100
AcDbScale
 70
     0
300
1:100
140
1.0
141
100.0
290
     0
  0
SCALE
  5
296E9
102
{ACAD_REACTORS
330
296DC
102
}
330
296DC
100
AcDbScale
 70
     0
300
2:1
140
2.0
141
1.0
290
     0
  0
SCALE
  5
296EA
102
{ACAD_REACTORS
330
296DC
102
}
330
296DC
100
AcDbScale
 70
     0
300
4:1
140
4.0
141
1.0
290
     0
  0
SCALE
  5
296EB
102
{ACAD_REACTORS
330
296DC
102
}
330
296DC
100
AcDbScale
 70
     0
300
8:1
140
8.0
141
1.0
290
     0
  0
SCALE
  5
296EC
102
{ACAD_REACTORS
330
296DC
102
}
330
296DC
100
AcDbScale
 70
     0
300
10:1
140
10.0
141
1.0
290
     0
  0
SCALE
  5
296ED
102
{ACAD_REACTORS
330
296DC
102
}
330
296DC
100
AcDbScale
 70
     0
300
100:1
140
100.0
141
1.0
290
     0
  0
SCALE
  5
296EE
102
{ACAD_REACTORS
330
296DC
102
}
330
296DC
100
AcDbScale
 70
     0
300
1/128" = 1'-0"
140
0.0078125
141
12.0
290
     0
  0
SCALE
  5
296EF
102
{ACAD_REACTORS
330
296DC
102
}
330
296DC
100
AcDbScale
 70
     0
300
1/64" = 1'-0"
140
0.015625
141
12.0
290
     0
  0
SCALE
  5
296F0
102
{ACAD_REACTORS
330
296DC
102
}
330
296DC
100
AcDbScale
 70
     0
300
1/32" = 1'-0"
140
0.03125
141
12.0
290
     0
  0
SCALE
  5
296F1
102
{ACAD_REACTORS
330
296DC
102
}
330
296DC
100
AcDbScale
 70
     0
300
1/16" = 1'-0"
140
0.0625
141
12.0
290
     0
  0
SCALE
  5
296F2
102
{ACAD_REACTORS
330
296DC
102
}
330
296DC
100
AcDbScale
 70
     0
300
3/32" = 1'-0"
140
0.09375
141
12.0
290
     0
  0
SCALE
  5
296F3
102
{ACAD_REACTORS
330
296DC
102
}
330
296DC
100
AcDbScale
 70
     0
300
1/8" = 1'-0"
140
0.125
141
12.0
290
     0
  0
SCALE
  5
296F4
102
{ACAD_REACTORS
330
296DC
102
}
330
296DC
100
AcDbScale
 70
     0
300
3/16" = 1'-0"
140
0.1875
141
12.0
290
     0
  0
SCALE
  5
296F5
102
{ACAD_REACTORS
330
296DC
102
}
330
296DC
100
AcDbScale
 70
     0
300
1/4" = 1'-0"
140
0.25
141
12.0
290
     0
  0
SCALE
  5
296F6
102
{ACAD_REACTORS
330
296DC
102
}
330
296DC
100
AcDbScale
 70
     0
300
3/8" = 1'-0"
140
0.375
141
12.0
290
     0
  0
SCALE
  5
296F7
102
{ACAD_REACTORS
330
296DC
102
}
330
296DC
100
AcDbScale
 70
     0
300
1/2" = 1'-0"
140
0.5
141
12.0
290
     0
  0
SCALE
  5
296F8
102
{ACAD_REACTORS
330
296DC
102
}
330
296DC
100
AcDbScale
 70
     0
300
3/4" = 1'-0"
140
0.75
141
12.0
290
     0
  0
SCALE
  5
296F9
102
{ACAD_REACTORS
330
296DC
102
}
330
296DC
100
AcDbScale
 70
     0
300
1" = 1'-0"
140
1.0
141
12.0
290
     0
  0
SCALE
  5
296FA
102
{ACAD_REACTORS
330
296DC
102
}
330
296DC
100
AcDbScale
 70
     0
300
1-1/2" = 1'-0"
140
1.5
141
12.0
290
     0
  0
SCALE
  5
296FB
102
{ACAD_REACTORS
330
296DC
102
}
330
296DC
100
AcDbScale
 70
     0
300
3" = 1'-0"
140
3.0
141
12.0
290
     0
  0
SCALE
  5
296FC
102
{ACAD_REACTORS
330
296DC
102
}
330
296DC
100
AcDbScale
 70
     0
300
6" = 1'-0"
140
6.0
141
12.0
290
     0
  0
SCALE
  5
296FD
102
{ACAD_REACTORS
330
296DC
102
}
330
296DC
100
AcDbScale
 70
     0
300
1'-0" = 1'-0"
140
12.0
141
12.0
290
     0
  0
DICTIONARYVAR
  5
73F2
102
{ACAD_REACTORS
330
6377
102
}
330
6377
100
DictionaryVariables
280
     0
  1
1
  0
DICTIONARYVAR
  5
2B858
102
{ACAD_REACTORS
330
6377
102
}
330
6377
100
DictionaryVariables
280
     0
  1
0
  0
DICTIONARYVAR
  5
FE7D
102
{ACAD_REACTORS
330
6377
102
}
330
6377
100
DictionaryVariables
280
     0
  1

  0
DICTIONARYVAR
  5
6378
102
{ACAD_REACTORS
330
6377
102
}
330
6377
100
DictionaryVariables
280
     0
  1
96
  0
ENDSEC
  0
EOF
