  0
SECTION
  2
HEADER
  9
$ACADVER
  1
AC1015
  9
$ACADMAINTVER
 70
     6
  9
$DWGCODEPAGE
  3
ANSI_932
  9
$INSBASE
 10
0.0
 20
0.0
 30
0.0
  9
$EXTMIN
 10
3945.707741598579
 20
2180.220651250741
 30
0.0
  9
$EXTMAX
 10
4051.307741598579
 20
2266.300509827725
 30
0.0
  9
$LIMMIN
 10
0.0
 20
0.0
  9
$LIMMAX
 10
840.0
 20
594.0
  9
$ORTHOMODE
 70
     1
  9
$REGENMODE
 70
     1
  9
$FILLMODE
 70
     1
  9
$QTEXTMODE
 70
     0
  9
$MIRRTEXT
 70
     1
  9
$LTSCALE
 40
7.0
  9
$ATTMODE
 70
     0
  9
$TEXTSIZE
 40
6.0
  9
$TRACEWID
 40
1.0
  9
$TEXTSTYLE
  7
STANDARD
  9
$CLAYER
  8
寸法線
  9
$CELTYPE
  6
BYLAYER
  9
$CECOLOR
 62
   256
  9
$CELTSCALE
 40
1.0
  9
$DISPSILH
 70
     0
  9
$DIMSCALE
 40
1.0
  9
$DIMASZ
 40
4.0
  9
$DIMEXO
 40
3.0
  9
$DIMDLI
 40
7.149999999999999
  9
$DIMRND
 40
0.0
  9
$DIMDLE
 40
0.0
  9
$DIMEXE
 40
2.0
  9
$DIMTP
 40
0.0
  9
$DIMTM
 40
0.0
  9
$DIMTXT
 40
5.0
  9
$DIMCEN
 40
0.0
  9
$DIMTSZ
 40
0.0
  9
$DIMTOL
 70
     0
  9
$DIMLIM
 70
     0
  9
$DIMTIH
 70
     0
  9
$DIMTOH
 70
     0
  9
$DIMSE1
 70
     0
  9
$DIMSE2
 70
     0
  9
$DIMTAD
 70
     3
  9
$DIMZIN
 70
     8
  9
$DIMBLK
  1
OPEN
  9
$DIMASO
 70
     1
  9
$DIMSHO
 70
     0
  9
$DIMPOST
  1

  9
$DIMAPOST
  1

  9
$DIMALT
 70
     0
  9
$DIMALTD
 70
     2
  9
$DIMALTF
 40
25.4
  9
$DIMLFAC
 40
1.0
  9
$DIMTOFL
 70
     0
  9
$DIMTVP
 40
0.0
  9
$DIMTIX
 70
     0
  9
$DIMSOXD
 70
     0
  9
$DIMSAH
 70
     0
  9
$DIMBLK1
  1

  9
$DIMBLK2
  1

  9
$DIMSTYLE
  2
STANDARD
  9
$DIMCLRD
 70
     8
  9
$DIMCLRE
 70
     8
  9
$DIMCLRT
 70
     0
  9
$DIMTFAC
 40
1.0
  9
$DIMGAP
 40
2.0
  9
$DIMJUST
 70
     0
  9
$DIMSD1
 70
     0
  9
$DIMSD2
 70
     0
  9
$DIMTOLJ
 70
     1
  9
$DIMTZIN
 70
     0
  9
$DIMALTZ
 70
     0
  9
$DIMALTTZ
 70
     0
  9
$DIMUPT
 70
     1
  9
$DIMDEC
 70
     2
  9
$DIMTDEC
 70
     2
  9
$DIMALTU
 70
     2
  9
$DIMALTTD
 70
     2
  9
$DIMTXSTY
  7
STANDARD
  9
$DIMAUNIT
 70
     0
  9
$DIMADEC
 70
     2
  9
$DIMALTRND
 40
0.0
  9
$DIMAZIN
 70
     2
  9
$DIMDSEP
 70
    46
  9
$DIMATFIT
 70
     3
  9
$DIMFRAC
 70
     0
  9
$DIMLDRBLK
  1
OPEN
  9
$DIMLUNIT
 70
     2
  9
$DIMLWD
 70
    -2
  9
$DIMLWE
 70
    -2
  9
$DIMTMOVE
 70
     0
  9
$LUNITS
 70
     2
  9
$LUPREC
 70
     2
  9
$SKETCHINC
 40
0.1
  9
$FILLETRAD
 40
10.0
  9
$AUNITS
 70
     0
  9
$AUPREC
 70
     2
  9
$MENU
  1
ACAD
  9
$ELEVATION
 40
0.0
  9
$PELEVATION
 40
0.0
  9
$THICKNESS
 40
0.0
  9
$LIMCHECK
 70
     0
  9
$CHAMFERA
 40
0.0
  9
$CHAMFERB
 40
0.0
  9
$CHAMFERC
 40
0.0
  9
$CHAMFERD
 40
0.0
  9
$SKPOLY
 70
     0
  9
$TDCREATE
 40
2453703.481561227
  9
$TDUCREATE
 40
2453703.106561227
  9
$TDUPDATE
 40
2456821.569466806
  9
$TDUUPDATE
 40
2456821.194466806
  9
$TDINDWG
 40
0.4253529977
  9
$TDUSRTIMER
 40
2456821.194305255
  9
$USRTIMER
 70
     1
  9
$ANGBASE
 50
0.0
  9
$ANGDIR
 70
     0
  9
$PDMODE
 70
     3
  9
$PDSIZE
 40
0.0
  9
$PLINEWID
 40
0.0
  9
$SPLFRAME
 70
     0
  9
$SPLINETYPE
 70
     6
  9
$SPLINESEGS
 70
     8
  9
$HANDSEED
  5
2B901
  9
$SURFTAB1
 70
     6
  9
$SURFTAB2
 70
     6
  9
$SURFTYPE
 70
     6
  9
$SURFU
 70
     6
  9
$SURFV
 70
     6
  9
$UCSBASE
  2

  9
$UCSNAME
  2

  9
$UCSORG
 10
0.0
 20
0.0
 30
0.0
  9
$UCSXDIR
 10
1.0
 20
0.0
 30
0.0
  9
$UCSYDIR
 10
0.0
 20
1.0
 30
0.0
  9
$UCSORTHOREF
  2

  9
$UCSORTHOVIEW
 70
     0
  9
$UCSORGTOP
 10
0.0
 20
0.0
 30
0.0
  9
$UCSORGBOTTOM
 10
0.0
 20
0.0
 30
0.0
  9
$UCSORGLEFT
 10
0.0
 20
0.0
 30
0.0
  9
$UCSORGRIGHT
 10
0.0
 20
0.0
 30
0.0
  9
$UCSORGFRONT
 10
0.0
 20
0.0
 30
0.0
  9
$UCSORGBACK
 10
0.0
 20
0.0
 30
0.0
  9
$PUCSBASE
  2

  9
$PUCSNAME
  2

  9
$PUCSORG
 10
0.0
 20
0.0
 30
0.0
  9
$PUCSXDIR
 10
1.0
 20
0.0
 30
0.0
  9
$PUCSYDIR
 10
0.0
 20
1.0
 30
0.0
  9
$PUCSORTHOREF
  2

  9
$PUCSORTHOVIEW
 70
     0
  9
$PUCSORGTOP
 10
0.0
 20
0.0
 30
0.0
  9
$PUCSORGBOTTOM
 10
0.0
 20
0.0
 30
0.0
  9
$PUCSORGLEFT
 10
0.0
 20
0.0
 30
0.0
  9
$PUCSORGRIGHT
 10
0.0
 20
0.0
 30
0.0
  9
$PUCSORGFRONT
 10
0.0
 20
0.0
 30
0.0
  9
$PUCSORGBACK
 10
0.0
 20
0.0
 30
0.0
  9
$USERI1
 70
     0
  9
$USERI2
 70
     0
  9
$USERI3
 70
     0
  9
$USERI4
 70
     0
  9
$USERI5
 70
     0
  9
$USERR1
 40
0.0
  9
$USERR2
 40
0.0
  9
$USERR3
 40
0.0
  9
$USERR4
 40
0.0
  9
$USERR5
 40
0.0
  9
$WORLDVIEW
 70
     0
  9
$SHADEDGE
 70
     3
  9
$SHADEDIF
 70
    70
  9
$TILEMODE
 70
     1
  9
$MAXACTVP
 70
    16
  9
$PINSBASE
 10
0.0
 20
0.0
 30
0.0
  9
$PLIMCHECK
 70
     0
  9
$PEXTMIN
 10
1.000000000000000E+20
 20
1.000000000000000E+20
 30
1.000000000000000E+20
  9
$PEXTMAX
 10
-1.000000000000000E+20
 20
-1.000000000000000E+20
 30
-1.000000000000000E+20
  9
$PLIMMIN
 10
0.0
 20
0.0
  9
$PLIMMAX
 10
0.0
 20
0.0
  9
$UNITMODE
 70
     0
  9
$VISRETAIN
 70
     0
  9
$PLINEGEN
 70
     0
  9
$PSLTSCALE
 70
     0
  9
$TREEDEPTH
 70
  3020
  9
$CMLSTYLE
  2
STANDARD
  9
$CMLJUST
 70
     0
  9
$CMLSCALE
 40
1.0
  9
$PROXYGRAPHICS
 70
     1
  9
$MEASUREMENT
 70
     0
  9
$CELWEIGHT
370
    -1
  9
$ENDCAPS
280
     0
  9
$JOINSTYLE
280
     0
  9
$LWDISPLAY
290
     0
  9
$INSUNITS
 70
     0
  9
$HYPERLINKBASE
  1

  9
$STYLESHEET
  1
spax form.ctb
  9
$XEDIT
290
     1
  9
$CEPSNTYPE
380
     0
  9
$PSTYLEMODE
290
     1
  9
$FINGERPRINTGUID
  2
{C1CFCF3E-DF91-11D3-B30C-0060B0FA8DFC}
  9
$VERSIONGUID
  2
{564187A5-C6E9-4831-8665-F6AE7306D910}
  9
$EXTNAMES
290
     1
  9
$PSVPSCALE
 40
0.0
  9
$OLESTARTUP
290
     0
  0
ENDSEC
  0
SECTION
  2
CLASSES
  0
CLASS
  1
LWPOLYLINE
  2
AcDbPolyline
  3
ObjectDBX Classes
 90
        0
280
     0
281
     1
  0
CLASS
  1
ACDBDICTIONARYWDFLT
  2
AcDbDictionaryWithDefault
  3
ObjectDBX Classes
 90
        0
280
     0
281
     0
  0
CLASS
  1
ACDBPLACEHOLDER
  2
AcDbPlaceHolder
  3
ObjectDBX Classes
 90
        0
280
     0
281
     0
  0
CLASS
  1
LAYOUT
  2
AcDbLayout
  3
ObjectDBX Classes
 90
        0
280
     0
281
     0
  0
CLASS
  1
DICTIONARYVAR
  2
AcDbDictionaryVar
  3
ObjectDBX Classes
 90
        0
280
     0
281
     0
  0
CLASS
  1
LONG_TRANSACTION
  2
AcDbLongTransaction
  3
ObjectDBX Classes
 90
        0
280
     0
281
     0
  0
CLASS
  1
LWPOLYLINE
  2
AcDbPolyline
  3
ObjectDBX Classes
 90
        0
280
     0
281
     1
  0
CLASS
  1
HATCH
  2
AcDbHatch
  3
ObjectDBX Classes
 90
        0
280
     0
281
     1
  0
CLASS
  1
XRECORD
  2
AcDbXrecord
  3
ObjectDBX Classes
 90
        0
280
     0
281
     0
  0
CLASS
  1
MATERIAL
  2
AcDbMaterial
  3
ObjectDBX Classes
 90
     1153
280
     0
281
     0
  0
CLASS
  1
VISUALSTYLE
  2
AcDbVisualStyle
  3
ObjectDBX Classes
 90
     4095
280
     0
281
     0
  0
CLASS
  1
TABLESTYLE
  2
AcDbTableStyle
  3
ObjectDBX Classes
 90
     4095
280
     0
281
     0
  0
CLASS
  1
SCALE
  2
AcDbScale
  3
ObjectDBX Classes
 90
     1153
280
     0
281
     0
  0
CLASS
  1
MLEADERSTYLE
  2
AcDbMLeaderStyle
  3
ACDB_MLEADERSTYLE_CLASS
 90
     4095
280
     0
281
     0
  0
CLASS
  1
CELLSTYLEMAP
  2
AcDbCellStyleMap
  3
ObjectDBX Classes
 90
     1152
280
     0
281
     0
  0
CLASS
  1
SORTENTSTABLE
  2
AcDbSortentsTable
  3
ObjectDBX Classes
 90
        0
280
     0
281
     0
  0
CLASS
  1
RASTERVARIABLES
  2
AcDbRasterVariables
  3
ISM
 90
        0
280
     0
281
     0
  0
CLASS
  1
SUN
  2
AcDbSun
  3
SCENEOE
 90
     1153
280
     0
281
     0
  0
ENDSEC
  0
SECTION
  2
TABLES
  0
TABLE
  2
VPORT
  5
8
330
0
100
AcDbSymbolTable
 70
     1
  0
VPORT
  5
2B1D4
330
8
100
AcDbSymbolTableRecord
100
AcDbViewportTableRecord
  2
*Active
 70
     0
 10
0.0
 20
0.0
 11
1.0
 21
1.0
 12
3998.507741598579
 22
2223.260580539233
 13
0.0
 23
0.0
 14
1.0
 24
1.0
 15
20.0
 25
20.0
 16
0.0
 26
0.0
 36
1.0
 17
0.0
 27
0.0
 37
0.0
 40
87.80145574852364
 41
1.731829573934837
 42
50.0
 43
0.0
 44
0.0
 50
0.0
 51
0.0
 71
    16
 72
  2000
 73
     1
 74
     0
 75
     0
 76
     0
 77
     0
 78
     1
281
     0
 65
     1
110
0.0
120
0.0
130
0.0
111
1.0
121
0.0
131
0.0
112
0.0
122
1.0
132
0.0
 79
     0
146
0.0
  0
ENDTAB
  0
TABLE
  2
LTYPE
  5
5
330
0
100
AcDbSymbolTable
 70
     4
  0
LTYPE
  5
12
330
5
100
AcDbSymbolTableRecord
100
AcDbLinetypeTableRecord
  2
BYBLOCK
 70
     0
  3

 72
    65
 73
     0
 40
0.0
  0
LTYPE
  5
13
330
5
100
AcDbSymbolTableRecord
100
AcDbLinetypeTableRecord
  2
BYLAYER
 70
     0
  3

 72
    65
 73
     0
 40
0.0
  0
LTYPE
  5
14
330
5
100
AcDbSymbolTableRecord
100
AcDbLinetypeTableRecord
  2
CONTINUOUS
 70
     0
  3
Solid line
 72
    65
 73
     0
 40
0.0
  0
LTYPE
  5
176F8
330
5
100
AcDbSymbolTableRecord
100
AcDbLinetypeTableRecord
  2
CENTER
 70
     0
  3
____ _ ____ _ ____ _ ____ _ ____ _ ____ _ ____ 
 72
    65
 73
     4
 40
2.0
 49
1.25
 74
     0
 49
-0.25
 74
     0
 49
0.25
 74
     0
 49
-0.25
 74
     0
  0
ENDTAB
  0
TABLE
  2
LAYER
  5
2
102
{ACAD_XDICTIONARY
360
17708
102
}
330
0
100
AcDbSymbolTable
 70
     9
  0
LAYER
  5
F
102
{ACAD_XDICTIONARY
360
292FD
102
}
330
2
100
AcDbSymbolTableRecord
100
AcDbLayerTableRecord
  2
0
 70
     0
 62
     7
  6
CONTINUOUS
370
    -3
390
40CA
  0
LAYER
  5
4C
102
{ACAD_XDICTIONARY
360
292FF
102
}
330
2
100
AcDbSymbolTableRecord
100
AcDbLayerTableRecord
  2
寸法線
 70
     0
 62
     7
  6
CONTINUOUS
370
    -3
390
40CA
  0
LAYER
  5
40D4
102
{ACAD_XDICTIONARY
360
29303
102
}
330
2
100
AcDbSymbolTableRecord
100
AcDbLayerTableRecord
  2
文字
 70
     0
 62
     7
  6
CONTINUOUS
370
    -3
390
40CA
  0
LAYER
  5
176FE
102
{ACAD_XDICTIONARY
360
2930B
102
}
330
2
100
AcDbSymbolTableRecord
100
AcDbLayerTableRecord
  2
姿図
 70
     0
 62
     8
  6
CONTINUOUS
370
    -3
390
40CA
  0
ENDTAB
  0
TABLE
  2
STYLE
  5
3
330
0
100
AcDbSymbolTable
 70
     1
  0
STYLE
  5
10
330
3
100
AcDbSymbolTableRecord
100
AcDbTextStyleTableRecord
  2
STANDARD
 70
     0
 40
0.0
 41
1.0
 50
0.0
 71
     0
 42
6.0
  3
MONOTXT
  4
BIGFONT
  0
ENDTAB
  0
TABLE
  2
VIEW
  5
6
330
0
100
AcDbSymbolTable
 70
     1
  0
VIEW
  5
41
330
6
100
AcDbSymbolTableRecord
100
AcDbViewTableRecord
  2
CUT1
 70
     0
 40
612.7795527156796
 10
420.0000000000169
 20
306.3897763578398
 41
840.0000000000338
 11
0.0
 21
0.0
 31
1.0
 12
0.0
 22
0.0
 32
0.0
 42
50.0
 43
0.0
 44
0.0
 50
0.0
 71
     0
281
     0
 72
     0
  0
ENDTAB
  0
TABLE
  2
UCS
  5
7
330
0
100
AcDbSymbolTable
 70
     0
  0
ENDTAB
  0
TABLE
  2
APPID
  5
9
330
0
100
AcDbSymbolTable
 70
     7
  0
APPID
  5
11
330
9
100
AcDbSymbolTableRecord
100
AcDbRegAppTableRecord
  2
ACAD
 70
     0
  0
APPID
  5
28C11
330
9
100
AcDbSymbolTableRecord
100
AcDbRegAppTableRecord
  2
ACAD_MLEADERVER
 70
     0
  0
APPID
  5
292EA
330
9
100
AcDbSymbolTableRecord
100
AcDbRegAppTableRecord
  2
ACAD_EXEMPT_FROM_CAD_STANDARDS
 70
     0
  0
APPID
  5
292FC
330
9
100
AcDbSymbolTableRecord
100
AcDbRegAppTableRecord
  2
ACAD_PSEXT
 70
     0
  0
APPID
  5
29A41
330
9
100
AcDbSymbolTableRecord
100
AcDbRegAppTableRecord
  2
ACAD_DSTYLE_DIMJAG
 70
     0
  0
APPID
  5
29A42
330
9
100
AcDbSymbolTableRecord
100
AcDbRegAppTableRecord
  2
ACAD_DSTYLE_DIMTALN
 70
     0
  0
APPID
  5
29A43
330
9
100
AcDbSymbolTableRecord
100
AcDbRegAppTableRecord
  2
AcAecLayerStandard
 70
     0
  0
ENDTAB
  0
TABLE
  2
DIMSTYLE
  5
A
330
0
100
AcDbSymbolTable
 70
     1
100
AcDbDimStyleTable
  0
DIMSTYLE
105
1B3A
330
A
100
AcDbSymbolTableRecord
100
AcDbDimStyleTableRecord
  2
STANDARD
 70
     0
 41
4.0
 42
3.0
 43
7.149999999999999
 44
2.0
 73
     0
 74
     0
 77
     3
 78
     8
 79
     2
140
5.0
141
0.0
147
2.0
176
     8
177
     8
178
     0
179
     2
271
     2
272
     2
288
     1
340
10
341
49C3
342
49C3
  0
ENDTAB
  0
TABLE
  2
BLOCK_RECORD
  5
1
330
0
100
AcDbSymbolTable
 70
    17
  0
BLOCK_RECORD
  5
18
330
1
100
AcDbSymbolTableRecord
100
AcDbBlockTableRecord
  2
*MODEL_SPACE
340
40CD
  0
BLOCK_RECORD
  5
15
330
1
100
AcDbSymbolTableRecord
100
AcDbBlockTableRecord
  2
*PAPER_SPACE
340
40CE
  0
BLOCK_RECORD
  5
49C3
330
1
100
AcDbSymbolTableRecord
100
AcDbBlockTableRecord
  2
_OPEN
340
0
102
{BLKREFS
331
283B1
331
283B2
331
283C3
331
283C4
331
28B85
331
28B86
331
28B8E
331
28B8F
331
292DA
331
292DB
331
292E3
331
292E4
331
29A2A
331
29A2B
331
29A33
331
29A34
331
2A29B
331
2A29C
331
2A2A4
331
2A2A5
331
2AABF
331
2AAC0
331
2AADC
331
2AADD
331
2B1BC
331
2B1BD
331
2B1C5
331
2B1C6
331
2B8A4
331
2B8A5
331
2B8AD
331
2B8AE
102
}
  0
ENDTAB
  0
ENDSEC
  0
SECTION
  2
BLOCKS
  0
BLOCK
  5
52
330
18
100
AcDbEntity
  8
0
100
AcDbBlockBegin
  2
*MODEL_SPACE
 70
     0
 10
0.0
 20
0.0
 30
0.0
  3
*MODEL_SPACE
  1
*MODEL_SPACE
  0
ENDBLK
  5
53
330
18
100
AcDbEntity
  8
0
100
AcDbBlockEnd
  0
BLOCK
  5
50
330
15
100
AcDbEntity
 67
     1
  8
0
100
AcDbBlockBegin
  2
*PAPER_SPACE
 70
     0
 10
0.0
 20
0.0
 30
0.0
  3
*PAPER_SPACE
  1
*PAPER_SPACE
  0
ENDBLK
  5
51
330
15
100
AcDbEntity
 67
     1
  8
0
100
AcDbBlockEnd
  0
BLOCK
  5
49C7
330
49C3
100
AcDbEntity
  8
0
100
AcDbBlockBegin
  2
_OPEN
 70
     0
 10
0.0
 20
0.0
 30
0.0
  3
_OPEN
  1
_OPEN
  0
LINE
  5
49C4
330
49C3
100
AcDbEntity
  8
0
  6
ByBlock
 62
     0
100
AcDbLine
 10
-1.0
 20
0.1666666666666667
 30
0.0
 11
0.0
 21
0.0
 31
0.0
  0
LINE
  5
49C5
330
49C3
100
AcDbEntity
  8
0
  6
ByBlock
 62
     0
100
AcDbLine
 10
0.0
 20
0.0
 30
0.0
 11
-1.0
 21
-0.1666666666666667
 31
0.0
  0
LINE
  5
49C6
330
49C3
100
AcDbEntity
  8
0
  6
ByBlock
 62
     0
100
AcDbLine
 10
0.0
 20
0.0
 30
0.0
 11
-1.0
 21
0.0
 31
0.0
  0
ENDBLK
  5
49C8
330
49C3
100
AcDbEntity
  8
0
100
AcDbBlockEnd
  0
ENDSEC
  0
SECTION
  2
ENTITIES
  0
TEXT
  5
1E020
330
18
100
AcDbEntity
  8
文字
100
AcDbText
 10
1765.120522585116
 20
2862.659260679161
 30
0.0
 40
4.5
  1

100
AcDbText
  0
TEXT
  5
25FFE
330
18
100
AcDbEntity
  8
文字
100
AcDbText
 10
3610.46400429503
 20
2256.126268841174
 30
0.0
 40
4.0
  1

100
AcDbText
  0
TEXT
  5
25FFF
330
18
100
AcDbEntity
  8
文字
100
AcDbText
 10
3610.46400429503
 20
2262.215500980381
 30
0.0
 40
4.0
  1

100
AcDbText
  0
ARC
  5
2B204
330
18
100
AcDbEntity
  8
姿図
100
AcDbCircle
 10
4003.357889319674
 20
2217.197450340435
 30
0.0
 40
22.57532294063875
100
AcDbArc
 50
157.8650730096325
 51
178.3131705594427
  0
ELLIPSE
  5
2B205
330
18
100
AcDbEntity
  8
姿図
100
AcDbEllipse
 10
3996.974555849428
 20
2222.886008087378
 30
0.0
 11
16.14715164558163
 21
-0.4101358092258596
 31
0.0
210
0.0
220
0.0
230
1.0
 40
0.3537335355713295
 41
6.085581631244131
 42
9.530819255371117
  0
ELLIPSE
  5
2B206
330
18
100
AcDbEntity
  8
姿図
100
AcDbEllipse
 10
3996.974555849428
 20
2223.715368278269
 30
0.0
 11
16.56549654917292
 21
-0.4207617220392123
 31
0.0
210
0.0
220
0.0
230
1.0
 40
0.3448003519872257
 41
6.046470008658831
 42
9.770236737213507
  0
SPLINE
  5
2B3A1
330
18
100
AcDbEntity
  8
姿図
100
AcDbSpline
210
0.0
220
0.0
230
1.0
 70
    11
 71
     3
 72
    70
 73
    66
 74
     0
 42
0.000000001
 43
0.0000000001
 40
0.0
 40
0.0
 40
0.0
 40
0.0
 40
0.1325511003420694
 40
0.1325511003420694
 40
0.2651022006841388
 40
0.2651022006841388
 40
0.3976533010262082
 40
0.3976533010262082
 40
0.5302044013682776
 40
0.5302044013682776
 40
0.7397248520178367
 40
0.7397248520178367
 40
0.9492453026673957
 40
0.9492453026673957
 40
1.158765753316955
 40
1.158765753316955
 40
1.368286203966514
 40
1.368286203966514
 40
1.660455600340546
 40
1.660455600340546
 40
1.952624996714579
 40
1.952624996714579
 40
2.244794393088612
 40
2.244794393088612
 40
2.469780447170401
 40
2.469780447170401
 40
2.69476650125219
 40
2.69476650125219
 40
2.851074505126578
 40
2.851074505126578
 40
3.007382509000966
 40
3.007382509000966
 40
3.163690512875355
 40
3.163690512875355
 40
3.319998516749743
 40
3.319998516749743
 40
3.476306520624131
 40
3.476306520624131
 40
3.632614524498519
 40
3.632614524498519
 40
3.788922528372907
 40
3.788922528372907
 40
3.945230532247295
 40
3.945230532247295
 40
4.1996485318078
 40
4.1996485318078
 40
4.454066531368306
 40
4.454066531368306
 40
4.708484530928811
 40
4.708484530928811
 40
4.962902530489317
 40
4.962902530489317
 40
5.217320530049823
 40
5.217320530049823
 40
5.471738529610328
 40
5.471738529610328
 40
5.726156529170834
 40
5.726156529170834
 40
5.897880152543986
 40
5.897880152543986
 40
6.069603775917138
 40
6.069603775917138
 40
6.20406405414118
 40
6.20406405414118
 40
6.283185307179586
 40
6.283185307179586
 40
6.283185307179586
 40
6.283185307179586
 10
3980.306002151879
 20
2213.586696600733
 30
0.0
 10
3980.299731848151
 20
2213.362792224493
 30
0.0
 10
3980.326247279768
 20
2213.137461900925
 30
0.0
 10
3980.454583515163
 20
2212.664866132001
 30
0.0
 10
3980.557172021932
 20
2212.417455215894
 30
0.0
 10
3980.855208992159
 20
2211.900664923722
 30
0.0
 10
3981.05086278011
 20
2211.631749750782
 30
0.0
 10
3981.542196410804
 20
2211.085199785006
 30
0.0
 10
3981.837738595667
 20
2210.807795937573
 30
0.0
 10
3982.726019438738
 20
2210.098612741323
 30
0.0
 10
3983.391842953557
 20
2209.671226384699
 30
0.0
 10
3984.933976339737
 20
2208.870764996953
 30
0.0
 10
3985.809949869592
 20
2208.497497450645
 30
0.0
 10
3987.72676816148
 20
2207.831481215881
 30
0.0
 10
3988.767515373298
 20
2207.538622817815
 30
0.0
 10
3990.962593485831
 20
2207.050757218176
 30
0.0
 10
3992.116862224182
 20
2206.855710419622
 30
0.0
 10
3994.950713684989
 20
2206.518480296565
 30
0.0
 10
3996.657832490544
 20
2206.427944747495
 30
0.0
 10
4000.030591901861
 20
2206.467380753256
 30
0.0
 10
4001.695893231769
 20
2206.597387726978
 30
0.0
 10
4004.831811763862
 20
2207.06344620056
 30
0.0
 10
4006.302110203306
 20
2207.399701434953
 30
0.0
 10
4008.607656430534
 20
2208.141275561446
 30
0.0
 10
4009.511187074197
 20
2208.512836126651
 30
0.0
 10
4011.064753372501
 20
2209.319729681634
 30
0.0
 10
4011.714042127597
 20
2209.755314430212
 30
0.0
 10
4012.569659384928
 20
2210.500872669038
 30
0.0
 10
4012.850707037104
 20
2210.808049994463
 30
0.0
 10
4013.278410056703
 20
2211.403333800658
 30
0.0
 10
4013.425250070119
 20
2211.690431394282
 30
0.0
 10
4013.60983468102
 20
2212.238868062775
 30
0.0
 10
4013.649269246449
 20
2212.500438859929
 30
0.0
 10
4013.637618107586
 20
2213.030014926936
 30
0.0
 10
4013.586110732493
 20
2213.300169046338
 30
0.0
 10
4013.369893878641
 20
2213.875311657533
 30
0.0
 10
4013.203753563656
 20
2214.179875752718
 30
0.0
 10
4012.734549661909
 20
2214.811369343754
 30
0.0
 10
4012.431565235268
 20
2215.13745743246
 30
0.0
 10
4011.687757689188
 20
2215.787782259472
 30
0.0
 10
4011.247241238026
 20
2216.111845637161
 30
0.0
 10
4010.239971278913
 20
2216.73883328967
 30
0.0
 10
4009.673355775017
 20
2217.041791160471
 30
0.0
 10
4008.040561081195
 20
2217.791843106059
 30
0.0
 10
4006.88382257227
 20
2218.20964132995
 30
0.0
 10
4004.36528006727
 20
2218.911334318539
 30
0.0
 10
4003.003664011823
 20
2219.19540818912
 30
0.0
 10
4000.171951324621
 20
2219.606545431529
 30
0.0
 10
3998.702019392279
 20
2219.733651715971
 30
0.0
 10
3995.755733213179
 20
2219.821246166683
 30
0.0
 10
3994.279550720333
 20
2219.781730050104
 30
0.0
 10
3991.423286257033
 20
2219.539644036374
 30
0.0
 10
3990.043366748838
 20
2219.337024273944
 30
0.0
 10
3987.477541570164
 20
2218.786214920419
 30
0.0
 10
3986.291810961147
 20
2218.437842817925
 30
0.0
 10
3984.202809597577
 20
2217.629958193816
 30
0.0
 10
3983.300091974274
 20
2217.169956997436
 30
0.0
 10
3982.083535375442
 20
2216.357367786072
 30
0.0
 10
3981.673736791988
 20
2216.018873856365
 30
0.0
 10
3981.022562466782
 20
2215.348371822445
 30
0.0
 10
3980.781657011467
 20
2215.017290751641
 30
0.0
 10
3980.486082810163
 20
2214.455643520252
 30
0.0
 10
3980.401545391125
 20
2214.219092553177
 30
0.0
 10
3980.325343717006
 20
2213.853708384582
 30
0.0
 10
3980.309744967191
 20
2213.720347658802
 30
0.0
 10
3980.306002151879
 20
2213.586696600733
 30
0.0
  0
ELLIPSE
  5
2B3A2
330
18
100
AcDbEntity
  8
姿図
100
AcDbEllipse
 10
3996.974555849428
 20
2214.085314813573
 30
0.0
 11
-17.9280599133497
 21
0.5020642418964099
 31
0.0
210
0.0
220
0.0
230
1.0
 40
0.4416765280515081
 41
0.0
 42
6.283185307179586
  0
ELLIPSE
  5
2B3A3
330
18
100
AcDbEntity
  8
姿図
100
AcDbEllipse
 10
3996.974555849428
 20
2213.119904052286
 30
0.0
 11
-17.9280599133497
 21
0.5020642418964099
 31
0.0
210
0.0
220
0.0
230
1.0
 40
0.4417103177870492
 41
3.260304975124833
 42
6.284314280045355
  0
ELLIPSE
  5
2B3A4
330
18
100
AcDbEntity
  8
姿図
100
AcDbEllipse
 10
3996.974555849428
 20
2213.119904052286
 30
0.0
 11
-17.9280599133497
 21
0.5020642418964099
 31
0.0
210
0.0
220
0.0
230
1.0
 40
0.4417103177870492
 41
6.554795885100047
 42
6.617220685227315
  0
ARC
  5
2B3A5
330
18
100
AcDbEntity
  8
姿図
100
AcDbCircle
 10
3990.591222379182
 20
2217.197450340435
 30
0.0
 40
22.57532294063875
100
AcDbArc
 50
359.8120111135875
 51
19.60569653690396
  0
ARC
  5
2B501
330
18
100
AcDbEntity
  8
姿図
100
AcDbCircle
 10
3997.250112147313
 20
2210.719786763624
 30
0.0
 40
23.86843151733634
100
AcDbArc
 50
78.12404047176011
 51
94.74995000106222
  0
SPLINE
  5
2B502
330
18
100
AcDbEntity
  8
姿図
100
AcDbSpline
210
0.0
220
0.0
230
1.0
 70
     8
 71
     3
 72
     8
 73
     4
 74
     0
 42
0.000000001
 43
0.0000000001
 40
71.0
 40
71.0
 40
71.0
 40
71.0
 40
72.0
 40
72.0
 40
72.0
 40
72.0
 10
3995.024670819
 20
2264.761477996341
 30
0.0
 10
3995.024670819
 20
2264.761477996341
 30
0.0
 10
3995.887005779938
 20
2264.970519500247
 30
0.0
 10
3996.46185441275
 20
2265.022795379153
 30
0.0
  0
ARC
  5
2B503
330
18
100
AcDbEntity
  8
姿図
100
AcDbCircle
 10
3996.812428933823
 20
2205.703015130849
 30
0.0
 40
28.35676898832303
100
AcDbArc
 50
80.20625711297684
 51
96.42590072156787
  0
ARC
  5
2B504
330
18
100
AcDbEntity
  8
姿図
100
AcDbCircle
 10
3997.151741438182
 20
2212.217295882772
 30
0.0
 40
25.90263536002879
100
AcDbArc
 50
74.89723041579192
 51
103.6002725992935
  0
ARC
  5
2B505
330
18
100
AcDbEntity
  8
姿図
100
AcDbCircle
 10
3997.024909082522
 20
2218.824294283246
 30
0.0
 40
26.99898597568909
100
AcDbArc
 50
80.53548983359407
 51
101.9272810341393
  0
ARC
  5
2B506
330
18
100
AcDbEntity
  8
姿図
100
AcDbCircle
 10
3997.142569925296
 20
2220.37560808284
 30
0.0
 40
26.58464639976069
100
AcDbArc
 50
76.60595789986839
 51
100.9608874613418
  0
ARC
  5
2B507
330
18
100
AcDbEntity
  8
姿図
100
AcDbCircle
 10
3997.524980641344
 20
2239.598869343911
 30
0.0
 40
17.33520475928148
100
AcDbArc
 50
71.35276458398913
 51
109.4717975942549
  0
ARC
  5
2B508
330
18
100
AcDbEntity
  8
姿図
100
AcDbCircle
 10
3996.578878814726
 20
2258.960498884904
 30
0.0
 40
5.471879688903019
100
AcDbArc
 50
91.34825162536043
 51
106.152695611932
  0
ARC
  5
2B509
330
18
100
AcDbEntity
  8
姿図
100
AcDbCircle
 10
3997.165962006772
 20
2244.777430922816
 30
0.0
 40
7.301646032248016
100
AcDbArc
 50
90.43254343242783
 51
124.3684461405218
  0
ARC
  5
2B50A
330
18
100
AcDbEntity
  8
姿図
100
AcDbCircle
 10
3996.542807442856
 20
2251.440961161235
 30
0.0
 40
4.56286325777215
100
AcDbArc
 50
89.48926165255462
 51
137.5831759731892
  0
ARC
  5
2B50B
330
18
100
AcDbEntity
  8
姿図
100
AcDbCircle
 10
3997.640755948959
 20
2244.874637371739
 30
0.0
 40
9.055480311453088
100
AcDbArc
 50
60.34291278487574
 51
106.7829454507887
  0
LINE
  5
2B50C
330
18
100
AcDbEntity
  8
姿図
100
AcDbLine
 10
3995.03105835341
 20
2253.252002065629
 30
0.0
 11
3995.435885641002
 21
2252.657950161891
 31
0.0
  0
ARC
  5
2B50D
330
18
100
AcDbEntity
  8
姿図
100
AcDbCircle
 10
3994.815724700492
 20
2252.958213230014
 30
0.0
 40
0.6890264887612664
100
AcDbArc
 50
240.8216921979822
 51
334.1651458234123
  0
ARC
  5
2B50E
330
18
100
AcDbEntity
  8
姿図
100
AcDbCircle
 10
3994.867849454864
 20
2253.490409187061
 30
0.0
 40
0.9127834094668069
100
AcDbArc
 50
232.8158063709313
 51
301.708005943709
  0
ARC
  5
2B50F
330
18
100
AcDbEntity
  8
姿図
100
AcDbCircle
 10
3997.024909082522
 20
2218.824294283246
 30
0.0
 40
26.6389859756891
100
AcDbArc
 50
80.53548983359407
 51
101.9272810341393
  0
ARC
  5
2B510
330
18
100
AcDbEntity
  8
姿図
100
AcDbCircle
 10
3997.151741438182
 20
2212.217295882772
 30
0.0
 40
26.08263536002879
100
AcDbArc
 50
74.89723041579192
 51
103.6002725992935
  0
ARC
  5
2B511
330
18
100
AcDbEntity
  8
姿図
100
AcDbCircle
 10
3997.524980641344
 20
2239.598869343911
 30
0.0
 40
17.04720475928148
100
AcDbArc
 50
69.64678306274077
 51
110.8157935129394
  0
ARC
  5
2B512
330
18
100
AcDbEntity
  8
姿図
100
AcDbCircle
 10
3996.80351555891
 20
2258.630609439485
 30
0.0
 40
6.141332273846576
100
AcDbArc
 50
93.2436521284612
 51
106.6502285820056
  0
ARC
  5
2B513
330
18
100
AcDbEntity
  8
姿図
100
AcDbCircle
 10
4003.357889319674
 20
2217.197450340435
 30
0.0
 40
22.57532294063875
100
AcDbArc
 50
142.1300901191505
 51
153.8561626608887
  0
SPLINE
  5
2B514
330
18
100
AcDbEntity
  8
姿図
100
AcDbSpline
210
0.0
220
0.0
230
1.0
 70
     8
 71
     3
 72
     8
 73
     4
 74
     0
 42
0.000000001
 43
0.0000000001
 40
0.0
 40
0.0
 40
0.0
 40
0.0
 40
1.0
 40
1.0
 40
1.0
 40
1.0
 10
3989.110923260407
 20
2249.690459929934
 30
0.0
 10
3988.952111248688
 20
2249.233929656497
 30
0.0
 10
3988.376580486969
 20
2246.316526336184
 30
0.0
 10
3988.396424236969
 20
2245.403713836185
 30
0.0
  0
SPLINE
  5
2B515
330
18
100
AcDbEntity
  8
姿図
100
AcDbSpline
210
0.0
220
0.0
230
1.0
 70
     8
 71
     3
 72
     8
 73
     4
 74
     0
 42
0.000000001
 43
0.0000000001
 40
1.0
 40
1.0
 40
1.0
 40
1.0
 40
2.0
 40
2.0
 40
2.0
 40
2.0
 10
3988.396424236969
 20
2245.403713836185
 30
0.0
 10
3988.813204998688
 20
2245.542620086185
 30
0.0
 10
3990.202391522126
 20
2246.038713836184
 30
0.0
 10
3992.087795819001
 20
2246.475276336184
 30
0.0
  0
SPLINE
  5
2B516
330
18
100
AcDbEntity
  8
姿図
100
AcDbSpline
210
0.0
220
0.0
230
1.0
 70
     8
 71
     3
 72
     8
 73
     4
 74
     0
 42
0.000000001
 43
0.0000000001
 40
2.0
 40
2.0
 40
2.0
 40
2.0
 40
3.0
 40
3.0
 40
3.0
 40
3.0
 10
3992.087795819001
 20
2246.475276336184
 30
0.0
 10
3992.048108319001
 20
2246.911838836184
 30
0.0
 10
3992.048108319001
 20
2247.864586883059
 30
0.0
 10
3992.048108319001
 20
2247.864586883059
 30
0.0
  0
SPLINE
  5
2B517
330
18
100
AcDbEntity
  8
姿図
100
AcDbSpline
210
0.0
220
0.0
230
1.0
 70
     8
 71
     3
 72
     8
 73
     4
 74
     0
 42
0.000000001
 43
0.0000000001
 40
3.0
 40
3.0
 40
3.0
 40
3.0
 40
4.0
 40
4.0
 40
4.0
 40
4.0
 10
3992.048108319001
 20
2247.864586883059
 30
0.0
 10
3992.048108319001
 20
2247.864586883059
 30
0.0
 10
3991.452671795563
 20
2247.983649383059
 30
0.0
 10
3990.519953533844
 20
2248.559118133059
 30
0.0
  0
SPLINE
  5
2B518
330
18
100
AcDbEntity
  8
姿図
100
AcDbSpline
210
0.0
220
0.0
230
1.0
 70
     8
 71
     3
 72
     8
 73
     4
 74
     0
 42
0.000000001
 43
0.0000000001
 40
4.0
 40
4.0
 40
4.0
 40
4.0
 40
5.0
 40
5.0
 40
5.0
 40
5.0
 10
3990.519953533844
 20
2248.559118133059
 30
0.0
 10
3989.785610760407
 20
2249.055335906497
 30
0.0
 10
3989.349048260407
 20
2249.412523406497
 30
0.0
 10
3989.110923260407
 20
2249.690459929934
 30
0.0
  0
SPLINE
  5
2B519
330
18
100
AcDbEntity
  8
姿図
100
AcDbSpline
210
0.0
220
0.0
230
1.0
 70
     8
 71
     3
 72
     8
 73
     4
 74
     0
 42
0.000000001
 43
0.0000000001
 40
25.0
 40
25.0
 40
25.0
 40
25.0
 40
26.0
 40
26.0
 40
26.0
 40
26.0
 10
3982.993839276032
 20
2227.202902312747
 30
0.0
 10
3982.993839276032
 20
2227.202902312747
 30
0.0
 10
3982.810098553376
 20
2228.200298797122
 30
0.0
 10
3982.941315350251
 20
2229.59146969556
 30
0.0
  0
SPLINE
  5
2B51A
330
18
100
AcDbEntity
  8
姿図
100
AcDbSpline
210
0.0
220
0.0
230
1.0
 70
     8
 71
     3
 72
     8
 73
     4
 74
     0
 42
0.000000001
 43
0.0000000001
 40
26.0
 40
26.0
 40
26.0
 40
26.0
 40
27.0
 40
27.0
 40
27.0
 40
27.0
 10
3982.941315350251
 20
2229.59146969556
 30
0.0
 10
3982.967608319001
 20
2230.825130828372
 30
0.0
 10
3982.967608319001
 20
2230.956347625247
 30
0.0
 10
3982.941315350251
 20
2231.271367156497
 30
0.0
  0
SPLINE
  5
2B51B
330
18
100
AcDbEntity
  8
姿図
100
AcDbSpline
210
0.0
220
0.0
230
1.0
 70
     8
 71
     3
 72
     8
 73
     4
 74
     0
 42
0.000000001
 43
0.0000000001
 40
27.0
 40
27.0
 40
27.0
 40
27.0
 40
28.0
 40
28.0
 40
28.0
 40
28.0
 10
3982.941315350251
 20
2231.271367156497
 30
0.0
 10
3982.921843670563
 20
2231.50539938306
 30
0.0
 10
3982.521371990876
 20
2234.736085906497
 30
0.0
 10
3982.495141033844
 20
2237.255870086185
 30
0.0
  0
SPLINE
  5
2B51C
330
18
100
AcDbEntity
  8
姿図
100
AcDbSpline
210
0.0
220
0.0
230
1.0
 70
     8
 71
     3
 72
     8
 73
     4
 74
     0
 42
0.000000001
 43
0.0000000001
 40
28.0
 40
28.0
 40
28.0
 40
28.0
 40
29.0
 40
29.0
 40
29.0
 40
29.0
 10
3982.495141033844
 20
2237.255870086185
 30
0.0
 10
3982.468910076813
 20
2239.77577828931
 30
0.0
 10
3982.521371990876
 20
2241.586768523684
 30
0.0
 10
3982.521371990876
 20
2241.586768523684
 30
0.0
  0
SPLINE
  5
2B51D
330
18
100
AcDbEntity
  8
姿図
100
AcDbSpline
210
0.0
220
0.0
230
1.0
 70
    24
 71
     3
 72
     8
 73
     4
 74
     0
 42
0.000000001
 43
0.0000000001
 40
29.0
 40
29.0
 40
29.0
 40
29.0
 40
30.0
 40
30.0
 40
30.0
 40
30.0
 10
3982.521371990876
 20
2241.586768523684
 30
0.0
 10
3982.521371990876
 20
2241.586768523684
 30
0.0
 10
3982.363862225251
 20
2241.586768523684
 30
0.0
 10
3982.363862225251
 20
2241.586768523684
 30
0.0
  0
SPLINE
  5
2B51E
330
18
100
AcDbEntity
  8
姿図
100
AcDbSpline
210
0.0
220
0.0
230
1.0
 70
    24
 71
     3
 72
     8
 73
     4
 74
     0
 42
0.000000001
 43
0.0000000001
 40
30.0
 40
30.0
 40
30.0
 40
30.0
 40
31.0
 40
31.0
 40
31.0
 40
31.0
 10
3982.363862225251
 20
2241.586768523684
 30
0.0
 10
3982.363862225251
 20
2241.586768523684
 30
0.0
 10
3982.363862225251
 20
2242.479241179934
 30
0.0
 10
3982.363862225251
 20
2242.479241179934
 30
0.0
  0
SPLINE
  5
2B51F
330
18
100
AcDbEntity
  8
姿図
100
AcDbSpline
210
0.0
220
0.0
230
1.0
 70
    24
 71
     3
 72
     8
 73
     4
 74
     0
 42
0.000000001
 43
0.0000000001
 40
31.0
 40
31.0
 40
31.0
 40
31.0
 40
32.0
 40
32.0
 40
32.0
 40
32.0
 10
3982.363862225251
 20
2242.479241179934
 30
0.0
 10
3982.363862225251
 20
2242.479241179934
 30
0.0
 10
3981.550206463532
 20
2242.584165008059
 30
0.0
 10
3981.550206463532
 20
2242.584165008059
 30
0.0
  0
SPLINE
  5
2B520
330
18
100
AcDbEntity
  8
姿図
100
AcDbSpline
210
0.0
220
0.0
230
1.0
 70
     8
 71
     3
 72
    14
 73
    10
 74
     0
 42
0.000000001
 43
0.0000000001
 40
32.0
 40
32.0
 40
32.0
 40
32.0
 40
33.0
 40
33.0
 40
33.0
 40
34.0
 40
34.0
 40
34.0
 40
35.0
 40
35.0
 40
35.0
 40
35.0
 10
3981.550206463532
 20
2242.584165008059
 30
0.0
 10
3981.550206463532
 20
2242.584165008059
 30
0.0
 10
3981.628961346345
 20
2242.37431735181
 30
0.0
 10
3981.340234783845
 20
2242.400486297121
 30
0.0
 10
3981.051508221345
 20
2242.426655242434
 30
0.0
 10
3981.077739178376
 20
2243.45034469556
 30
0.0
 10
3981.077739178376
 20
2243.739071258059
 30
0.0
 10
3981.077739178376
 20
2244.027797820559
 30
0.0
 10
3981.077739178376
 20
2244.841639617434
 30
0.0
 10
3981.261417889313
 20
2245.077780242435
 30
0.0
  0
SPLINE
  5
2B521
330
18
100
AcDbEntity
  8
姿図
100
AcDbSpline
210
0.0
220
0.0
230
1.0
 70
     8
 71
     3
 72
     8
 73
     4
 74
     0
 42
0.000000001
 43
0.0000000001
 40
35.0
 40
35.0
 40
35.0
 40
35.0
 40
36.0
 40
36.0
 40
36.0
 40
36.0
 10
3981.261417889313
 20
2245.077780242435
 30
0.0
 10
3981.445220623688
 20
2245.313920867435
 30
0.0
 10
3981.602730389313
 20
2245.340213836184
 30
0.0
 10
3981.602730389313
 20
2245.051487273684
 30
0.0
  0
SPLINE
  5
2B522
330
18
100
AcDbEntity
  8
姿図
100
AcDbSpline
210
0.0
220
0.0
230
1.0
 70
     8
 71
     3
 72
     8
 73
     4
 74
     0
 42
0.000000001
 43
0.0000000001
 40
36.0
 40
36.0
 40
36.0
 40
36.0
 40
37.0
 40
37.0
 40
37.0
 40
37.0
 10
3981.602730389313
 20
2245.051487273684
 30
0.0
 10
3981.891456951813
 20
2245.077780242435
 30
0.0
 10
3982.390155194001
 20
2245.077780242435
 30
0.0
 10
3982.390155194001
 20
2245.077780242435
 30
0.0
  0
SPLINE
  5
2B523
330
18
100
AcDbEntity
  8
姿図
100
AcDbSpline
210
0.0
220
0.0
230
1.0
 70
    24
 71
     3
 72
     8
 73
     4
 74
     0
 42
0.000000001
 43
0.0000000001
 40
37.0
 40
37.0
 40
37.0
 40
37.0
 40
38.0
 40
38.0
 40
38.0
 40
38.0
 10
3982.390155194001
 20
2245.077780242435
 30
0.0
 10
3982.390155194001
 20
2245.077780242435
 30
0.0
 10
3982.495141033844
 20
2246.075176726809
 30
0.0
 10
3982.495141033844
 20
2246.075176726809
 30
0.0
  0
SPLINE
  5
2B524
330
18
100
AcDbEntity
  8
姿図
100
AcDbSpline
210
0.0
220
0.0
230
1.0
 70
     8
 71
     3
 72
     8
 73
     4
 74
     0
 42
0.000000001
 43
0.0000000001
 40
38.0
 40
38.0
 40
38.0
 40
38.0
 40
39.0
 40
39.0
 40
39.0
 40
39.0
 10
3982.495141033844
 20
2246.075176726809
 30
0.0
 10
3982.495141033844
 20
2246.075176726809
 30
0.0
 10
3982.993839276032
 20
2246.04888375806
 30
0.0
 10
3983.098825115876
 20
2245.891498015872
 30
0.0
  0
SPLINE
  5
2B525
330
18
100
AcDbEntity
  8
姿図
100
AcDbSpline
210
0.0
220
0.0
230
1.0
 70
     8
 71
     3
 72
     8
 73
     4
 74
     0
 42
0.000000001
 43
0.0000000001
 40
39.0
 40
39.0
 40
39.0
 40
39.0
 40
40.0
 40
40.0
 40
40.0
 40
40.0
 10
3983.098825115876
 20
2245.891498015872
 30
0.0
 10
3983.203810955719
 20
2245.733988250247
 30
0.0
 10
3983.203810955719
 20
2246.075176726809
 30
0.0
 10
3983.203810955719
 20
2246.075176726809
 30
0.0
  0
SPLINE
  5
2B526
330
18
100
AcDbEntity
  8
姿図
100
AcDbSpline
210
0.0
220
0.0
230
1.0
 70
     8
 71
     3
 72
    11
 73
     7
 74
     0
 42
0.000000001
 43
0.0000000001
 40
40.0
 40
40.0
 40
40.0
 40
40.0
 40
41.0
 40
41.0
 40
41.0
 40
42.0
 40
42.0
 40
42.0
 40
42.0
 10
3983.203810955719
 20
2246.075176726809
 30
0.0
 10
3983.203810955719
 20
2246.075176726809
 30
0.0
 10
3983.387551678376
 20
2246.12776266431
 30
0.0
 10
3983.387551678376
 20
2245.970252898685
 30
0.0
 10
3983.387551678376
 20
2245.812743133059
 30
0.0
 10
3983.387551678376
 20
2244.65783688306
 30
0.0
 10
3983.387551678376
 20
2244.65783688306
 30
0.0
  0
SPLINE
  5
2B527
330
18
100
AcDbEntity
  8
姿図
100
AcDbSpline
210
0.0
220
0.0
230
1.0
 70
     8
 71
     3
 72
     8
 73
     4
 74
     0
 42
0.000000001
 43
0.0000000001
 40
42.0
 40
42.0
 40
42.0
 40
42.0
 40
43.0
 40
43.0
 40
43.0
 40
43.0
 10
3983.387551678376
 20
2244.65783688306
 30
0.0
 10
3983.427859295563
 20
2244.667882781497
 30
0.0
 10
3983.528008221344
 20
2244.804432586185
 30
0.0
 10
3983.759746014313
 20
2244.703725554934
 30
0.0
  0
SPLINE
  5
2B528
330
18
100
AcDbEntity
  8
姿図
100
AcDbSpline
210
0.0
220
0.0
230
1.0
 70
     8
 71
     3
 72
     8
 73
     4
 74
     0
 42
0.000000001
 43
0.0000000001
 40
43.0
 40
43.0
 40
43.0
 40
43.0
 40
44.0
 40
44.0
 40
44.0
 40
44.0
 10
3983.759746014313
 20
2244.703725554934
 30
0.0
 10
3983.991607830719
 20
2244.602770476809
 30
0.0
 10
3984.082268963532
 20
2244.280309539309
 30
0.0
 10
3984.203253826813
 20
2244.11907907056
 30
0.0
  0
SPLINE
  5
2B529
330
18
100
AcDbEntity
  8
姿図
100
AcDbSpline
210
0.0
220
0.0
230
1.0
 70
     8
 71
     3
 72
     8
 73
     4
 74
     0
 42
0.000000001
 43
0.0000000001
 40
44.0
 40
44.0
 40
44.0
 40
44.0
 40
45.0
 40
45.0
 40
45.0
 40
45.0
 10
3984.203253826813
 20
2244.11907907056
 30
0.0
 10
3984.324176678376
 20
2243.957848601809
 30
0.0
 10
3984.334284588532
 20
2243.947678679934
 30
0.0
 10
3984.324176678376
 20
2243.857017547122
 30
0.0
  0
SPLINE
  5
2B52A
330
18
100
AcDbEntity
  8
姿図
100
AcDbSpline
210
0.0
220
0.0
230
1.0
 70
     8
 71
     3
 72
     8
 73
     4
 74
     0
 42
0.000000001
 43
0.0000000001
 40
45.0
 40
45.0
 40
45.0
 40
45.0
 40
46.0
 40
46.0
 40
46.0
 40
46.0
 10
3984.324176678376
 20
2243.857017547122
 30
0.0
 10
3984.314130779938
 20
2243.766356414309
 30
0.0
 10
3984.173054119782
 20
2243.685741179935
 30
0.0
 10
3984.18310001822
 20
2243.615047820559
 30
0.0
  0
SPLINE
  5
2B52B
330
18
100
AcDbEntity
  8
姿図
100
AcDbSpline
210
0.0
220
0.0
230
1.0
 70
     8
 71
     3
 72
     8
 73
     4
 74
     0
 42
0.000000001
 43
0.0000000001
 40
46.0
 40
46.0
 40
46.0
 40
46.0
 40
47.0
 40
47.0
 40
47.0
 40
47.0
 10
3984.18310001822
 20
2243.615047820559
 30
0.0
 10
3984.193207928376
 20
2243.544602508059
 30
0.0
 10
3984.142792401032
 20
2243.111264617434
 30
0.0
 10
3984.142792401032
 20
2243.111264617434
 30
0.0
  0
SPLINE
  5
2B52C
330
18
100
AcDbEntity
  8
姿図
100
AcDbSpline
210
0.0
220
0.0
230
1.0
 70
     8
 71
     3
 72
     8
 73
     4
 74
     0
 42
0.000000001
 43
0.0000000001
 40
47.0
 40
47.0
 40
47.0
 40
47.0
 40
48.0
 40
48.0
 40
48.0
 40
48.0
 10
3984.142792401032
 20
2243.111264617434
 30
0.0
 10
3984.142792401032
 20
2243.111264617434
 30
0.0
 10
3984.031915447907
 20
2242.919648406497
 30
0.0
 10
3983.739592205719
 20
2242.959956023685
 30
0.0
  0
SPLINE
  5
2B52D
330
18
100
AcDbEntity
  8
姿図
100
AcDbSpline
210
0.0
220
0.0
230
1.0
 70
    24
 71
     3
 72
     8
 73
     4
 74
     0
 42
0.000000001
 43
0.0000000001
 40
48.0
 40
48.0
 40
48.0
 40
48.0
 40
49.0
 40
49.0
 40
49.0
 40
49.0
 10
3983.739592205719
 20
2242.959956023685
 30
0.0
 10
3983.317831136889
 20
2242.993000842321
 30
0.0
 10
3983.317831136889
 20
2242.993000842321
 30
0.0
 10
3983.317831136889
 20
2242.993000842321
 30
0.0
  0
SPLINE
  5
2B52E
330
18
100
AcDbEntity
  8
姿図
100
AcDbSpline
210
0.0
220
0.0
230
1.0
 70
    24
 71
     3
 72
     8
 73
     4
 74
     0
 42
0.000000001
 43
0.0000000001
 40
49.0
 40
49.0
 40
49.0
 40
49.0
 40
50.0
 40
50.0
 40
50.0
 40
50.0
 10
3983.317831136889
 20
2242.993000842321
 30
0.0
 10
3983.317831136889
 20
2242.993000842321
 30
0.0
 10
3983.373059567298
 20
2242.021421696376
 30
0.0
 10
3983.373059567298
 20
2242.021421696376
 30
0.0
  0
SPLINE
  5
2B52F
330
18
100
AcDbEntity
  8
姿図
100
AcDbSpline
210
0.0
220
0.0
230
1.0
 70
     8
 71
     3
 72
     8
 73
     4
 74
     0
 42
0.000000001
 43
0.0000000001
 40
50.0
 40
50.0
 40
50.0
 40
50.0
 40
51.0
 40
51.0
 40
51.0
 40
51.0
 10
3983.373059567298
 20
2242.021421696376
 30
0.0
 10
3983.373059567298
 20
2242.021421696376
 30
0.0
 10
3984.293976971344
 20
2243.121186492434
 30
0.0
 10
3984.807930096345
 20
2243.474033172122
 30
0.0
  0
SPLINE
  5
2B530
330
18
100
AcDbEntity
  8
姿図
100
AcDbSpline
210
0.0
220
0.0
230
1.0
 70
     8
 71
     3
 72
     8
 73
     4
 74
     0
 42
0.000000001
 43
0.0000000001
 40
51.0
 40
51.0
 40
51.0
 40
51.0
 40
52.0
 40
52.0
 40
52.0
 40
52.0
 10
3984.807930096345
 20
2243.474033172122
 30
0.0
 10
3984.666853436188
 20
2243.635263640872
 30
0.0
 10
3984.656807537751
 20
2243.655479461185
 30
0.0
 10
3984.656807537751
 20
2243.655479461185
 30
0.0
  0
SPLINE
  5
2B531
330
18
100
AcDbEntity
  8
姿図
100
AcDbSpline
210
0.0
220
0.0
230
1.0
 70
    24
 71
     3
 72
     8
 73
     4
 74
     0
 42
0.000000001
 43
0.0000000001
 40
52.0
 40
52.0
 40
52.0
 40
52.0
 40
53.0
 40
53.0
 40
53.0
 40
53.0
 10
3984.656807537751
 20
2243.655479461185
 30
0.0
 10
3984.656807537751
 20
2243.655479461185
 30
0.0
 10
3984.646699627594
 20
2244.108909148684
 30
0.0
 10
3984.646699627594
 20
2244.108909148684
 30
0.0
  0
SPLINE
  5
2B532
330
18
100
AcDbEntity
  8
姿図
100
AcDbSpline
210
0.0
220
0.0
230
1.0
 70
     8
 71
     3
 72
     8
 73
     4
 74
     0
 42
0.000000001
 43
0.0000000001
 40
53.0
 40
53.0
 40
53.0
 40
53.0
 40
54.0
 40
54.0
 40
54.0
 40
54.0
 10
3984.646699627594
 20
2244.108909148684
 30
0.0
 10
3984.646699627594
 20
2244.108909148684
 30
0.0
 10
3984.707161053376
 20
2244.199694304934
 30
0.0
 10
3984.767622479157
 20
2244.139170867435
 30
0.0
  0
SPLINE
  5
2B533
330
18
100
AcDbEntity
  8
姿図
100
AcDbSpline
210
0.0
220
0.0
230
1.0
 70
     8
 71
     3
 72
     8
 73
     4
 74
     0
 42
0.000000001
 43
0.0000000001
 40
54.0
 40
54.0
 40
54.0
 40
54.0
 40
55.0
 40
55.0
 40
55.0
 40
55.0
 10
3984.767622479157
 20
2244.139170867435
 30
0.0
 10
3984.828145916657
 20
2244.078771453372
 30
0.0
 10
3985.130453045563
 20
2243.746140593997
 30
0.0
 10
3985.130453045563
 20
2243.746140593997
 30
0.0
  0
SPLINE
  5
2B534
330
18
100
AcDbEntity
  8
姿図
100
AcDbSpline
210
0.0
220
0.0
230
1.0
 70
    24
 71
     3
 72
     8
 73
     4
 74
     0
 42
0.000000001
 43
0.0000000001
 40
55.0
 40
55.0
 40
55.0
 40
55.0
 40
56.0
 40
56.0
 40
56.0
 40
56.0
 10
3985.130453045563
 20
2243.746140593997
 30
0.0
 10
3985.130453045563
 20
2243.746140593997
 30
0.0
 10
3985.241392010407
 20
2243.877233367434
 30
0.0
 10
3985.241392010407
 20
2243.877233367434
 30
0.0
  0
SPLINE
  5
2B535
330
18
100
AcDbEntity
  8
姿図
100
AcDbSpline
210
0.0
220
0.0
230
1.0
 70
     8
 71
     3
 72
     8
 73
     4
 74
     0
 42
0.000000001
 43
0.0000000001
 40
60.0
 40
60.0
 40
60.0
 40
60.0
 40
61.0
 40
61.0
 40
61.0
 40
61.0
 10
3987.210450115876
 20
2250.810887664309
 30
0.0
 10
3987.308614666657
 20
2251.829616179934
 30
0.0
 10
3987.812707928376
 20
2255.328441375247
 30
0.0
 10
3988.492108319001
 20
2257.91538424634
 30
0.0
  0
SPLINE
  5
2B536
330
18
100
AcDbEntity
  8
姿図
100
AcDbSpline
210
0.0
220
0.0
230
1.0
 70
     8
 71
     3
 72
     8
 73
     4
 74
     0
 42
0.000000001
 43
0.0000000001
 40
61.0
 40
61.0
 40
61.0
 40
61.0
 40
62.0
 40
62.0
 40
62.0
 40
62.0
 10
3988.492108319001
 20
2257.91538424634
 30
0.0
 10
3989.171508709626
 20
2260.502203093997
 30
0.0
 10
3990.164502361969
 20
2263.063039031497
 30
0.0
 10
3990.295099041657
 20
2263.428846160403
 30
0.0
  0
SPLINE
  5
2B537
330
18
100
AcDbEntity
  8
姿図
100
AcDbSpline
210
0.0
220
0.0
230
1.0
 70
     8
 71
     3
 72
     8
 73
     4
 74
     0
 42
0.000000001
 43
0.0000000001
 40
62.0
 40
62.0
 40
62.0
 40
62.0
 40
63.0
 40
63.0
 40
63.0
 40
63.0
 10
3990.295099041657
 20
2263.428846160403
 30
0.0
 10
3990.425757733063
 20
2263.794653289309
 30
0.0
 10
3990.763969647126
 20
2263.83229440259
 30
0.0
 10
3991.131265057282
 20
2263.87303610181
 30
0.0
  0
SPLINE
  5
2B538
330
18
100
AcDbEntity
  8
姿図
100
AcDbSpline
210
0.0
220
0.0
230
1.0
 70
     8
 71
     3
 72
     8
 73
     4
 74
     0
 42
0.000000001
 43
0.0000000001
 40
63.0
 40
63.0
 40
63.0
 40
63.0
 40
64.0
 40
64.0
 40
64.0
 40
64.0
 10
3991.131265057282
 20
2263.87303610181
 30
0.0
 10
3991.601561932282
 20
2263.925373992434
 30
0.0
 10
3992.490003826813
 20
2263.637887664309
 30
0.0
 10
3992.646831463532
 20
2263.690163543216
 30
0.0
  0
SPLINE
  5
2B539
330
18
100
AcDbEntity
  8
姿図
100
AcDbSpline
210
0.0
220
0.0
230
1.0
 70
     8
 71
     3
 72
    14
 73
    10
 74
     0
 42
0.000000001
 43
0.0000000001
 40
64.0
 40
64.0
 40
64.0
 40
64.0
 40
65.0
 40
65.0
 40
65.0
 40
66.0
 40
66.0
 40
66.0
 40
67.0
 40
67.0
 40
67.0
 40
67.0
 10
3992.646831463532
 20
2263.690163543216
 30
0.0
 10
3992.672938397126
 20
2264.291119109622
 30
0.0
 10
3992.568448651032
 20
2265.414709441653
 30
0.0
 10
3992.881979901032
 20
2265.414709441653
 30
0.0
 10
3993.195511151032
 20
2265.414709441653
 30
0.0
 10
3993.117128338532
 20
2265.258005828372
 30
0.0
 10
3993.117128338532
 20
2265.101178191653
 30
0.0
 10
3993.117128338532
 20
2264.944412566653
 30
0.0
 10
3993.195511151032
 20
2263.951418914309
 30
0.0
 10
3993.195511151032
 20
2263.951418914309
 30
0.0
  0
SPLINE
  5
2B53A
330
18
100
AcDbEntity
  8
姿図
100
AcDbSpline
210
0.0
220
0.0
230
1.0
 70
     8
 71
     3
 72
     8
 73
     4
 74
     0
 42
0.000000001
 43
0.0000000001
 40
67.0
 40
67.0
 40
67.0
 40
67.0
 40
68.0
 40
68.0
 40
68.0
 40
68.0
 10
3993.195511151032
 20
2263.951418914309
 30
0.0
 10
3993.195511151032
 20
2263.951418914309
 30
0.0
 10
3993.613656170563
 20
2264.317288054935
 30
0.0
 10
3994.502098065094
 20
2264.683157195559
 30
0.0
  0
SPLINE
  5
2B53B
330
18
100
AcDbEntity
  8
姿図
100
AcDbSpline
210
0.0
220
0.0
230
1.0
 70
     8
 71
     3
 72
    14
 73
    10
 74
     0
 42
0.000000001
 43
0.0000000001
 40
68.0
 40
68.0
 40
68.0
 40
68.0
 40
69.0
 40
69.0
 40
69.0
 40
70.0
 40
70.0
 40
70.0
 40
71.0
 40
71.0
 40
71.0
 40
71.0
 10
3994.502098065094
 20
2264.683157195559
 30
0.0
 10
3994.528267010407
 20
2265.101178191653
 30
0.0
 10
3994.475991131501
 20
2266.094171843997
 30
0.0
 10
3994.763353436188
 20
2266.094171843997
 30
0.0
 10
3995.050839764313
 20
2266.094171843997
 30
0.0
 10
3994.998563885406
 20
2265.937344207278
 30
0.0
 10
3994.998563885406
 20
2265.702195769778
 30
0.0
 10
3994.998563885406
 20
2265.46698532056
 30
0.0
 10
3995.024670819
 20
2264.761477996341
 30
0.0
 10
3995.024670819
 20
2264.761477996341
 30
0.0
  0
ARC
  5
2B53C
330
18
100
AcDbEntity
  8
姿図
100
AcDbCircle
 10
3989.02533957413
 20
2226.42871903866
 30
0.0
 40
5.794802346187666
100
AcDbArc
 50
119.015692092419
 51
147.9017269467024
  0
ARC
  5
2B53D
330
18
100
AcDbEntity
  8
姿図
100
AcDbCircle
 10
3994.647529640145
 20
2217.996159753647
 30
0.0
 40
15.91746646332639
100
AcDbArc
 50
93.63344175986113
 51
121.9914343462439
  0
ARC
  5
2B53E
330
18
100
AcDbEntity
  8
姿図
100
AcDbCircle
 10
3987.173663472774
 20
2227.666116854636
 30
0.0
 40
4.205412943753292
100
AcDbArc
 50
137.1536766610032
 51
186.3238021850829
  0
ARC
  5
2B53F
330
18
100
AcDbEntity
  8
姿図
100
AcDbCircle
 10
3991.619857152102
 20
2222.992473952301
 30
0.0
 40
10.65114100617826
100
AcDbArc
 50
108.8291533387881
 51
134.9849815097699
  0
ARC
  5
2B540
330
18
100
AcDbEntity
  8
姿図
100
AcDbCircle
 10
3987.700776686976
 20
2230.675690474896
 30
0.0
 40
4.83971780337326
100
AcDbArc
 50
133.963920072144
 51
170.840546265385
  0
ARC
  5
2B541
330
18
100
AcDbEntity
  8
姿図
100
AcDbCircle
 10
3993.438720271276
 20
2223.855573634522
 30
0.0
 40
13.74529216795379
100
AcDbArc
 50
99.96213688778852
 51
131.4432276129821
  0
LINE
  5
2B542
330
18
100
AcDbEntity
  8
姿図
100
AcDbLine
 10
3995.135698150295
 20
2236.474479439802
 30
0.0
 11
3995.102751291392
 21
2235.179151803989
 31
0.0
  0
LINE
  5
2B543
330
18
100
AcDbEntity
  8
姿図
100
AcDbLine
 10
3988.755822099187
 20
2235.303033869569
 30
0.0
 11
3988.730361574875
 21
2233.992405837626
 31
0.0
  0
LINE
  5
2B544
330
18
100
AcDbEntity
  8
姿図
100
AcDbLine
 10
3988.892115387255
 20
2235.349563810205
 30
0.0
 11
3988.866151289198
 21
2234.043304024697
 31
0.0
  0
ARC
  5
2B545
330
18
100
AcDbEntity
  8
姿図
100
AcDbCircle
 10
3993.106128186063
 20
2221.084666461988
 30
0.0
 40
13.62927251268403
100
AcDbArc
 50
101.6191646447263
 51
108.7268299157164
  0
ARC
  5
2B546
330
18
100
AcDbEntity
  8
姿図
100
AcDbCircle
 10
3996.634311695652
 20
2209.329491800519
 30
0.0
 40
25.87705149707777
100
AcDbArc
 50
98.03653202735242
 51
104.0295974476309
  0
ARC
  5
2B547
330
18
100
AcDbEntity
  8
姿図
100
AcDbCircle
 10
3989.724415880569
 20
2274.952494942935
 30
0.0
 40
40.13533750000914
100
AcDbArc
 50
274.7050686475696
 51
277.7010870989286
  0
ARC
  5
2B548
330
18
100
AcDbEntity
  8
姿図
100
AcDbCircle
 10
3993.570265952643
 20
2221.423670898164
 30
0.0
 40
14.69066322907383
100
AcDbArc
 50
101.6513119512568
 51
109.130528385932
  0
ARC
  5
2B549
330
18
100
AcDbEntity
  8
姿図
100
AcDbCircle
 10
3995.960249540454
 20
2213.078637134251
 30
0.0
 40
23.35561321167296
100
AcDbArc
 50
97.8834796779995
 51
103.259381772706
  0
ARC
  5
2B54A
330
18
100
AcDbEntity
  8
姿図
100
AcDbCircle
 10
3996.121775107727
 20
2216.51238490883
 30
0.0
 40
19.98643454519643
100
AcDbArc
 50
92.82796783641928
 51
99.69259792309356
  0
LINE
  5
2B54B
330
18
100
AcDbEntity
  8
姿図
100
AcDbLine
 10
3987.130646665094
 20
2234.628146354186
 30
0.0
 11
3987.112193419503
 21
2233.290904939196
 31
0.0
  0
LINE
  5
2B54C
330
18
100
AcDbEntity
  8
姿図
100
AcDbLine
 10
3983.135180456365
 20
2230.892037963666
 30
0.0
 11
3983.135180456365
 21
2229.689402453889
 31
0.0
  0
LINE
  5
2B54D
330
18
100
AcDbEntity
  8
姿図
100
AcDbLine
 10
3983.384396606704
 20
2230.869392205429
 30
0.0
 11
3983.395707237348
 21
2230.134057692521
 31
0.0
  0
ARC
  5
2B54E
330
18
100
AcDbEntity
  8
姿図
100
AcDbCircle
 10
3989.215952337414
 20
2228.135880907017
 30
0.0
 40
6.440429043078867
100
AcDbArc
 50
108.9438959803166
 51
154.8854103977389
  0
ARC
  5
2B54F
330
18
100
AcDbEntity
  8
姿図
100
AcDbCircle
 10
3988.966296064801
 20
2228.660599141268
 30
0.0
 40
6.243494891248547
100
AcDbArc
 50
107.0981770184415
 51
159.0592581893318
  0
LINE
  5
2B550
330
18
100
AcDbEntity
  8
姿図
100
AcDbLine
 10
3983.135180456365
 20
2230.892037963666
 30
0.0
 11
3983.384396606704
 21
2230.869392205429
 31
0.0
  0
ARC
  5
2B551
330
18
100
AcDbEntity
  8
姿図
100
AcDbCircle
 10
3990.441839019475
 20
2225.707027258653
 30
0.0
 40
8.321452490610396
100
AcDbArc
 50
129.8401163891946
 51
151.4081270048953
  0
ARC
  5
2B552
330
18
100
AcDbEntity
  8
姿図
100
AcDbCircle
 10
3988.96564884326
 20
2227.910807419109
 30
0.0
 40
5.690408274763003
100
AcDbArc
 50
109.0089422507594
 51
132.6441520739014
  0
ARC
  5
2B553
330
18
100
AcDbEntity
  8
姿図
100
AcDbCircle
 10
3989.637290517232
 20
2236.509540576126
 30
0.0
 40
7.684584313784696
100
AcDbArc
 50
113.1060635940749
 51
142.4422239073754
  0
ARC
  5
2B554
330
18
100
AcDbEntity
  8
姿図
100
AcDbCircle
 10
3995.15899039932
 20
2226.638907779421
 30
0.0
 40
18.96862403315867
100
AcDbArc
 50
101.2911751080621
 51
116.7488075271049
  0
LINE
  5
2B555
330
18
100
AcDbEntity
  8
姿図
100
AcDbLine
 10
3982.390155194001
 20
2245.077780242435
 30
0.0
 11
3982.363862225251
 21
2242.479241179934
 31
0.0
  0
LINE
  5
2B556
330
18
100
AcDbEntity
  8
姿図
100
AcDbLine
 10
3981.602730389313
 20
2245.051487273684
 30
0.0
 11
3981.550206463532
 21
2242.584165008059
 31
0.0
  0
LINE
  5
2B557
330
18
100
AcDbEntity
  8
姿図
100
AcDbLine
 10
3981.579571309161
 20
2243.963584698596
 30
0.0
 11
3982.247246587262
 21
2243.940320675717
 31
0.0
  0
LINE
  5
2B558
330
18
100
AcDbEntity
  8
姿図
100
AcDbLine
 10
3982.247246587262
 20
2243.940320675717
 30
0.0
 11
3982.270325796479
 21
2244.654373840702
 31
0.0
  0
LINE
  5
2B559
330
18
100
AcDbEntity
  8
姿図
100
AcDbLine
 10
3982.270325796479
 20
2244.654373840702
 30
0.0
 11
3981.59492016682
 21
2244.684600458411
 31
0.0
  0
LINE
  5
2B55A
330
18
100
AcDbEntity
  8
姿図
100
AcDbLine
 10
3983.387551678376
 20
2244.65783688306
 30
0.0
 11
3983.317831136889
 21
2242.993000842321
 31
0.0
  0
ARC
  5
2B55B
330
18
100
AcDbEntity
  8
姿図
100
AcDbCircle
 10
3986.364507375232
 20
2241.95624971395
 30
0.0
 40
2.174074389492293
100
AcDbArc
 50
124.5846265695583
 51
135.7229484200006
  0
ARC
  5
2B55C
330
18
100
AcDbEntity
  8
姿図
100
AcDbCircle
 10
3992.527574198685
 20
2234.133673488171
 30
0.0
 40
12.16656936040578
100
AcDbArc
 50
120.0620188068539
 51
126.7889442656441
  0
ARC
  5
2B55D
330
18
100
AcDbEntity
  8
姿図
100
AcDbCircle
 10
3985.505292585101
 20
2245.635052095082
 30
0.0
 40
1.343157947365103
100
AcDbArc
 50
313.6782427030365
 51
344.9611396807979
  0
ARC
  5
2B55E
330
18
100
AcDbEntity
  8
姿図
100
AcDbCircle
 10
3987.617528064018
 20
2242.523050985214
 30
0.0
 40
2.446527445037582
100
AcDbArc
 50
108.3841773672833
 51
118.9609150740025
  0
ARC
  5
2B55F
330
18
100
AcDbEntity
  8
姿図
100
AcDbCircle
 10
3990.535553892605
 20
2237.040574828449
 30
0.0
 40
8.632379147507207
100
AcDbArc
 50
104.3475444510762
 51
115.3037709219152
  0
ARC
  5
2B560
330
18
100
AcDbEntity
  8
姿図
100
AcDbCircle
 10
3988.622582504552
 20
2245.242598338876
 30
0.0
 40
1.820665326432491
100
AcDbArc
 50
178.617117758602
 51
192.6231261899864
  0
ARC
  5
2B561
330
18
100
AcDbEntity
  8
姿図
100
AcDbCircle
 10
4046.127140260563
 20
2243.682334925306
 30
0.0
 40
59.34637850583563
100
AcDbArc
 50
173.1011023855655
 51
178.4510389818543
  0
ARC
  5
2B562
330
18
100
AcDbEntity
  8
姿図
100
AcDbCircle
 10
4016.630407431029
 20
2242.350630159041
 30
0.0
 40
28.48148714661508
100
AcDbArc
 50
155.6660590133418
 51
165.0660546530572
  0
ARC
  5
2B563
330
18
100
AcDbEntity
  8
姿図
100
AcDbCircle
 10
4000.419546200828
 20
2249.720956502314
 30
0.0
 40
10.67389565927747
100
AcDbArc
 50
144.3463591481201
 51
155.8581663282403
  0
ARC
  5
2B564
330
18
100
AcDbEntity
  8
姿図
100
AcDbCircle
 10
3996.807244488149
 20
2253.354959836587
 30
0.0
 40
10.96282618659023
100
AcDbArc
 50
102.1351952757639
 51
109.2685643810454
  0
ARC
  5
2B565
330
18
100
AcDbEntity
  8
姿図
100
AcDbCircle
 10
3997.785951061559
 20
2264.380946761345
 30
0.0
 40
3.297729771971056
100
AcDbArc
 50
174.7419248562935
 51
185.3614170438439
  0
ARC
  5
2B566
330
18
100
AcDbEntity
  8
姿図
100
AcDbCircle
 10
3987.187481476526
 20
2264.028762039728
 30
0.0
 40
7.871366429208836
100
AcDbArc
 50
1.365722849775119
 51
5.341181684558656
  0
ARC
  5
2B567
330
18
100
AcDbEntity
  8
姿図
100
AcDbCircle
 10
4012.34185157892
 20
2257.387561864516
 30
0.0
 40
20.64606372466649
100
AcDbArc
 50
164.9003244817366
 51
183.4293730745962
  0
ARC
  5
2B568
330
18
100
AcDbEntity
  8
姿図
100
AcDbCircle
 10
3993.505130505733
 20
2263.820023841379
 30
0.0
 40
0.3363462650242364
100
AcDbArc
 50
157.0047897508202
 51
200.238491519499
  0
ARC
  5
2B569
330
18
100
AcDbEntity
  8
姿図
100
AcDbCircle
 10
3993.500211817836
 20
2253.569413352171
 30
0.0
 40
5.354064230733493
100
AcDbArc
 50
217.8962279342277
 51
254.2401560289748
  0
LINE
  5
2B56A
330
18
100
AcDbEntity
  8
姿図
100
AcDbLine
 10
3992.048108319001
 20
2247.864586883059
 30
0.0
 11
3991.983624822883
 21
2249.129472449996
 31
0.0
  0
ARC
  5
2B56B
330
18
100
AcDbEntity
  8
姿図
100
AcDbCircle
 10
3994.190967425823
 20
2248.905075231961
 30
0.0
 40
2.218719332907516
100
AcDbArc
 50
121.1251399641634
 51
174.1952847466447
  0
LINE
  5
2B56C
330
18
100
AcDbEntity
  8
姿図
100
AcDbLine
 10
3993.218611922579
 20
2256.093182865938
 30
0.0
 11
3993.17424028718
 21
2254.518700010914
 31
0.0
  0
LINE
  5
2B56D
330
18
100
AcDbEntity
  8
姿図
100
AcDbLine
 10
3993.17424028718
 20
2254.518700010914
 30
0.0
 11
3993.009968673679
 21
2254.202468199696
 31
0.0
  0
LINE
  5
2B56E
330
18
100
AcDbEntity
  8
姿図
100
AcDbLine
 10
3993.009968673679
 20
2254.202468199696
 30
0.0
 11
3993.023725956995
 21
2252.444629151647
 31
0.0
  0
ARC
  5
2B56F
330
18
100
AcDbEntity
  8
姿図
100
AcDbCircle
 10
4008.646356234869
 20
2253.882259322335
 30
0.0
 40
15.68863784102488
100
AcDbArc
 50
185.2576811854621
 51
190.5437002023205
  0
LINE
  5
2B570
330
18
100
AcDbEntity
  8
姿図
100
AcDbLine
 10
3995.022445097769
 20
2253.751350009627
 30
0.0
 11
3995.03105835341
 21
2253.252002065629
 31
0.0
  0
LINE
  5
2B571
330
18
100
AcDbEntity
  8
姿図
100
AcDbLine
 10
3994.092203687002
 20
2253.432800549037
 30
0.0
 11
3994.032791161699
 21
2253.180316980596
 31
0.0
  0
LINE
  5
2B572
330
18
100
AcDbEntity
  8
姿図
100
AcDbLine
 10
3994.032791161699
 20
2253.180316980596
 30
0.0
 11
3994.479804211991
 21
2252.356619573447
 31
0.0
  0
ARC
  5
2B573
330
18
100
AcDbEntity
  8
姿図
100
AcDbCircle
 10
3994.85141248253
 20
2252.733266981999
 30
0.0
 40
1.032349362678307
100
AcDbArc
 50
80.4636561566025
 51
137.3425886584268
  0
LINE
  5
2B574
330
18
100
AcDbEntity
  8
姿図
100
AcDbLine
 10
3994.479804211991
 20
2252.356619573447
 30
0.0
 11
3994.58316453629
 21
2252.623512417595
 31
0.0
  0
ARC
  5
2B575
330
18
100
AcDbEntity
  8
姿図
100
AcDbCircle
 10
3997.640755948959
 20
2244.874637371739
 30
0.0
 40
9.055480311453088
100
AcDbArc
 50
113.479996230463
 51
120.667134343862
  0
LINE
  5
2B576
330
18
100
AcDbEntity
  8
姿図
100
AcDbLine
 10
3981.654043801906
 20
2244.286429512454
 30
0.0
 11
3982.173160072986
 21
2244.268817373365
 31
0.0
  0
LINE
  5
2B577
330
18
100
AcDbEntity
  8
姿図
100
AcDbLine
 10
3992.646831463532
 20
2263.690163543216
 30
0.0
 11
3993.189549977128
 21
2263.703672047404
 31
0.0
  0
ARC
  5
2B578
330
18
100
AcDbEntity
  8
姿図
100
AcDbCircle
 10
3995.291429174817
 20
2262.169615564344
 30
0.0
 40
2.060179311386563
100
AcDbArc
 50
96.54474250754198
 51
112.5115656931259
  0
ARC
  5
2B579
330
18
100
AcDbEntity
  8
姿図
100
AcDbCircle
 10
3997.383143527913
 20
2206.182565304069
 30
0.0
 40
30.00706843485315
100
AcDbArc
 50
94.3133279251343
 51
106.4527785740698
  0
ARC
  5
2B57A
330
18
100
AcDbEntity
  8
姿図
100
AcDbCircle
 10
3990.023965262485
 20
2235.920972792125
 30
0.0
 40
8.01865105716256
100
AcDbArc
 50
113.9969872917232
 51
151.6481519903314
  0
ARC
  5
2B57B
330
18
100
AcDbEntity
  8
姿図
100
AcDbCircle
 10
3995.15899039932
 20
2226.638907779421
 30
0.0
 40
18.60862403315867
100
AcDbArc
 50
101.2911751080621
 51
116.7488075271049
  0
LINE
  5
2B57C
330
18
100
AcDbEntity
  8
姿図
100
AcDbLine
 10
3983.373059567298
 20
2242.021421696376
 30
0.0
 11
3983.301923304188
 21
2241.550171320387
 31
0.0
  0
ARC
  5
2B57D
330
18
100
AcDbEntity
  8
姿図
100
AcDbCircle
 10
3987.700776686976
 20
2230.675690474896
 30
0.0
 40
5.019717803373259
100
AcDbArc
 50
133.963920072144
 51
164.6147139170505
  0
ARC
  5
2B57E
330
18
100
AcDbEntity
  8
姿図
100
AcDbCircle
 10
3993.438720271276
 20
2223.855573634522
 30
0.0
 40
13.92529216795379
100
AcDbArc
 50
99.96213688778852
 51
131.4432276129821
  0
LINE
  5
2B57F
330
18
100
AcDbEntity
  8
姿図
100
AcDbLine
 10
3983.098825115876
 20
2245.891498015872
 30
0.0
 11
3982.96716758219
 21
2239.728908095661
 31
0.0
  0
LINE
  5
2B580
330
18
100
AcDbEntity
  8
姿図
100
AcDbLine
 10
3982.983354987213
 20
2240.486603734005
 30
0.0
 11
3983.54542027703
 21
2241.19376442349
 31
0.0
  0
ARC
  5
2B581
330
18
100
AcDbEntity
  8
姿図
100
AcDbCircle
 10
3995.35983211867
 20
2260.698550956917
 30
0.0
 40
3.805988655204647
100
AcDbArc
 50
103.237631313924
 51
125.1451841017907
  0
ARC
  5
2B582
330
18
100
AcDbEntity
  8
姿図
100
AcDbCircle
 10
3995.517836101534
 20
2215.030118920164
 30
0.0
 40
19.47765596462921
100
AcDbArc
 50
90.71837676345274
 51
112.1242565673989
  0
ARC
  5
2B584
330
18
100
AcDbEntity
  8
姿図
100
AcDbCircle
 10
3990.591222379182
 20
2217.197450340435
 30
0.0
 40
22.57532294063875
100
AcDbArc
 50
23.7623422869685
 51
37.86990988084951
  0
SPLINE
  5
2B585
330
18
100
AcDbEntity
  8
姿図
100
AcDbSpline
210
0.0
220
0.0
230
1.0
 70
     8
 71
     3
 72
     8
 73
     4
 74
     0
 42
0.000000001
 43
0.0000000001
 40
0.0
 40
0.0
 40
0.0
 40
0.0
 40
1.0
 40
1.0
 40
1.0
 40
1.0
 10
4005.860908611969
 20
2249.134710906496
 30
0.0
 10
4005.662471111969
 20
2248.936149383059
 30
0.0
 10
4004.987659588532
 20
2248.320993133059
 30
0.0
 10
4003.300816815094
 20
2247.72568063306
 30
0.0
  0
SPLINE
  5
2B586
330
18
100
AcDbEntity
  8
姿図
100
AcDbSpline
210
0.0
220
0.0
230
1.0
 70
     8
 71
     3
 72
     8
 73
     4
 74
     0
 42
0.000000001
 43
0.0000000001
 40
1.0
 40
1.0
 40
1.0
 40
1.0
 40
2.0
 40
2.0
 40
2.0
 40
2.0
 10
4003.300816815094
 20
2247.72568063306
 30
0.0
 10
4003.280973065095
 20
2247.467587859622
 30
0.0
 10
4003.300816815094
 20
2246.296682586184
 30
0.0
 10
4003.300816815094
 20
2246.237151336184
 30
0.0
  0
SPLINE
  5
2B587
330
18
100
AcDbEntity
  8
姿図
100
AcDbSpline
210
0.0
220
0.0
230
1.0
 70
     8
 71
     3
 72
     8
 73
     4
 74
     0
 42
0.000000001
 43
0.0000000001
 40
2.0
 40
2.0
 40
2.0
 40
2.0
 40
3.0
 40
3.0
 40
3.0
 40
3.0
 10
4003.300816815094
 20
2246.237151336184
 30
0.0
 10
4003.538941815094
 20
2246.217307586185
 30
0.0
 10
4006.059346111969
 20
2245.364026336184
 30
0.0
 10
4006.317314861969
 20
2245.185432586184
 30
0.0
  0
SPLINE
  5
2B588
330
18
100
AcDbEntity
  8
姿図
100
AcDbSpline
210
0.0
220
0.0
230
1.0
 70
     8
 71
     3
 72
    11
 73
     7
 74
     0
 42
0.000000001
 43
0.0000000001
 40
3.0
 40
3.0
 40
3.0
 40
3.0
 40
4.0
 40
4.0
 40
4.0
 40
5.0
 40
5.0
 40
5.0
 40
5.0
 10
4006.317314861969
 20
2245.185432586184
 30
0.0
 10
4006.396813885407
 20
2245.383870086184
 30
0.0
 10
4006.376846111969
 20
2246.078401336184
 30
0.0
 10
4006.158564861969
 20
2247.328681609622
 30
0.0
 10
4005.940283611969
 20
2248.578961883059
 30
0.0
 10
4005.96012736197
 20
2248.678304656497
 30
0.0
 10
4005.860908611969
 20
2249.134710906496
 30
0.0
  0
SPLINE
  5
2B589
330
18
100
AcDbEntity
  8
姿図
100
AcDbSpline
210
0.0
220
0.0
230
1.0
 70
     8
 71
     3
 72
     8
 73
     4
 74
     0
 42
0.000000001
 43
0.0000000001
 40
72.0
 40
72.0
 40
72.0
 40
72.0
 40
73.0
 40
73.0
 40
73.0
 40
73.0
 10
3996.46185441275
 20
2265.022795379153
 30
0.0
 10
3996.46185441275
 20
2265.571537078372
 30
0.0
 10
3996.488023358063
 20
2266.068002898684
 30
0.0
 10
3996.488023358063
 20
2266.068002898684
 30
0.0
  0
SPLINE
  5
2B58A
330
18
100
AcDbEntity
  8
姿図
100
AcDbSpline
210
0.0
220
0.0
230
1.0
 70
     8
 71
     3
 72
    14
 73
    10
 74
     0
 42
0.000000001
 43
0.0000000001
 40
73.0
 40
73.0
 40
73.0
 40
73.0
 40
74.0
 40
74.0
 40
74.0
 40
75.0
 40
75.0
 40
75.0
 40
76.0
 40
76.0
 40
76.0
 40
76.0
 10
3996.488023358063
 20
2266.068002898684
 30
0.0
 10
3996.488023358063
 20
2266.067940886966
 30
0.0
 10
3996.435747479156
 20
2266.303151336185
 30
0.0
 10
3996.670895916657
 20
2266.303151336185
 30
0.0
 10
3996.906044354157
 20
2266.303151336185
 30
0.0
 10
3996.906044354157
 20
2266.172492644778
 30
0.0
 10
3996.906044354157
 20
2266.015789031497
 30
0.0
 10
3996.906044354157
 20
2265.858961394778
 30
0.0
 10
3996.932213299469
 20
2265.022795379153
 30
0.0
 10
3996.932213299469
 20
2265.022795379153
 30
0.0
  0
SPLINE
  5
2B58B
330
18
100
AcDbEntity
  8
姿図
100
AcDbSpline
210
0.0
220
0.0
230
1.0
 70
     8
 71
     3
 72
     8
 73
     4
 74
     0
 42
0.000000001
 43
0.0000000001
 40
76.0
 40
76.0
 40
76.0
 40
76.0
 40
77.0
 40
77.0
 40
77.0
 40
77.0
 10
3996.932213299469
 20
2265.022795379153
 30
0.0
 10
3996.932213299469
 20
2265.022795379153
 30
0.0
 10
3997.716165447906
 20
2265.075071258059
 30
0.0
 10
3998.329138326798
 20
2264.97559671971
 30
0.0
  0
SPLINE
  5
2B58C
330
18
100
AcDbEntity
  8
姿図
100
AcDbSpline
210
0.0
220
0.0
230
1.0
 70
     8
 71
     3
 72
     8
 73
     4
 74
     0
 42
0.000000001
 43
0.0000000001
 40
77.0
 40
77.0
 40
77.0
 40
77.0
 40
78.0
 40
78.0
 40
78.0
 40
78.0
 10
3998.329138326798
 20
2264.97559671971
 30
0.0
 10
3998.317059002594
 20
2265.414709441653
 30
0.0
 10
3998.343227947907
 20
2266.041895965091
 30
0.0
 10
3998.343227947907
 20
2266.041895965091
 30
0.0
  0
SPLINE
  5
2B58D
330
18
100
AcDbEntity
  8
姿図
100
AcDbSpline
210
0.0
220
0.0
230
1.0
 70
     8
 71
     3
 72
    14
 73
    10
 74
     0
 42
0.000000001
 43
0.0000000001
 40
78.0
 40
78.0
 40
78.0
 40
78.0
 40
79.0
 40
79.0
 40
79.0
 40
80.0
 40
80.0
 40
80.0
 40
81.0
 40
81.0
 40
81.0
 40
81.0
 10
3998.343227947907
 20
2266.041895965091
 30
0.0
 10
3998.343227947907
 20
2266.041895965091
 30
0.0
 10
3998.369396893219
 20
2266.277044402591
 30
0.0
 10
3998.552207440095
 20
2266.277044402591
 30
0.0
 10
3998.735142010406
 20
2266.277044402591
 30
0.0
 10
3998.813524822907
 20
2266.094171843997
 30
0.0
 10
3998.813524822907
 20
2265.937344207278
 30
0.0
 10
3998.813524822907
 20
2265.780578582278
 30
0.0
 10
3998.813524822907
 20
2264.944412566653
 30
0.0
 10
3998.813524822907
 20
2264.944412566653
 30
0.0
  0
SPLINE
  5
2B58E
330
18
100
AcDbEntity
  8
姿図
100
AcDbSpline
210
0.0
220
0.0
230
1.0
 70
     8
 71
     3
 72
     8
 73
     4
 74
     0
 42
0.000000001
 43
0.0000000001
 40
81.0
 40
81.0
 40
81.0
 40
81.0
 40
82.0
 40
82.0
 40
82.0
 40
82.0
 10
3998.813524822907
 20
2264.944412566653
 30
0.0
 10
3998.813524822907
 20
2264.944412566653
 30
0.0
 10
3999.806580486969
 20
2264.787584929934
 30
0.0
 10
4000.12011173697
 20
2264.683157195559
 30
0.0
  0
SPLINE
  5
2B58F
330
18
100
AcDbEntity
  8
姿図
100
AcDbSpline
210
0.0
220
0.0
230
1.0
 70
     8
 71
     3
 72
    17
 73
    13
 74
     0
 42
0.000000001
 43
0.0000000001
 40
82.0
 40
82.0
 40
82.0
 40
82.0
 40
83.0
 40
83.0
 40
83.0
 40
84.0
 40
84.0
 40
84.0
 40
85.0
 40
85.0
 40
85.0
 40
86.0
 40
86.0
 40
86.0
 40
86.0
 10
4000.12011173697
 20
2264.683157195559
 30
0.0
 10
4000.198494549469
 20
2265.258005828372
 30
0.0
 10
4000.198494549469
 20
2265.440816375247
 30
0.0
 10
4000.198494549469
 20
2265.545368133059
 30
0.0
 10
4000.198494549469
 20
2265.649919890872
 30
0.0
 10
4000.12011173697
 20
2265.911237273684
 30
0.0
 10
4000.43364298697
 20
2265.911237273684
 30
0.0
 10
4000.747174236969
 20
2265.911237273684
 30
0.0
 10
4000.642746502594
 20
2265.676026824465
 30
0.0
 10
4000.642746502594
 20
2265.545368133059
 30
0.0
 10
4000.642746502594
 20
2265.414709441653
 30
0.0
 10
4000.668915447907
 20
2264.500222625247
 30
0.0
 10
4000.668915447907
 20
2264.500222625247
 30
0.0
  0
SPLINE
  5
2B590
330
18
100
AcDbEntity
  8
姿図
100
AcDbSpline
210
0.0
220
0.0
230
1.0
 70
     8
 71
     3
 72
     8
 73
     4
 74
     0
 42
0.000000001
 43
0.0000000001
 40
86.0
 40
86.0
 40
86.0
 40
86.0
 40
87.0
 40
87.0
 40
87.0
 40
87.0
 10
4000.668915447907
 20
2264.500222625247
 30
0.0
 10
4000.668915447907
 20
2264.500222625247
 30
0.0
 10
4001.71406095572
 20
2264.082077605715
 30
0.0
 10
4001.923040447907
 20
2263.820822234622
 30
0.0
  0
SPLINE
  5
2B591
330
18
100
AcDbEntity
  8
姿図
100
AcDbSpline
210
0.0
220
0.0
230
1.0
 70
     8
 71
     3
 72
     8
 73
     4
 74
     0
 42
0.000000001
 43
0.0000000001
 40
87.0
 40
87.0
 40
87.0
 40
87.0
 40
88.0
 40
88.0
 40
88.0
 40
88.0
 10
4001.923040447907
 20
2263.820822234622
 30
0.0
 10
4002.027592205719
 20
2264.343394988528
 30
0.0
 10
4002.053761151032
 20
2265.022795379153
 30
0.0
 10
4002.053761151032
 20
2265.022795379153
 30
0.0
  0
SPLINE
  5
2B592
330
18
100
AcDbEntity
  8
姿図
100
AcDbSpline
210
0.0
220
0.0
230
1.0
 70
     8
 71
     3
 72
    11
 73
     7
 74
     0
 42
0.000000001
 43
0.0000000001
 40
88.0
 40
88.0
 40
88.0
 40
88.0
 40
89.0
 40
89.0
 40
89.0
 40
90.0
 40
90.0
 40
90.0
 40
90.0
 10
4002.053761151032
 20
2265.022795379153
 30
0.0
 10
4002.053761151032
 20
2265.022795379153
 30
0.0
 10
4002.079930096344
 20
2265.231836883059
 30
0.0
 10
4002.236571697907
 20
2265.231836883059
 30
0.0
 10
4002.393461346344
 20
2265.231836883059
 30
0.0
 10
4002.419506268219
 20
2265.127347136966
 30
0.0
 10
4002.445675213532
 20
2264.970519500247
 30
0.0
  0
SPLINE
  5
2B593
330
18
100
AcDbEntity
  8
姿図
100
AcDbSpline
210
0.0
220
0.0
230
1.0
 70
     8
 71
     3
 72
     8
 73
     4
 74
     0
 42
0.000000001
 43
0.0000000001
 40
90.0
 40
90.0
 40
90.0
 40
90.0
 40
91.0
 40
91.0
 40
91.0
 40
91.0
 10
4002.445675213532
 20
2264.970519500247
 30
0.0
 10
4002.471844158844
 20
2264.813753875247
 30
0.0
 10
4002.524058026032
 20
2263.507228972903
 30
0.0
 10
4002.524058026032
 20
2263.507228972903
 30
0.0
  0
SPLINE
  5
2B594
330
18
100
AcDbEntity
  8
姿図
100
AcDbSpline
210
0.0
220
0.0
230
1.0
 70
     8
 71
     3
 72
     8
 73
     4
 74
     0
 42
0.000000001
 43
0.0000000001
 40
91.0
 40
91.0
 40
91.0
 40
91.0
 40
92.0
 40
92.0
 40
92.0
 40
92.0
 10
4002.524058026032
 20
2263.507228972903
 30
0.0
 10
4002.524058026032
 20
2263.507228972903
 30
0.0
 10
4003.595496502594
 20
2263.690163543216
 30
0.0
 10
4003.961241619782
 20
2263.71627047681
 30
0.0
  0
SPLINE
  5
2B595
330
18
100
AcDbEntity
  8
姿図
100
AcDbSpline
210
0.0
220
0.0
230
1.0
 70
     8
 71
     3
 72
     8
 73
     4
 74
     0
 42
0.000000001
 43
0.0000000001
 40
92.0
 40
92.0
 40
92.0
 40
92.0
 40
93.0
 40
93.0
 40
93.0
 40
93.0
 10
4003.961241619782
 20
2263.71627047681
 30
0.0
 10
4004.32698673697
 20
2263.742439422122
 30
0.0
 10
4004.823576580719
 20
2263.690163543216
 30
0.0
 10
4005.006511151032
 20
2263.115314910403
 30
0.0
  0
SPLINE
  5
2B596
330
18
100
AcDbEntity
  8
姿図
100
AcDbSpline
210
0.0
220
0.0
230
1.0
 70
     8
 71
     3
 72
     8
 73
     4
 74
     0
 42
0.000000001
 43
0.0000000001
 40
93.0
 40
93.0
 40
93.0
 40
93.0
 40
94.0
 40
94.0
 40
94.0
 40
94.0
 10
4005.006511151032
 20
2263.115314910403
 30
0.0
 10
4005.189321697907
 20
2262.540404265872
 30
0.0
 10
4006.443694744782
 20
2258.803826140872
 30
0.0
 10
4006.992374432282
 20
2255.511375945559
 30
0.0
  0
SPLINE
  5
2B597
330
18
100
AcDbEntity
  8
姿図
100
AcDbSpline
210
0.0
220
0.0
230
1.0
 70
     8
 71
     3
 72
     8
 73
     4
 74
     0
 42
0.000000001
 43
0.0000000001
 40
94.0
 40
94.0
 40
94.0
 40
94.0
 40
95.0
 40
95.0
 40
95.0
 40
95.0
 10
4006.992374432282
 20
2255.511375945559
 30
0.0
 10
4007.541054119782
 20
2252.219049773685
 30
0.0
 10
4007.828540447907
 20
2250.363659148685
 30
0.0
 10
4007.828540447907
 20
2250.154555633059
 30
0.0
  0
SPLINE
  5
2B598
330
18
100
AcDbEntity
  8
姿図
100
AcDbSpline
210
0.0
220
0.0
230
1.0
 70
    24
 71
     3
 72
     8
 73
     4
 74
     0
 42
0.000000001
 43
0.0000000001
 40
98.0
 40
98.0
 40
98.0
 40
98.0
 40
99.0
 40
99.0
 40
99.0
 40
99.0
 10
4009.278250408844
 20
2243.591731414309
 30
0.0
 10
4009.278250408844
 20
2243.591731414309
 30
0.0
 10
4009.590169354157
 20
2243.376550750247
 30
0.0
 10
4009.590169354157
 20
2243.376550750247
 30
0.0
  0
SPLINE
  5
2B599
330
18
100
AcDbEntity
  8
姿図
100
AcDbSpline
210
0.0
220
0.0
230
1.0
 70
    24
 71
     3
 72
     8
 73
     4
 74
     0
 42
0.000000001
 43
0.0000000001
 40
99.0
 40
99.0
 40
99.0
 40
99.0
 40
100.0
 40
100.0
 40
100.0
 40
100.0
 10
4009.590169354157
 20
2243.376550750247
 30
0.0
 10
4009.590169354157
 20
2243.376550750247
 30
0.0
 10
4009.916475018219
 20
2243.689213836185
 30
0.0
 10
4009.916475018219
 20
2243.689213836185
 30
0.0
  0
SPLINE
  5
2B59A
330
18
100
AcDbEntity
  8
姿図
100
AcDbSpline
210
0.0
220
0.0
230
1.0
 70
     8
 71
     3
 72
    11
 73
     7
 74
     0
 42
0.000000001
 43
0.0000000001
 40
100.0
 40
100.0
 40
100.0
 40
100.0
 40
101.0
 40
101.0
 40
101.0
 40
102.0
 40
102.0
 40
102.0
 40
102.0
 10
4009.916475018219
 20
2243.689213836185
 30
0.0
 10
4009.916475018219
 20
2243.689213836185
 30
0.0
 10
4010.038886151031
 20
2243.716498992434
 30
0.0
 10
4010.038886151031
 20
2243.621248992435
 30
0.0
 10
4010.038886151031
 20
2243.525998992434
 30
0.0
 10
4009.998082440094
 20
2243.19981735181
 30
0.0
 10
4009.998082440094
 20
2243.19981735181
 30
0.0
  0
SPLINE
  5
2B59B
330
18
100
AcDbEntity
  8
姿図
100
AcDbSpline
210
0.0
220
0.0
230
1.0
 70
    24
 71
     3
 72
     8
 73
     4
 74
     0
 42
0.000000001
 43
0.0000000001
 40
102.0
 40
102.0
 40
102.0
 40
102.0
 40
103.0
 40
103.0
 40
103.0
 40
103.0
 10
4009.998082440094
 20
2243.19981735181
 30
0.0
 10
4009.998082440094
 20
2243.19981735181
 30
0.0
 10
4009.875795330719
 20
2243.13185250806
 30
0.0
 10
4009.875795330719
 20
2243.13185250806
 30
0.0
  0
SPLINE
  5
2B59C
330
18
100
AcDbEntity
  8
姿図
100
AcDbSpline
210
0.0
220
0.0
230
1.0
 70
    24
 71
     3
 72
     8
 73
     4
 74
     0
 42
0.000000001
 43
0.0000000001
 40
103.0
 40
103.0
 40
103.0
 40
103.0
 40
104.0
 40
104.0
 40
104.0
 40
104.0
 10
4009.875795330719
 20
2243.13185250806
 30
0.0
 10
4009.875795330719
 20
2243.13185250806
 30
0.0
 10
4010.365191815094
 20
2242.655974578372
 30
0.0
 10
4010.365191815094
 20
2242.655974578372
 30
0.0
  0
SPLINE
  5
2B59D
330
18
100
AcDbEntity
  8
姿図
100
AcDbSpline
210
0.0
220
0.0
230
1.0
 70
     8
 71
     3
 72
     8
 73
     4
 74
     0
 42
0.000000001
 43
0.0000000001
 40
104.0
 40
104.0
 40
104.0
 40
104.0
 40
105.0
 40
105.0
 40
105.0
 40
105.0
 10
4010.365191815094
 20
2242.655974578372
 30
0.0
 10
4010.365191815094
 20
2242.655974578372
 30
0.0
 10
4010.310745526032
 20
2243.009441375247
 30
0.0
 10
4010.405995526031
 20
2243.118209929934
 30
0.0
  0
SPLINE
  5
2B59E
330
18
100
AcDbEntity
  8
姿図
100
AcDbSpline
210
0.0
220
0.0
230
1.0
 70
     8
 71
     3
 72
    11
 73
     7
 74
     0
 42
0.000000001
 43
0.0000000001
 40
105.0
 40
105.0
 40
105.0
 40
105.0
 40
106.0
 40
106.0
 40
106.0
 40
107.0
 40
107.0
 40
107.0
 40
107.0
 10
4010.405995526031
 20
2243.118209929934
 30
0.0
 10
4010.283584393219
 20
2243.172532195559
 30
0.0
 10
4010.256423260407
 20
2243.240497039309
 30
0.0
 10
4010.256423260407
 20
2243.335747039309
 30
0.0
 10
4010.256423260407
 20
2243.430873015872
 30
0.0
 10
4010.501121502594
 20
2243.702856414309
 30
0.0
 10
4010.501121502594
 20
2243.702856414309
 30
0.0
  0
SPLINE
  5
2B59F
330
18
100
AcDbEntity
  8
姿図
100
AcDbSpline
210
0.0
220
0.0
230
1.0
 70
     8
 71
     3
 72
     8
 73
     4
 74
     0
 42
0.000000001
 43
0.0000000001
 40
107.0
 40
107.0
 40
107.0
 40
107.0
 40
108.0
 40
108.0
 40
108.0
 40
108.0
 10
4010.501121502594
 20
2243.702856414309
 30
0.0
 10
4010.501121502594
 20
2243.702856414309
 30
0.0
 10
4010.473836346344
 20
2243.934036101809
 30
0.0
 10
4010.541925213532
 20
2244.04268063306
 30
0.0
  0
SPLINE
  5
2B5A0
330
18
100
AcDbEntity
  8
姿図
100
AcDbSpline
210
0.0
220
0.0
230
1.0
 70
     8
 71
     3
 72
    11
 73
     7
 74
     0
 42
0.000000001
 43
0.0000000001
 40
108.0
 40
108.0
 40
108.0
 40
108.0
 40
109.0
 40
109.0
 40
109.0
 40
110.0
 40
110.0
 40
110.0
 40
110.0
 10
4010.541925213532
 20
2244.04268063306
 30
0.0
 10
4010.609890057282
 20
2244.151573211184
 30
0.0
 10
4010.718658611969
 20
2244.219538054935
 30
0.0
 10
4010.909034588532
 20
2244.219538054935
 30
0.0
 10
4011.099410565094
 20
2244.219538054935
 30
0.0
 10
4011.208055096344
 20
2244.11064547681
 30
0.0
 10
4011.208055096344
 20
2244.11064547681
 30
0.0
  0
SPLINE
  5
2B5A1
330
18
100
AcDbEntity
  8
姿図
100
AcDbSpline
210
0.0
220
0.0
230
1.0
 70
    24
 71
     3
 72
     8
 73
     4
 74
     0
 42
0.000000001
 43
0.0000000001
 40
110.0
 40
110.0
 40
110.0
 40
110.0
 40
111.0
 40
111.0
 40
111.0
 40
111.0
 10
4011.208055096344
 20
2244.11064547681
 30
0.0
 10
4011.208055096344
 20
2244.11064547681
 30
0.0
 10
4011.208055096344
 20
2245.456671843996
 30
0.0
 10
4011.208055096344
 20
2245.456671843996
 30
0.0
  0
SPLINE
  5
2B5A2
330
18
100
AcDbEntity
  8
姿図
100
AcDbSpline
210
0.0
220
0.0
230
1.0
 70
     8
 71
     3
 72
    11
 73
     7
 74
     0
 42
0.000000001
 43
0.0000000001
 40
111.0
 40
111.0
 40
111.0
 40
111.0
 40
112.0
 40
112.0
 40
112.0
 40
113.0
 40
113.0
 40
113.0
 40
113.0
 10
4011.208055096344
 20
2245.456671843996
 30
0.0
 10
4011.208055096344
 20
2245.456671843996
 30
0.0
 10
4011.248858807282
 20
2245.565440398685
 30
0.0
 10
4011.330466229157
 20
2245.565440398685
 30
0.0
 10
4011.411949627594
 20
2245.565440398685
 30
0.0
 10
4011.480038494782
 20
2245.388707000247
 30
0.0
 10
4011.480038494782
 20
2245.388707000247
 30
0.0
  0
SPLINE
  5
2B5A3
330
18
100
AcDbEntity
  8
姿図
100
AcDbSpline
210
0.0
220
0.0
230
1.0
 70
     8
 71
     3
 72
    14
 73
    10
 74
     0
 42
0.000000001
 43
0.0000000001
 40
113.0
 40
113.0
 40
113.0
 40
113.0
 40
114.0
 40
114.0
 40
114.0
 40
115.0
 40
115.0
 40
115.0
 40
116.0
 40
116.0
 40
116.0
 40
116.0
 10
4011.480038494782
 20
2245.388707000247
 30
0.0
 10
4011.480038494782
 20
2245.388707000247
 30
0.0
 10
4011.507199627594
 20
2245.524760711184
 30
0.0
 10
4011.711218182282
 20
2245.524760711184
 30
0.0
 10
4011.915112713531
 20
2245.524760711184
 30
0.0
 10
4012.159810955719
 20
2245.524760711184
 30
0.0
 10
4012.159810955719
 20
2245.320618133059
 30
0.0
 10
4012.159810955719
 20
2245.116723601809
 30
0.0
 10
4012.186972088532
 20
2244.559362273684
 30
0.0
 10
4012.186972088532
 20
2244.559362273684
 30
0.0
  0
SPLINE
  5
2B5A4
330
18
100
AcDbEntity
  8
姿図
100
AcDbSpline
210
0.0
220
0.0
230
1.0
 70
     8
 71
     3
 72
     8
 73
     4
 74
     0
 42
0.000000001
 43
0.0000000001
 40
116.0
 40
116.0
 40
116.0
 40
116.0
 40
117.0
 40
117.0
 40
117.0
 40
117.0
 10
4012.186972088532
 20
2244.559362273684
 30
0.0
 10
4012.186972088532
 20
2244.559362273684
 30
0.0
 10
4012.880387127595
 20
2244.586647429935
 30
0.0
 10
4012.975513104157
 20
2244.464112273684
 30
0.0
  0
SPLINE
  5
2B5A5
330
18
100
AcDbEntity
  8
姿図
100
AcDbSpline
210
0.0
220
0.0
230
1.0
 70
     8
 71
     3
 72
    11
 73
     7
 74
     0
 42
0.000000001
 43
0.0000000001
 40
117.0
 40
117.0
 40
117.0
 40
117.0
 40
118.0
 40
118.0
 40
118.0
 40
119.0
 40
119.0
 40
119.0
 40
119.0
 10
4012.975513104157
 20
2244.464112273684
 30
0.0
 10
4012.989155682282
 20
2244.627327117434
 30
0.0
 10
4012.948351971344
 20
2244.695291961184
 30
0.0
 10
4013.084281658844
 20
2244.695291961184
 30
0.0
 10
4013.220335369782
 20
2244.695291961184
 30
0.0
 10
4013.424229901032
 20
2244.47775485181
 30
0.0
 10
4013.437748455719
 20
2244.17861032056
 30
0.0
  0
SPLINE
  5
2B5A6
330
18
100
AcDbEntity
  8
姿図
100
AcDbSpline
210
0.0
220
0.0
230
1.0
 70
     8
 71
     3
 72
     8
 73
     4
 74
     0
 42
0.000000001
 43
0.0000000001
 40
119.0
 40
119.0
 40
119.0
 40
119.0
 40
120.0
 40
120.0
 40
120.0
 40
120.0
 10
4013.437748455719
 20
2244.17861032056
 30
0.0
 10
4013.451391033844
 20
2243.879589812746
 30
0.0
 10
4013.451391033844
 20
2242.601528289309
 30
0.0
 10
4013.396944744782
 20
2242.411276336185
 30
0.0
  0
SPLINE
  5
2B5A7
330
18
100
AcDbEntity
  8
姿図
100
AcDbSpline
210
0.0
220
0.0
230
1.0
 70
     8
 71
     3
 72
     8
 73
     4
 74
     0
 42
0.000000001
 43
0.0000000001
 40
120.0
 40
120.0
 40
120.0
 40
120.0
 40
121.0
 40
121.0
 40
121.0
 40
121.0
 10
4013.396944744782
 20
2242.411276336185
 30
0.0
 10
4013.342622479157
 20
2242.220900359622
 30
0.0
 10
4013.233853924469
 20
2241.881076140872
 30
0.0
 10
4013.125085369782
 20
2241.85391500806
 30
0.0
  0
SPLINE
  5
2B5A8
330
18
100
AcDbEntity
  8
姿図
100
AcDbSpline
210
0.0
220
0.0
230
1.0
 70
     8
 71
     3
 72
     8
 73
     4
 74
     0
 42
0.000000001
 43
0.0000000001
 40
121.0
 40
121.0
 40
121.0
 40
121.0
 40
122.0
 40
122.0
 40
122.0
 40
122.0
 10
4013.125085369782
 20
2241.85391500806
 30
0.0
 10
4013.016316815094
 20
2241.826629851809
 30
0.0
 10
4012.921190838532
 20
2241.85391500806
 30
0.0
 10
4012.907548260407
 20
2242.044166961185
 30
0.0
  0
SPLINE
  5
2B5A9
330
18
100
AcDbEntity
  8
姿図
100
AcDbSpline
210
0.0
220
0.0
230
1.0
 70
     8
 71
     3
 72
     8
 73
     4
 74
     0
 42
0.000000001
 43
0.0000000001
 40
122.0
 40
122.0
 40
122.0
 40
122.0
 40
123.0
 40
123.0
 40
123.0
 40
123.0
 10
4012.907548260407
 20
2242.044166961185
 30
0.0
 10
4012.771618572906
 20
2242.044166961185
 30
0.0
 10
4012.119007244782
 20
2241.989844695559
 30
0.0
 10
4012.119007244782
 20
2241.989844695559
 30
0.0
  0
SPLINE
  5
2B5AA
330
18
100
AcDbEntity
  8
姿図
100
AcDbSpline
210
0.0
220
0.0
230
1.0
 70
     8
 71
     3
 72
     8
 73
     4
 74
     0
 42
0.000000001
 43
0.0000000001
 40
123.0
 40
123.0
 40
123.0
 40
123.0
 40
124.0
 40
124.0
 40
124.0
 40
124.0
 10
4012.119007244782
 20
2241.989844695559
 30
0.0
 10
4012.119007244782
 20
2241.989844695559
 30
0.0
 10
4012.146168377595
 20
2241.174018523684
 30
0.0
 10
4012.064560955719
 20
2241.092411101809
 30
0.0
  0
SPLINE
  5
2B5AB
330
18
100
AcDbEntity
  8
姿図
100
AcDbSpline
210
0.0
220
0.0
230
1.0
 70
     8
 71
     3
 72
     8
 73
     4
 74
     0
 42
0.000000001
 43
0.0000000001
 40
124.0
 40
124.0
 40
124.0
 40
124.0
 40
125.0
 40
125.0
 40
125.0
 40
125.0
 10
4012.064560955719
 20
2241.092411101809
 30
0.0
 10
4011.983077557281
 20
2241.010803679935
 30
0.0
 10
4011.901470135407
 20
2241.065249968997
 30
0.0
 10
4011.901470135407
 20
2241.065249968997
 30
0.0
  0
SPLINE
  5
2B5AC
330
18
100
AcDbEntity
  8
姿図
100
AcDbSpline
210
0.0
220
0.0
230
1.0
 70
     8
 71
     3
 72
     8
 73
     4
 74
     0
 42
0.000000001
 43
0.0000000001
 40
125.0
 40
125.0
 40
125.0
 40
125.0
 40
126.0
 40
126.0
 40
126.0
 40
126.0
 10
4011.901470135407
 20
2241.065249968997
 30
0.0
 10
4011.901470135407
 20
2241.065249968997
 30
0.0
 10
4011.983077557281
 20
2238.482213836184
 30
0.0
 10
4011.887827557282
 20
2236.837042937746
 30
0.0
  0
SPLINE
  5
2B5AD
330
18
100
AcDbEntity
  8
姿図
100
AcDbSpline
210
0.0
220
0.0
230
1.0
 70
     8
 71
     3
 72
     8
 73
     4
 74
     0
 42
0.000000001
 43
0.0000000001
 40
126.0
 40
126.0
 40
126.0
 40
126.0
 40
127.0
 40
127.0
 40
127.0
 40
127.0
 10
4011.887827557282
 20
2236.837042937746
 30
0.0
 10
4011.792701580719
 20
2235.19187203931
 30
0.0
 10
4011.439234783844
 20
2231.004468718997
 30
0.0
 10
4011.371269940094
 20
2230.814092742435
 30
0.0
  0
SPLINE
  5
2B5AE
330
18
100
AcDbEntity
  8
姿図
100
AcDbSpline
210
0.0
220
0.0
230
1.0
 70
     8
 71
     3
 72
     8
 73
     4
 74
     0
 42
0.000000001
 43
0.0000000001
 40
127.0
 40
127.0
 40
127.0
 40
127.0
 40
128.0
 40
128.0
 40
128.0
 40
128.0
 10
4011.371269940094
 20
2230.814092742435
 30
0.0
 10
4011.371269940094
 20
2230.419822234622
 30
0.0
 10
4011.384912518219
 20
2228.38050485181
 30
0.0
 10
4011.384912518219
 20
2228.38050485181
 30
0.0
  0
ARC
  5
2B5AF
330
18
100
AcDbEntity
  8
姿図
100
AcDbCircle
 10
3999.551353434453
 20
2218.620289929616
 30
0.0
 40
15.1701482379715
100
AcDbArc
 50
59.84827434687213
 51
82.10167315235667
  0
ARC
  5
2B5B0
330
18
100
AcDbEntity
  8
姿図
100
AcDbCircle
 10
4002.486169916389
 20
2223.803658503846
 30
0.0
 40
9.214199751715508
100
AcDbArc
 50
35.70579080943541
 51
59.43891704340125
  0
ARC
  5
2B5B1
330
18
100
AcDbEntity
  8
姿図
100
AcDbCircle
 10
4000.156287003466
 20
2220.0982370645
 30
0.0
 40
14.12225554600108
100
AcDbArc
 50
43.82683793537278
 51
81.83462171421158
  0
ARC
  5
2B5B2
330
18
100
AcDbEntity
  8
姿図
100
AcDbCircle
 10
4007.551453405031
 20
2227.700244344851
 30
0.0
 40
3.541557972086268
100
AcDbArc
 50
4.009409755499929
 51
37.93819005736982
  0
ARC
  5
2B5B3
330
18
100
AcDbEntity
  8
姿図
100
AcDbCircle
 10
4001.63409211213
 20
2225.316543648815
 30
0.0
 40
12.12249718714882
100
AcDbArc
 50
44.34359490365353
 51
79.22366257854154
  0
ARC
  5
2B5B4
330
18
100
AcDbEntity
  8
姿図
100
AcDbCircle
 10
4008.149378872476
 20
2231.328455382754
 30
0.0
 40
3.270845033596017
100
AcDbArc
 50
355.3470820426405
 51
48.80510402842406
  0
LINE
  5
2B5B5
330
18
100
AcDbEntity
  8
姿図
100
AcDbLine
 10
3999.210140525621
 20
2236.375683220005
 30
0.0
 11
3999.232105181996
 21
2235.1023102816
 31
0.0
  0
ARC
  5
2B5B6
330
18
100
AcDbEntity
  8
姿図
100
AcDbCircle
 10
3999.263830926367
 20
2236.396333218338
 30
0.0
 40
0.05752461702122
100
AcDbArc
 50
64.7860587379671
 51
201.0373661889489
  0
ARC
  5
2B5B7
330
18
100
AcDbEntity
  8
姿図
100
AcDbCircle
 10
3998.009124098457
 20
2214.915321324319
 30
0.0
 40
21.57101932075856
100
AcDbArc
 50
69.37373870164478
 51
86.60023055440318
  0
ARC
  5
2B5B8
330
18
100
AcDbEntity
  8
姿図
100
AcDbCircle
 10
3998.109477038905
 20
2213.980377621927
 30
0.0
 40
21.15174539434977
100
AcDbArc
 50
69.16539260965735
 51
86.95759899234446
  0
LINE
  5
2B5B9
330
18
100
AcDbEntity
  8
姿図
100
AcDbLine
 10
4005.607961110635
 20
2235.103598878358
 30
0.0
 11
4005.632550989455
 21
2233.749031889781
 31
0.0
  0
LINE
  5
2B5BA
330
18
100
AcDbEntity
  8
姿図
100
AcDbLine
 10
4005.480489464038
 20
2235.151120644103
 30
0.0
 11
4005.474590981339
 21
2233.80842416823
 31
0.0
  0
LINE
  5
2B5BB
330
18
100
AcDbEntity
  8
姿図
100
AcDbLine
 10
4007.178263017868
 20
2234.48719522192
 30
0.0
 11
4007.178244137793
 21
2233.026664179033
 31
0.0
  0
ARC
  5
2B5BC
330
18
100
AcDbEntity
  8
姿図
100
AcDbCircle
 10
4004.63998938226
 20
2226.404269860406
 30
0.0
 40
7.092167772646583
100
AcDbArc
 50
24.05434525454058
 51
69.02899391902442
  0
ARC
  5
2B5BD
330
18
100
AcDbEntity
  8
姿図
100
AcDbCircle
 10
4005.107649939512
 20
2228.056261205995
 30
0.0
 40
6.445804968387948
100
AcDbArc
 50
30.95011755231135
 51
71.26245843853062
  0
ARC
  5
2B5BE
330
18
100
AcDbEntity
  8
姿図
100
AcDbCircle
 10
4008.985543665437
 20
2230.220127004688
 30
0.0
 40
2.011985454815605
100
AcDbArc
 50
11.64621484543774
 51
34.90029506550413
  0
LINE
  5
2B5BF
330
18
100
AcDbEntity
  8
姿図
100
AcDbLine
 10
4010.956107855118
 20
2230.626282448741
 30
0.0
 11
4010.935302809385
 21
2229.670440794333
 31
0.0
  0
LINE
  5
2B5C0
330
18
100
AcDbEntity
  8
姿図
100
AcDbLine
 10
4011.116268025982
 20
2229.295058445592
 30
0.0
 11
4011.14426864643
 21
2230.616682318554
 31
0.0
  0
LINE
  5
2B5C1
330
18
100
AcDbEntity
  8
姿図
100
AcDbLine
 10
4010.956107855118
 20
2230.626282448741
 30
0.0
 11
4011.14426864643
 21
2230.616682318554
 31
0.0
  0
ARC
  5
2B5C2
330
18
100
AcDbEntity
  8
姿図
100
AcDbCircle
 10
4007.277213490503
 20
2234.448036978687
 30
0.0
 40
0.1064169349669472
100
AcDbArc
 50
98.89207980329883
 51
158.4095215871844
  0
ARC
  5
2B5C3
330
18
100
AcDbEntity
  8
姿図
100
AcDbCircle
 10
4003.935102640438
 20
2226.941891044428
 30
0.0
 40
8.306122265047806
100
AcDbArc
 50
39.85466092807594
 51
66.39763958290234
  0
ARC
  5
2B5C4
330
18
100
AcDbEntity
  8
姿図
100
AcDbCircle
 10
4008.08783117942
 20
2230.106749424606
 30
0.0
 40
3.098683840935339
100
AcDbArc
 50
9.471927650748686
 51
44.14231619187402
  0
ARC
  5
2B5C5
330
18
100
AcDbEntity
  8
姿図
100
AcDbCircle
 10
3999.019636465961
 20
2227.492040693975
 30
0.0
 40
18.12933376856992
100
AcDbArc
 50
65.974147267627
 51
82.2495597612018
  0
ARC
  5
2B5C6
330
18
100
AcDbEntity
  8
姿図
100
AcDbCircle
 10
3999.307297428614
 20
2227.610342901488
 30
0.0
 40
17.90544594868594
100
AcDbArc
 50
54.50611444873501
 51
66.66077417707314
  0
ARC
  5
2B5C7
330
18
100
AcDbEntity
  8
姿図
100
AcDbCircle
 10
4006.613753237138
 20
2237.796773444563
 30
0.0
 40
5.369747723572417
100
AcDbArc
 50
23.51302691710461
 51
54.87259797794297
  0
ARC
  5
2B5C8
330
18
100
AcDbEntity
  8
姿図
100
AcDbCircle
 10
4002.80788147596
 20
2235.117850460897
 30
0.0
 40
10.66172277543556
100
AcDbArc
 50
52.63587060392678
 51
70.78208324591264
  0
ARC
  5
2B5C9
330
18
100
AcDbEntity
  8
姿図
100
AcDbCircle
 10
4007.918595973425
 20
2244.091565914442
 30
0.0
 40
0.5054145232443293
100
AcDbArc
 50
10.76860951313068
 51
59.9908012158474
  0
ARC
  5
2B5CA
330
18
100
AcDbEntity
  8
姿図
100
AcDbCircle
 10
3946.708612710964
 20
2243.606518611417
 30
0.0
 40
61.46968647557878
100
AcDbArc
 50
0.8600872037600282
 51
6.11501545698666
  0
ARC
  5
2B5CB
330
18
100
AcDbEntity
  8
姿図
100
AcDbCircle
 10
4010.063196680991
 20
2244.361698451246
 30
0.0
 40
1.89922636815973
100
AcDbArc
 50
174.9394242146343
 51
180.7612721143542
  0
ARC
  5
2B5CC
330
18
100
AcDbEntity
  8
姿図
100
AcDbCircle
 10
3986.075286367451
 20
2246.176545519433
 30
0.0
 40
20.0055389844919
100
AcDbArc
 50
8.50335465973953
 51
23.34607013288083
  0
ARC
  5
2B5CD
330
18
100
AcDbEntity
  8
姿図
100
AcDbCircle
 10
3996.306120492216
 20
2249.727818093615
 30
0.0
 40
9.239174097593345
100
AcDbArc
 50
28.27476313282309
 51
42.95884801493096
  0
ARC
  5
2B5CE
330
18
100
AcDbEntity
  8
姿図
100
AcDbCircle
 10
3976.434714030085
 20
2253.945109280592
 30
0.0
 40
27.58178528774918
100
AcDbArc
 50
4.590443487697379
 51
18.65099996679329
  0
ARC
  5
2B5CF
330
18
100
AcDbEntity
  8
姿図
100
AcDbCircle
 10
3999.199385520943
 20
2257.128307539155
 30
0.0
 40
7.013397636878466
100
AcDbArc
 50
65.64773604257036
 51
77.78217439901714
  0
ARC
  5
2B5D0
330
18
100
AcDbEntity
  8
姿図
100
AcDbCircle
 10
3995.462551707592
 20
2264.093324709758
 30
0.0
 40
5.222239874812963
100
AcDbArc
 50
358.7878634453216
 51
4.468807970952552
  0
ARC
  5
2B5D1
330
18
100
AcDbEntity
  8
姿図
100
AcDbCircle
 10
3998.613780120691
 20
2259.514049215386
 30
0.0
 40
4.842904449114553
100
AcDbArc
 50
70.79771794575677
 51
87.85007887216375
  0
ARC
  5
2B5D2
330
18
100
AcDbEntity
  8
姿図
100
AcDbCircle
 10
3997.460577896834
 20
2249.10991279543
 30
0.0
 40
15.34999435262498
100
AcDbArc
 50
86.82667943648595
 51
91.93617680841405
  0
ARC
  5
2B5D3
330
18
100
AcDbEntity
  8
姿図
100
AcDbCircle
 10
4061.403829354354
 20
2263.440355274663
 30
0.0
 40
64.961251727473
100
AcDbArc
 50
178.6041508399731
 51
179.1263384126918
  0
ARC
  5
2B5D4
330
18
100
AcDbEntity
  8
姿図
100
AcDbCircle
 10
4000.987471085558
 20
2264.806025054726
 30
0.0
 40
4.061047289207732
100
AcDbArc
 50
176.9402153515069
 51
185.0132830991897
  0
ARC
  5
2B5D5
330
18
100
AcDbEntity
  8
姿図
100
AcDbCircle
 10
4002.315636432708
 20
2264.566390961356
 30
0.0
 40
4.007445133883937
100
AcDbArc
 50
174.1392337818201
 51
181.8592762369217
  0
ARC
  5
2B5D6
330
18
100
AcDbEntity
  8
姿図
100
AcDbCircle
 10
3940.456413858544
 20
2266.432998139429
 30
0.0
 40
58.37609345540698
100
AcDbArc
 50
357.9585972417775
 51
358.5388039584643
  0
ARC
  5
2B5D7
330
18
100
AcDbEntity
  8
姿図
100
AcDbCircle
 10
4020.811374372363
 20
2264.956896722494
 30
0.0
 40
20.62307542250036
100
AcDbArc
 50
178.9519072955405
 51
182.4160770027777
  0
ARC
  5
2B5D8
330
18
100
AcDbEntity
  8
姿図
100
AcDbCircle
 10
4000.030761174568
 20
2264.378983836637
 30
0.0
 40
0.3170251650578048
100
AcDbArc
 50
59.73516729331701
 51
73.62991183404229
  0
ARC
  5
2B5D9
330
18
100
AcDbEntity
  8
姿図
100
AcDbCircle
 10
3999.955412294867
 20
2262.530132613546
 30
0.0
 40
2.353176628855195
100
AcDbArc
 50
24.8141725625789
 51
33.26335909417798
  0
ARC
  5
2B5DA
330
18
100
AcDbEntity
  8
姿図
100
AcDbCircle
 10
4001.667896724283
 20
2254.127792448835
 30
0.0
 40
6.23813699003056
100
AcDbArc
 50
285.7123076237912
 51
311.5945141074763
  0
LINE
  5
2B5DB
330
18
100
AcDbEntity
  8
姿図
100
AcDbLine
 10
4003.345384154875
 20
2249.264514469306
 30
0.0
 11
4003.300816815094
 21
2247.72568063306
 31
0.0
  0
ARC
  5
2B5DC
330
18
100
AcDbEntity
  8
姿図
100
AcDbCircle
 10
3997.615914286506
 20
2241.337952890797
 30
0.0
 40
10.75278458513335
100
AcDbArc
 50
71.04295375030347
 51
92.69225774055056
  0
ARC
  5
2B5DD
330
18
100
AcDbEntity
  8
姿図
100
AcDbCircle
 10
3999.71742875582
 20
2247.806207530189
 30
0.0
 40
3.954292400972742
100
AcDbArc
 50
33.59578748637055
 51
69.39470577446778
  0
ARC
  5
2B5DE
330
18
100
AcDbEntity
  8
姿図
100
AcDbCircle
 10
4001.200166723454
 20
2248.723482284944
 30
0.0
 40
2.21239093574927
100
AcDbArc
 50
14.15502751960322
 51
35.05628734041775
  0
LINE
  5
2B5DF
330
18
100
AcDbEntity
  8
姿図
100
AcDbLine
 10
4002.065211014853
 20
2256.030348226238
 30
0.0
 11
4002.127042468999
 21
2252.418961327407
 31
0.0
  0
ARC
  5
2B5E0
330
18
100
AcDbEntity
  8
姿図
100
AcDbCircle
 10
3997.092155164764
 20
2251.705525062132
 30
0.0
 40
5.085182540573665
100
AcDbArc
 50
351.4172257850249
 51
8.06503738585171
  0
ARC
  5
2B5E1
330
18
100
AcDbEntity
  8
姿図
100
AcDbCircle
 10
3998.760055182271
 20
2251.94769211008
 30
0.0
 40
4.06357599290132
100
AcDbArc
 50
36.95215183161793
 51
92.85797582242934
  0
LINE
  5
2B5E2
330
18
100
AcDbEntity
  8
姿図
100
AcDbLine
 10
3996.583480567421
 20
2256.003643136352
 30
0.0
 11
3996.602767735922
 21
2256.621111072366
 31
0.0
  0
LINE
  5
2B5E3
330
18
100
AcDbEntity
  8
姿図
100
AcDbLine
 10
3998.542479708053
 20
2256.615681200253
 30
0.0
 11
3998.557443635199
 21
2256.006213812753
 31
0.0
  0
ARC
  5
2B5E4
330
18
100
AcDbEntity
  8
姿図
100
AcDbCircle
 10
3997.506339784626
 20
2254.03785694781
 30
0.0
 40
2.442594144222008
100
AcDbArc
 50
64.66453895353422
 51
111.9618139013439
  0
ARC
  5
2B5E5
330
18
100
AcDbEntity
  8
姿図
100
AcDbCircle
 10
3997.459274425781
 20
2249.030367048509
 30
0.0
 40
3.512155935847192
100
AcDbArc
 50
84.055108998988
 51
126.4514804045721
  0
ARC
  5
2B5E6
330
18
100
AcDbEntity
  8
姿図
100
AcDbCircle
 10
3997.983799317907
 20
2248.950965867973
 30
0.0
 40
3.576283893433354
100
AcDbArc
 50
54.80213643772456
 51
92.57648080922202
  0
LINE
  5
2B5E7
330
18
100
AcDbEntity
  8
姿図
100
AcDbLine
 10
3999.804404146817
 20
2251.969340118881
 30
0.0
 11
4000.01790273597
 21
2251.819022865897
 31
0.0
  0
LINE
  5
2B5E8
330
18
100
AcDbEntity
  8
姿図
100
AcDbLine
 10
3995.546239619202
 20
2251.897159440635
 30
0.0
 11
3996.027002577184
 21
2252.237209213228
 31
0.0
  0
LINE
  5
2B5E9
330
18
100
AcDbEntity
  8
姿図
100
AcDbLine
 10
4012.186972088532
 20
2244.559362273684
 30
0.0
 11
4012.119007244782
 21
2241.989844695559
 31
0.0
  0
LINE
  5
2B5EA
330
18
100
AcDbEntity
  8
姿図
100
AcDbLine
 10
4011.208055096344
 20
2244.11064547681
 30
0.0
 11
4011.272557449578
 21
2242.476352562225
 31
0.0
  0
LINE
  5
2B5EB
330
18
100
AcDbEntity
  8
姿図
100
AcDbLine
 10
4010.546276721672
 20
2242.44946857482
 30
0.0
 11
4010.840595843245
 21
2242.414671806755
 31
0.0
  0
LINE
  5
2B5EC
330
18
100
AcDbEntity
  8
姿図
100
AcDbLine
 10
4010.840595843245
 20
2242.414671806755
 30
0.0
 11
4011.077146222777
 21
2242.507193021424
 31
0.0
  0
LINE
  5
2B5ED
330
18
100
AcDbEntity
  8
姿図
100
AcDbLine
 10
4011.077146222777
 20
2242.507193021424
 30
0.0
 11
4011.272557449578
 21
2242.476352562225
 31
0.0
  0
ARC
  5
2B5EE
330
18
100
AcDbEntity
  8
姿図
100
AcDbCircle
 10
3995.593866208304
 20
2229.181704067144
 30
0.0
 40
19.99369965743132
100
AcDbArc
 50
38.3731090674735
 51
42.37078970392472
  0
LINE
  5
2B5EF
330
18
100
AcDbEntity
  8
姿図
100
AcDbLine
 10
4011.272557449578
 20
2242.476352562225
 30
0.0
 11
4011.268624786637
 21
2241.593390878474
 31
0.0
  0
LINE
  5
2B5F0
330
18
100
AcDbEntity
  8
姿図
100
AcDbLine
 10
4012.975513104157
 20
2244.464112273684
 30
0.0
 11
4012.907548260407
 21
2242.044166961185
 31
0.0
  0
LINE
  5
2B5F1
330
18
100
AcDbEntity
  8
姿図
100
AcDbLine
 10
4012.965954076918
 20
2244.123755084835
 30
0.0
 11
4012.308869173426
 21
2244.134000075944
 31
0.0
  0
LINE
  5
2B5F2
330
18
100
AcDbEntity
  8
姿図
100
AcDbLine
 10
4012.308869173426
 20
2244.134000075944
 30
0.0
 11
4012.308869173426
 21
2243.491241365385
 31
0.0
  0
LINE
  5
2B5F3
330
18
100
AcDbEntity
  8
姿図
100
AcDbLine
 10
4012.308869173426
 20
2243.491241365385
 30
0.0
 11
4012.945934231815
 21
2243.410931694975
 31
0.0
  0
LINE
  5
2B5F4
330
18
100
AcDbEntity
  8
姿図
100
AcDbLine
 10
4012.375065481094
 20
2243.727549710063
 30
0.0
 11
4012.885722819386
 21
2243.708645022938
 31
0.0
  0
LINE
  5
2B5F5
330
18
100
AcDbEntity
  8
姿図
100
AcDbLine
 10
4002.091328822883
 20
2263.517705816875
 30
0.0
 11
4002.524058026032
 21
2263.507228972903
 31
0.0
  0
ARC
  5
2B5F6
330
18
100
AcDbEntity
  8
姿図
100
AcDbCircle
 10
3997.150422329616
 20
2253.421386687645
 30
0.0
 40
11.03172668071826
100
AcDbArc
 50
91.08276367019977
 51
93.63957692302081
  0
ARC
  5
2B5F7
330
18
100
AcDbEntity
  8
姿図
100
AcDbCircle
 10
3998.043313257961
 20
2261.410127026973
 30
0.0
 40
3.037997754302832
100
AcDbArc
 50
75.66568337681579
 51
84.95818041633483
  0
ARC
  5
2B5F8
330
18
100
AcDbEntity
  8
姿図
100
AcDbCircle
 10
3999.954120079634
 20
2261.797355574248
 30
0.0
 40
2.304033628122458
100
AcDbArc
 50
71.54136661979265
 51
83.70799580804429
  0
ARC
  5
2B5F9
330
18
100
AcDbEntity
  8
姿図
100
AcDbCircle
 10
3996.890176448015
 20
2208.847432413507
 30
0.0
 40
27.31411363335211
100
AcDbArc
 50
71.67295501632339
 51
85.1162516158091
  0
ARC
  5
2B5FA
330
18
100
AcDbEntity
  8
姿図
100
AcDbCircle
 10
3999.019636465961
 20
2227.492040693975
 30
0.0
 40
17.76933376856992
100
AcDbArc
 50
65.974147267627
 51
82.2495597612018
  0
ARC
  5
2B5FB
330
18
100
AcDbEntity
  8
姿図
100
AcDbCircle
 10
3999.307297428614
 20
2227.610342901488
 30
0.0
 40
17.54544594868594
100
AcDbArc
 50
54.50611444873501
 51
66.66077417707314
  0
ARC
  5
2B5FC
330
18
100
AcDbEntity
  8
姿図
100
AcDbCircle
 10
4005.38558669919
 20
2236.40417173288
 30
0.0
 40
6.858264372298297
100
AcDbArc
 50
34.58216941684146
 51
53.25955639034616
  0
LINE
  5
2B5FD
330
18
100
AcDbEntity
  8
姿図
100
AcDbLine
 10
4011.032085209241
 20
2240.29683724334
 30
0.0
 11
4011.019405951361
 21
2240.057493625072
 31
0.0
  0
ARC
  5
2B5FE
330
18
100
AcDbEntity
  8
姿図
100
AcDbCircle
 10
4005.128470499203
 20
2235.893628056878
 30
0.0
 40
7.215052215152664
100
AcDbArc
 50
27.20189775311739
 51
35.00004946461915
  0
LINE
  5
2B5FF
330
18
100
AcDbEntity
  8
姿図
100
AcDbLine
 10
4011.268624786637
 20
2241.593390878474
 30
0.0
 11
4011.305829095853
 21
2240.914472710059
 31
0.0
  0
ARC
  5
2B600
330
18
100
AcDbEntity
  8
姿図
100
AcDbCircle
 10
4001.63409211213
 20
2225.316543648815
 30
0.0
 40
12.30249718714882
100
AcDbArc
 50
44.34359490365353
 51
79.22366257854154
  0
ARC
  5
2B601
330
18
100
AcDbEntity
  8
姿図
100
AcDbCircle
 10
4008.149378872476
 20
2231.328455382754
 30
0.0
 40
3.450845033596016
100
AcDbArc
 50
12.81913927440637
 51
48.80510402842406
  0
LINE
  5
2B602
330
18
100
AcDbEntity
  8
姿図
100
AcDbLine
 10
4011.480038494782
 20
2245.388707000247
 30
0.0
 11
4011.545546833986
 21
2239.191826016514
 31
0.0
  0
ARC
  5
2B603
330
18
100
AcDbEntity
  8
姿図
100
AcDbCircle
 10
4008.694084618213
 20
2242.041539967273
 30
0.0
 40
1.607862445810594
100
AcDbArc
 50
42.69636713774366
 51
56.12973347160507
  0
ARC
  5
2B604
330
18
100
AcDbEntity
  8
姿図
100
AcDbCircle
 10
3997.10205751811
 20
2252.246430947997
 30
0.0
 40
12.5183471768788
100
AcDbArc
 50
84.45978160155543
 51
90.80287533105246
  0
ARC
  5
2B605
330
18
100
AcDbEntity
  8
姿図
100
AcDbCircle
 10
3997.940320817697
 20
2257.226606342852
 30
0.0
 40
7.49820056416878
100
AcDbArc
 50
72.48901557824034
 51
83.37017240572861
  0
ARC
  5
2B606
330
18
100
AcDbEntity
  8
姿図
100
AcDbCircle
 10
3997.334962710537
 20
2254.582624455724
 30
0.0
 40
10.22278598436362
100
AcDbArc
 50
62.76850285566469
 51
70.88433192248407
  0
TEXT
  5
2B884
330
18
100
AcDbEntity
  8
文字
100
AcDbText
 10
3945.707741598579
 20
2181.420651250741
 30
0.0
 40
7.199999999999999
  1
SL-B1342D/WC,NC
100
AcDbText
  0
ENDSEC
  0
SECTION
  2
OBJECTS
  0
DICTIONARY
  5
C
330
0
100
AcDbDictionary
281
     1
  3
ACAD_GROUP
350
D
  3
ACAD_IMAGE_VARS
350
2B8DC
  3
ACAD_LAYOUT
350
40CB
  3
ACAD_MLINESTYLE
350
E
  3
ACAD_PLOTSETTINGS
350
40CC
  3
ACAD_PLOTSTYLENAME
350
40C9
  3
ACAD_SCALELIST
350
28BED
  3
AcDbVariableDictionary
350
6377
  3
APPDATA
350
2B8DB
  3
DWGPROPS
350
2B900
  0
DICTIONARY
  5
17708
330
2
100
AcDbDictionary
280
     1
281
     1
  3
ACAD_LAYERSTATES
360
17709
  0
DICTIONARY
  5
292FD
330
F
100
AcDbDictionary
280
     1
281
     1
  3
ADSK_XREC_LAYER_RECONCILED
360
292FE
  0
DICTIONARY
  5
292FF
330
4C
100
AcDbDictionary
280
     1
281
     1
  3
ADSK_XREC_LAYER_RECONCILED
360
29300
  0
DICTIONARY
  5
29303
330
40D4
100
AcDbDictionary
280
     1
281
     1
  3
ADSK_XREC_LAYER_RECONCILED
360
29304
  0
DICTIONARY
  5
2930B
330
176FE
100
AcDbDictionary
280
     1
281
     1
  3
ADSK_XREC_LAYER_RECONCILED
360
2930C
  0
DICTIONARY
  5
D
102
{ACAD_REACTORS
330
C
102
}
330
C
100
AcDbDictionary
281
     1
  0
RASTERVARIABLES
  5
2B8DC
102
{ACAD_REACTORS
330
C
102
}
330
C
100
AcDbRasterVariables
 90
        0
 70
     1
 71
     1
 72
     0
  0
DICTIONARY
  5
40CB
102
{ACAD_REACTORS
330
C
102
}
330
C
100
AcDbDictionary
281
     1
  3
Model
350
40CD
  3
ﾚｲｱｳﾄ1
350
40CE
  0
DICTIONARY
  5
E
102
{ACAD_REACTORS
330
C
102
}
330
C
100
AcDbDictionary
281
     1
  3
STANDARD
350
1B
  0
DICTIONARY
  5
40CC
102
{ACAD_REACTORS
330
C
102
}
330
C
100
AcDbDictionary
281
     1
  0
ACDBDICTIONARYWDFLT
  5
40C9
102
{ACAD_REACTORS
330
C
102
}
330
C
100
AcDbDictionary
281
     1
  3
Normal
350
40CA
100
AcDbDictionaryWithDefault
340
40CA
  0
DICTIONARY
  5
28BED
102
{ACAD_REACTORS
330
C
102
}
330
C
100
AcDbDictionary
281
     1
  3
A0
350
28BEE
  3
A1
350
28BEF
  3
A2
350
28BF0
  3
A3
350
28BF1
  3
A4
350
28BF2
  3
A5
350
28BF3
  3
A6
350
28BF4
  3
A7
350
28BF5
  3
A8
350
28BF6
  3
A9
350
28BF7
  3
B0
350
28BF8
  3
B1
350
28BF9
  3
B2
350
28BFA
  3
B3
350
28BFB
  3
B4
350
28BFC
  3
B5
350
28BFD
  3
B6
350
28BFE
  3
B7
350
28BFF
  3
B8
350
28C00
  3
B9
350
28C01
  3
C0
350
28C02
  3
C1
350
28C03
  3
C2
350
28C04
  3
C3
350
28C05
  3
C4
350
28C06
  3
C5
350
28C07
  3
C6
350
28C08
  3
C7
350
28C09
  3
C8
350
28C0A
  3
C9
350
28C0B
  3
D0
350
28C0C
  3
D1
350
28C0D
  3
D2
350
28C0E
  0
DICTIONARY
  5
6377
102
{ACAD_REACTORS
330
C
102
}
330
C
100
AcDbDictionary
281
     1
  3
DIMASSOC
350
73F2
  3
INDEXCTL
350
2932A
  3
PROJECTNAME
350
FE7D
  3
SORTENTS
350
6378
  0
DICTIONARY
  5
2B8DB
102
{ACAD_REACTORS
330
C
102
}
330
C
100
AcDbDictionary
281
     1
  0
XRECORD
  5
2B900
102
{ACAD_REACTORS
330
C
102
}
330
C
100
AcDbXrecord
280
     1
  1
DWGPROPS COOKIE
  2

  3

  4

  6

  7

  8
SPAX
  9

300
=
301
=
302
=
303
=
304
=
305
=
306
=
307
=
308
=
309
=
 40
0.0
 41
2453703.106561227
 42
2456821.194466806
  1

 90
        0
  0
DICTIONARY
  5
17709
102
{ACAD_REACTORS
330
17708
102
}
330
17708
100
AcDbDictionary
281
     1
  0
XRECORD
  5
292FE
102
{ACAD_REACTORS
330
292FD
102
}
330
292FD
100
AcDbXrecord
280
     1
290
     1
  0
XRECORD
  5
29300
102
{ACAD_REACTORS
330
292FF
102
}
330
292FF
100
AcDbXrecord
280
     1
290
     1
  0
XRECORD
  5
29304
102
{ACAD_REACTORS
330
29303
102
}
330
29303
100
AcDbXrecord
280
     1
290
     1
  0
XRECORD
  5
2930C
102
{ACAD_REACTORS
330
2930B
102
}
330
2930B
100
AcDbXrecord
280
     1
290
     1
  0
LAYOUT
  5
40CD
102
{ACAD_REACTORS
330
40CB
102
}
330
40CB
100
AcDbPlotSettings
  1

  2
JUST PDF 2
  4
A4
  6
CUT1
 40
3.174999952316284
 41
3.174999952316284
 42
3.175003051757812
 43
3.17498779296875
 44
209.8886566162109
 45
297.0530090332031
 46
14.27171755861536
 47
9.855173074625782
 48
3959.22254204891
 49
1774.219284619651
140
4309.212979038723
141
2316.204634896984
142
1.0
143
2.0
 70
 11956
 72
     1
 73
     0
 74
     4
  7
spax form.ctb
 75
    17
147
0.5
148
-3959.22254204891
149
-1774.219284619651
100
AcDbLayout
  1
Model
 70
     1
 71
     0
 10
0.0
 20
0.0
 11
12.0
 21
9.0
 12
0.0
 22
0.0
 32
0.0
 14
3945.707741598579
 24
2180.220651250741
 34
0.0
 15
4051.307741598579
 25
2266.300509827725
 35
0.0
146
0.0
 13
0.0
 23
0.0
 33
0.0
 16
1.0
 26
0.0
 36
0.0
 17
0.0
 27
1.0
 37
0.0
 76
     0
330
18
331
2B1D4
1001
ACAD_PSEXT
1000
JUST PDF 2
1000
JUST PDF 2
1000
JUST PDF 2 Port:
1000

1070
     0
  0
LAYOUT
  5
40CE
102
{ACAD_REACTORS
330
40CB
102
}
330
40CB
100
AcDbPlotSettings
  1

  2
なし
  4

  6

 40
0.0
 41
0.0
 42
0.0
 43
0.0
 44
0.0
 45
0.0
 46
0.0
 47
0.0
 48
0.0
 49
0.0
140
0.0
141
0.0
142
1.0
143
1.0
 70
   688
 72
     0
 73
     0
 74
     5
  7
Aiba.ctb
 75
    16
147
1.0
148
0.0
149
0.0
100
AcDbLayout
  1
ﾚｲｱｳﾄ1
 70
     0
 71
     1
 10
0.0
 20
0.0
 11
12.0
 21
9.0
 12
0.0
 22
0.0
 32
0.0
 14
1.000000000000000E+20
 24
1.000000000000000E+20
 34
1.000000000000000E+20
 15
-1.000000000000000E+20
 25
-1.000000000000000E+20
 35
-1.000000000000000E+20
146
0.0
 13
0.0
 23
0.0
 33
0.0
 16
1.0
 26
0.0
 36
0.0
 17
0.0
 27
1.0
 37
0.0
 76
     0
330
15
  0
MLINESTYLE
  5
1B
102
{ACAD_REACTORS
330
E
102
}
330
E
100
AcDbMlineStyle
  2
STANDARD
 70
     0
  3

 62
     0
 51
90.0
 52
90.0
 71
     2
 49
0.5
 62
   256
  6
BYLAYER
 49
-0.5
 62
   256
  6
BYLAYER
  0
ACDBPLACEHOLDER
  5
40CA
102
{ACAD_REACTORS
330
40C9
102
}
330
40C9
  0
SCALE
  5
28BEE
102
{ACAD_REACTORS
330
28BED
102
}
330
28BED
100
AcDbScale
 70
     0
300
1:1
140
1.0
141
1.0
290
     1
  0
SCALE
  5
28BEF
102
{ACAD_REACTORS
330
28BED
102
}
330
28BED
100
AcDbScale
 70
     0
300
1:2
140
1.0
141
2.0
290
     0
  0
SCALE
  5
28BF0
102
{ACAD_REACTORS
330
28BED
102
}
330
28BED
100
AcDbScale
 70
     0
300
1:4
140
1.0
141
4.0
290
     0
  0
SCALE
  5
28BF1
102
{ACAD_REACTORS
330
28BED
102
}
330
28BED
100
AcDbScale
 70
     0
300
1:5
140
1.0
141
5.0
290
     0
  0
SCALE
  5
28BF2
102
{ACAD_REACTORS
330
28BED
102
}
330
28BED
100
AcDbScale
 70
     0
300
1:8
140
1.0
141
8.0
290
     0
  0
SCALE
  5
28BF3
102
{ACAD_REACTORS
330
28BED
102
}
330
28BED
100
AcDbScale
 70
     0
300
1:10
140
1.0
141
10.0
290
     0
  0
SCALE
  5
28BF4
102
{ACAD_REACTORS
330
28BED
102
}
330
28BED
100
AcDbScale
 70
     0
300
1:16
140
1.0
141
16.0
290
     0
  0
SCALE
  5
28BF5
102
{ACAD_REACTORS
330
28BED
102
}
330
28BED
100
AcDbScale
 70
     0
300
1:20
140
1.0
141
20.0
290
     0
  0
SCALE
  5
28BF6
102
{ACAD_REACTORS
330
28BED
102
}
330
28BED
100
AcDbScale
 70
     0
300
1:30
140
1.0
141
30.0
290
     0
  0
SCALE
  5
28BF7
102
{ACAD_REACTORS
330
28BED
102
}
330
28BED
100
AcDbScale
 70
     0
300
1:40
140
1.0
141
40.0
290
     0
  0
SCALE
  5
28BF8
102
{ACAD_REACTORS
330
28BED
102
}
330
28BED
100
AcDbScale
 70
     0
300
1:50
140
1.0
141
50.0
290
     0
  0
SCALE
  5
28BF9
102
{ACAD_REACTORS
330
28BED
102
}
330
28BED
100
AcDbScale
 70
     0
300
1:100
140
1.0
141
100.0
290
     0
  0
SCALE
  5
28BFA
102
{ACAD_REACTORS
330
28BED
102
}
330
28BED
100
AcDbScale
 70
     0
300
2:1
140
2.0
141
1.0
290
     0
  0
SCALE
  5
28BFB
102
{ACAD_REACTORS
330
28BED
102
}
330
28BED
100
AcDbScale
 70
     0
300
4:1
140
4.0
141
1.0
290
     0
  0
SCALE
  5
28BFC
102
{ACAD_REACTORS
330
28BED
102
}
330
28BED
100
AcDbScale
 70
     0
300
8:1
140
8.0
141
1.0
290
     0
  0
SCALE
  5
28BFD
102
{ACAD_REACTORS
330
28BED
102
}
330
28BED
100
AcDbScale
 70
     0
300
10:1
140
10.0
141
1.0
290
     0
  0
SCALE
  5
28BFE
102
{ACAD_REACTORS
330
28BED
102
}
330
28BED
100
AcDbScale
 70
     0
300
100:1
140
100.0
141
1.0
290
     0
  0
SCALE
  5
28BFF
102
{ACAD_REACTORS
330
28BED
102
}
330
28BED
100
AcDbScale
 70
     0
300
1/128" = 1'-0"
140
0.0078125
141
12.0
290
     0
  0
SCALE
  5
28C00
102
{ACAD_REACTORS
330
28BED
102
}
330
28BED
100
AcDbScale
 70
     0
300
1/64" = 1'-0"
140
0.015625
141
12.0
290
     0
  0
SCALE
  5
28C01
102
{ACAD_REACTORS
330
28BED
102
}
330
28BED
100
AcDbScale
 70
     0
300
1/32" = 1'-0"
140
0.03125
141
12.0
290
     0
  0
SCALE
  5
28C02
102
{ACAD_REACTORS
330
28BED
102
}
330
28BED
100
AcDbScale
 70
     0
300
1/16" = 1'-0"
140
0.0625
141
12.0
290
     0
  0
SCALE
  5
28C03
102
{ACAD_REACTORS
330
28BED
102
}
330
28BED
100
AcDbScale
 70
     0
300
3/32" = 1'-0"
140
0.09375
141
12.0
290
     0
  0
SCALE
  5
28C04
102
{ACAD_REACTORS
330
28BED
102
}
330
28BED
100
AcDbScale
 70
     0
300
1/8" = 1'-0"
140
0.125
141
12.0
290
     0
  0
SCALE
  5
28C05
102
{ACAD_REACTORS
330
28BED
102
}
330
28BED
100
AcDbScale
 70
     0
300
3/16" = 1'-0"
140
0.1875
141
12.0
290
     0
  0
SCALE
  5
28C06
102
{ACAD_REACTORS
330
28BED
102
}
330
28BED
100
AcDbScale
 70
     0
300
1/4" = 1'-0"
140
0.25
141
12.0
290
     0
  0
SCALE
  5
28C07
102
{ACAD_REACTORS
330
28BED
102
}
330
28BED
100
AcDbScale
 70
     0
300
3/8" = 1'-0"
140
0.375
141
12.0
290
     0
  0
SCALE
  5
28C08
102
{ACAD_REACTORS
330
28BED
102
}
330
28BED
100
AcDbScale
 70
     0
300
1/2" = 1'-0"
140
0.5
141
12.0
290
     0
  0
SCALE
  5
28C09
102
{ACAD_REACTORS
330
28BED
102
}
330
28BED
100
AcDbScale
 70
     0
300
3/4" = 1'-0"
140
0.75
141
12.0
290
     0
  0
SCALE
  5
28C0A
102
{ACAD_REACTORS
330
28BED
102
}
330
28BED
100
AcDbScale
 70
     0
300
1" = 1'-0"
140
1.0
141
12.0
290
     0
  0
SCALE
  5
28C0B
102
{ACAD_REACTORS
330
28BED
102
}
330
28BED
100
AcDbScale
 70
     0
300
1-1/2" = 1'-0"
140
1.5
141
12.0
290
     0
  0
SCALE
  5
28C0C
102
{ACAD_REACTORS
330
28BED
102
}
330
28BED
100
AcDbScale
 70
     0
300
3" = 1'-0"
140
3.0
141
12.0
290
     0
  0
SCALE
  5
28C0D
102
{ACAD_REACTORS
330
28BED
102
}
330
28BED
100
AcDbScale
 70
     0
300
6" = 1'-0"
140
6.0
141
12.0
290
     0
  0
SCALE
  5
28C0E
102
{ACAD_REACTORS
330
28BED
102
}
330
28BED
100
AcDbScale
 70
     0
300
1'-0" = 1'-0"
140
12.0
141
12.0
290
     0
  0
DICTIONARYVAR
  5
73F2
102
{ACAD_REACTORS
330
6377
102
}
330
6377
100
DictionaryVariables
280
     0
  1
1
  0
DICTIONARYVAR
  5
2932A
102
{ACAD_REACTORS
330
6377
102
}
330
6377
100
DictionaryVariables
280
     0
  1
0
  0
DICTIONARYVAR
  5
FE7D
102
{ACAD_REACTORS
330
6377
102
}
330
6377
100
DictionaryVariables
280
     0
  1

  0
DICTIONARYVAR
  5
6378
102
{ACAD_REACTORS
330
6377
102
}
330
6377
100
DictionaryVariables
280
     0
  1
96
  0
ENDSEC
  0
EOF
