  0
SECTION
  2
HEADER
  9
$ACADVER
  1
AC1015
  9
$ACADMAINTVER
 70
     6
  9
$DWGCODEPAGE
  3
ANSI_932
  9
$INSBASE
 10
0.0
 20
0.0
 30
0.0
  9
$EXTMIN
 10
5032.225260533673
 20
-7640.998956962836
 30
0.0
  9
$EXTMAX
 10
5127.558593867006
 20
-7553.302660599652
 30
0.0
  9
$LIMMIN
 10
0.0
 20
0.0
  9
$LIMMAX
 10
420.0
 20
297.0
  9
$ORTHOMODE
 70
     1
  9
$REGENMODE
 70
     1
  9
$FILLMODE
 70
     1
  9
$QTEXTMODE
 70
     0
  9
$MIRRTEXT
 70
     1
  9
$LTSCALE
 40
5.0
  9
$ATTMODE
 70
     0
  9
$TEXTSIZE
 40
53.44730959687513
  9
$TRACEWID
 40
1.0
  9
$TEXTSTYLE
  7
STANDARD
  9
$CLAYER
  8
寸法線
  9
$CELTYPE
  6
BYLAYER
  9
$CECOLOR
 62
   256
  9
$CELTSCALE
 40
1.0
  9
$DISPSILH
 70
     0
  9
$DIMSCALE
 40
1.0
  9
$DIMASZ
 40
2.5
  9
$DIMEXO
 40
1.5
  9
$DIMDLI
 40
0.38
  9
$DIMRND
 40
0.0
  9
$DIMDLE
 40
0.0
  9
$DIMEXE
 40
1.0
  9
$DIMTP
 40
0.0
  9
$DIMTM
 40
0.0
  9
$DIMTXT
 40
2.500000000000003
  9
$DIMCEN
 40
0.0
  9
$DIMTSZ
 40
0.0
  9
$DIMTOL
 70
     0
  9
$DIMLIM
 70
     0
  9
$DIMTIH
 70
     0
  9
$DIMTOH
 70
     0
  9
$DIMSE1
 70
     0
  9
$DIMSE2
 70
     0
  9
$DIMTAD
 70
     3
  9
$DIMZIN
 70
     8
  9
$DIMBLK
  1

  9
$DIMASO
 70
     1
  9
$DIMSHO
 70
     0
  9
$DIMPOST
  1

  9
$DIMAPOST
  1

  9
$DIMALT
 70
     0
  9
$DIMALTD
 70
     0
  9
$DIMALTF
 40
25.4
  9
$DIMLFAC
 40
1.0
  9
$DIMTOFL
 70
     1
  9
$DIMTVP
 40
0.0
  9
$DIMTIX
 70
     0
  9
$DIMSOXD
 70
     0
  9
$DIMSAH
 70
     1
  9
$DIMBLK1
  1
OPEN
  9
$DIMBLK2
  1
OPEN
  9
$DIMSTYLE
  2
STANDARD
  9
$DIMCLRD
 70
     8
  9
$DIMCLRE
 70
     8
  9
$DIMCLRT
 70
   256
  9
$DIMTFAC
 40
1.0
  9
$DIMGAP
 40
1.0
  9
$DIMJUST
 70
     0
  9
$DIMSD1
 70
     0
  9
$DIMSD2
 70
     0
  9
$DIMTOLJ
 70
     1
  9
$DIMTZIN
 70
     0
  9
$DIMALTZ
 70
     0
  9
$DIMALTTZ
 70
     0
  9
$DIMUPT
 70
     0
  9
$DIMDEC
 70
     2
  9
$DIMTDEC
 70
     2
  9
$DIMALTU
 70
     2
  9
$DIMALTTD
 70
     0
  9
$DIMTXSTY
  7
STANDARD
  9
$DIMAUNIT
 70
     0
  9
$DIMADEC
 70
     2
  9
$DIMALTRND
 40
0.0
  9
$DIMAZIN
 70
     2
  9
$DIMDSEP
 70
    46
  9
$DIMATFIT
 70
     1
  9
$DIMFRAC
 70
     0
  9
$DIMLDRBLK
  1
OPEN
  9
$DIMLUNIT
 70
     2
  9
$DIMLWD
 70
    -2
  9
$DIMLWE
 70
    -2
  9
$DIMTMOVE
 70
     0
  9
$LUNITS
 70
     2
  9
$LUPREC
 70
     2
  9
$SKETCHINC
 40
0.1
  9
$FILLETRAD
 40
7.0
  9
$AUNITS
 70
     0
  9
$AUPREC
 70
     1
  9
$MENU
  1
FM
  9
$ELEVATION
 40
0.0
  9
$PELEVATION
 40
0.0
  9
$THICKNESS
 40
0.0
  9
$LIMCHECK
 70
     0
  9
$CHAMFERA
 40
0.0
  9
$CHAMFERB
 40
0.0
  9
$CHAMFERC
 40
0.0
  9
$CHAMFERD
 40
0.0
  9
$SKPOLY
 70
     0
  9
$TDCREATE
 40
2448636.619629629
  9
$TDUCREATE
 40
2448636.244629629
  9
$TDUPDATE
 40
2456821.571374665
  9
$TDUUPDATE
 40
2456821.196374665
  9
$TDINDWG
 40
53.0217752662
  9
$TDUSRTIMER
 40
2456821.196221528
  9
$USRTIMER
 70
     1
  9
$ANGBASE
 50
0.0
  9
$ANGDIR
 70
     0
  9
$PDMODE
 70
     3
  9
$PDSIZE
 40
0.0
  9
$PLINEWID
 40
0.0
  9
$SPLFRAME
 70
     0
  9
$SPLINETYPE
 70
     6
  9
$SPLINESEGS
 70
     8
  9
$HANDSEED
  5
16A7FD
  9
$SURFTAB1
 70
     6
  9
$SURFTAB2
 70
     6
  9
$SURFTYPE
 70
     6
  9
$SURFU
 70
     6
  9
$SURFV
 70
     6
  9
$UCSBASE
  2

  9
$UCSNAME
  2

  9
$UCSORG
 10
0.0
 20
0.0
 30
0.0
  9
$UCSXDIR
 10
1.0
 20
0.0
 30
0.0
  9
$UCSYDIR
 10
0.0
 20
1.0
 30
0.0
  9
$UCSORTHOREF
  2

  9
$UCSORTHOVIEW
 70
     0
  9
$UCSORGTOP
 10
0.0
 20
0.0
 30
0.0
  9
$UCSORGBOTTOM
 10
0.0
 20
0.0
 30
0.0
  9
$UCSORGLEFT
 10
0.0
 20
0.0
 30
0.0
  9
$UCSORGRIGHT
 10
0.0
 20
0.0
 30
0.0
  9
$UCSORGFRONT
 10
0.0
 20
0.0
 30
0.0
  9
$UCSORGBACK
 10
0.0
 20
0.0
 30
0.0
  9
$PUCSBASE
  2

  9
$PUCSNAME
  2

  9
$PUCSORG
 10
0.0
 20
0.0
 30
0.0
  9
$PUCSXDIR
 10
1.0
 20
0.0
 30
0.0
  9
$PUCSYDIR
 10
0.0
 20
1.0
 30
0.0
  9
$PUCSORTHOREF
  2

  9
$PUCSORTHOVIEW
 70
     0
  9
$PUCSORGTOP
 10
0.0
 20
0.0
 30
0.0
  9
$PUCSORGBOTTOM
 10
0.0
 20
0.0
 30
0.0
  9
$PUCSORGLEFT
 10
0.0
 20
0.0
 30
0.0
  9
$PUCSORGRIGHT
 10
0.0
 20
0.0
 30
0.0
  9
$PUCSORGFRONT
 10
0.0
 20
0.0
 30
0.0
  9
$PUCSORGBACK
 10
0.0
 20
0.0
 30
0.0
  9
$USERI1
 70
     0
  9
$USERI2
 70
     0
  9
$USERI3
 70
     0
  9
$USERI4
 70
     0
  9
$USERI5
 70
     0
  9
$USERR1
 40
0.0
  9
$USERR2
 40
0.0
  9
$USERR3
 40
0.0
  9
$USERR4
 40
0.0
  9
$USERR5
 40
0.0
  9
$WORLDVIEW
 70
     0
  9
$SHADEDGE
 70
     3
  9
$SHADEDIF
 70
    70
  9
$TILEMODE
 70
     1
  9
$MAXACTVP
 70
    16
  9
$PINSBASE
 10
0.0
 20
0.0
 30
0.0
  9
$PLIMCHECK
 70
     0
  9
$PEXTMIN
 10
1.000000000000000E+20
 20
1.000000000000000E+20
 30
1.000000000000000E+20
  9
$PEXTMAX
 10
-1.000000000000000E+20
 20
-1.000000000000000E+20
 30
-1.000000000000000E+20
  9
$PLIMMIN
 10
0.0
 20
0.0
  9
$PLIMMAX
 10
0.0
 20
0.0
  9
$UNITMODE
 70
     0
  9
$VISRETAIN
 70
     0
  9
$PLINEGEN
 70
     0
  9
$PSLTSCALE
 70
     0
  9
$TREEDEPTH
 70
  3020
  9
$CMLSTYLE
  2
STANDARD
  9
$CMLJUST
 70
     0
  9
$CMLSCALE
 40
1.0
  9
$PROXYGRAPHICS
 70
     1
  9
$MEASUREMENT
 70
     0
  9
$CELWEIGHT
370
    -1
  9
$ENDCAPS
280
     0
  9
$JOINSTYLE
280
     0
  9
$LWDISPLAY
290
     0
  9
$INSUNITS
 70
     0
  9
$HYPERLINKBASE
  1

  9
$STYLESHEET
  1
spax form.ctb
  9
$XEDIT
290
     1
  9
$CEPSNTYPE
380
     0
  9
$PSTYLEMODE
290
     1
  9
$FINGERPRINTGUID
  2
{BBAEEBA6-8B94-11D3-9160-00E0294F7E09}
  9
$VERSIONGUID
  2
{852C2FA0-0BC6-47BD-B9A7-D268E11BC83F}
  9
$EXTNAMES
290
     1
  9
$PSVPSCALE
 40
0.0
  9
$OLESTARTUP
290
     0
  0
ENDSEC
  0
SECTION
  2
CLASSES
  0
CLASS
  1
LWPOLYLINE
  2
AcDbPolyline
  3
ObjectDBX Classes
 90
        0
280
     0
281
     1
  0
CLASS
  1
ACDBDICTIONARYWDFLT
  2
AcDbDictionaryWithDefault
  3
ObjectDBX Classes
 90
        0
280
     0
281
     0
  0
CLASS
  1
ACDBPLACEHOLDER
  2
AcDbPlaceHolder
  3
ObjectDBX Classes
 90
        0
280
     0
281
     0
  0
CLASS
  1
LAYOUT
  2
AcDbLayout
  3
ObjectDBX Classes
 90
        0
280
     0
281
     0
  0
CLASS
  1
DICTIONARYVAR
  2
AcDbDictionaryVar
  3
ObjectDBX Classes
 90
        0
280
     0
281
     0
  0
CLASS
  1
MATERIAL
  2
AcDbMaterial
  3
ObjectDBX Classes
 90
     1153
280
     0
281
     0
  0
CLASS
  1
VISUALSTYLE
  2
AcDbVisualStyle
  3
ObjectDBX Classes
 90
     4095
280
     0
281
     0
  0
CLASS
  1
TABLESTYLE
  2
AcDbTableStyle
  3
ObjectDBX Classes
 90
     4095
280
     0
281
     0
  0
CLASS
  1
SCALE
  2
AcDbScale
  3
ObjectDBX Classes
 90
     1153
280
     0
281
     0
  0
CLASS
  1
MLEADERSTYLE
  2
AcDbMLeaderStyle
  3
ACDB_MLEADERSTYLE_CLASS
 90
     4095
280
     0
281
     0
  0
CLASS
  1
CELLSTYLEMAP
  2
AcDbCellStyleMap
  3
ObjectDBX Classes
 90
     1152
280
     0
281
     0
  0
CLASS
  1
SORTENTSTABLE
  2
AcDbSortentsTable
  3
ObjectDBX Classes
 90
        0
280
     0
281
     0
  0
CLASS
  1
MULTILEADER
  2
AcDbMLeader
  3
ACDB_MLEADER_CLASS
 90
     1025
280
     0
281
     1
  0
CLASS
  1
DIMASSOC
  2
AcDbDimAssoc
  3
"AcDbDimAssoc|Product Desc:     AcDim ARX App For Dimension|Company:          Autodesk, Inc.|WEB Address:      www.autodesk.com"
 90
        0
280
     0
281
     0
  0
CLASS
  1
RASTERVARIABLES
  2
AcDbRasterVariables
  3
ISM
 90
        0
280
     0
281
     0
  0
CLASS
  1
SUN
  2
AcDbSun
  3
SCENEOE
 90
     1153
280
     0
281
     0
  0
ENDSEC
  0
SECTION
  2
TABLES
  0
TABLE
  2
VPORT
  5
8
330
0
100
AcDbSymbolTable
 70
     1
  0
VPORT
  5
1638AC
330
8
100
AcDbSymbolTableRecord
100
AcDbViewportTableRecord
  2
*Active
 70
     0
 10
0.0
 20
0.0
 11
1.0
 21
1.0
 12
5079.891927200339
 22
-7597.150808781244
 13
0.0
 23
0.0
 14
1.0
 24
1.0
 15
20.0
 25
20.0
 16
0.0
 26
0.0
 36
1.0
 17
0.0
 27
0.0
 37
0.0
 40
89.45022229044773
 41
1.731829573934837
 42
50.0
 43
0.0
 44
0.0
 50
0.0
 51
0.0
 71
    16
 72
   100
 73
     1
 74
     0
 75
     0
 76
     0
 77
     0
 78
     0
281
     0
 65
     1
110
0.0
120
0.0
130
0.0
111
1.0
121
0.0
131
0.0
112
0.0
122
1.0
132
0.0
 79
     0
146
0.0
  0
ENDTAB
  0
TABLE
  2
LTYPE
  5
5
330
0
100
AcDbSymbolTable
 70
     4
  0
LTYPE
  5
12
330
5
100
AcDbSymbolTableRecord
100
AcDbLinetypeTableRecord
  2
BYBLOCK
 70
     0
  3

 72
    65
 73
     0
 40
0.0
  0
LTYPE
  5
13
330
5
100
AcDbSymbolTableRecord
100
AcDbLinetypeTableRecord
  2
BYLAYER
 70
     0
  3

 72
    65
 73
     0
 40
0.0
  0
LTYPE
  5
14
330
5
100
AcDbSymbolTableRecord
100
AcDbLinetypeTableRecord
  2
CONTINUOUS
 70
     0
  3
Solid line
 72
    65
 73
     0
 40
0.0
  0
LTYPE
  5
27
330
5
100
AcDbSymbolTableRecord
100
AcDbLinetypeTableRecord
  2
HIDDEN
 70
     0
  3
_ _ _ _ _ _ _ _ _ _ _ _ _ _ _ _ _ _ _ _ _ _ _
 72
    65
 73
     2
 40
0.375
 49
0.25
 74
     0
 49
-0.125
 74
     0
  0
LTYPE
  5
514
330
5
100
AcDbSymbolTableRecord
100
AcDbLinetypeTableRecord
  2
CENTER
 70
     0
  3
Center ____ _ ____ _ ____ _ ____ _ ____ _ ____
 72
    65
 73
     4
 40
2.0
 49
1.25
 74
     0
 49
-0.25
 74
     0
 49
0.25
 74
     0
 49
-0.25
 74
     0
  0
ENDTAB
  0
TABLE
  2
LAYER
  5
2
102
{ACAD_XDICTIONARY
360
8BF
102
}
330
0
100
AcDbSymbolTable
 70
    13
  0
LAYER
  5
F
102
{ACAD_XDICTIONARY
360
A60
102
}
330
2
100
AcDbSymbolTableRecord
100
AcDbLayerTableRecord
  2
0
 70
     0
 62
     7
  6
CONTINUOUS
370
    -3
390
616
  0
LAYER
  5
34
102
{ACAD_XDICTIONARY
360
A66
102
}
330
2
100
AcDbSymbolTableRecord
100
AcDbLayerTableRecord
  2
寸法線
 70
     0
 62
     7
  6
CONTINUOUS
370
    -3
390
616
  0
LAYER
  5
2F4
102
{ACAD_XDICTIONARY
360
A6E
102
}
330
2
100
AcDbSymbolTableRecord
100
AcDbLayerTableRecord
  2
文字
 70
     0
 62
     7
  6
CONTINUOUS
370
    -3
390
616
  0
LAYER
  5
305
102
{ACAD_XDICTIONARY
360
A72
102
}
330
2
100
AcDbSymbolTableRecord
100
AcDbLayerTableRecord
  2
姿図
 70
     0
 62
     8
  6
CONTINUOUS
370
    -3
390
616
  0
ENDTAB
  0
TABLE
  2
STYLE
  5
3
330
0
100
AcDbSymbolTable
 70
     1
  0
STYLE
  5
10
330
3
100
AcDbSymbolTableRecord
100
AcDbTextStyleTableRecord
  2
STANDARD
 70
     0
 40
0.0
 41
1.0
 50
0.0
 71
     0
 42
53.44730959687513
  3
MONOTXT
  4
BIGFONT
  0
ENDTAB
  0
TABLE
  2
VIEW
  5
6
330
0
100
AcDbSymbolTable
 70
     0
  0
ENDTAB
  0
TABLE
  2
UCS
  5
7
330
0
100
AcDbSymbolTable
 70
     0
  0
ENDTAB
  0
TABLE
  2
APPID
  5
9
330
0
100
AcDbSymbolTable
 70
    15
  0
APPID
  5
11
330
9
100
AcDbSymbolTableRecord
100
AcDbRegAppTableRecord
  2
ACAD
 70
     0
  0
APPID
  5
8BB
330
9
100
AcDbSymbolTableRecord
100
AcDbRegAppTableRecord
  2
ACAD_PSEXT
 70
     0
  0
APPID
  5
A5A
330
9
100
AcDbSymbolTableRecord
100
AcDbRegAppTableRecord
  2
ACAD_MLEADERVER
 70
     0
  0
APPID
  5
A5E
330
9
100
AcDbSymbolTableRecord
100
AcDbRegAppTableRecord
  2
ACAD_DSTYLE_DIMJAG
 70
     0
  0
APPID
  5
A5F
330
9
100
AcDbSymbolTableRecord
100
AcDbRegAppTableRecord
  2
ACAD_DSTYLE_DIMTALN
 70
     0
  0
APPID
  5
12C0
330
9
100
AcDbSymbolTableRecord
100
AcDbRegAppTableRecord
  2
ACAD_EXEMPT_FROM_CAD_STANDARDS
 70
     0
  0
APPID
  5
1C50
330
9
100
AcDbSymbolTableRecord
100
AcDbRegAppTableRecord
  2
AcAecLayerStandard
 70
     0
  0
APPID
  5
5088
330
9
100
AcDbSymbolTableRecord
100
AcDbRegAppTableRecord
  2
ACAD_DSTYLE_DIMRADIAL_EXTENSION
 70
     0
  0
APPID
  5
14AF3
330
9
100
AcDbSymbolTableRecord
100
AcDbRegAppTableRecord
  2
WACOM_STRING
 70
     0
  0
APPID
  5
14AF4
330
9
100
AcDbSymbolTableRecord
100
AcDbRegAppTableRecord
  2
WACOM_DRSYM_ARROW
 70
     0
  0
APPID
  5
1E1A8
330
9
100
AcDbSymbolTableRecord
100
AcDbRegAppTableRecord
  2
GENIUS_GENODEF_13
 70
     0
  0
APPID
  5
1E1A9
330
9
100
AcDbSymbolTableRecord
100
AcDbRegAppTableRecord
  2
GENIUS_GENREC_14
 70
     0
  0
APPID
  5
1E1AA
330
9
100
AcDbSymbolTableRecord
100
AcDbRegAppTableRecord
  2
GENIUS_GENOBJ-N-REC_13
 70
     0
  0
APPID
  5
27C72
330
9
100
AcDbSymbolTableRecord
100
AcDbRegAppTableRecord
  2
ASK_MEN_XD
 70
     0
  0
APPID
  5
29316
330
9
100
AcDbSymbolTableRecord
100
AcDbRegAppTableRecord
  2
ACAD_DSTYLE_DIMBREAK
 70
     0
  0
ENDTAB
  0
TABLE
  2
DIMSTYLE
  5
A
330
0
100
AcDbSymbolTable
 70
     3
100
AcDbDimStyleTable
  0
DIMSTYLE
105
1CC
330
A
100
AcDbSymbolTableRecord
100
AcDbDimStyleTableRecord
  2
STANDARD
 70
     0
 41
2.5
 42
1.5
 44
1.0
 73
     0
 74
     0
 77
     3
 78
     8
 79
     2
140
2.500000000000003
141
0.0
147
1.0
171
     0
172
     1
173
     1
176
     8
177
     8
271
     2
178
   256
179
     2
271
     2
272
     2
274
     0
289
     1
340
10
341
608
343
608
344
608
1001
ACAD_DSTYLE_DIMJAG
1070
   388
1040
1.5
1001
ACAD_DSTYLE_DIMTALN
1070
   392
1070
     0
  0
ENDTAB
  0
TABLE
  2
BLOCK_RECORD
  5
1
330
0
100
AcDbSymbolTable
 70
    10
  0
BLOCK_RECORD
  5
18
102
{ACAD_XDICTIONARY
360
143F
102
}
330
1
100
AcDbSymbolTableRecord
100
AcDbBlockTableRecord
  2
*MODEL_SPACE
340
619
  0
BLOCK_RECORD
  5
15
330
1
100
AcDbSymbolTableRecord
100
AcDbBlockTableRecord
  2
*PAPER_SPACE
340
61A
  0
BLOCK_RECORD
  5
608
330
1
100
AcDbSymbolTableRecord
100
AcDbBlockTableRecord
  2
_OPEN
340
0
102
{BLKREFS
331
15C322
331
15C323
331
16358F
331
163590
331
168FFB
331
168FFC
331
169004
331
169005
331
16A79B
331
16A79C
331
16A7A4
331
16A7A5
102
}
  0
BLOCK_RECORD
  5
89D
330
1
100
AcDbSymbolTableRecord
100
AcDbBlockTableRecord
  2
SUN
340
0
  0
BLOCK_RECORD
  5
1F1F
330
1
100
AcDbSymbolTableRecord
100
AcDbBlockTableRecord
  2
_OPEN30
340
0
  0
ENDTAB
  0
ENDSEC
  0
SECTION
  2
BLOCKS
  0
BLOCK
  5
39
330
18
100
AcDbEntity
  8
0
100
AcDbBlockBegin
  2
*MODEL_SPACE
 70
     0
 10
0.0
 20
0.0
 30
0.0
  3
*MODEL_SPACE
  1
*MODEL_SPACE
  0
ENDBLK
  5
3A
330
18
100
AcDbEntity
  8
0
100
AcDbBlockEnd
  0
BLOCK
  5
37
330
15
100
AcDbEntity
 67
     1
  8
0
100
AcDbBlockBegin
  2
*PAPER_SPACE
 70
     0
 10
0.0
 20
0.0
 30
0.0
  3
*PAPER_SPACE
  1
*PAPER_SPACE
  0
ENDBLK
  5
38
330
15
100
AcDbEntity
 67
     1
  8
0
100
AcDbBlockEnd
  0
BLOCK
  5
609
330
608
100
AcDbEntity
  8
0
100
AcDbBlockBegin
  2
_OPEN
 70
     0
 10
0.0
 20
0.0
 30
0.0
  3
_OPEN
  1
_OPEN
  0
LINE
  5
60A
330
608
100
AcDbEntity
  8
0
  6
ByBlock
 62
     0
100
AcDbLine
 10
-1.0
 20
0.1666666666666667
 30
0.0
 11
0.0
 21
0.0
 31
0.0
  0
LINE
  5
60B
330
608
100
AcDbEntity
  8
0
  6
ByBlock
 62
     0
100
AcDbLine
 10
0.0
 20
0.0
 30
0.0
 11
-1.0
 21
-0.1666666666666667
 31
0.0
  0
LINE
  5
60C
330
608
100
AcDbEntity
  8
0
  6
ByBlock
 62
     0
100
AcDbLine
 10
0.0
 20
0.0
 30
0.0
 11
-1.0
 21
0.0
 31
0.0
  0
ENDBLK
  5
60D
330
608
100
AcDbEntity
  8
0
100
AcDbBlockEnd
  0
BLOCK
  5
89E
330
89D
100
AcDbEntity
  8
0
100
AcDbBlockBegin
  2
SUN
 70
     0
 10
0.0
 20
0.0
 30
0.0
  3
SUN
  1
SUN
  0
LINE
  5
89F
330
89D
100
AcDbEntity
  8
0
100
AcDbLine
 10
-0.0000000000000568
 20
0.0
 30
0.0
 11
-1.500000000000057
 21
0.0
 31
0.0
  0
LINE
  5
8A0
330
89D
100
AcDbEntity
  8
0
100
AcDbLine
 10
-0.0000000000000568
 20
0.0000000000000284
 30
0.0
 11
-1.500000000000057
 21
0.401923788646684
 31
0.0
  0
LINE
  5
8A1
330
89D
100
AcDbEntity
  8
0
100
AcDbLine
 10
-0.0000000000000568
 20
0.0000000000000284
 30
0.0
 11
-1.500000000000057
 21
-0.4019237886466556
 31
0.0
  0
ENDBLK
  5
8A2
330
89D
100
AcDbEntity
  8
0
100
AcDbBlockEnd
  0
BLOCK
  5
1F20
330
1F1F
100
AcDbEntity
  8
0
100
AcDbBlockBegin
  2
_OPEN30
 70
     0
 10
0.0
 20
0.0
 30
0.0
  3
_OPEN30
  1
_OPEN30
  0
LINE
  5
1F21
330
1F1F
100
AcDbEntity
  8
0
  6
ByBlock
 62
     0
100
AcDbLine
 10
-1.0
 20
0.26794919
 30
0.0
 11
0.0
 21
0.0
 31
0.0
  0
LINE
  5
1F22
330
1F1F
100
AcDbEntity
  8
0
  6
ByBlock
 62
     0
100
AcDbLine
 10
0.0
 20
0.0
 30
0.0
 11
-1.0
 21
-0.26794919
 31
0.0
  0
LINE
  5
1F23
330
1F1F
100
AcDbEntity
  8
0
  6
ByBlock
 62
     0
100
AcDbLine
 10
0.0
 20
0.0
 30
0.0
 11
-1.0
 21
0.0
 31
0.0
  0
ENDBLK
  5
1F24
330
1F1F
100
AcDbEntity
  8
0
100
AcDbBlockEnd
  0
ENDSEC
  0
SECTION
  2
ENTITIES
  0
MTEXT
  5
D0CC6
330
18
100
AcDbEntity
  8
寸法線
100
AcDbMText
 10
2610.774875364868
 20
-2740.315466585338
 30
0.0
 40
2.500000000000003
 41
0.0
 71
     9
 72
     1
  1
\A1;
 73
     1
 44
1.0
  0
MTEXT
  5
F6D77
330
18
100
AcDbEntity
  8
文字
100
AcDbMText
 10
5821.057140836062
 20
-2842.341718131323
 30
0.0
 40
2.5
 41
64.39156592258223
 71
     1
 72
     5
  1
   
 73
     1
 44
1.0
  0
MTEXT
  5
F6D78
330
18
100
AcDbEntity
  8
寸法線
100
AcDbMText
 10
6222.662262480188
 20
-2968.738290481128
 30
0.0
 40
3.000000000000001
 41
0.0
 71
     7
 72
     1
  1
\A1;
 73
     1
 44
1.0
  0
TEXT
  5
169798
330
18
100
AcDbEntity
  8
文字
100
AcDbText
 10
5032.225260533673
 20
-7639.915623629503
 30
0.0
 40
6.5
  1
SL-B1352D/WC,NC
100
AcDbText
  0
ELLIPSE
  5
1699BB
330
18
100
AcDbEntity
  8
姿図
100
AcDbEllipse
 10
5085.359433586165
 20
-7568.678028047569
 30
0.0
 11
15.172283203125
 21
0.0
 31
0.0
210
0.0
220
0.0
230
1.0
 40
0.4970283540701101
 41
7.074854205792756
 42
8.482454624318267
  0
ELLIPSE
  5
1699BC
330
18
100
AcDbEntity
  8
姿図
100
AcDbEllipse
 10
5085.799634106998
 20
-7560.651661120486
 30
0.0
 11
6.807216536458333
 21
0.0
 31
0.0
210
0.0
220
0.0
230
1.0
 40
0.5787746356777222
 41
1.112128156115095
 42
1.201556856358739
  0
ELLIPSE
  5
1699BD
330
18
100
AcDbEntity
  8
姿図
100
AcDbEllipse
 10
5085.799634106998
 20
-7560.651661120486
 30
0.0
 11
6.807216536458333
 21
0.0
 31
0.0
210
0.0
220
0.0
230
1.0
 40
0.5787746356777222
 41
1.412415807147717
 42
1.598884992121848
  0
ELLIPSE
  5
1699BE
330
18
100
AcDbEntity
  8
姿図
100
AcDbEllipse
 10
5085.799634106998
 20
-7560.651661120486
 30
0.0
 11
6.807216536458333
 21
0.0
 31
0.0
210
0.0
220
0.0
230
1.0
 40
0.5787746356777222
 41
1.728626964199836
 42
1.903766585222755
  0
LINE
  5
1699BF
330
18
100
AcDbEntity
  8
姿図
100
AcDbLine
 10
5100.533476830565
 20
-7598.229442741637
 30
0.0
 11
5100.903260327897
 21
-7599.558095987913
 31
0.0
  0
LINE
  5
1699C0
330
18
100
AcDbEntity
  8
姿図
100
AcDbLine
 10
5101.995295490476
 20
-7603.481840758238
 30
0.0
 11
5104.342934149246
 21
-7611.917040672684
 31
0.0
  0
LINE
  5
1699C1
330
18
100
AcDbEntity
  8
姿図
100
AcDbLine
 10
5070.942935509985
 20
-7598.274512292059
 30
0.0
 11
5070.552089705911
 21
-7599.621376418312
 31
0.0
  0
LINE
  5
1699C2
330
18
100
AcDbEntity
  8
姿図
100
AcDbLine
 10
5069.478183572734
 20
-7603.322083015821
 30
0.0
 11
5066.967956120062
 21
-7611.972387738316
 31
0.0
  0
LINE
  5
1699C3
330
18
100
AcDbEntity
  8
姿図
100
AcDbLine
 10
5100.780094393457
 20
-7589.031927787151
 30
0.0
 11
5100.696616457129
 21
-7592.692795851332
 31
0.0
  0
LINE
  5
1699C4
330
18
100
AcDbEntity
  8
姿図
100
AcDbLine
 10
5070.909628247623
 20
-7589.031927787151
 30
0.0
 11
5070.802108883245
 21
-7592.892291956789
 31
0.0
  0
LINE
  5
1699C5
330
18
100
AcDbEntity
  8
姿図
100
AcDbLine
 10
5070.254883716373
 20
-7574.796682995486
 30
0.0
 11
5070.18714129723
 21
-7577.356455975765
 31
0.0
  0
LINE
  5
1699C6
330
18
100
AcDbEntity
  8
姿図
100
AcDbLine
 10
5070.946004702529
 20
-7577.394825828929
 30
0.0
 11
5070.18714129723
 21
-7577.356455975765
 31
0.0
  0
LINE
  5
1699C7
330
18
100
AcDbEntity
  8
姿図
100
AcDbLine
 10
5071.157972778873
 20
-7574.796682995486
 30
0.0
 11
5070.254883716373
 21
-7574.796682995486
 31
0.0
  0
LINE
  5
1699C8
330
18
100
AcDbEntity
  8
姿図
100
AcDbLine
 10
5101.571821427188
 20
-7575.838136720957
 30
0.0
 11
5101.547650643458
 21
-7578.409138464234
 31
0.0
  0
LINE
  5
1699C9
330
18
100
AcDbEntity
  8
姿図
100
AcDbLine
 10
5101.547650643458
 20
-7578.409138464234
 30
0.0
 11
5100.875409651792
 21
-7578.410189405909
 31
0.0
  0
LINE
  5
1699CA
330
18
100
AcDbEntity
  8
姿図
100
AcDbLine
 10
5101.571821427188
 20
-7575.838136720957
 30
0.0
 11
5100.807058980862
 21
-7575.843393453613
 31
0.0
  0
LINE
  5
1699CB
330
18
100
AcDbEntity
  8
姿図
100
AcDbLine
 10
5100.193438486234
 20
-7575.115695907299
 30
0.0
 11
5100.115632081509
 21
-7577.608060086292
 31
0.0
  0
LINE
  5
1699CC
330
18
100
AcDbEntity
  8
姿図
100
AcDbLine
 10
5071.776709887074
 20
-7573.622660599652
 30
0.0
 11
5071.771616091607
 21
-7577.143774583929
 31
0.0
  0
LINE
  5
1699CD
330
18
100
AcDbEntity
  8
姿図
100
AcDbLine
 10
5083.574684592048
 20
-7556.928210116264
 30
0.0
 11
5083.530281205911
 21
-7561.191976144006
 31
0.0
  0
LINE
  5
1699CE
330
18
100
AcDbEntity
  8
姿図
100
AcDbLine
 10
5088.813558666997
 20
-7557.119027468818
 30
0.0
 11
5088.857096126111
 21
-7561.340089308269
 31
0.0
  0
LINE
  5
1699CF
330
18
100
AcDbEntity
  8
姿図
100
AcDbLine
 10
5086.873262875143
 20
-7556.761127935153
 30
0.0
 11
5086.915679192959
 21
-7561.17674747196
 31
0.0
  0
LINE
  5
1699D0
330
18
100
AcDbEntity
  8
姿図
100
AcDbLine
 10
5085.60845362159
 20
-7556.713370963047
 30
0.0
 11
5085.652906112206
 21
-7561.159727266318
 31
0.0
  0
LINE
  5
1699D1
330
18
100
AcDbEntity
  8
姿図
100
AcDbLine
 10
5093.013250643457
 20
-7555.786205130902
 30
0.0
 11
5091.161894914291
 21
-7556.644149662152
 31
0.0
  0
LINE
  5
1699D2
330
18
100
AcDbEntity
  8
姿図
100
AcDbLine
 10
5090.84578397679
 20
-7554.296071797568
 30
0.0
 11
5088.271917310123
 21
-7556.779616328819
 31
0.0
  0
LINE
  5
1699D3
330
18
100
AcDbEntity
  8
姿図
100
AcDbLine
 10
5087.955872518457
 20
-7553.528416328819
 30
0.0
 11
5086.733145212192
 21
-7556.749039330033
 31
0.0
  0
LINE
  5
1699D4
330
18
100
AcDbEntity
  8
姿図
100
AcDbLine
 10
5085.11103944554
 20
-7553.302660599652
 30
0.0
 11
5085.739478063418
 21
-7556.711970692333
 31
0.0
  0
LINE
  5
1699D5
330
18
100
AcDbEntity
  8
姿図
100
AcDbLine
 10
5082.040483716374
 20
-7553.979993932985
 30
0.0
 11
5084.333870044803
 21
-7556.804235988967
 31
0.0
  0
LINE
  5
1699D6
330
18
100
AcDbEntity
  8
姿図
100
AcDbLine
 10
5079.556906112207
 20
-7555.063727266319
 30
0.0
 11
5081.707142160429
 21
-7556.552362980921
 31
0.0
  0
ELLIPSE
  5
1699D7
330
18
100
AcDbEntity
  8
姿図
100
AcDbEllipse
 10
5085.630383455957
 20
-7596.042327787152
 30
0.0
 11
-15.72127068290483
 21
1.572368522818131
 31
0.0
210
0.0
220
0.0
230
1.0
 40
0.4268081429402281
 41
3.41487396931836
 42
3.77556961069008
  0
ELLIPSE
  5
1699D8
330
18
100
AcDbEntity
  8
姿図
100
AcDbEllipse
 10
5085.630383455957
 20
-7596.042327787152
 30
0.0
 11
15.08197760416667
 21
0.0
 31
0.0
210
0.0
220
0.0
230
1.0
 40
0.359285297639149
 41
7.112852223479593
 42
7.656454855824705
  0
ELLIPSE
  5
1699D9
330
18
100
AcDbEntity
  8
姿図
100
AcDbEllipse
 10
5085.630383455957
 20
-7596.042327787152
 30
0.0
 11
15.08197760416667
 21
0.0
 31
0.0
210
0.0
220
0.0
230
1.0
 40
0.359285297639149
 41
7.825574573037986
 42
8.547289682742333
  0
ELLIPSE
  5
1699DA
330
18
100
AcDbEntity
  8
姿図
100
AcDbEllipse
 10
5085.630383455957
 20
-7596.042327787152
 30
0.0
 11
15.08197760416667
 21
0.0
 31
0.0
210
0.0
220
0.0
230
1.0
 40
0.359285297639149
 41
8.914808065990233
 42
9.337446565053689
  0
ELLIPSE
  5
1699DB
330
18
100
AcDbEntity
  8
姿図
100
AcDbEllipse
 10
5085.743277856998
 20
-7595.161794453818
 30
0.0
 11
-15.23373145994704
 21
0.2106274502766241
 31
0.0
210
0.0
220
0.0
230
1.0
 40
0.4186036671425239
 41
3.202482138794768
 42
3.703239094700399
  0
ELLIPSE
  5
1699DC
330
18
100
AcDbEntity
  8
姿図
100
AcDbEllipse
 10
5085.743277856998
 20
-7595.161794453818
 30
0.0
 11
15.172283203125
 21
0.0
 31
0.0
210
0.0
220
0.0
230
1.0
 40
0.4062539168738495
 41
7.129382602215342
 42
7.660879420274057
  0
ELLIPSE
  5
1699DD
330
18
100
AcDbEntity
  8
姿図
100
AcDbEllipse
 10
5085.743277856998
 20
-7595.161794453818
 30
0.0
 11
15.172283203125
 21
0.0
 31
0.0
210
0.0
220
0.0
230
1.0
 40
0.4062539168738495
 41
7.833746855100951
 42
8.54882710759696
  0
ELLIPSE
  5
1699DE
330
18
100
AcDbEntity
  8
姿図
100
AcDbEllipse
 10
5085.743277856998
 20
-7595.161794453818
 30
0.0
 11
15.172283203125
 21
0.0
 31
0.0
210
0.0
220
0.0
230
1.0
 40
0.4062539168738495
 41
8.919585895043166
 42
9.351902541126062
  0
LINE
  5
1699DF
330
18
100
AcDbEntity
  8
姿図
100
AcDbLine
 10
5072.466292975218
 20
-7592.178666380783
 30
0.0
 11
5072.467448688393
 21
-7593.397168095037
 31
0.0
  0
LINE
  5
1699E0
330
18
100
AcDbEntity
  8
姿図
100
AcDbLine
 10
5098.683751602363
 20
-7591.943855233377
 30
0.0
 11
5098.694195585506
 21
-7593.334478110206
 31
0.0
  0
LINE
  5
1699E1
330
18
100
AcDbEntity
  8
姿図
100
AcDbLine
 10
5095.800002212577
 20
-7590.546555546272
 30
0.0
 11
5095.812939185123
 21
-7592.091238724653
 31
0.0
  0
LINE
  5
1699E2
330
18
100
AcDbEntity
  8
姿図
100
AcDbLine
 10
5088.65490528106
 20
-7589.112557631508
 30
0.0
 11
5088.590143188458
 21
-7590.728962596037
 31
0.0
  0
LINE
  5
1699E3
330
18
100
AcDbEntity
  8
姿図
100
AcDbLine
 10
5086.050264702516
 20
-7588.999256803946
 30
0.0
 11
5086.058760493442
 21
-7590.625781180956
 31
0.0
  0
LINE
  5
1699E4
330
18
100
AcDbEntity
  8
姿図
100
AcDbLine
 10
5076.028969440968
 20
-7590.427055555581
 30
0.0
 11
5075.991717585706
 21
-7591.87458474933
 31
0.0
  0
LINE
  5
1699E5
330
18
100
AcDbEntity
  8
姿図
100
AcDbLine
 10
5093.374539185123
 20
-7572.538927266319
 30
0.0
 11
5093.645472518457
 21
-7573.622660599652
 31
0.0
  0
LINE
  5
1699E6
330
18
100
AcDbEntity
  8
姿図
100
AcDbLine
 10
5092.689365209745
 20
-7572.282891768092
 30
0.0
 11
5092.98532391348
 21
-7573.42460604755
 31
0.0
  0
LINE
  5
1699E7
330
18
100
AcDbEntity
  8
姿図
100
AcDbLine
 10
5079.614584675087
 20
-7572.253766920848
 30
0.0
 11
5079.413466569332
 21
-7573.208949048529
 31
0.0
  0
LINE
  5
1699E8
330
18
100
AcDbEntity
  8
姿図
100
AcDbLine
 10
5080.415430596738
 20
-7571.994246986914
 30
0.0
 11
5080.206125404678
 21
-7573.040711630335
 31
0.0
  0
LINE
  5
1699E9
330
18
100
AcDbEntity
  8
姿図
100
AcDbLine
 10
5083.89183944554
 20
-7571.281380823664
 30
0.0
 11
5083.70078300667
 21
-7572.586348850073
 31
0.0
  0
LINE
  5
1699EA
330
18
100
AcDbEntity
  8
姿図
100
AcDbLine
 10
5084.840106112207
 20
-7571.197387725453
 30
0.0
 11
5084.840106112207
 21
-7572.530222936864
 31
0.0
  0
LINE
  5
1699EB
330
18
100
AcDbEntity
  8
姿図
100
AcDbLine
 10
5088.497739185123
 20
-7571.301169859319
 30
0.0
 11
5088.497739185123
 21
-7572.639425469936
 31
0.0
  0
LINE
  5
1699EC
330
18
100
AcDbEntity
  8
姿図
100
AcDbLine
 10
5089.336726327328
 20
-7571.421487917059
 30
0.0
 11
5089.660085054
 21
-7572.768802787362
 31
0.0
  0
LINE
  5
1699ED
330
18
100
AcDbEntity
  8
姿図
100
AcDbLine
 10
5096.020372326261
 20
-7563.312364378306
 30
0.0
 11
5097.122428247623
 21
-7575.067616328819
 31
0.0
  0
LINE
  5
1699EE
330
18
100
AcDbEntity
  8
姿図
100
AcDbLine
 10
5076.439493446632
 20
-7562.577871157466
 30
0.0
 11
5075.34019485878
 21
-7574.578536225532
 31
0.0
  0
LINE
  5
1699EF
330
18
100
AcDbEntity
  8
姿図
100
AcDbLine
 10
5078.744106112207
 20
-7558.856793932984
 30
0.0
 11
5078.551494665289
 21
-7561.938753435472
 31
0.0
  0
LINE
  5
1699F0
330
18
100
AcDbEntity
  8
姿図
100
AcDbLine
 10
5079.240828247624
 20
-7555.199193932986
 30
0.0
 11
5079.007348470336
 21
-7561.829684453156
 31
0.0
  0
LINE
  5
1699F1
330
18
100
AcDbEntity
  8
姿図
100
AcDbLine
 10
5079.556906112207
 20
-7555.063727266319
 30
0.0
 11
5079.465620212691
 21
-7561.729202957837
 31
0.0
  0
LINE
  5
1699F2
330
18
100
AcDbEntity
  8
姿図
100
AcDbLine
 10
5081.769550383041
 20
-7554.025138464235
 30
0.0
 11
5081.588083404818
 21
-7561.373654046671
 31
0.0
  0
LINE
  5
1699F3
330
18
100
AcDbEntity
  8
姿図
100
AcDbLine
 10
5082.040483716374
 20
-7553.979993932985
 30
0.0
 11
5081.94916869421
 21
-7561.329933714057
 31
0.0
  0
LINE
  5
1699F4
330
18
100
AcDbEntity
  8
姿図
100
AcDbLine
 10
5084.749817049707
 20
-7553.302660599652
 30
0.0
 11
5084.704205492707
 21
-7561.144008484851
 31
0.0
  0
LINE
  5
1699F5
330
18
100
AcDbEntity
  8
姿図
100
AcDbLine
 10
5085.11103944554
 20
-7553.302660599652
 30
0.0
 11
5085.243828113486
 21
-7561.137192008484
 31
0.0
  0
LINE
  5
1699F6
330
18
100
AcDbEntity
  8
姿図
100
AcDbLine
 10
5093.335765001406
 20
-7555.874607892545
 30
0.0
 11
5093.646794061484
 21
-7562.361311259129
 31
0.0
  0
LINE
  5
1699F7
330
18
100
AcDbEntity
  8
姿図
100
AcDbLine
 10
5093.013250643457
 20
-7555.786205130902
 30
0.0
 11
5093.190733587847
 21
-7562.219165758848
 31
0.0
  0
LINE
  5
1699F8
330
18
100
AcDbEntity
  8
姿図
100
AcDbLine
 10
5091.071605851791
 20
-7554.341216328819
 30
0.0
 11
5091.34596116828
 21
-7561.748809874046
 31
0.0
  0
LINE
  5
1699F9
330
18
100
AcDbEntity
  8
姿図
100
AcDbLine
 10
5090.84578397679
 20
-7554.296071797568
 30
0.0
 11
5090.84578397679
 21
-7561.656416328819
 31
0.0
  0
LINE
  5
1699FA
330
18
100
AcDbEntity
  8
姿図
100
AcDbLine
 10
5088.136450643457
 20
-7553.527933920806
 30
0.0
 11
5088.410460673125
 21
-7561.291019294958
 31
0.0
  0
LINE
  5
1699FB
330
18
100
AcDbEntity
  8
姿図
100
AcDbLine
 10
5087.955872518457
 20
-7553.528416328819
 30
0.0
 11
5088.000733810733
 21
-7561.252123187474
 31
0.0
  0
ELLIPSE
  5
1699FC
330
18
100
AcDbEntity
  8
姿図
100
AcDbEllipse
 10
5085.765833586165
 20
-7580.057228047568
 30
0.0
 11
15.172283203125
 21
0.0
 31
0.0
210
0.0
220
0.0
230
1.0
 40
0.4970283540701101
 41
6.361584542067506
 42
9.229399068880687
  0
ELLIPSE
  5
1699FD
330
18
100
AcDbEntity
  8
姿図
100
AcDbEllipse
 10
5085.844861320541
 20
-7589.031927787151
 30
0.0
 11
14.93523307291667
 21
0.0
 31
0.0
210
0.0
220
0.0
230
1.0
 40
0.4603164409801034
 41
6.262193097272712
 42
9.42477796076938
  0
ELLIPSE
  5
1699FE
330
18
100
AcDbEntity
  8
姿図
100
AcDbEllipse
 10
5085.743228247623
 20
-7598.819394453818
 30
0.0
 11
14.85846326965584
 21
0.0
 31
0.0
210
0.0
220
0.0
230
1.0
 40
0.4148342508443969
 41
0.095859086798415
 42
3.053076739676217
  0
ELLIPSE
  5
1699FF
330
18
100
AcDbEntity
  8
姿図
100
AcDbEllipse
 10
5085.664233586166
 20
-7605.254127266318
 30
0.0
 11
17.08012747395833
 21
0.0
 31
0.0
210
0.0
220
0.0
230
1.0
 40
0.3542648350204007
 41
6.580440520601806
 42
9.099788009899381
  0
ELLIPSE
  5
169A00
330
18
100
AcDbEntity
  8
姿図
100
AcDbEllipse
 10
5085.765833586165
 20
-7597.532461120485
 30
0.0
 11
15.172283203125
 21
0.0
 31
0.0
210
0.0
220
0.0
230
1.0
 40
0.4062539168738495
 41
6.102070736612631
 42
9.604636669081895
  0
ELLIPSE
  5
169A01
330
18
100
AcDbEntity
  8
姿図
100
AcDbEllipse
 10
5085.788389315332
 20
-7593.942594453819
 30
0.0
 11
15.172283203125
 21
0.0
 31
0.0
210
0.0
220
0.0
230
1.0
 40
0.4434548040623525
 41
6.277624879366126
 42
9.42477796076938
  0
ELLIPSE
  5
169A02
330
18
100
AcDbEntity
  8
姿図
100
AcDbEllipse
 10
5085.856122648665
 20
-7603.809237682985
 30
0.0
 11
18.15254986979166
 21
0.0
 31
0.0
210
0.0
220
0.0
230
1.0
 40
0.3420334162633325
 41
5.904820112344892
 42
9.76390562288067
  0
ELLIPSE
  5
169A03
330
18
100
AcDbEntity
  8
姿図
100
AcDbEllipse
 10
5085.788389315332
 20
-7602.996437682985
 30
0.0
 11
18.15254986979166
 21
0.0
 31
0.0
210
0.0
220
0.0
230
1.0
 40
0.3420334162633325
 41
6.246151198549605
 42
9.51880220902288
  0
ELLIPSE
  5
169A04
330
18
100
AcDbEntity
  8
姿図
100
AcDbEllipse
 10
5085.698067179916
 20
-7613.494972057985
 30
0.0
 11
19.84585013020833
 21
0.0
 31
0.0
210
0.0
220
0.0
230
1.0
 40
0.232082104645421
 41
6.220206681354293
 42
9.52870417718492
  0
ELLIPSE
  5
169A05
330
18
100
AcDbEntity
  8
姿図
100
AcDbEllipse
 10
5085.765800513248
 20
-7614.262660599652
 30
0.0
 11
19.84585013020833
 21
0.0
 31
0.0
210
0.0
220
0.0
230
1.0
 40
0.232082104645421
 41
0.0
 42
6.283185307179586
  0
ELLIPSE
  5
169A06
330
18
100
AcDbEntity
  8
姿図
100
AcDbEllipse
 10
5085.630333846581
 20
-7614.635193932984
 30
0.0
 11
18.062227734375
 21
0.0
 31
0.0
210
0.0
220
0.0
230
1.0
 40
0.225622489741088
 41
0.0
 42
6.283185307179586
  0
ARC
  5
169A07
330
18
100
AcDbEntity
  8
姿図
100
AcDbCircle
 10
5163.82075666038
 20
-7582.939339979526
 30
0.0
 40
93.04010526863462
100
AcDbArc
 50
174.2529884563951
 51
183.4469198872945
  0
ARC
  5
169A08
330
18
100
AcDbEntity
  8
姿図
100
AcDbCircle
 10
4941.671965001919
 20
-7581.365276510437
 30
0.0
 40
159.2308680130216
100
AcDbArc
 50
357.4187120087766
 51
2.250399010489077
  0
LINE
  5
169A09
330
18
100
AcDbEntity
  8
姿図
100
AcDbLine
 10
5100.780028247625
 20
-7575.112793932985
 30
0.0
 11
5100.193438486234
 21
-7575.115695907299
 31
0.0
  0
LINE
  5
169A0A
330
18
100
AcDbEntity
  8
姿図
100
AcDbLine
 10
5071.24829491429
 20
-7573.622660599652
 30
0.0
 11
5071.776709887074
 21
-7573.622660599652
 31
0.0
  0
ARC
  5
169A0B
330
18
100
AcDbEntity
  8
姿図
100
AcDbCircle
 10
5086.110396919295
 20
-7590.933612730488
 30
0.0
 40
19.77706288061811
100
AcDbArc
 50
68.45071832715597
 51
70.5699069262483
  0
ARC
  5
169A0C
330
18
100
AcDbEntity
  8
姿図
100
AcDbCircle
 10
5086.110396919295
 20
-7590.933612730488
 30
0.0
 40
19.77706288061811
100
AcDbArc
 50
80.6110951949801
 51
83.06676485220326
  0
ARC
  5
169A0D
330
18
100
AcDbEntity
  8
姿図
100
AcDbCircle
 10
5086.110396919295
 20
-7590.933612730488
 30
0.0
 40
19.77706288061811
100
AcDbArc
 50
93.68267220367096
 51
96.4409008326219
  0
ARC
  5
169A0E
330
18
100
AcDbEntity
  8
姿図
100
AcDbCircle
 10
5086.110396919295
 20
-7590.933612730488
 30
0.0
 40
19.77706288061811
100
AcDbArc
 50
106.7357525055275
 51
109.1748340181636
  0
LINE
  5
169A0F
330
18
100
AcDbEntity
  8
姿図
100
AcDbLine
 10
5092.689365209745
 20
-7572.282891768092
 30
0.0
 11
5092.677835426796
 21
-7573.344172249733
 31
0.0
  0
LINE
  5
169A10
330
18
100
AcDbEntity
  8
姿図
100
AcDbLine
 10
5088.497739185123
 20
-7571.301169859319
 30
0.0
 11
5088.332773866888
 21
-7572.624884093157
 31
0.0
  0
LINE
  5
169A11
330
18
100
AcDbEntity
  8
姿図
100
AcDbLine
 10
5080.415430596738
 20
-7571.994246986914
 30
0.0
 11
5080.425255601986
 21
-7572.998788335342
 31
0.0
  0
LINE
  5
169A12
330
18
100
AcDbEntity
  8
姿図
100
AcDbLine
 10
5070.616106112207
 20
-7593.942594453819
 30
0.0
 11
5070.59355038304
 21
-7597.532461120485
 31
0.0
  0
LINE
  5
169A13
330
18
100
AcDbEntity
  8
姿図
100
AcDbLine
 10
5100.960672518458
 20
-7593.942594453819
 30
0.0
 11
5100.938067576965
 21
-7597.548160215596
 31
0.0
  0
LINE
  5
169A14
330
18
100
AcDbEntity
  8
姿図
100
AcDbLine
 10
5067.63583944554
 20
-7602.996437682985
 30
0.0
 11
5067.709674313637
 21
-7603.970204146616
 31
0.0
  0
LINE
  5
169A15
330
18
100
AcDbEntity
  8
姿図
100
AcDbLine
 10
5078.744106112207
 20
-7558.856793932984
 30
0.0
 11
5079.108564811077
 21
-7558.95528566981
 31
0.0
  0
LINE
  5
169A16
330
18
100
AcDbEntity
  8
姿図
100
AcDbLine
 10
5079.240828247624
 20
-7555.199193932986
 30
0.0
 11
5079.556906112207
 21
-7555.063727266319
 31
0.0
  0
LINE
  5
169A17
330
18
100
AcDbEntity
  8
姿図
100
AcDbLine
 10
5081.769550383041
 20
-7554.025138464235
 30
0.0
 11
5082.040483716374
 21
-7553.979993932985
 31
0.0
  0
LINE
  5
169A18
330
18
100
AcDbEntity
  8
姿図
100
AcDbLine
 10
5084.749817049707
 20
-7553.302660599652
 30
0.0
 11
5085.11103944554
 21
-7553.302660599652
 31
0.0
  0
LINE
  5
169A19
330
18
100
AcDbEntity
  8
姿図
100
AcDbLine
 10
5087.955872518457
 20
-7553.528416328819
 30
0.0
 11
5088.136450643457
 21
-7553.527933920806
 31
0.0
  0
LINE
  5
169A1A
330
18
100
AcDbEntity
  8
姿図
100
AcDbLine
 10
5091.071605851791
 20
-7554.341216328819
 30
0.0
 11
5090.84578397679
 21
-7554.296071797568
 31
0.0
  0
LINE
  5
169A1B
330
18
100
AcDbEntity
  8
姿図
100
AcDbLine
 10
5093.335765001406
 20
-7555.874607892545
 30
0.0
 11
5093.013250643457
 21
-7555.786205130902
 31
0.0
  0
LINE
  5
169A1C
330
18
100
AcDbEntity
  8
姿図
100
AcDbLine
 10
5084.840106112207
 20
-7571.197387725453
 30
0.0
 11
5084.656686339299
 21
-7572.53635025958
 31
0.0
  0
ENDSEC
  0
SECTION
  2
OBJECTS
  0
DICTIONARY
  5
C
330
0
100
AcDbDictionary
281
     1
  3
ACAD_GROUP
350
D
  3
ACAD_IMAGE_VARS
350
16A7D8
  3
ACAD_LAYOUT
350
617
  3
ACAD_MLINESTYLE
350
E
  3
ACAD_PLOTSETTINGS
350
618
  3
ACAD_PLOTSTYLENAME
350
615
  3
ACAD_SCALELIST
350
A36
  3
AcadDim
350
AB4
  3
AcDbVariableDictionary
350
6DE
  3
APPDATA
350
16A7D7
  3
DWGPROPS
350
16A7FC
  0
DICTIONARY
  5
8BF
330
2
100
AcDbDictionary
280
     1
281
     1
  3
ACAD_LAYERSTATES
360
8C0
  0
DICTIONARY
  5
A60
330
F
100
AcDbDictionary
280
     1
281
     1
  3
ADSK_XREC_LAYER_RECONCILED
360
A61
  0
DICTIONARY
  5
A66
330
34
100
AcDbDictionary
280
     1
281
     1
  3
ADSK_XREC_LAYER_RECONCILED
360
A67
  0
DICTIONARY
  5
A6E
330
2F4
100
AcDbDictionary
280
     1
281
     1
  3
ADSK_XREC_LAYER_RECONCILED
360
A6F
  0
DICTIONARY
  5
A72
330
305
100
AcDbDictionary
280
     1
281
     1
  3
ADSK_XREC_LAYER_RECONCILED
360
A73
  0
DICTIONARY
  5
143F
330
18
100
AcDbDictionary
280
     1
281
     1
  3
ACAD_SORTENTS
360
1440
  0
DICTIONARY
  5
D
102
{ACAD_REACTORS
330
C
102
}
330
C
100
AcDbDictionary
281
     1
  0
RASTERVARIABLES
  5
16A7D8
102
{ACAD_REACTORS
330
C
102
}
330
C
100
AcDbRasterVariables
 90
        0
 70
     1
 71
     1
 72
     0
  0
DICTIONARY
  5
617
102
{ACAD_REACTORS
330
C
102
}
330
C
100
AcDbDictionary
281
     1
  3
Model
350
619
  3
ﾚｲｱｳﾄ1
350
61A
  0
DICTIONARY
  5
E
102
{ACAD_REACTORS
330
C
102
}
330
C
100
AcDbDictionary
281
     1
  3
STANDARD
350
1B
  0
DICTIONARY
  5
618
102
{ACAD_REACTORS
330
C
102
}
330
C
100
AcDbDictionary
281
     1
  0
ACDBDICTIONARYWDFLT
  5
615
102
{ACAD_REACTORS
330
C
102
}
330
C
100
AcDbDictionary
281
     1
  3
Normal
350
616
100
AcDbDictionaryWithDefault
340
616
  0
DICTIONARY
  5
A36
102
{ACAD_REACTORS
330
C
102
}
330
C
100
AcDbDictionary
281
     1
  3
A0
350
A37
  3
A1
350
A38
  3
A2
350
A39
  3
A3
350
A3A
  3
A4
350
A3B
  3
A5
350
A3C
  3
A6
350
A3D
  3
A7
350
A3E
  3
A8
350
A3F
  3
A9
350
A40
  3
B0
350
A41
  3
B1
350
A42
  3
B2
350
A43
  3
B3
350
A44
  3
B4
350
A45
  3
B5
350
A46
  3
B6
350
A47
  3
B7
350
A48
  3
B8
350
A49
  3
B9
350
A4A
  3
C0
350
A4B
  3
C1
350
A4C
  3
C2
350
A4D
  3
C3
350
A4E
  3
C4
350
A4F
  3
C5
350
A50
  3
C6
350
A51
  3
C7
350
A52
  3
C8
350
A53
  3
C9
350
A54
  3
D0
350
A55
  3
D1
350
A56
  3
D2
350
A57
  0
XRECORD
  5
AB4
102
{ACAD_REACTORS
330
C
102
}
330
C
100
AcDbXrecord
280
     1
 90
   990106
  3
OPEN
 60
     0
 61
     0
 62
     1
 63
     3
 64
     1
 65
     0
 66
     0
 67
     3
 68
     1
 69
     0
 70
     0
 71
     0
 72
     0
 40
0.0
170
     2
  0
DICTIONARY
  5
6DE
102
{ACAD_REACTORS
330
C
102
}
330
C
100
AcDbDictionary
281
     1
  3
DIMASSOC
350
6DF
  3
INDEXCTL
350
A93
  3
PROJECTNAME
350
6E0
  3
SORTENTS
350
A92
  0
DICTIONARY
  5
16A7D7
102
{ACAD_REACTORS
330
C
102
}
330
C
100
AcDbDictionary
281
     1
  0
XRECORD
  5
16A7FC
102
{ACAD_REACTORS
330
C
102
}
330
C
100
AcDbXrecord
280
     1
  1
DWGPROPS COOKIE
  2

  3

  4

  6

  7

  8
SPAX
  9

300
=
301
=
302
=
303
=
304
=
305
=
306
=
307
=
308
=
309
=
 40
0.0
 41
2448636.244629629
 42
2456821.196374665
  1

 90
        0
  0
DICTIONARY
  5
8C0
102
{ACAD_REACTORS
330
8BF
102
}
330
8BF
100
AcDbDictionary
281
     1
  0
XRECORD
  5
A61
102
{ACAD_REACTORS
330
A60
102
}
330
A60
100
AcDbXrecord
280
     1
290
     1
  0
XRECORD
  5
A67
102
{ACAD_REACTORS
330
A66
102
}
330
A66
100
AcDbXrecord
280
     1
290
     1
  0
XRECORD
  5
A6F
102
{ACAD_REACTORS
330
A6E
102
}
330
A6E
100
AcDbXrecord
280
     1
290
     1
  0
XRECORD
  5
A73
102
{ACAD_REACTORS
330
A72
102
}
330
A72
100
AcDbXrecord
280
     1
290
     1
  0
SORTENTSTABLE
  5
1440
102
{ACAD_REACTORS
330
143F
102
}
330
143F
100
AcDbSortentsTable
330
18
331
0
  5
151A2D
331
D0CC6
  5
D0CC6
331
F6D77
  5
F6D77
331
F6D78
  5
F6D78
  0
LAYOUT
  5
619
102
{ACAD_REACTORS
330
617
102
}
330
617
100
AcDbPlotSettings
  1

  2
JUST PDF 2
  4
A4
  6

 40
3.174999952316284
 41
3.174999952316284
 42
3.175003051757812
 43
3.17498779296875
 44
209.8886566162109
 45
297.0530090332031
 46
14.27171755861536
 47
9.855173074625782
 48
5034.677600415069
 49
-8031.365971294936
140
5384.668037404881
141
-7489.380621017603
142
1.0
143
2.0
 70
  3748
 72
     1
 73
     0
 74
     4
  7
spax form.ctb
 75
    16
147
1.0
148
-5034.677600415069
149
8031.365971294936
100
AcDbLayout
  1
Model
 70
     1
 71
     0
 10
0.0
 20
0.0
 11
12.0
 21
9.0
 12
0.0
 22
0.0
 32
0.0
 14
5032.225260533673
 24
-7640.998956962836
 34
0.0
 15
5127.558593867006
 25
-7553.302660599652
 35
0.0
146
0.0
 13
0.0
 23
0.0
 33
0.0
 16
1.0
 26
0.0
 36
0.0
 17
0.0
 27
1.0
 37
0.0
 76
     0
330
18
331
1638AC
1001
ACAD_PSEXT
1000
JUST PDF 2
1000
JUST PDF 2
1000
JUST PDF 2 Port:
1000

1070
     0
  0
LAYOUT
  5
61A
102
{ACAD_REACTORS
330
617
102
}
330
617
100
AcDbPlotSettings
  1

  2
Canon LASER SHOT LBP-750
  4

  6

 40
0.0
 41
0.0
 42
0.0
 43
0.0
 44
0.0
 45
0.0
 46
0.0
 47
0.0
 48
0.0
 49
0.0
140
0.0
141
0.0
142
1.0
143
1.0
 70
   688
 72
     0
 73
     0
 74
     5
  7
spax form.ctb
 75
    16
147
1.0
148
0.0
149
0.0
100
AcDbLayout
  1
ﾚｲｱｳﾄ1
 70
     0
 71
     1
 10
0.0
 20
0.0
 11
12.0
 21
9.0
 12
0.0
 22
0.0
 32
0.0
 14
1.000000000000000E+20
 24
1.000000000000000E+20
 34
1.000000000000000E+20
 15
-1.000000000000000E+20
 25
-1.000000000000000E+20
 35
-1.000000000000000E+20
146
0.0
 13
0.0
 23
0.0
 33
0.0
 16
1.0
 26
0.0
 36
0.0
 17
0.0
 27
1.0
 37
0.0
 76
     0
330
15
  0
MLINESTYLE
  5
1B
102
{ACAD_REACTORS
330
E
102
}
330
E
100
AcDbMlineStyle
  2
STANDARD
 70
     0
  3

 62
     0
 51
90.0
 52
90.0
 71
     2
 49
0.5
 62
   256
  6
BYLAYER
 49
-0.5
 62
   256
  6
BYLAYER
  0
ACDBPLACEHOLDER
  5
616
102
{ACAD_REACTORS
330
615
102
}
330
615
  0
SCALE
  5
A37
102
{ACAD_REACTORS
330
A36
102
}
330
A36
100
AcDbScale
 70
     0
300
1:1
140
1.0
141
1.0
290
     1
  0
SCALE
  5
A38
102
{ACAD_REACTORS
330
A36
102
}
330
A36
100
AcDbScale
 70
     0
300
1:2
140
1.0
141
2.0
290
     0
  0
SCALE
  5
A39
102
{ACAD_REACTORS
330
A36
102
}
330
A36
100
AcDbScale
 70
     0
300
1:4
140
1.0
141
4.0
290
     0
  0
SCALE
  5
A3A
102
{ACAD_REACTORS
330
A36
102
}
330
A36
100
AcDbScale
 70
     0
300
1:5
140
1.0
141
5.0
290
     0
  0
SCALE
  5
A3B
102
{ACAD_REACTORS
330
A36
102
}
330
A36
100
AcDbScale
 70
     0
300
1:8
140
1.0
141
8.0
290
     0
  0
SCALE
  5
A3C
102
{ACAD_REACTORS
330
A36
102
}
330
A36
100
AcDbScale
 70
     0
300
1:10
140
1.0
141
10.0
290
     0
  0
SCALE
  5
A3D
102
{ACAD_REACTORS
330
A36
102
}
330
A36
100
AcDbScale
 70
     0
300
1:16
140
1.0
141
16.0
290
     0
  0
SCALE
  5
A3E
102
{ACAD_REACTORS
330
A36
102
}
330
A36
100
AcDbScale
 70
     0
300
1:20
140
1.0
141
20.0
290
     0
  0
SCALE
  5
A3F
102
{ACAD_REACTORS
330
A36
102
}
330
A36
100
AcDbScale
 70
     0
300
1:30
140
1.0
141
30.0
290
     0
  0
SCALE
  5
A40
102
{ACAD_REACTORS
330
A36
102
}
330
A36
100
AcDbScale
 70
     0
300
1:40
140
1.0
141
40.0
290
     0
  0
SCALE
  5
A41
102
{ACAD_REACTORS
330
A36
102
}
330
A36
100
AcDbScale
 70
     0
300
1:50
140
1.0
141
50.0
290
     0
  0
SCALE
  5
A42
102
{ACAD_REACTORS
330
A36
102
}
330
A36
100
AcDbScale
 70
     0
300
1:100
140
1.0
141
100.0
290
     0
  0
SCALE
  5
A43
102
{ACAD_REACTORS
330
A36
102
}
330
A36
100
AcDbScale
 70
     0
300
2:1
140
2.0
141
1.0
290
     0
  0
SCALE
  5
A44
102
{ACAD_REACTORS
330
A36
102
}
330
A36
100
AcDbScale
 70
     0
300
4:1
140
4.0
141
1.0
290
     0
  0
SCALE
  5
A45
102
{ACAD_REACTORS
330
A36
102
}
330
A36
100
AcDbScale
 70
     0
300
8:1
140
8.0
141
1.0
290
     0
  0
SCALE
  5
A46
102
{ACAD_REACTORS
330
A36
102
}
330
A36
100
AcDbScale
 70
     0
300
10:1
140
10.0
141
1.0
290
     0
  0
SCALE
  5
A47
102
{ACAD_REACTORS
330
A36
102
}
330
A36
100
AcDbScale
 70
     0
300
100:1
140
100.0
141
1.0
290
     0
  0
SCALE
  5
A48
102
{ACAD_REACTORS
330
A36
102
}
330
A36
100
AcDbScale
 70
     0
300
1/128" = 1'-0"
140
0.0078125
141
12.0
290
     0
  0
SCALE
  5
A49
102
{ACAD_REACTORS
330
A36
102
}
330
A36
100
AcDbScale
 70
     0
300
1/64" = 1'-0"
140
0.015625
141
12.0
290
     0
  0
SCALE
  5
A4A
102
{ACAD_REACTORS
330
A36
102
}
330
A36
100
AcDbScale
 70
     0
300
1/32" = 1'-0"
140
0.03125
141
12.0
290
     0
  0
SCALE
  5
A4B
102
{ACAD_REACTORS
330
A36
102
}
330
A36
100
AcDbScale
 70
     0
300
1/16" = 1'-0"
140
0.0625
141
12.0
290
     0
  0
SCALE
  5
A4C
102
{ACAD_REACTORS
330
A36
102
}
330
A36
100
AcDbScale
 70
     0
300
3/32" = 1'-0"
140
0.09375
141
12.0
290
     0
  0
SCALE
  5
A4D
102
{ACAD_REACTORS
330
A36
102
}
330
A36
100
AcDbScale
 70
     0
300
1/8" = 1'-0"
140
0.125
141
12.0
290
     0
  0
SCALE
  5
A4E
102
{ACAD_REACTORS
330
A36
102
}
330
A36
100
AcDbScale
 70
     0
300
3/16" = 1'-0"
140
0.1875
141
12.0
290
     0
  0
SCALE
  5
A4F
102
{ACAD_REACTORS
330
A36
102
}
330
A36
100
AcDbScale
 70
     0
300
1/4" = 1'-0"
140
0.25
141
12.0
290
     0
  0
SCALE
  5
A50
102
{ACAD_REACTORS
330
A36
102
}
330
A36
100
AcDbScale
 70
     0
300
3/8" = 1'-0"
140
0.375
141
12.0
290
     0
  0
SCALE
  5
A51
102
{ACAD_REACTORS
330
A36
102
}
330
A36
100
AcDbScale
 70
     0
300
1/2" = 1'-0"
140
0.5
141
12.0
290
     0
  0
SCALE
  5
A52
102
{ACAD_REACTORS
330
A36
102
}
330
A36
100
AcDbScale
 70
     0
300
3/4" = 1'-0"
140
0.75
141
12.0
290
     0
  0
SCALE
  5
A53
102
{ACAD_REACTORS
330
A36
102
}
330
A36
100
AcDbScale
 70
     0
300
1" = 1'-0"
140
1.0
141
12.0
290
     0
  0
SCALE
  5
A54
102
{ACAD_REACTORS
330
A36
102
}
330
A36
100
AcDbScale
 70
     0
300
1-1/2" = 1'-0"
140
1.5
141
12.0
290
     0
  0
SCALE
  5
A55
102
{ACAD_REACTORS
330
A36
102
}
330
A36
100
AcDbScale
 70
     0
300
3" = 1'-0"
140
3.0
141
12.0
290
     0
  0
SCALE
  5
A56
102
{ACAD_REACTORS
330
A36
102
}
330
A36
100
AcDbScale
 70
     0
300
6" = 1'-0"
140
6.0
141
12.0
290
     0
  0
SCALE
  5
A57
102
{ACAD_REACTORS
330
A36
102
}
330
A36
100
AcDbScale
 70
     0
300
1'-0" = 1'-0"
140
12.0
141
12.0
290
     0
  0
DICTIONARYVAR
  5
6DF
102
{ACAD_REACTORS
330
6DE
102
}
330
6DE
100
DictionaryVariables
280
     0
  1
1
  0
DICTIONARYVAR
  5
A93
102
{ACAD_REACTORS
330
6DE
102
}
330
6DE
100
DictionaryVariables
280
     0
  1
0
  0
DICTIONARYVAR
  5
6E0
102
{ACAD_REACTORS
330
6DE
102
}
330
6DE
100
DictionaryVariables
280
     0
  1

  0
DICTIONARYVAR
  5
A92
102
{ACAD_REACTORS
330
6DE
102
}
330
6DE
100
DictionaryVariables
280
     0
  1
127
  0
ENDSEC
  0
EOF
