  0
SECTION
  2
HEADER
  9
$ACADVER
  1
AC1015
  9
$ACADMAINTVER
 70
    20
  9
$DWGCODEPAGE
  3
ANSI_932
  9
$INSBASE
 10
0.0
 20
0.0
 30
0.0
  9
$EXTMIN
 10
2384.915209960746
 20
-1946.946274460992
 30
-0.0000000000000143
  9
$EXTMAX
 10
2441.947771493998
 20
-1867.940965495037
 30
0.0000000000000162
  9
$LIMMIN
 10
0.0
 20
0.0
  9
$LIMMAX
 10
840.0
 20
594.0
  9
$ORTHOMODE
 70
     0
  9
$REGENMODE
 70
     1
  9
$FILLMODE
 70
     1
  9
$QTEXTMODE
 70
     0
  9
$MIRRTEXT
 70
     1
  9
$LTSCALE
 40
7.0
  9
$ATTMODE
 70
     0
  9
$TEXTSIZE
 40
6.0
  9
$TRACEWID
 40
1.0
  9
$TEXTSTYLE
  7
STANDARD
  9
$CLAYER
  8
0
  9
$CELTYPE
  6
BYLAYER
  9
$CECOLOR
 62
   256
  9
$CELTSCALE
 40
1.0
  9
$DISPSILH
 70
     0
  9
$DIMSCALE
 40
1.0
  9
$DIMASZ
 40
6.0
  9
$DIMEXO
 40
3.0
  9
$DIMDLI
 40
7.149999999999999
  9
$DIMRND
 40
0.0
  9
$DIMDLE
 40
0.0
  9
$DIMEXE
 40
2.0
  9
$DIMTP
 40
0.0
  9
$DIMTM
 40
0.0
  9
$DIMTXT
 40
5.0
  9
$DIMCEN
 40
0.0
  9
$DIMTSZ
 40
0.0
  9
$DIMTOL
 70
     0
  9
$DIMLIM
 70
     0
  9
$DIMTIH
 70
     0
  9
$DIMTOH
 70
     0
  9
$DIMSE1
 70
     0
  9
$DIMSE2
 70
     0
  9
$DIMTAD
 70
     3
  9
$DIMZIN
 70
     8
  9
$DIMBLK
  1
Open30
  9
$DIMASO
 70
     1
  9
$DIMSHO
 70
     0
  9
$DIMPOST
  1

  9
$DIMAPOST
  1

  9
$DIMALT
 70
     0
  9
$DIMALTD
 70
     2
  9
$DIMALTF
 40
25.4
  9
$DIMLFAC
 40
1.0
  9
$DIMTOFL
 70
     0
  9
$DIMTVP
 40
0.0
  9
$DIMTIX
 70
     0
  9
$DIMSOXD
 70
     0
  9
$DIMSAH
 70
     0
  9
$DIMBLK1
  1

  9
$DIMBLK2
  1

  9
$DIMSTYLE
  2
STANDARD
  9
$DIMCLRD
 70
     0
  9
$DIMCLRE
 70
     0
  9
$DIMCLRT
 70
     0
  9
$DIMTFAC
 40
1.0
  9
$DIMGAP
 40
2.0
  9
$DIMJUST
 70
     0
  9
$DIMSD1
 70
     0
  9
$DIMSD2
 70
     0
  9
$DIMTOLJ
 70
     1
  9
$DIMTZIN
 70
     0
  9
$DIMALTZ
 70
     0
  9
$DIMALTTZ
 70
     0
  9
$DIMUPT
 70
     1
  9
$DIMDEC
 70
     2
  9
$DIMTDEC
 70
     2
  9
$DIMALTU
 70
     2
  9
$DIMALTTD
 70
     2
  9
$DIMTXSTY
  7
STANDARD
  9
$DIMAUNIT
 70
     0
  9
$DIMADEC
 70
     2
  9
$DIMALTRND
 40
0.0
  9
$DIMAZIN
 70
     2
  9
$DIMDSEP
 70
    46
  9
$DIMATFIT
 70
     3
  9
$DIMFRAC
 70
     0
  9
$DIMLDRBLK
  1
Open30
  9
$DIMLUNIT
 70
     2
  9
$DIMLWD
 70
    -2
  9
$DIMLWE
 70
    -2
  9
$DIMTMOVE
 70
     0
  9
$LUNITS
 70
     2
  9
$LUPREC
 70
     2
  9
$SKETCHINC
 40
0.1
  9
$FILLETRAD
 40
0.0
  9
$AUNITS
 70
     0
  9
$AUPREC
 70
     2
  9
$MENU
  1
ACAD
  9
$ELEVATION
 40
0.0
  9
$PELEVATION
 40
0.0
  9
$THICKNESS
 40
0.0
  9
$LIMCHECK
 70
     0
  9
$CHAMFERA
 40
0.0
  9
$CHAMFERB
 40
0.0
  9
$CHAMFERC
 40
0.0
  9
$CHAMFERD
 40
0.0
  9
$SKPOLY
 70
     0
  9
$TDCREATE
 40
2449505.922222222
  9
$TDUCREATE
 40
2449505.547222222
  9
$TDUPDATE
 40
2457098.384405752
  9
$TDUUPDATE
 40
2457098.009405752
  9
$TDINDWG
 40
2.8687641898
  9
$TDUSRTIMER
 40
2456808.234901424
  9
$USRTIMER
 70
     1
  9
$ANGBASE
 50
0.0
  9
$ANGDIR
 70
     0
  9
$PDMODE
 70
     3
  9
$PDSIZE
 40
0.0
  9
$PLINEWID
 40
0.0
  9
$SPLFRAME
 70
     0
  9
$SPLINETYPE
 70
     6
  9
$SPLINESEGS
 70
     8
  9
$HANDSEED
  5
21A26
  9
$SURFTAB1
 70
     6
  9
$SURFTAB2
 70
     6
  9
$SURFTYPE
 70
     6
  9
$SURFU
 70
     6
  9
$SURFV
 70
     6
  9
$UCSBASE
  2

  9
$UCSNAME
  2

  9
$UCSORG
 10
0.0
 20
0.0
 30
0.0
  9
$UCSXDIR
 10
1.0
 20
0.0
 30
0.0
  9
$UCSYDIR
 10
0.0
 20
1.0
 30
0.0
  9
$UCSORTHOREF
  2

  9
$UCSORTHOVIEW
 70
     0
  9
$UCSORGTOP
 10
0.0
 20
0.0
 30
0.0
  9
$UCSORGBOTTOM
 10
0.0
 20
0.0
 30
0.0
  9
$UCSORGLEFT
 10
0.0
 20
0.0
 30
0.0
  9
$UCSORGRIGHT
 10
0.0
 20
0.0
 30
0.0
  9
$UCSORGFRONT
 10
0.0
 20
0.0
 30
0.0
  9
$UCSORGBACK
 10
0.0
 20
0.0
 30
0.0
  9
$PUCSBASE
  2

  9
$PUCSNAME
  2

  9
$PUCSORG
 10
0.0
 20
0.0
 30
0.0
  9
$PUCSXDIR
 10
1.0
 20
0.0
 30
0.0
  9
$PUCSYDIR
 10
0.0
 20
1.0
 30
0.0
  9
$PUCSORTHOREF
  2

  9
$PUCSORTHOVIEW
 70
     0
  9
$PUCSORGTOP
 10
0.0
 20
0.0
 30
0.0
  9
$PUCSORGBOTTOM
 10
0.0
 20
0.0
 30
0.0
  9
$PUCSORGLEFT
 10
0.0
 20
0.0
 30
0.0
  9
$PUCSORGRIGHT
 10
0.0
 20
0.0
 30
0.0
  9
$PUCSORGFRONT
 10
0.0
 20
0.0
 30
0.0
  9
$PUCSORGBACK
 10
0.0
 20
0.0
 30
0.0
  9
$USERI1
 70
     0
  9
$USERI2
 70
     0
  9
$USERI3
 70
     0
  9
$USERI4
 70
     0
  9
$USERI5
 70
     0
  9
$USERR1
 40
0.0
  9
$USERR2
 40
0.0
  9
$USERR3
 40
0.0
  9
$USERR4
 40
0.0
  9
$USERR5
 40
0.0
  9
$WORLDVIEW
 70
     0
  9
$SHADEDGE
 70
     3
  9
$SHADEDIF
 70
    70
  9
$TILEMODE
 70
     1
  9
$MAXACTVP
 70
    16
  9
$PINSBASE
 10
0.0
 20
0.0
 30
0.0
  9
$PLIMCHECK
 70
     0
  9
$PEXTMIN
 10
1.000000000000000E+20
 20
1.000000000000000E+20
 30
1.000000000000000E+20
  9
$PEXTMAX
 10
-1.000000000000000E+20
 20
-1.000000000000000E+20
 30
-1.000000000000000E+20
  9
$PLIMMIN
 10
0.0
 20
0.0
  9
$PLIMMAX
 10
12.0
 20
9.0
  9
$UNITMODE
 70
     0
  9
$VISRETAIN
 70
     0
  9
$PLINEGEN
 70
     0
  9
$PSLTSCALE
 70
     0
  9
$TREEDEPTH
 70
  3020
  9
$CMLSTYLE
  2
STANDARD
  9
$CMLJUST
 70
     0
  9
$CMLSCALE
 40
1.0
  9
$PROXYGRAPHICS
 70
     1
  9
$MEASUREMENT
 70
     0
  9
$CELWEIGHT
370
    -1
  9
$ENDCAPS
280
     0
  9
$JOINSTYLE
280
     0
  9
$LWDISPLAY
290
     0
  9
$INSUNITS
 70
     0
  9
$HYPERLINKBASE
  1

  9
$STYLESHEET
  1
spax form.ctb
  9
$XEDIT
290
     1
  9
$CEPSNTYPE
380
     0
  9
$PSTYLEMODE
290
     1
  9
$FINGERPRINTGUID
  2
{C1CFCF3E-DF91-11D3-B30C-0060B0FA8DFC}
  9
$VERSIONGUID
  2
{EEDDBA7F-66BD-4ED8-A261-1ECD8747A3D3}
  9
$EXTNAMES
290
     1
  9
$PSVPSCALE
 40
0.0
  9
$OLESTARTUP
290
     0
  0
ENDSEC
  0
SECTION
  2
CLASSES
  0
CLASS
  1
ACDBDICTIONARYWDFLT
  2
AcDbDictionaryWithDefault
  3
ObjectDBX Classes
 90
        0
280
     0
281
     0
  0
CLASS
  1
ACDBPLACEHOLDER
  2
AcDbPlaceHolder
  3
ObjectDBX Classes
 90
        0
280
     0
281
     0
  0
CLASS
  1
LAYOUT
  2
AcDbLayout
  3
ObjectDBX Classes
 90
        0
280
     0
281
     0
  0
CLASS
  1
DICTIONARYVAR
  2
AcDbDictionaryVar
  3
ObjectDBX Classes
 90
        0
280
     0
281
     0
  0
CLASS
  1
MATERIAL
  2
AcDbMaterial
  3
ObjectDBX Classes
 90
     1153
280
     0
281
     0
  0
CLASS
  1
VISUALSTYLE
  2
AcDbVisualStyle
  3
ObjectDBX Classes
 90
     4095
280
     0
281
     0
  0
CLASS
  1
TABLESTYLE
  2
AcDbTableStyle
  3
ObjectDBX Classes
 90
     4095
280
     0
281
     0
  0
CLASS
  1
SCALE
  2
AcDbScale
  3
ObjectDBX Classes
 90
     1153
280
     0
281
     0
  0
CLASS
  1
MLEADERSTYLE
  2
AcDbMLeaderStyle
  3
ACDB_MLEADERSTYLE_CLASS
 90
     4095
280
     0
281
     0
  0
CLASS
  1
CELLSTYLEMAP
  2
AcDbCellStyleMap
  3
ObjectDBX Classes
 90
     1152
280
     0
281
     0
  0
CLASS
  1
SORTENTSTABLE
  2
AcDbSortentsTable
  3
ObjectDBX Classes
 90
        0
280
     0
281
     0
  0
CLASS
  1
RASTERVARIABLES
  2
AcDbRasterVariables
  3
ISM
 90
        0
280
     0
281
     0
  0
CLASS
  1
SUN
  2
AcDbSun
  3
SCENEOE
 90
    33921
280
     0
281
     0
  0
ENDSEC
  0
SECTION
  2
TABLES
  0
TABLE
  2
VPORT
  5
8
102
{ACAD_XDICTIONARY
360
1FA88
102
}
330
0
100
AcDbSymbolTable
 70
     1
  0
VPORT
  5
1CB7C
330
8
100
AcDbSymbolTableRecord
100
AcDbViewportTableRecord
  2
*Active
 70
     0
 10
0.0
 20
0.0
 11
1.0
 21
1.0
 12
2413.431490727372
 22
-1907.443619978015
 13
0.0
 23
0.0
 14
1.0
 24
1.0
 15
20.0
 25
20.0
 16
0.0
 26
0.0
 36
1.0
 17
0.0
 27
0.0
 37
0.0
 40
79.652009994325
 41
1.90983606557377
 42
50.0
 43
0.0
 44
0.0
 50
0.0
 51
0.0
 71
    16
 72
  2000
 73
     1
 74
     0
 75
     0
 76
     0
 77
     0
 78
     1
281
     0
 65
     1
110
0.0
120
0.0
130
0.0
111
1.0
121
0.0
131
0.0
112
0.0
122
1.0
132
0.0
 79
     0
146
0.0
  0
ENDTAB
  0
TABLE
  2
LTYPE
  5
5
330
0
100
AcDbSymbolTable
 70
     3
  0
LTYPE
  5
12
330
5
100
AcDbSymbolTableRecord
100
AcDbLinetypeTableRecord
  2
BYBLOCK
 70
     0
  3

 72
    65
 73
     0
 40
0.0
  0
LTYPE
  5
13
330
5
100
AcDbSymbolTableRecord
100
AcDbLinetypeTableRecord
  2
BYLAYER
 70
     0
  3

 72
    65
 73
     0
 40
0.0
  0
LTYPE
  5
14
330
5
100
AcDbSymbolTableRecord
100
AcDbLinetypeTableRecord
  2
CONTINUOUS
 70
     0
  3
Solid line
 72
    65
 73
     0
 40
0.0
  0
ENDTAB
  0
TABLE
  2
LAYER
  5
2
102
{ACAD_XDICTIONARY
360
189BB
102
}
330
0
100
AcDbSymbolTable
 70
    17
  0
LAYER
  5
F
102
{ACAD_XDICTIONARY
360
171F1
102
}
330
2
100
AcDbSymbolTableRecord
100
AcDbLayerTableRecord
  2
0
 70
     0
 62
     7
  6
CONTINUOUS
370
    -3
390
40CA
  0
LAYER
  5
4C
102
{ACAD_XDICTIONARY
360
171F9
102
}
330
2
100
AcDbSymbolTableRecord
100
AcDbLayerTableRecord
  2
寸法線
 70
     0
 62
     7
  6
CONTINUOUS
370
    -3
390
40CA
  0
LAYER
  5
4D
102
{ACAD_XDICTIONARY
360
171FB
102
}
330
2
100
AcDbSymbolTableRecord
100
AcDbLayerTableRecord
  2
姿図
 70
     0
 62
     8
  6
CONTINUOUS
370
    -3
390
40CA
  0
LAYER
  5
4E
330
2
100
AcDbSymbolTableRecord
100
AcDbLayerTableRecord
  2
DEFPOINTS
 70
     0
 62
     7
  6
CONTINUOUS
290
     0
370
    -3
390
40CA
  0
LAYER
  5
40D4
102
{ACAD_XDICTIONARY
360
171FF
102
}
330
2
100
AcDbSymbolTableRecord
100
AcDbLayerTableRecord
  2
文字
 70
     0
 62
     7
  6
CONTINUOUS
370
    -3
390
40CA
  0
ENDTAB
  0
TABLE
  2
STYLE
  5
3
330
0
100
AcDbSymbolTable
 70
     1
  0
STYLE
  5
10
330
3
100
AcDbSymbolTableRecord
100
AcDbTextStyleTableRecord
  2
STANDARD
 70
     0
 40
0.0
 41
1.0
 50
0.0
 71
     0
 42
6.0
  3
MONOTXT
  4
BIGFONT
  0
ENDTAB
  0
TABLE
  2
VIEW
  5
6
330
0
100
AcDbSymbolTable
 70
     1
  0
VIEW
  5
41
330
6
100
AcDbSymbolTableRecord
100
AcDbViewTableRecord
  2
CUT1
 70
     0
 40
612.7795527156796
 10
420.0000000000168
 20
306.3897763578398
 41
840.0000000000337
 11
0.0
 21
0.0
 31
1.0
 12
0.0
 22
0.0
 32
0.0
 42
50.0
 43
0.0
 44
0.0
 50
0.0
 71
     0
281
     0
 72
     0
  0
ENDTAB
  0
TABLE
  2
UCS
  5
7
330
0
100
AcDbSymbolTable
 70
     0
  0
ENDTAB
  0
TABLE
  2
APPID
  5
9
330
0
100
AcDbSymbolTable
 70
    11
  0
APPID
  5
11
330
9
100
AcDbSymbolTableRecord
100
AcDbRegAppTableRecord
  2
ACAD
 70
     0
  0
APPID
  5
171ED
330
9
100
AcDbSymbolTableRecord
100
AcDbRegAppTableRecord
  2
ACAD_MLEADERVER
 70
     0
  0
APPID
  5
189B7
330
9
100
AcDbSymbolTableRecord
100
AcDbRegAppTableRecord
  2
ACAD_PSEXT
 70
     0
  0
APPID
  5
189B8
330
9
100
AcDbSymbolTableRecord
100
AcDbRegAppTableRecord
  2
AcadAnnotative
 70
     0
  0
APPID
  5
189B9
330
9
100
AcDbSymbolTableRecord
100
AcDbRegAppTableRecord
  2
ACAD_DSTYLE_DIMJAG
 70
     0
  0
APPID
  5
189BA
330
9
100
AcDbSymbolTableRecord
100
AcDbRegAppTableRecord
  2
ACAD_DSTYLE_DIMTALN
 70
     0
  0
APPID
  5
189CC
330
9
100
AcDbSymbolTableRecord
100
AcDbRegAppTableRecord
  2
ACAD_EXEMPT_FROM_CAD_STANDARDS
 70
     0
  0
APPID
  5
19683
330
9
100
AcDbSymbolTableRecord
100
AcDbRegAppTableRecord
  2
ASK_MEN_XD
 70
     0
  0
APPID
  5
1ED22
330
9
100
AcDbSymbolTableRecord
100
AcDbRegAppTableRecord
  2
AcAecLayerStandard
 70
     0
  0
APPID
  5
1F9F0
330
9
100
AcDbSymbolTableRecord
100
AcDbRegAppTableRecord
  2
ACAD_SPLINE_DATA
 70
     0
  0
APPID
  5
1F9F1
330
9
100
AcDbSymbolTableRecord
100
AcDbRegAppTableRecord
  2
ACAD_SPLINE_DATA2
 70
     0
  0
ENDTAB
  0
TABLE
  2
DIMSTYLE
  5
A
330
0
100
AcDbSymbolTable
 70
     2
100
AcDbDimStyleTable
 71
     1
340
1B3A
  0
DIMSTYLE
105
1B3A
330
A
100
AcDbSymbolTableRecord
100
AcDbDimStyleTableRecord
  2
STANDARD
 70
     0
 41
4.0
 42
3.0
 43
7.149999999999999
 44
2.0
 73
     0
 74
     0
 77
     3
 78
     8
 79
     2
140
5.0
141
0.0
147
2.0
179
     2
271
     2
272
     2
288
     1
340
10
341
49C3
342
49C3
  0
ENDTAB
  0
TABLE
  2
BLOCK_RECORD
  5
1
330
0
100
AcDbSymbolTable
 70
    10
  0
BLOCK_RECORD
  5
18
102
{ACAD_XDICTIONARY
360
2134C
102
}
330
1
100
AcDbSymbolTableRecord
100
AcDbBlockTableRecord
  2
*MODEL_SPACE
340
40CD
  0
BLOCK_RECORD
  5
15
330
1
100
AcDbSymbolTableRecord
100
AcDbBlockTableRecord
  2
*PAPER_SPACE
340
40CE
  0
BLOCK_RECORD
  5
49C3
330
1
100
AcDbSymbolTableRecord
100
AcDbBlockTableRecord
  2
_OPEN
340
0
  0
BLOCK_RECORD
  5
FD36
330
1
100
AcDbSymbolTableRecord
100
AcDbBlockTableRecord
  2
_Open30
340
0
  0
ENDTAB
  0
ENDSEC
  0
SECTION
  2
BLOCKS
  0
BLOCK
  5
52
330
18
100
AcDbEntity
  8
0
100
AcDbBlockBegin
  2
*MODEL_SPACE
 70
     0
 10
0.0
 20
0.0
 30
0.0
  3
*MODEL_SPACE
  1

  0
ENDBLK
  5
53
330
18
100
AcDbEntity
  8
0
100
AcDbBlockEnd
  0
BLOCK
  5
50
330
15
100
AcDbEntity
 67
     1
  8
0
100
AcDbBlockBegin
  2
*PAPER_SPACE
 70
     0
 10
0.0
 20
0.0
 30
0.0
  3
*PAPER_SPACE
  1

  0
ENDBLK
  5
51
330
15
100
AcDbEntity
 67
     1
  8
0
100
AcDbBlockEnd
  0
BLOCK
  5
49C7
330
49C3
100
AcDbEntity
  8
0
100
AcDbBlockBegin
  2
_OPEN
 70
     0
 10
0.0
 20
0.0
 30
0.0
  3
_OPEN
  1

  0
LINE
  5
49C4
330
49C3
100
AcDbEntity
  8
0
  6
ByBlock
 62
     0
100
AcDbLine
 10
-1.0
 20
0.1666666666666666
 30
0.0
 11
0.0
 21
0.0
 31
0.0
  0
LINE
  5
49C5
330
49C3
100
AcDbEntity
  8
0
  6
ByBlock
 62
     0
100
AcDbLine
 10
0.0
 20
0.0
 30
0.0
 11
-1.0
 21
-0.1666666666666666
 31
0.0
  0
LINE
  5
49C6
330
49C3
100
AcDbEntity
  8
0
  6
ByBlock
 62
     0
100
AcDbLine
 10
0.0
 20
0.0
 30
0.0
 11
-1.0
 21
0.0
 31
0.0
  0
ENDBLK
  5
49C8
330
49C3
100
AcDbEntity
  8
0
100
AcDbBlockEnd
  0
BLOCK
  5
FD3A
330
FD36
100
AcDbEntity
  8
0
100
AcDbBlockBegin
  2
_Open30
 70
     0
 10
0.0
 20
0.0
 30
0.0
  3
_Open30
  1

  0
LINE
  5
FD37
330
FD36
100
AcDbEntity
  8
寸法線
 62
     0
370
    -2
100
AcDbLine
 10
-1.0
 20
0.26794919
 30
0.0
 11
0.0
 21
0.0
 31
0.0
  0
LINE
  5
FD38
330
FD36
100
AcDbEntity
  8
寸法線
 62
     0
370
    -2
100
AcDbLine
 10
0.0
 20
0.0
 30
0.0
 11
-1.0
 21
-0.26794919
 31
0.0
  0
LINE
  5
FD39
330
FD36
100
AcDbEntity
  8
寸法線
 62
     0
370
    -2
100
AcDbLine
 10
0.0
 20
0.0
 30
0.0
 11
-1.0
 21
0.0
 31
0.0
  0
ENDBLK
  5
FD3B
330
FD36
100
AcDbEntity
  8
0
100
AcDbBlockEnd
  0
ENDSEC
  0
SECTION
  2
ENTITIES
  0
SPLINE
  5
1FFE5
330
18
100
AcDbEntity
  8
姿図
100
AcDbSpline
210
0.0000000000000759
220
0.0000000000000261
230
1.0
 70
     8
 71
     3
 72
    14
 73
    10
 74
     0
 42
0.0000000001
 43
0.0000000001
 40
-17.67097520731171
 40
-17.67097520731171
 40
-17.67097520731171
 40
-17.67097520731171
 40
-15.46329434907155
 40
-15.46329434907155
 40
-11.48389074227961
 40
-11.48389074227961
 40
-5.954339038219556
 40
-5.954339038219556
 40
-0.5047492958822968
 40
-0.5047492958822968
 40
-0.5047492958822968
 40
-0.5047492958822968
 10
2419.648151749726
 20
-1904.49995163396
 30
0.0000000000000045
 10
2419.749793929137
 20
-1904.673820737608
 30
0.0000000000000006
 10
2419.845677462737
 20
-1904.849410897206
 30
0.0000000000000006
 10
2420.096014952581
 20
-1905.342225478969
 30
0.0000000000000006
 10
2420.234114869232
 20
-1905.656796003898
 30
0.0000000000000006
 10
2420.520514799676
 20
-1906.428043466075
 30
0.0000000000000045
 10
2420.626803904333
 20
-1906.820097078043
 30
0.0000000000000006
 10
2420.769465297885
 20
-1907.505555487684
 30
0.0000000000000084
 10
2420.815279033986
 20
-1907.843077918074
 30
0.0000000000000084
 10
2420.835493851736
 20
-1908.173341071997
 30
0.0000000000000006
  0
SPLINE
  5
1FFE6
330
18
100
AcDbEntity
  8
姿図
  6
Continuous
100
AcDbSpline
210
-0.0000000000003948
220
0.0000000000019567
230
1.0
 70
     8
 71
     3
 72
     8
 73
     4
 74
     0
 42
0.0000000001
 43
0.0000000001
 40
13.0
 40
13.0
 40
13.0
 40
13.0
 40
14.0
 40
14.0
 40
14.0
 40
14.0
 10
2404.01581141469
 20
-1884.680882236917
 30
0.0000000000000007
 10
2404.01581141469
 20
-1884.680882236917
 30
0.0000000000000007
 10
2401.396466768126
 20
-1885.18755221605
 30
0.0000000000000033
 10
2401.046147988175
 20
-1885.296963493667
 30
0.0000000000000033
  0
SPLINE
  5
1FFE7
330
18
100
AcDbEntity
  8
姿図
  6
Continuous
100
AcDbSpline
210
-0.000000000013102
220
-0.0000000000020952
230
1.0
 70
     8
 71
     3
 72
     8
 73
     4
 74
     0
 42
0.0000000001
 43
0.0000000001
 40
8.0
 40
8.0
 40
8.0
 40
8.0
 40
9.0
 40
9.0
 40
9.0
 40
9.0
 10
2416.764270205301
 20
-1909.362405159794
 30
-0.0000000000000071
 10
2416.764270205301
 20
-1909.362405159794
 30
-0.0000000000000071
 10
2412.969658147001
 20
-1885.375494132568
 30
0.0000000000000033
 10
2412.761283869518
 20
-1884.563303171091
 30
0.0000000000000033
  0
SPLINE
  5
1FFE8
330
18
100
AcDbEntity
  8
姿図
100
AcDbSpline
210
-0.000000000000001
220
-0.0000000000000019
230
-1.0
 70
     8
 71
     3
 72
     8
 73
     4
 74
     0
 42
0.0000000001
 43
0.0000000001
 40
-29.73791167171498
 40
-29.73791167171498
 40
-29.73791167171498
 40
-29.73791167171498
 40
-21.8165257845303
 40
-21.8165257845303
 40
-21.8165257845303
 40
-21.8165257845303
 10
2408.819670918673
 20
-1902.777212935739
 30
0.0000000000000006
 10
2411.171342837154
 20
-1902.723808326152
 30
0.0000000000000042
 10
2412.318470241985
 20
-1903.292041437681
 30
0.0000000000000045
 10
2414.437149128949
 20
-1905.958658976751
 30
0.0000000000000045
  0
SPLINE
  5
1FFE9
330
18
100
AcDbEntity
  8
姿図
100
AcDbSpline
210
0.0
220
0.0
230
1.0
 70
     8
 71
     3
 72
    20
 73
    16
 74
     0
 42
0.0000000001
 43
0.0000000001
 40
61.91009950387845
 40
61.91009950387845
 40
61.91009950387845
 40
61.91009950387845
 40
63.27662545801321
 40
63.27662545801321
 40
65.63207741714923
 40
65.63207741714923
 40
66.46294226239624
 40
66.46294226239624
 40
68.78483332584178
 40
68.78483332584178
 40
78.37384755292882
 40
78.37384755292882
 40
82.12808435629298
 40
82.12808435629298
 40
85.66477676586584
 40
85.66477676586584
 40
85.66477676586584
 40
85.66477676586584
 10
2412.196124928601
 20
-1924.389250594176
 30
-0.0000000000000006
 10
2412.335768155635
 20
-1924.241366184825
 30
-0.0000000000000013
 10
2412.46002983776
 20
-1924.098699388718
 30
-0.0000000000000016
 10
2412.756937019374
 20
-1923.736838341277
 30
0.0000000000000006
 10
2412.92226534139
 20
-1923.507123262943
 30
-0.0000000000000033
 10
2413.06840672246
 20
-1923.290834780238
 30
0.0000000000000006
 10
2413.108421979381
 20
-1923.229944982946
 30
-0.0000000000000033
 10
2413.262232352477
 20
-1922.989342234622
 30
0.0000000000000045
 10
2413.356162075413
 20
-1922.829091879149
 30
-0.0000000000000033
 10
2413.834260691374
 20
-1921.954198699864
 30
-0.0000000000000033
 10
2414.303742024452
 20
-1920.869362545315
 30
-0.0000000000000033
 10
2414.609244396152
 20
-1918.823246742466
 30
-0.0000000000000033
 10
2414.650054099164
 20
-1918.235101538613
 30
0.0000000000000045
 10
2414.644368241628
 20
-1917.061096600295
 30
0.0000000000000045
 10
2414.487540128058
 20
-1915.646285717764
 30
-0.0000000000000033
 10
2414.487540128058
 20
-1915.646285717764
 30
-0.0000000000000033
  0
LWPOLYLINE
  5
202B5
330
18
100
AcDbEntity
  8
姿図
100
AcDbPolyline
 90
        3
 70
     0
 43
0.0
 10
2420.570579172236
 20
-1909.464854922313
 10
2419.920396494464
 20
-1911.094018790232
 10
2418.671864767933
 20
-1913.033782858693
  0
SPLINE
  5
202B6
330
18
100
AcDbEntity
  8
姿図
100
AcDbSpline
210
0.000000000000001
220
0.0000000000000009
230
1.0
 70
     8
 71
     1
 72
    95
 73
    93
 74
     0
 42
0.0000000001
 43
0.0000000001
 40
4.868828357704043
 40
4.868828357704043
 40
4.899304006515187
 40
4.929779655326331
 40
4.960255304137476
 40
4.990730952948619
 40
5.021206601759763
 40
5.051682250570907
 40
5.082157899382051
 40
5.112633548193195
 40
5.141866847195869
 40
5.171100146198543
 40
5.200333445201218
 40
5.229566744203892
 40
5.258800043206566
 40
5.28803334220924
 40
5.317266641211914
 40
5.346499940214589
 40
5.375733239217263
 40
5.410288874003568
 40
5.444844508789874
 40
5.479400143576179
 40
5.513955778362484
 40
5.548511413148789
 40
5.583067047935095
 40
5.617622682721401
 40
5.652178317507705
 40
5.686733952294011
 40
5.721773394811629
 40
5.756812837329246
 40
5.791852279846864
 40
5.826891722364482
 40
5.861931164882101
 40
5.896970607399719
 40
5.932010049917337
 40
5.967049492434954
 40
6.002088934952572
 40
6.037128377470191
 40
6.072869040478575
 40
6.108609703486957
 40
6.144350366495341
 40
6.180091029503724
 40
6.215831692512108
 40
6.251572355520492
 40
6.287313018528875
 40
6.323053681537259
 40
6.358794344545643
 40
6.394535007554026
 40
6.434056964704096
 40
6.473578921854167
 40
6.513100879004239
 40
6.552622836154309
 40
6.592144793304379
 40
6.631666750454451
 40
6.671188707604521
 40
6.710710664754592
 40
6.750232621904663
 40
6.785926488730393
 40
6.821620355556124
 40
6.857314222381853
 40
6.893008089207585
 40
6.928701956033315
 40
6.964395822859046
 40
7.000089689684776
 40
7.035783556510507
 40
7.071477423336237
 40
7.107171290161968
 40
7.142623453249049
 40
7.178075616336131
 40
7.213527779423211
 40
7.248979942510293
 40
7.284432105597374
 40
7.319884268684455
 40
7.355336431771536
 40
7.390788594858618
 40
7.426240757945699
 40
7.46169292103278
 40
7.497078312165116
 40
7.532463703297453
 40
7.567849094429789
 40
7.603234485562125
 40
7.638619876694462
 40
7.674005267826798
 40
7.709390658959135
 40
7.74477605009147
 40
7.780161441223807
 40
7.80894388748256
 40
7.837726333741315
 40
7.866508780000069
 40
7.895291226258822
 40
7.924073672517575
 40
7.95285611877633
 40
7.981638565035083
 40
8.010421011293837
 40
8.010421011293837
 10
2417.05614459627
 20
-1912.051268779768
 30
-0.000000000000003
 10
2417.078885905351
 20
-1912.046754501461
 30
-0.000000000000003
 10
2417.101373326719
 20
-1912.041157013204
 30
-0.000000000000003
 10
2417.123546117298
 20
-1912.034497810736
 30
-0.000000000000003
 10
2417.145347187674
 20
-1912.026804605941
 30
-0.000000000000003
 10
2417.166724070797
 20
-1912.018110522632
 30
-0.000000000000003
 10
2417.187629670334
 20
-1912.00845314447
 30
-0.0000000000000095
 10
2417.208022764333
 20
-1911.997873477275
 30
-0.0000000000000095
 10
2417.227868259905
 20
-1911.986414888636
 30
-0.000000000000003
 10
2417.246363292524
 20
-1911.974638936856
 30
-0.000000000000003
 10
2417.264307406031
 20
-1911.962135204845
 30
-0.000000000000003
 10
2417.281684973182
 20
-1911.948943163433
 30
-0.000000000000003
 10
2417.298484738566
 20
-1911.9351013784
 30
-0.000000000000003
 10
2417.314699362412
 20
-1911.920647061901
 30
-0.000000000000003
 10
2417.330324926755
 20
-1911.905615738876
 30
-0.0000000000000095
 10
2417.345360430378
 20
-1911.890041021539
 30
-0.0000000000000095
 10
2417.359807294142
 20
-1911.87395448069
 30
-0.0000000000000095
 10
2417.373668893212
 20
-1911.857385600027
 30
-0.000000000000003
 10
2417.38930617203
 20
-1911.837215443425
 30
-0.000000000000003
 10
2417.404142668432
 20
-1911.816451265264
 30
-0.000000000000003
 10
2417.418189948969
 20
-1911.795131176742
 30
-0.000000000000003
 10
2417.431460424029
 20
-1911.773290017681
 30
-0.000000000000003
 10
2417.443966846042
 20
-1911.750959730718
 30
-0.000000000000003
 10
2417.455721922484
 20
-1911.728169746527
 30
-0.0000000000000095
 10
2417.466738029165
 20
-1911.704947361434
 30
-0.0000000000000095
 10
2417.477027008465
 20
-1911.681318094524
 30
-0.000000000000003
 10
2417.486600037607
 20
-1911.65730601601
 30
-0.0000000000000095
 10
2417.495586744711
 20
-1911.632590365496
 30
-0.000000000000003
 10
2417.503858112901
 20
-1911.607527625341
 30
-0.000000000000003
 10
2417.511423398724
 20
-1911.582140047487
 30
-0.000000000000003
 10
2417.518291073853
 20
-1911.556449384761
 30
-0.000000000000003
 10
2417.524468872803
 20
-1911.530477061986
 30
-0.000000000000003
 10
2417.529963853036
 20
-1911.504244316478
 30
-0.000000000000003
 10
2417.534782462425
 20
-1911.477772311151
 30
-0.000000000000003
 10
2417.538930610215
 20
-1911.451082223533
 30
-0.0000000000000095
 10
2417.542413738534
 20
-1911.424195313762
 30
-0.0000000000000095
 10
2417.545236892321
 20
-1911.397132974498
 30
-0.000000000000003
 10
2417.547441513712
 20
-1911.369370684568
 30
-0.000000000000003
 10
2417.548969101643
 20
-1911.341471387206
 30
-0.0000000000000095
 10
2417.549824145751
 20
-1911.313458379435
 30
-0.000000000000003
 10
2417.550010965872
 20
-1911.285355174292
 30
-0.000000000000003
 10
2417.549533762604
 20
-1911.257185493367
 30
-0.000000000000003
 10
2417.548396661184
 20
-1911.228973252467
 30
-0.000000000000003
 10
2417.546603748687
 20
-1911.200742541816
 30
-0.000000000000003
 10
2417.544159104557
 20
-1911.172517601986
 30
-0.000000000000003
 10
2417.54106682461
 20
-1911.144322796637
 30
-0.000000000000003
 10
2417.537331038602
 20
-1911.116182583005
 30
-0.0000000000000095
 10
2417.532455817389
 20
-1911.085158305433
 30
-0.0000000000000095
 10
2417.52680454702
 20
-1911.054263962139
 30
-0.0000000000000095
 10
2417.520383017516
 20
-1911.023532744563
 30
-0.000000000000003
 10
2417.513197079282
 20
-1910.992997788682
 30
-0.000000000000003
 10
2417.505252619954
 20
-1910.962692127914
 30
-0.000000000000003
 10
2417.496555530986
 20
-1910.9326486506
 30
-0.000000000000003
 10
2417.487111664291
 20
-1910.902900063627
 30
-0.0000000000000095
 10
2417.476926779193
 20
-1910.873478863898
 30
-0.000000000000003
 10
2417.466006480152
 20
-1910.844417319554
 30
-0.000000000000003
 10
2417.455516382837
 20
-1910.818506404529
 30
-0.0000000000000095
 10
2417.444434578689
 20
-1910.792938413629
 30
-0.000000000000003
 10
2417.432764565395
 20
-1910.767736645006
 30
-0.000000000000003
 10
2417.42050953261
 20
-1910.742924283544
 30
-0.0000000000000095
 10
2417.407672305864
 20
-1910.718524438143
 30
-0.0000000000000095
 10
2417.394255289963
 20
-1910.694560193298
 30
-0.000000000000003
 10
2417.380260413663
 20
-1910.671054677018
 30
-0.000000000000003
 10
2417.365689078002
 20
-1910.648031147215
 30
-0.000000000000003
 10
2417.350542111318
 20
-1910.625513098857
 30
-0.000000000000003
 10
2417.334819734814
 20
-1910.603524394096
 30
-0.000000000000003
 10
2417.318633846334
 20
-1910.582232648406
 30
-0.000000000000003
 10
2417.301878909848
 20
-1910.561511736279
 30
-0.000000000000003
 10
2417.284553342542
 20
-1910.541387126576
 30
-0.000000000000003
 10
2417.266655050894
 20
-1910.521885407491
 30
-0.0000000000000095
 10
2417.248181542912
 20
-1910.503034543117
 30
-0.0000000000000095
 10
2417.229130097792
 20
-1910.484864153016
 30
-0.0000000000000095
 10
2417.209498005628
 20
-1910.467405809035
 30
-0.0000000000000095
 10
2417.189282890745
 20
-1910.45069334008
 30
-0.000000000000003
 10
2417.168483132301
 20
-1910.434763131157
 30
-0.000000000000003
 10
2417.147098394785
 20
-1910.41965439767
 30
-0.0000000000000095
 10
2417.125172200052
 20
-1910.405435399582
 30
-0.0000000000000095
 10
2417.102669103994
 20
-1910.392122104196
 30
-0.000000000000003
 10
2417.079596967785
 20
-1910.379762917501
 30
-0.000000000000003
 10
2417.055968224883
 20
-1910.368409305992
 30
-0.000000000000003
 10
2417.031800952592
 20
-1910.358115454437
 30
-0.000000000000003
 10
2417.007119974864
 20
-1910.348937675128
 30
-0.0000000000000095
 10
2416.981957930693
 20
-1910.340933533158
 30
-0.000000000000003
 10
2416.956356223441
 20
-1910.334160667474
 30
-0.0000000000000095
 10
2416.930365750971
 20
-1910.328675311201
 30
-0.0000000000000095
 10
2416.908980132861
 20
-1910.325199938649
 30
-0.000000000000003
 10
2416.887414891309
 20
-1910.322637795675
 30
-0.000000000000003
 10
2416.865711738322
 20
-1910.321012109122
 30
-0.0000000000000095
 10
2416.84391620897
 20
-1910.320342443572
 30
-0.000000000000003
 10
2416.822077159198
 20
-1910.320644034149
 30
-0.000000000000003
 10
2416.800246105947
 20
-1910.321927205756
 30
-0.0000000000000095
 10
2416.77847642977
 20
-1910.324196916764
 30
-0.0000000000000095
 10
2416.756822471639
 20
-1910.327452459645
 30
-0.000000000000003
  0
LINE
  5
202B7
330
18
100
AcDbEntity
  8
姿図
100
AcDbLine
 10
2404.612203391331
 20
-1913.016779544478
 30
0.0000000000000007
 11
2406.114029896402
 21
-1911.284100249212
 31
0.0000000000000007
  0
LINE
  5
202B8
330
18
100
AcDbEntity
  8
姿図
100
AcDbLine
 10
2404.332938403185
 20
-1912.651920602396
 30
0.0000000000000007
 11
2405.814098198562
 21
-1910.943084793624
 31
0.0000000000000007
  0
LINE
  5
202B9
330
18
100
AcDbEntity
  8
姿図
100
AcDbLine
 10
2404.045557587682
 20
-1912.296425009528
 30
0.0000000000000007
 11
2405.505631486481
 21
-1910.611916309312
 31
0.0000000000000007
  0
LINE
  5
202BA
330
18
100
AcDbEntity
  8
姿図
100
AcDbLine
 10
2403.750083774065
 20
-1911.950266427441
 30
0.0000000000000007
 11
2405.188617155405
 21
-1910.290609338569
 31
0.0000000000000007
  0
LINE
  5
202BB
330
18
100
AcDbEntity
  8
姿図
100
AcDbLine
 10
2403.446502196417
 20
-1911.613461891789
 30
0.0000000000000007
 11
2404.863005877766
 21
-1909.979220791334
 31
0.0000000000000007
  0
ARC
  5
202BC
330
18
100
AcDbEntity
  8
姿図
100
AcDbCircle
 10
2392.245058717632
 20
-1897.4580516437
 30
0.0000000000000007
 40
32.4010045787127
100
AcDbArc
 50
312.1497441817832
 51
337.7894011510978
  0
SPLINE
  5
202BD
330
18
100
AcDbEntity
  8
姿図
100
AcDbSpline
210
-0.0000000000000003
220
-0.0000000000000006
230
1.0
 70
     8
 71
     3
 72
    20
 73
    16
 74
     0
 42
0.0000000001
 43
0.0000000001
 40
0.0507684683112425
 40
0.0507684683112425
 40
0.0507684683112425
 40
0.0507684683112425
 40
16.17239265914957
 40
16.17239265914957
 40
33.44137084920912
 40
33.44137084920912
 40
41.29196149669883
 40
41.29196149669883
 40
50.54402678597218
 40
50.54402678597218
 40
58.56297097631615
 40
58.56297097631615
 40
66.12555618457822
 40
66.12555618457822
 40
66.75214355035302
 40
66.75214355035302
 40
66.75214355035302
 40
66.75214355035302
 10
2412.226518207738
 20
-1911.637150001364
 30
-0.000000000000003
 10
2411.684615498565
 20
-1910.600345727715
 30
-0.000000000000003
 10
2411.029637007825
 20
-1909.607339299162
 30
-0.000000000000003
 10
2409.480535953932
 20
-1907.725567413356
 30
-0.000000000000003
 10
2408.290875666983
 20
-1906.509214834774
 30
-0.000000000000003
 10
2406.006613444273
 20
-1905.026551730673
 30
-0.000000000000003
 10
2405.263798072996
 20
-1904.634980474123
 30
-0.000000000000003
 10
2403.637076525628
 20
-1903.969025170238
 30
-0.000000000000003
 10
2402.75561023096
 20
-1903.730206455451
 30
-0.000000000000003
 10
2401.126844805038
 20
-1903.506039366072
 30
-0.000000000000003
 10
2400.4726014201
 20
-1903.502841023381
 30
0.0000000000000034
 10
2399.395230976389
 20
-1903.593124980879
 30
-0.000000000000003
 10
2398.752118992694
 20
-1903.698886489767
 30
-0.000000000000003
 10
2398.040369015138
 20
-1903.936729606934
 30
-0.000000000000003
 10
2397.986167511728
 20
-1903.955583713444
 30
-0.000000000000003
 10
2397.932242759823
 20
-1903.975076897283
 30
-0.000000000000003
  0
ELLIPSE
  5
202BE
330
18
100
AcDbEntity
  8
姿図
100
AcDbEllipse
 10
2398.771236151192
 20
-1918.307944419143
 30
0.0000000000000007
 11
-6.256821092345072
 21
9.926743234658767
 31
0.0
210
0.0
220
0.0
230
1.0
 40
0.6660508930180214
 41
0.0
 42
6.283185307179586
  0
ELLIPSE
  5
202BF
330
18
100
AcDbEntity
  8
姿図
100
AcDbEllipse
 10
2398.572995731386
 20
-1918.551208096306
 30
0.0000000000000007
 11
-5.798208717804529
 21
9.199132964345791
 31
0.0
210
0.0
220
0.0
230
1.0
 40
0.6621621934316991
 41
0.0
 42
6.283185307179586
  0
LINE
  5
202C0
330
18
100
AcDbEntity
  8
姿図
100
AcDbLine
 10
2407.259153669289
 20
-1918.207566858237
 30
0.0000000000000007
 11
2408.995891608184
 21
-1916.203866791775
 31
0.0000000000000007
  0
LINE
  5
202C1
330
18
100
AcDbEntity
  8
姿図
100
AcDbLine
 10
2407.097149455259
 20
-1917.707422438923
 30
0.0000000000000007
 11
2408.813219480176
 21
-1915.727567248356
 31
0.0000000000000007
  0
LINE
  5
202C2
330
18
100
AcDbEntity
  8
姿図
100
AcDbLine
 10
2406.922286516412
 20
-1917.222113319279
 30
0.0000000000000007
 11
2408.618393925776
 21
-1915.265289291452
 31
0.0000000000000007
  0
LINE
  5
202C3
330
18
100
AcDbEntity
  8
姿図
100
AcDbLine
 10
2406.111007750031
 20
-1915.409893305616
 30
0.0000000000000007
 11
2407.730362241409
 21
-1913.541620246491
 31
0.0000000000000007
  0
LINE
  5
202C4
330
18
100
AcDbEntity
  8
姿図
100
AcDbLine
 10
2406.537648251325
 20
-1916.291774014062
 30
0.0000000000000007
 11
2408.195064677646
 21
-1914.379588341601
 31
0.0000000000000007
  0
LINE
  5
202C5
330
18
100
AcDbEntity
  8
姿図
100
AcDbLine
 10
2406.329298894875
 20
-1915.845098666201
 30
0.0000000000000007
 11
2407.967665722885
 21
-1913.95489079508
 31
0.0000000000000007
  0
LINE
  5
202C6
330
18
100
AcDbEntity
  8
姿図
100
AcDbLine
 10
2406.735525158246
 20
-1916.750531580748
 30
0.0000000000000007
 11
2408.412141363029
 21
-1914.816194841901
 31
0.0000000000000007
  0
LINE
  5
202C7
330
18
100
AcDbEntity
  8
姿図
100
AcDbLine
 10
2405.883213231307
 20
-1914.98565212705
 30
0.0000000000000007
 11
2407.483500734104
 21
-1913.139376932674
 31
0.0000000000000007
  0
ARC
  5
202C8
330
18
100
AcDbEntity
  8
姿図
100
AcDbCircle
 10
2379.449880547005
 20
-1878.125635695153
 30
0.0000000000000007
 40
56.680142771736
100
AcDbArc
 50
297.7258407647561
 51
305.2915677694138
  0
LINE
  5
202C9
330
18
100
AcDbEntity
  8
姿図
100
AcDbLine
 10
2407.560843294045
 20
-1927.001374718103
 30
0.0000000000000007
 11
2405.913493556005
 21
-1927.496820977572
 31
0.0000000000000007
  0
LINE
  5
202CA
330
18
100
AcDbEntity
  8
姿図
100
AcDbLine
 10
2408.177967306105
 20
-1926.3043104031
 30
0.0000000000000007
 11
2406.27293443713
 21
-1927.162234910506
 31
0.0000000000000007
  0
LINE
  5
202CB
330
18
100
AcDbEntity
  8
姿図
100
AcDbLine
 10
2406.511558352315
 20
-1926.7947843829
 30
0.0000000000000007
 11
2408.777084750268
 21
-1925.387971261024
 31
0.0000000000000007
  0
LINE
  5
202CC
330
18
100
AcDbEntity
  8
姿図
100
AcDbLine
 10
2407.003649927068
 20
-1926.061988792049
 30
0.0000000000000007
 11
2409.135062115354
 21
-1924.557671060794
 31
0.0000000000000007
  0
LINE
  5
202CD
330
18
100
AcDbEntity
  8
姿図
100
AcDbLine
 10
2407.243895595084
 20
-1925.490788635121
 30
0.0000000000000007
 11
2409.505761146712
 21
-1923.539055550086
 31
0.0000000000000007
  0
LINE
  5
202CE
330
18
100
AcDbEntity
  8
姿図
100
AcDbLine
 10
2402.299930891258
 20
-1916.958902105217
 30
0.0000000000000007
 11
2398.659395641254
 21
-1921.30060871252
 31
0.0000000000000007
  0
LINE
  5
202CF
330
18
100
AcDbEntity
  8
姿図
100
AcDbLine
 10
2406.836393996408
 20
-1927.618008414716
 30
0.0000000000000007
 11
2405.526151648215
 21
-1927.866262088049
 31
0.0000000000000007
  0
ARC
  5
202D0
330
18
100
AcDbEntity
  8
姿図
100
AcDbCircle
 10
2402.487248311258
 20
-1920.813956748971
 30
-0.000000000000002
 40
8.15982290666305
100
AcDbArc
 50
275.8727705641258
 51
287.212885908897
  0
SPLINE
  5
202D1
330
18
100
AcDbEntity
  8
姿図
100
AcDbSpline
210
-0.0000010043570284
220
0.0000028531602176
230
-0.9999999999954253
 70
     8
 71
     3
 72
     8
 73
     4
 74
     0
 42
0.0000000001
 43
0.0000000001
 40
104.4616887805064
 40
104.4616887805064
 40
104.4616887805064
 40
104.4616887805064
 40
104.5558158786618
 40
104.5558158786618
 40
104.5558158786618
 40
104.5558158786618
 10
2405.092432261
 20
-1928.54234061165
 30
-0.000000000000002
 10
2405.08887444347
 20
-1928.543595397824
 30
-0.000000000000002
 10
2405.085318628802
 20
-1928.544847106686
 30
-0.0000000000000084
 10
2405.081764840506
 20
-1928.546095707474
 30
-0.0000000000000084
  0
SPLINE
  5
202D2
330
18
100
AcDbEntity
  8
姿図
100
AcDbSpline
210
0.0
220
0.0
230
1.0
 70
     8
 71
     3
 72
    12
 73
     8
 74
     0
 42
0.0000000001
 43
0.0000000001
 40
-1.090507445860422
 40
-1.090507445860422
 40
-1.090507445860422
 40
-1.090507445860422
 40
-0.9471425154221368
 40
-0.9471425154221368
 40
-0.7528206779009274
 40
-0.7528206779009274
 40
-0.6501188551225207
 40
-0.6501188551225207
 40
-0.6501188551225207
 40
-0.6501188551225207
 10
2405.068588134259
 20
-1928.550721426806
 30
-0.0000000000000084
 10
2405.062798146707
 20
-1928.552753689834
 30
-0.0000000000000084
 10
2405.056074480014
 20
-1928.555113738519
 30
-0.0000000000000084
 10
2405.038526491657
 20
-1928.56126819986
 30
-0.0000000000000084
 10
2405.02758092067
 20
-1928.565103012044
 30
-0.0000000000000084
 10
2405.010764282716
 20
-1928.570977105694
 30
-0.0000000000000084
 10
2405.00475073231
 20
-1928.573074567746
 30
-0.0000000000000084
 10
2404.998582731237
 20
-1928.575221133487
 30
-0.0000000000000084
  0
SPLINE
  5
202D3
330
18
100
AcDbEntity
  8
姿図
100
AcDbSpline
210
0.0000000034355817
220
-0.0000000098966922
230
1.0
 70
     8
 71
     3
 72
     8
 73
     4
 74
     0
 42
0.0000000001
 43
0.0000000001
 40
211.7706370983692
 40
211.7706370983692
 40
211.7706370983692
 40
211.7706370983692
 40
212.1566911252955
 40
212.1566911252955
 40
212.1566911252955
 40
212.1566911252955
 10
2405.026932634686
 20
-1928.565169604232
 30
-0.0000000000000084
 10
2405.041421569054
 20
-1928.560180274997
 30
-0.0000000000000084
 10
2405.055945446911
 20
-1928.555138404274
 30
-0.000000000000002
 10
2405.070503399692
 20
-1928.550044315037
 30
-0.0000000000000084
  0
SPLINE
  5
202D4
330
18
100
AcDbEntity
  8
姿図
100
AcDbSpline
210
0.0
220
0.0
230
1.0
 70
     8
 71
     3
 72
     8
 73
     4
 74
     0
 42
0.0000000001
 43
0.0000000001
 40
-0.691446024632862
 40
-0.691446024632862
 40
-0.691446024632862
 40
-0.691446024632862
 40
-0.6779385051869152
 40
-0.6779385051869152
 40
-0.6779385051869152
 40
-0.6779385051869152
 10
2405.070535477973
 20
-1928.55007474453
 30
-0.0000000000000084
 10
2405.069893554709
 20
-1928.55030159551
 30
-0.0000000000000084
 10
2405.069244378204
 20
-1928.550517169493
 30
-0.0000000000000084
 10
2405.068588134259
 20
-1928.550721426806
 30
-0.0000000000000084
  0
SPLINE
  5
202D5
330
18
100
AcDbEntity
  8
姿図
100
AcDbSpline
210
0.0
220
0.0
230
1.0
 70
     8
 71
     1
 72
     8
 73
     6
 74
     0
 42
0.0000000001
 43
0.0000000001
 40
4.584727753645457
 40
4.584727753645457
 40
4.584891353986821
 40
4.585054954328186
 40
4.585218554669551
 40
4.585382155010916
 40
4.585545755352281
 40
4.585545755352281
 10
2404.998582731237
 20
-1928.575221133487
 30
-0.0000000000000084
 10
2404.993758248413
 20
-1928.576899585499
 30
-0.0000000000000084
 10
2404.988933860633
 20
-1928.578576849821
 30
-0.0000000000000084
 10
2404.984109568531
 20
-1928.580252926505
 30
-0.0000000000000084
 10
2404.979285372743
 20
-1928.581927815603
 30
-0.0000000000000084
 10
2404.974461273903
 20
-1928.583601517167
 30
-0.0000000000000084
  0
SPLINE
  5
202D6
330
18
100
AcDbEntity
  8
姿図
100
AcDbSpline
210
0.0000000000142442
220
-0.0000000000381049
230
1.0
 70
     8
 71
     1
 72
     8
 73
     6
 74
     0
 42
0.0000000001
 43
0.0000000001
 40
4.553485832398614
 40
4.553485832398614
 40
4.559001824165761
 40
4.564517815932909
 40
4.570033807700056
 40
4.575549799467204
 40
4.581065791234351
 40
4.581065791234351
 10
2405.308375985135
 20
-1928.46116246204
 30
-0.0000000000000084
 10
2405.261133554626
 20
-1928.479607619896
 30
-0.0000000000000084
 10
2405.213726788464
 20
-1928.497721967379
 30
-0.000000000000002
 10
2405.166157184547
 20
-1928.515504958527
 30
-0.0000000000000084
 10
2405.118426245373
 20
-1928.532956058689
 30
-0.0000000000000084
 10
2405.070535477973
 20
-1928.55007474453
 30
-0.0000000000000084
  0
LINE
  5
202D7
330
18
100
AcDbEntity
  8
姿図
100
AcDbLine
 10
2401.125563768061
 20
-1914.964063327053
 30
0.0000000000000007
 11
2397.485028518056
 21
-1919.305769934356
 31
0.0000000000000007
  0
LINE
  5
202D8
330
18
100
AcDbEntity
  8
姿図
100
AcDbLine
 10
2401.360436838712
 20
-1912.851880851053
 30
0.0000000000000007
 11
2397.719901588707
 21
-1917.193587458356
 31
0.0000000000000007
  0
LINE
  5
202D9
330
18
100
AcDbEntity
  8
姿図
100
AcDbLine
 10
2405.646276626467
 20
-1914.571958307498
 30
0.0000000000000007
 11
2407.227366316233
 21
-1912.747831911962
 31
0.0000000000000007
  0
LINE
  5
202DA
330
18
100
AcDbEntity
  8
姿図
100
AcDbLine
 10
2405.400493523471
 20
-1914.168470822791
 30
0.0000000000000007
 11
2406.962190283266
 21
-1912.366718335375
 31
0.0000000000000007
  0
LINE
  5
202DB
330
18
100
AcDbEntity
  8
姿図
100
AcDbLine
 10
2405.146102481606
 20
-1913.774914443578
 30
0.0000000000000007
 11
2406.688155894278
 21
-1911.995824774228
 31
0.0000000000000007
  0
LINE
  5
202DC
330
18
100
AcDbEntity
  8
姿図
100
AcDbLine
 10
2404.883291593876
 20
-1913.391072164195
 30
0.0000000000000007
 11
2406.40540273244
 21
-1911.634990189362
 31
0.0000000000000007
  0
LINE
  5
202DD
330
18
100
AcDbEntity
  8
姿図
100
AcDbLine
 10
2407.872217724631
 20
-1922.309623275954
 30
0.0000000000000007
 11
2409.82543205152
 21
-1920.056171221412
 31
0.0000000000000007
  0
LINE
  5
202DE
330
18
100
AcDbEntity
  8
姿図
100
AcDbLine
 10
2407.864285178283
 20
-1921.631724110883
 30
0.0000000000000007
 11
2409.769557303241
 21
-1919.433583678807
 31
0.0000000000000007
  0
SPLINE
  5
202DF
330
18
100
AcDbEntity
  8
姿図
100
AcDbSpline
210
0.0000000000000038
220
-0.000000000000001
230
1.0
 70
     8
 71
     3
 72
    20
 73
    16
 74
     0
 42
0.0000000001
 43
0.0000000001
 40
60.97286850367482
 40
60.97286850367482
 40
60.97286850367482
 40
60.97286850367482
 40
63.27662545801321
 40
63.27662545801321
 40
65.63207741714923
 40
65.63207741714923
 40
66.46294226239624
 40
66.46294226239624
 40
68.78483332584178
 40
68.78483332584178
 40
78.37384755292882
 40
78.37384755292882
 40
82.12808435629298
 40
82.12808435629298
 40
84.32250915659357
 40
84.32250915659357
 40
84.32250915659357
 40
84.32250915659357
 10
2411.898674958601
 20
-1924.598362383592
 30
-0.0000000000000034
 10
2412.13375902363
 20
-1924.328144032919
 30
-0.0000000000000038
 10
2412.327888487201
 20
-1924.065781623178
 30
-0.0000000000000048
 10
2412.642357796598
 20
-1923.595554658112
 30
-0.0000000000000095
 10
2412.780021234961
 20
-1923.35813118021
 30
-0.000000000000003
 10
2412.900667271745
 20
-1923.135011490439
 30
-0.000000000000003
 10
2412.93357041527
 20
-1923.072249035117
 30
-0.000000000000003
 10
2413.059527588921
 20
-1922.824439559866
 30
-0.000000000000003
 10
2413.135400006045
 20
-1922.659770656035
 30
-0.0000000000000095
 10
2413.516928150454
 20
-1921.762309385127
 30
-0.000000000000003
 10
2413.873821881709
 20
-1920.655015202226
 30
-0.0000000000000095
 10
2414.000622670872
 20
-1918.592523721883
 30
-0.000000000000003
 10
2413.992792761973
 20
-1918.001777176515
 30
-0.000000000000003
 10
2413.913063208591
 20
-1917.042856435752
 30
-0.000000000000003
 10
2413.869032757089
 20
-1916.682938422809
 30
-0.000000000000003
 10
2413.810440373821
 20
-1916.321468493588
 30
-0.000000000000003
  0
LINE
  5
202E0
330
18
100
AcDbEntity
  8
姿図
100
AcDbLine
 10
2407.833164083438
 20
-1923.041731095645
 30
0.0000000000000007
 11
2409.850168676145
 21
-1920.714683274584
 31
0.0000000000000007
  0
LINE
  5
202E1
330
18
100
AcDbEntity
  8
姿図
100
AcDbLine
 10
2407.50298259131
 20
-1924.796768452862
 30
0.0000000000000007
 11
2409.76980331294
 21
-1922.181504094972
 31
0.0000000000000007
  0
LINE
  5
202E2
330
18
100
AcDbEntity
  8
姿図
100
AcDbLine
 10
2407.726002423363
 20
-1923.85241613698
 30
0.0000000000000007
 11
2409.835861079047
 21
-1921.418241219774
 31
0.0000000000000007
  0
SPLINE
  5
202E3
330
18
100
AcDbEntity
  8
姿図
100
AcDbSpline
210
0.0
220
0.0
230
1.0
 70
     8
 71
     3
 72
     8
 73
     4
 74
     0
 42
0.0000000001
 43
0.0000000001
 40
20.17474574740567
 40
20.17474574740567
 40
20.17474574740567
 40
20.17474574740567
 40
20.51051228626665
 40
20.51051228626665
 40
20.51051228626665
 40
20.51051228626665
 10
2412.260287713638
 20
-1911.702108402635
 30
-0.000000000000003
 10
2412.249090879337
 20
-1911.680463799486
 30
-0.000000000000003
 10
2412.237830142801
 20
-1911.6588121027
 30
-0.000000000000003
 10
2412.226504827749
 20
-1911.637152324655
 30
-0.000000000000003
  0
LINE
  5
202E4
330
18
100
AcDbEntity
  8
姿図
100
AcDbLine
 10
2407.407108362354
 20
-1918.723920416224
 30
0.0000000000000007
 11
2409.165529997349
 21
-1916.695203551117
 31
0.0000000000000007
  0
LINE
  5
202E5
330
18
100
AcDbEntity
  8
姿図
100
AcDbLine
 10
2407.820954349374
 20
-1920.994664464276
 30
0.0000000000000007
 11
2409.687862577909
 21
-1918.84078502293
 31
0.0000000000000007
  0
LINE
  5
202E6
330
18
100
AcDbEntity
  8
姿図
100
AcDbLine
 10
2407.749405734208
 20
-1920.39016009209
 30
0.0000000000000007
 11
2409.58412705146
 21
-1918.273415163
 31
0.0000000000000007
  0
LINE
  5
202E7
330
18
100
AcDbEntity
  8
姿図
100
AcDbLine
 10
2407.654454872455
 20
-1919.812655235484
 30
0.0000000000000007
 11
2409.461147487914
 21
-1917.728247431292
 31
0.0000000000000007
  0
LINE
  5
202E8
330
18
100
AcDbEntity
  8
姿図
100
AcDbLine
 10
2407.539515471511
 20
-1919.258211450103
 30
0.0000000000000007
 11
2409.321058705415
 21
-1917.202818856763
 31
0.0000000000000007
  0
LWPOLYLINE
  5
202E9
330
18
100
AcDbEntity
  8
姿図
100
AcDbPolyline
 90
        4
 70
     0
 43
0.0
 10
2414.646815525843
 20
-1917.598014964088
 10
2415.564030009305
 20
-1916.939667133225
 10
2415.859355283981
 20
-1916.633345597787
 10
2417.692380177312
 20
-1912.984514896081
  0
LWPOLYLINE
  5
202EA
330
18
100
AcDbEntity
  8
姿図
100
AcDbPolyline
 90
        4
 70
     0
 43
0.0
 10
2414.662246246223
 20
-1918.081616023939
 10
2415.839000131724
 20
-1917.23697893856
 10
2416.134325406399
 20
-1916.930657403123
 10
2417.96735029973
 20
-1913.281826701416
  0
ARC
  5
202ED
330
18
100
AcDbEntity
  8
姿図
100
AcDbCircle
 10
2408.627556907881
 20
-1915.785939700009
 30
0.0000000000000006
 40
13.01014526516036
100
AcDbArc
 50
89.1539124397995
 51
109.5374537908154
  0
ARC
  5
202EE
330
18
100
AcDbEntity
  8
姿図
100
AcDbCircle
 10
2410.184283788781
 20
-1911.308329124516
 30
0.0000000000000007
 40
7.696466014058291
100
AcDbArc
 50
89.99913466622521
 51
118.3230229954098
  0
ARC
  5
202EF
330
18
100
AcDbEntity
  8
姿図
100
AcDbCircle
 10
2410.566276826191
 20
-1911.509633912602
 30
0.0000000000000007
 40
7.696466014058291
100
AcDbArc
 50
89.99913466622521
 51
118.3230229954098
  0
LINE
  5
202F0
330
18
100
AcDbEntity
  8
姿図
100
AcDbLine
 10
2403.134760148761
 20
-1911.286072210234
 30
0.0000000000000007
 11
2404.528710536046
 21
-1909.677851176367
 31
0.0000000000000007
  0
LINE
  5
202F1
330
18
100
AcDbEntity
  8
姿図
100
AcDbLine
 10
2402.814765742455
 20
-1910.96820339605
 30
0.0000000000000007
 11
2404.185604304486
 21
-1909.386646814407
 31
0.0000000000000007
  0
LINE
  5
202F2
330
18
100
AcDbEntity
  8
姿図
100
AcDbLine
 10
2402.486385696638
 20
-1910.660009217324
 30
0.0000000000000007
 11
2403.833517779209
 21
-1909.105803149197
 31
0.0000000000000007
  0
LINE
  5
202F3
330
18
100
AcDbEntity
  8
姿図
100
AcDbLine
 10
2402.149442035117
 20
-1910.361695007807
 30
0.0000000000000007
 11
2403.472235000716
 21
-1908.835569336381
 31
0.0000000000000007
  0
LINE
  5
202F4
330
18
100
AcDbEntity
  8
姿図
100
AcDbLine
 10
2401.803707492367
 20
-1910.073522967067
 30
0.0000000000000007
 11
2403.101488141358
 21
-1908.576254372652
 31
0.0000000000000007
  0
LINE
  5
202F5
330
18
100
AcDbEntity
  8
姿図
100
AcDbLine
 10
2401.448899338644
 20
-1909.795819284565
 30
0.0000000000000007
 11
2402.720950534555
 21
-1908.328235138042
 31
0.0000000000000007
  0
LINE
  5
202F6
330
18
100
AcDbEntity
  8
姿図
100
AcDbLine
 10
2395.047956706739
 20
-1907.561965961453
 30
0.0000000000000007
 11
2395.83718467931
 21
-1906.651422058612
 31
0.0000000000000007
  0
LINE
  5
202F7
330
18
100
AcDbEntity
  8
姿図
100
AcDbLine
 10
2394.373418657793
 20
-1907.653139354739
 30
0.0000000000000007
 11
2395.11188442395
 21
-1906.80116055495
 31
0.0000000000000007
  0
LINE
  5
202F8
330
18
100
AcDbEntity
  8
姿図
100
AcDbLine
 10
2393.597563910863
 20
-1907.861203310462
 30
0.0000000000000007
 11
2394.281784834446
 21
-1907.07180758221
 31
0.0000000000000007
  0
LINE
  5
202F9
330
18
100
AcDbEntity
  8
姿図
100
AcDbLine
 10
2399.930797049266
 20
-1908.799071950049
 30
0.0000000000000007
 11
2401.091705960433
 21
-1907.45971428971
 31
0.0000000000000007
  0
LINE
  5
202FA
330
18
100
AcDbEntity
  8
姿図
100
AcDbLine
 10
2399.523693456017
 20
-1908.581702284159
 30
0.0000000000000007
 11
2400.654434969461
 21
-1907.277149193622
 31
0.0000000000000007
  0
LINE
  5
202FB
330
18
100
AcDbEntity
  8
姿図
100
AcDbLine
 10
2399.103954015116
 20
-1908.378910781278
 30
0.0000000000000007
 11
2400.203409571998
 21
-1907.110452758303
 31
0.0000000000000007
  0
LINE
  5
202FC
330
18
100
AcDbEntity
  8
姿図
100
AcDbLine
 10
2398.670442760205
 20
-1908.192008022479
 30
0.0000000000000007
 11
2399.737385417356
 21
-1906.96106060942
 31
0.0000000000000007
  0
LINE
  5
202FD
330
18
100
AcDbEntity
  8
姿図
100
AcDbLine
 10
2398.221735481259
 20
-1908.022637139784
 30
0.0000000000000007
 11
2399.254808747217
 21
-1906.830765340763
 31
0.0000000000000007
  0
LINE
  5
202FE
330
18
100
AcDbEntity
  8
姿図
100
AcDbLine
 10
2397.756014726552
 20
-1907.87289495394
 30
0.0000000000000007
 11
2398.75370502246
 21
-1906.721845007114
 31
0.0000000000000007
  0
LINE
  5
202FF
330
18
100
AcDbEntity
  8
姿図
100
AcDbLine
 10
2397.270907912476
 20
-1907.7455187495
 30
0.0000000000000007
 11
2398.231508215636
 21
-1906.637260072023
 31
0.0000000000000007
  0
LINE
  5
20300
330
18
100
AcDbEntity
  8
姿図
100
AcDbLine
 10
2396.76322561187
 20
-1907.644188215422
 30
0.0000000000000007
 11
2397.68478682221
 21
-1906.580969512674
 31
0.0000000000000007
  0
LINE
  5
20301
330
18
100
AcDbEntity
  8
姿図
100
AcDbLine
 10
2396.228512397097
 20
-1907.574043644005
 30
0.0000000000000007
 11
2397.108777883534
 21
-1906.558468424407
 31
0.0000000000000007
  0
LINE
  5
20302
330
18
100
AcDbEntity
  8
姿図
100
AcDbLine
 10
2395.660213572973
 20
-1907.542647283346
 30
0.0000000000000007
 11
2396.496532790091
 21
-1906.577773520073
 31
0.0000000000000007
  0
SPLINE
  5
20303
330
18
100
AcDbEntity
  8
姿図
100
AcDbSpline
210
0.0000000000009108
220
-0.0000000000007048
230
1.0
 70
     8
 71
     1
 72
    15
 73
    13
 74
     0
 42
0.0000000001
 43
0.0000000001
 40
7.207173242914819
 40
7.207173242914819
 40
7.217570874922296
 40
7.231882583709728
 40
7.246194292497159
 40
7.260506001284593
 40
7.274817710072024
 40
7.289129418859456
 40
7.303441127646889
 40
7.317752836434321
 40
7.332064545221753
 40
7.346376254009186
 40
7.360687962796617
 40
7.37499967158405
 40
7.37499967158405
 10
2391.034227170405
 20
-1909.773474377976
 30
-0.0000000000000037
 10
2391.086172539201
 20
-1909.690057463682
 30
-0.0000000000000084
 10
2391.159485129344
 20
-1909.576874834825
 30
-0.0000000000000084
 10
2391.234595892087
 20
-1909.4653518991
 30
-0.0000000000000084
 10
2391.31148963965
 20
-1909.355512348207
 30
-0.000000000000002
 10
2391.390150770602
 20
-1909.247379550947
 30
-0.0000000000000084
 10
2391.470563271088
 20
-1909.140976545631
 30
-0.000000000000002
 10
2391.552710716345
 20
-1909.036326032328
 30
-0.000000000000002
 10
2391.636576272517
 20
-1908.933450365003
 30
-0.0000000000000084
 10
2391.722142698791
 20
-1908.832371543519
 30
-0.000000000000002
 10
2391.80939234988
 20
-1908.733111205566
 30
-0.000000000000002
 10
2391.898307178879
 20
-1908.635690618496
 30
-0.0000000000000084
 10
2391.988868740476
 20
-1908.540130671134
 30
-0.000000000000002
  0
LINE
  5
20304
330
18
100
AcDbEntity
  8
姿図
100
AcDbLine
 10
2392.593901966453
 20
-1908.332091775576
 30
0.0000000000000007
 11
2393.231683734063
 21
-1907.596273583592
 31
0.0000000000000007
  0
LINE
  5
20305
330
18
100
AcDbEntity
  8
姿図
100
AcDbLine
 10
2401.08467120689
 20
-1909.528983569063
 30
0.0000000000000007
 11
2402.330227589282
 21
-1908.091966878007
 31
0.0000000000000007
  0
LINE
  5
20306
330
18
100
AcDbEntity
  8
姿図
100
AcDbLine
 10
2400.710602322913
 20
-1909.273501273924
 30
0.0000000000000007
 11
2401.92884494246
 21
-1907.867996872205
 31
0.0000000000000007
  0
LINE
  5
20307
330
18
100
AcDbEntity
  8
姿図
100
AcDbLine
 10
2400.326183274089
 20
-1909.029960115979
 30
0.0000000000000007
 11
2401.516232920944
 21
-1907.656982360905
 31
0.0000000000000007
  0
ARC
  5
20308
330
18
100
AcDbEntity
  8
姿図
100
AcDbCircle
 10
2416.496715519155
 20
-1933.860882363634
 30
0.0000000000000007
 40
35.18239641076941
100
AcDbArc
 50
120.512763796355
 51
131.8937550336386
  0
LWPOLYLINE
  5
2030A
330
18
100
AcDbEntity
  8
姿図
100
AcDbPolyline
 90
        3
 70
     0
 43
0.0
 10
2420.826909602677
 20
-1908.868989868848
 10
2421.279843473405
 20
-1909.064742330425
 10
2422.241930600153
 20
-1909.706021882612
  0
SPLINE
  5
2030B
330
18
100
AcDbEntity
  8
姿図
100
AcDbSpline
210
0.0000000007385842
220
-0.0000000005914481
230
-1.0
 70
     8
 71
     3
 72
     8
 73
     4
 74
     0
 42
0.0000000001
 43
0.0000000001
 40
-5.558709854342928
 40
-5.558709854342928
 40
-5.558709854342928
 40
-5.558709854342928
 40
-5.251204385375415
 40
-5.251204385375415
 40
-5.251204385375415
 40
-5.251204385375415
 10
2415.380654432709
 20
-1909.823952972721
 30
-0.000000000000003
 10
2415.391129241201
 20
-1909.810334647743
 30
-0.000000000000003
 10
2415.401791756208
 20
-1909.797011490116
 30
-0.0000000000000095
 10
2415.412637938934
 20
-1909.784009276906
 30
-0.0000000000000095
  0
SPLINE
  5
2030C
330
18
100
AcDbEntity
  8
姿図
100
AcDbSpline
210
-0.2421843544408494
220
0.5963067347145661
230
-0.7653528706408054
 70
     8
 71
     3
 72
     8
 73
     4
 74
     0
 42
0.0000000001
 43
0.0000000001
 40
110.2937215201613
 40
110.2937215201613
 40
110.2937215201613
 40
110.2937215201613
 40
110.302956437032
 40
110.302956437032
 40
110.302956437032
 40
110.302956437032
 10
2415.412846217535
 20
-1909.783924686517
 30
-0.000000000000003
 10
2415.412776789337
 20
-1909.783952884387
 30
-0.0000000000000095
 10
2415.41270736319
 20
-1909.783981081162
 30
-0.000000000000003
 10
2415.412637938934
 20
-1909.784009276906
 30
-0.0000000000000095
  0
SPLINE
  5
2030D
330
18
100
AcDbEntity
  8
姿図
100
AcDbSpline
210
-0.0000000007385842
220
0.0000000005914481
230
1.0
 70
     8
 71
     3
 72
     8
 73
     4
 74
     0
 42
0.0000000001
 43
0.0000000001
 40
-5.558709854342928
 40
-5.558709854342928
 40
-5.558709854342928
 40
-5.558709854342928
 40
-5.251204385375415
 40
-5.251204385375415
 40
-5.251204385375415
 40
-5.251204385375415
 10
2415.380680776749
 20
-1909.823961876025
 30
-0.000000000000003
 10
2415.39115549865
 20
-1909.810343663626
 30
-0.000000000000003
 10
2415.401817925512
 20
-1909.797020616139
 30
-0.0000000000000095
 10
2415.412664018575
 20
-1909.784018510414
 30
-0.0000000000000095
  0
SPLINE
  5
2030E
330
18
100
AcDbEntity
  8
姿図
100
AcDbSpline
210
0.2420643438095528
220
-0.5960112430757948
230
0.7656209581661779
 70
     8
 71
     3
 72
     8
 73
     4
 74
     0
 42
0.0000000001
 43
0.0000000001
 40
110.2937215201613
 40
110.2937215201613
 40
110.2937215201613
 40
110.2937215201613
 40
110.302956437032
 40
110.302956437032
 40
110.302956437032
 40
110.302956437032
 10
2415.412872295454
 20
-1909.783933920724
 30
-0.000000000000003
 10
2415.41280286783
 20
-1909.783962118361
 30
-0.0000000000000095
 10
2415.412733442258
 20
-1909.783990314903
 30
-0.000000000000003
 10
2415.412664018575
 20
-1909.784018510414
 30
-0.0000000000000095
  0
ARC
  5
2030F
330
18
100
AcDbEntity
  8
姿図
100
AcDbCircle
 10
2399.283700925316
 20
-1918.661461556573
 30
0.0000000000000007
 40
16.04292331502833
100
AcDbArc
 50
39.6330363446142
 51
47.92697906334058
  0
LWPOLYLINE
  5
20310
330
18
100
AcDbEntity
  8
姿図
100
AcDbPolyline
 90
        4
 70
     0
 43
0.0
 10
2408.710896591436
 20
-1905.960334443699
 10
2409.07036044937
 20
-1905.738241030753
 10
2409.366306577441
 20
-1905.627829302185
 10
2412.690271407901
 20
-1904.622700179646
  0
LWPOLYLINE
  5
20311
330
18
100
AcDbEntity
  8
姿図
100
AcDbPolyline
 90
        4
 70
     0
 43
0.0
 10
2408.430579793535
 20
-1905.717082689013
 10
2408.790043651468
 20
-1905.494989276066
 10
2409.085989779541
 20
-1905.384577547498
 10
2412.40995461
 20
-1904.379448424959
  0
LINE
  5
20312
330
18
100
AcDbEntity
  8
姿図
100
AcDbLine
 10
2414.793186522408
 20
-1907.583649794721
 30
0.0000000000000007
 11
2413.266689666854
 21
-1909.674968077245
 31
0.0000000000000007
  0
LWPOLYLINE
  5
20313
330
18
100
AcDbEntity
  8
姿図
100
AcDbPolyline
 90
        4
 70
     0
 43
0.0
 10
2411.362266392336
 20
-1908.635256742938
 10
2412.404742971128
 20
-1907.855473046913
 10
2412.659311268516
 20
-1907.758927844521
 10
2414.664282762058
 20
-1906.910449067907
  0
LINE
  5
20314
330
18
100
AcDbEntity
  8
姿図
100
AcDbLine
 10
2412.690271407901
 20
-1904.622700179646
 30
0.0000000000000007
 11
2410.447034704177
 21
-1906.747177649508
 31
0.0000000000000007
  0
LWPOLYLINE
  5
20315
330
18
100
AcDbEntity
  8
姿図
100
AcDbPolyline
 90
        4
 70
     0
 43
0.0
 10
2411.697215805462
 20
-1908.978382740015
 10
2412.739692384253
 20
-1908.198599043989
 10
2412.994260681642
 20
-1908.102053841598
 10
2414.863561061185
 20
-1907.287768899731
  0
SPLINE
  5
20316
330
18
100
AcDbEntity
  8
姿図
100
AcDbSpline
210
-0.0000000000003499
220
0.0000000000010241
230
1.0
 70
     8
 71
     3
 72
    14
 73
    10
 74
     0
 42
0.0000000001
 43
0.0000000001
 40
-12.4176878319165
 40
-12.4176878319165
 40
-12.4176878319165
 40
-12.4176878319165
 40
-9.929941621284125
 40
-9.929941621284125
 40
-7.882361304732087
 40
-7.882361304732087
 40
-6.55536423551068
 40
-6.55536423551068
 40
-6.542320515967429
 40
-6.542320515967429
 40
-6.542320515967429
 40
-6.542320515967429
 10
2415.412846217535
 20
-1909.783924686517
 30
-0.000000000000003
 10
2415.569259824951
 20
-1909.720398184289
 30
-0.000000000000003
 10
2415.757136087968
 20
-1909.643289480731
 30
-0.000000000000003
 10
2416.087413378045
 20
-1909.517181084218
 30
-0.000000000000003
 10
2416.239907630487
 20
-1909.461748000163
 30
-0.0000000000000095
 10
2416.488588645906
 20
-1909.386023429691
 30
-0.000000000000003
 10
2416.601331949834
 20
-1909.355761963551
 30
-0.0000000000000095
 10
2416.708528734088
 20
-1909.336941467788
 30
-0.000000000000003
 10
2416.709570550434
 20
-1909.336759537934
 30
-0.0000000000000095
 10
2416.710610771712
 20
-1909.336578936384
 30
-0.000000000000003
  0
SPLINE
  5
20317
330
18
100
AcDbEntity
  8
姿図
100
AcDbSpline
210
-0.0000000000003499
220
0.0000000000010241
230
1.0
 70
     8
 71
     3
 72
    14
 73
    10
 74
     0
 42
0.0000000001
 43
0.0000000001
 40
-12.4176878319165
 40
-12.4176878319165
 40
-12.4176878319165
 40
-12.4176878319165
 40
-9.929941621284125
 40
-9.929941621284125
 40
-7.882361304732087
 40
-7.882361304732087
 40
-6.55536423551068
 40
-6.55536423551068
 40
-6.542320515967429
 40
-6.542320515967429
 40
-6.542320515967429
 40
-6.542320515967429
 10
2415.412872295454
 20
-1909.783933920724
 30
-0.000000000000003
 10
2415.569284609842
 20
-1909.720407943652
 30
-0.000000000000003
 10
2415.757159319739
 20
-1909.64329987753
 30
-0.000000000000003
 10
2416.087433879505
 20
-1909.517192523521
 30
-0.000000000000003
 10
2416.23992687132
 20
-1909.461759897715
 30
-0.0000000000000095
 10
2416.48860583096
 20
-1909.386035953238
 30
-0.000000000000003
 10
2416.601348202872
 20
-1909.355774737261
 30
-0.0000000000000095
 10
2416.70854410096
 20
-1909.336954397081
 30
-0.000000000000003
 10
2416.709585908693
 20
-1909.336772468731
 30
-0.0000000000000095
 10
2416.710626121372
 20
-1909.336591868674
 30
-0.000000000000003
  0
LINE
  5
20318
330
18
100
AcDbEntity
  8
姿図
100
AcDbLine
 10
2410.56639306533
 20
-1903.813167899421
 30
0.0000000000000007
 11
2409.378776439419
 21
-1904.451526117128
 31
0.0000000000000007
  0
TEXT
  5
20359
330
18
100
AcDbEntity
  8
文字
100
AcDbText
 10
2384.96134798818
 20
-1946.74172557999
 30
0.0
 40
6.5
  1
SX-503CBP
100
AcDbText
  0
ELLIPSE
  5
20362
330
18
100
AcDbEntity
  8
姿図
  6
Continuous
100
AcDbEllipse
 10
2406.50617394384
 20
-1883.766430987956
 30
0.0000000000000007
 11
-2.71350184132498
 21
-0.170337819882202
 31
0.0
210
0.0
220
0.0
230
1.0
 40
0.4210737135349171
 41
3.493959631008393
 42
6.014590545856733
  0
ELLIPSE
  5
20363
330
18
100
AcDbEntity
  8
姿図
  6
Continuous
100
AcDbEllipse
 10
2406.341884395013
 20
-1884.767926018967
 30
0.0000000000000007
 11
-2.377440227754727
 21
-0.1540841179298651
 31
0.0
210
0.0
220
0.0
230
0.9999999999999998
 40
0.4234252598059661
 41
3.562126164169124
 42
6.045724500716436
  0
LINE
  5
20364
330
18
100
AcDbEntity
  8
姿図
  6
Continuous
100
AcDbLine
 10
2407.078229373253
 20
-1887.013389709328
 30
0.0000000000000007
 11
2407.513500244673
 21
-1886.511211312428
 31
0.0000000000000007
  0
LINE
  5
20365
330
18
100
AcDbEntity
  8
姿図
  6
Continuous
100
AcDbLine
 10
2406.743793740895
 20
-1887.124412585906
 30
0.0000000000000007
 11
2407.413841998677
 21
-1886.351368070333
 31
0.0000000000000007
  0
ELLIPSE
  5
20366
330
18
100
AcDbEntity
  8
姿図
  6
Continuous
100
AcDbEllipse
 10
2406.422099656978
 20
-1886.664032518116
 30
0.0000000000000007
 11
-1.094865175736206
 21
-0.1319676970025983
 31
0.0
210
0.0
220
0.0
230
1.0
 40
0.4628655777425252
 41
5.477092832877411
 42
9.981255930046515
  0
ELLIPSE
  5
20367
330
18
100
AcDbEntity
  8
姿図
  6
Continuous
100
AcDbEllipse
 10
2406.5732586144
 20
-1887.271090427116
 30
0.0000000000000007
 11
-2.334942070031696
 21
-0.118931953055285
 31
0.0
210
0.0
220
0.0
230
1.0
 40
0.4310041458033452
 41
3.612298197460502
 42
5.991115740086309
  0
ELLIPSE
  5
20368
330
18
100
AcDbEntity
  8
姿図
  6
Continuous
100
AcDbEllipse
 10
2406.504801375835
 20
-1887.050575143542
 30
0.0000000000000007
 11
-2.377440227754727
 21
-0.1540841179298651
 31
0.0
210
0.0
220
0.0
230
0.9999999999999998
 40
0.4234252598059661
 41
3.551025708286838
 42
6.045724500716436
  0
ELLIPSE
  5
20369
330
18
100
AcDbEntity
  8
姿図
  6
Continuous
100
AcDbEllipse
 10
2406.491709138555
 20
-1886.867138255544
 30
0.0000000000000007
 11
2.321375981618799
 21
0.1718472191274701
 31
0.0
210
0.0
220
0.0
230
1.0
 40
0.4346217930958621
 41
3.572038920501568
 42
5.869050530619731
  0
ELLIPSE
  5
2036A
330
18
100
AcDbEntity
  8
姿図
  6
Continuous
100
AcDbEllipse
 10
2406.504801375835
 20
-1887.050575143542
 30
0.0000000000000007
 11
-2.377440227754727
 21
-0.1540841179298651
 31
0.0
210
0.0
220
0.0
230
0.9999999999999998
 40
0.4234252598059661
 41
0.3786499284263662
 42
2.84822096293928
  0
LINE
  5
2036B
330
18
100
AcDbEntity
  8
姿図
  6
Continuous
100
AcDbLine
 10
2403.870931250566
 20
-1883.62744588883
 30
0.0000000000000007
 11
2404.01581141469
 21
-1884.680882236917
 31
0.0000000000000007
  0
LINE
  5
2036C
330
18
100
AcDbEntity
  8
姿図
  6
Continuous
100
AcDbLine
 10
2406.46337884548
 20
-1887.173110944903
 30
0.0000000000000007
 11
2407.240337369197
 21
-1886.276722485399
 31
0.0000000000000007
  0
LINE
  5
2036D
330
18
100
AcDbEntity
  8
姿図
  6
Continuous
100
AcDbLine
 10
2406.212531392537
 20
-1887.187696911283
 30
0.0000000000000007
 11
2407.014688972607
 21
-1886.262235930381
 31
0.0000000000000007
  0
LINE
  5
2036E
330
18
100
AcDbEntity
  8
姿図
  6
Continuous
100
AcDbLine
 10
2405.984434754998
 20
-1887.176034927804
 30
0.0000000000000007
 11
2406.780379792974
 21
-1886.257741447956
 31
0.0000000000000007
  0
LINE
  5
2036F
330
18
100
AcDbEntity
  8
姿図
  6
Continuous
100
AcDbLine
 10
2405.777344839723
 20
-1887.140137180337
 30
0.0000000000000007
 11
2406.53675979331
 21
-1886.263988995342
 31
0.0000000000000007
  0
LINE
  5
20370
330
18
100
AcDbEntity
  8
姿図
  6
Continuous
100
AcDbLine
 10
2405.59282436286
 20
-1887.078200740312
 30
0.0000000000000007
 11
2406.282744096806
 21
-1886.282230210848
 31
0.0000000000000007
  0
LINE
  5
20371
330
18
100
AcDbEntity
  8
姿図
  6
Continuous
100
AcDbLine
 10
2405.43730442071
 20
-1886.982805957475
 30
0.0000000000000007
 11
2406.016564458489
 21
-1886.314505144667
 31
0.0000000000000007
  0
LINE
  5
20372
330
18
100
AcDbEntity
  8
姿図
  6
Continuous
100
AcDbLine
 10
2405.333330225104
 20
-1886.827942089831
 30
0.0000000000000007
 11
2405.735226494424
 21
-1886.364268461522
 31
0.0000000000000007
  0
LWPOLYLINE
  5
20373
330
18
100
AcDbEntity
  8
姿図
  6
Continuous
100
AcDbPolyline
 90
        3
 70
     0
 43
0.0
 10
2403.326066034882
 20
-1887.642865827583
 10
2403.261204193249
 20
-1887.678096318646
 10
2403.251625140921
 20
-1887.715500497477
  0
LWPOLYLINE
  5
20374
330
18
100
AcDbEntity
  8
姿図
  6
Continuous
100
AcDbPolyline
 90
        3
 70
     0
 43
0.0
 10
2403.425526354933
 20
-1887.51760534307
 10
2403.3606645133
 20
-1887.552835834133
 10
2403.351085460972
 20
-1887.590240012964
  0
LINE
  5
20375
330
18
100
AcDbEntity
  8
姿図
  6
Continuous
100
AcDbLine
 10
2409.028200349852
 20
-1883.212229930752
 30
0.0000000000000007
 11
2409.095137128782
 21
-1884.150089072591
 31
0.0000000000000007
  0
SPLINE
  5
2037C
330
18
100
AcDbEntity
  8
姿図
  6
Continuous
100
AcDbSpline
210
0.0
220
0.0
230
1.0
 70
     8
 71
     3
 72
     8
 73
     4
 74
     0
 42
0.0000000001
 43
0.0000000001
 40
15.0
 40
15.0
 40
15.0
 40
15.0
 40
15.72631331981369
 40
15.72631331981369
 40
15.72631331981369
 40
15.72631331981369
 10
2400.675467062098
 20
-1886.220996702511
 30
0.0000000000000033
 10
2400.675467062098
 20
-1886.220996702511
 30
0.0000000000000033
 10
2399.732310030881
 20
-1894.624698148636
 30
0.0000000000000033
 10
2398.704853160671
 20
-1903.44802502094
 30
0.0000000000000033
  0
LINE
  5
2037D
330
18
100
AcDbEntity
  8
姿図
  6
Continuous
100
AcDbLine
 10
2403.246563277946
 20
-1887.708058221094
 30
0.0000000000000033
 11
2400.721626072861
 21
-1903.201316779696
 31
0.0000000000000033
  0
SPLINE
  5
2037E
330
18
100
AcDbEntity
  8
姿図
  6
Continuous
100
AcDbSpline
210
0.0
220
0.0
230
1.0
 70
     8
 71
     3
 72
     8
 73
     4
 74
     0
 42
0.0000000001
 43
0.0000000001
 40
0.2696514016814274
 40
0.2696514016814274
 40
0.2696514016814274
 40
0.2696514016814274
 40
1.0
 40
1.0
 40
1.0
 40
1.0
 10
2399.175900828653
 20
-1903.259293351538
 30
0.0000000000000033
 10
2400.340535113708
 20
-1894.950028619182
 30
0.0000000000000033
 10
2401.567528902111
 20
-1887.352520544066
 30
0.0000000000000033
 10
2401.567528902111
 20
-1887.352520544066
 30
0.0000000000000033
  0
SPLINE
  5
2037F
330
18
100
AcDbEntity
  8
姿図
  6
Continuous
100
AcDbSpline
210
0.0
220
0.0
230
1.0
 70
     8
 71
     3
 72
     8
 73
     4
 74
     0
 42
0.0000000001
 43
0.0000000001
 40
6.0
 40
6.0
 40
6.0
 40
6.0
 40
6.981114317255776
 40
6.981114317255776
 40
6.981114317255776
 40
6.981114317255776
 10
2409.964192881387
 20
-1886.597670755705
 30
0.0000000000000033
 10
2410.122333768098
 20
-1887.062493310317
 30
0.0000000000000033
 10
2415.090334272823
 20
-1909.040470962978
 30
0.0000000000000033
 10
2415.277954096588
 20
-1909.961204022582
 30
0.0000000000000033
  0
ELLIPSE
  5
20380
330
18
100
AcDbEntity
  8
姿図
100
AcDbEllipse
 10
2417.406464989744
 20
-1911.102544228728
 30
0.0000000000000034
 11
-0.2431992262630324
 21
1.400600760099217
 31
0.0000000000000001
210
0.0
220
0.0000000000000001
230
-0.9999999999999998
 40
0.6338586263934511
 41
4.868828357704052
 42
11.15201366488364
  0
ELLIPSE
  5
20381
330
18
100
AcDbEntity
  8
姿図
100
AcDbEllipse
 10
2416.823153291323
 20
-1911.203830018203
 30
0.0000000000000034
 11
-0.2244915934734725
 21
1.292862240091639
 31
0.0000000000000001
210
0.0
220
0.0
230
-1.0
 40
0.6338586263934136
 41
0.2361340123154301
 42
2.425367404911971
  0
LINE
  5
20382
330
18
100
AcDbEntity
  8
姿図
100
AcDbLine
 10
2415.123163941443
 20
-1910.357056285902
 30
0.0000000000000045
 11
2412.188885585756
 21
-1911.735654939615
 31
0.0000000000000045
  0
ELLIPSE
  5
20383
330
18
100
AcDbEntity
  8
姿図
100
AcDbEllipse
 10
2403.12641265476
 20
-1916.013550358698
 30
0.0000000000000045
 11
-6.299010684211141
 21
9.420978589110074
 31
0.0000000000000003
210
0.0
220
0.0
230
-1.0
 40
0.7445887407027737
 41
-0.6754224664352997
 42
-0.3300486139803771
  0
ELLIPSE
  5
20384
330
18
100
AcDbEntity
  8
姿図
100
AcDbEllipse
 10
2403.345823504875
 20
-1916.03866345194
 30
0.0000000000000045
 11
-7.358161412480942
 21
9.14666171848065
 31
0.0000000000000005
210
0.0
220
0.0
230
-0.9999999999999998
 40
0.7846158028916365
 41
-0.5798433882897604
 42
-0.2849668007490926
  0
ELLIPSE
  5
20385
330
18
100
AcDbEntity
  8
姿図
100
AcDbEllipse
 10
2401.69148653673
 20
-1916.633281598197
 30
0.0000000000000045
 11
-5.368435477485768
 21
9.949608329373168
 31
0.000000000000001
210
0.0
220
0.0000000000000001
230
-1.0
 40
0.7148769796037755
 41
-1.33602550101336
 42
-0.3740805824018341
  0
ELLIPSE
  5
20386
330
18
100
AcDbEntity
  8
姿図
100
AcDbEllipse
 10
2401.653952732644
 20
-1916.783301155657
 30
0.0000000000000045
 11
-7.433891326237056
 21
8.477822072969029
 31
0.0000000000000003
210
0.0
220
0.0
230
-0.9999999999999998
 40
0.7419878916067
 41
-1.136589550032931
 42
-0.1258430338670486
  0
ELLIPSE
  5
20387
330
18
100
AcDbEntity
  8
姿図
100
AcDbEllipse
 10
2416.239841592902
 20
-1911.305115807678
 30
0.0000000000000034
 11
-0.3180297574212623
 21
1.831554840129642
 31
0.0000000000000001
210
0.0
220
0.0000000000000001
230
-1.0
 40
0.6338586263935189
 41
3.141592653589995
 42
5.180284413961087
  0
ELLIPSE
  5
20388
330
18
100
AcDbEntity
  8
姿図
100
AcDbEllipse
 10
2417.406464989744
 20
-1911.102544228728
 30
0.0000000000000034
 11
-0.3180297574208887
 21
1.831554840129747
 31
0.0000000000000001
210
0.0
220
0.0000000000000001
230
-0.9999999999999998
 40
0.6338586263934505
 41
4.868828357704044
 42
11.15201366488363
  0
ELLIPSE
  5
20389
330
18
100
AcDbEntity
  8
姿図
100
AcDbEllipse
 10
2403.373853328688
 20
-1915.341284481943
 30
0.0000000000000034
 11
-7.050469393299693
 21
10.5448814944745
 31
0.0000000000000011
210
0.0
220
0.0000000000000001
230
-1.0
 40
0.7445887407026986
 41
0.1816174140284592
 42
1.7213969460413
  0
ELLIPSE
  5
2038A
330
18
100
AcDbEntity
  8
姿図
100
AcDbEllipse
 10
2400.986465392404
 20
-1917.229593422218
 30
0.0000000000000045
 11
-6.953640579017822
 21
8.880245402264417
 31
0.0000000000000005
210
0.0
220
0.0
230
-0.9999999999999998
 40
0.7212488145120738
 41
3.547863408263923
 42
6.141197072414585
  0
ELLIPSE
  5
2038B
330
18
100
AcDbEntity
  8
姿図
100
AcDbEllipse
 10
2402.768767285699
 20
-1916.192231802996
 30
0.0000000000000045
 11
-6.047924309063057
 21
9.205298492085656
 31
0.0000000000000002
210
0.0
220
0.0
230
-1.0
 40
0.7210291192186222
 41
3.532257842056294
 42
5.995539524716962
  0
ELLIPSE
  5
2038C
330
18
100
AcDbEntity
  8
姿図
100
AcDbEllipse
 10
2399.845791070062
 20
-1917.700201213878
 30
0.0000000000000045
 11
-6.745960201035623
 21
10.0894489314369
 31
0.0000000000000004
210
0.0
220
0.0
230
-1.0
 40
0.7445887407027174
 41
-0.160039409549761
 42
3.301632058444412
  0
ELLIPSE
  5
2038D
330
18
100
AcDbEntity
  8
姿図
100
AcDbEllipse
 10
2399.753957059552
 20
-1917.828977208357
 30
0.0000000000000045
 11
-6.745960201038632
 21
10.08944893143442
 31
0.0000000000000004
210
0.0
220
0.0
230
-1.0
 40
0.7445887407027571
 41
-0.1600394095493287
 42
2.858287793139966
  0
ELLIPSE
  5
2038E
330
18
100
AcDbEntity
  8
姿図
100
AcDbEllipse
 10
2400.157776327843
 20
-1917.491603088588
 30
0.0000000000000045
 11
-6.564231364130977
 21
9.817650141542628
 31
0.000000000000001
210
0.0
220
0.0000000000000001
230
-0.9999999999999998
 40
0.7445887407027046
 41
3.636283805279216
 42
5.673615026346976
  0
ELLIPSE
  5
2038F
330
18
100
AcDbEntity
  8
姿図
100
AcDbEllipse
 10
2401.69148653673
 20
-1916.633281598197
 30
0.0000000000000045
 11
-6.357622486634324
 21
9.247113363085283
 31
0.000000000000001
210
0.0
220
0.0000000000000001
230
-1.0
 40
0.7056022756696182
 41
3.486045950244564
 42
5.025651057886396
  0
ELLIPSE
  5
20390
330
18
100
AcDbEntity
  8
姿図
100
AcDbEllipse
 10
2403.12641265476
 20
-1916.013550358698
 30
0.0000000000000045
 11
-6.299010684212619
 21
9.420978589108692
 31
0.0000000000000002
210
0.0
220
0.0
230
-1.0
 40
0.7445887407027169
 41
4.327427167059563
 42
4.752891862258741
  0
ELLIPSE
  5
20391
330
18
100
AcDbEntity
  8
姿図
100
AcDbEllipse
 10
2401.653952732644
 20
-1916.783301155657
 30
0.0000000000000045
 11
-6.658554739040996
 21
9.125688778680935
 31
0.0000000000000003
210
0.0
220
0.0
230
-1.0
 40
0.7569365384830414
 41
3.552643368148173
 42
5.078668158851169
  0
LINE
  5
20392
330
18
100
AcDbEntity
  8
姿図
100
AcDbLine
 10
2401.736102611784
 20
-1925.62900986378
 30
0.000000000000004
 11
2401.398079365984
 21
-1926.130394451794
 31
0.0000000000000042
  0
ELLIPSE
  5
20393
330
18
100
AcDbEntity
  8
姿図
100
AcDbEllipse
 10
2403.12641265476
 20
-1916.013550358698
 30
0.0000000000000045
 11
-6.20753584698507
 21
9.459430984682569
 31
0.0000000000000008
210
0.0
220
0.0000000000000001
230
-1.0
 40
0.7430302579573316
 41
3.587432645584933
 42
4.013845773911597
  0
ELLIPSE
  5
20394
330
18
100
AcDbEntity
  8
姿図
100
AcDbEllipse
 10
2401.250028339147
 20
-1916.761306652398
 30
0.0000000000000045
 11
-6.104514939481315
 21
9.130085251927754
 31
0.0000000000000002
210
0.0
220
0.0
230
-1.0
 40
0.744588740647954
 41
3.384599285846378
 42
3.38985022584827
  0
ELLIPSE
  5
20395
330
18
100
AcDbEntity
  8
姿図
100
AcDbEllipse
 10
2399.842767965804
 20
-1917.702222507721
 30
0.0000000000000045
 11
-6.745440621424111
 21
10.08868980227327
 31
0.0000000000000004
210
0.0
220
0.0
230
-1.0
 40
0.7445878090676589
 41
3.329003987917413
 42
3.32922572004013
  0
ELLIPSE
  5
20396
330
18
100
AcDbEntity
  8
姿図
100
AcDbEllipse
 10
2399.793692324076
 20
-1917.735035233985
 30
0.0000000000000045
 11
-6.737093363997185
 21
10.07618743840388
 31
0.0000000000000007
210
0.0
220
0.0
230
-0.9999999999999998
 40
0.7445887407386324
 41
3.327615434224719
 42
3.342055807969122
  0
LINE
  5
20397
330
18
100
AcDbEntity
  8
姿図
100
AcDbLine
 10
2398.990476587224
 20
-1923.898263241363
 30
0.0000000000000045
 11
2398.734998317892
 21
-1924.568868872727
 31
0.0000000000000043
  0
ELLIPSE
  5
20398
330
18
100
AcDbEntity
  8
姿図
100
AcDbEllipse
 10
2413.675211118237
 20
-1899.974695650696
 30
0.0000000000000048
 11
12.98051510336273
 21
25.83050185683643
 31
0.0000000000000006
210
0.0
220
0.0
230
-1.0
 40
0.6410056557819602
 41
3.099784278963576
 42
3.266368125798956
  0
LINE
  5
20399
330
18
100
AcDbEntity
  8
姿図
100
AcDbLine
 10
2393.259215593694
 20
-1911.545880321044
 30
0.0000000000000045
 11
2393.825673759117
 21
-1911.599341057623
 31
0.0000000000000045
  0
ELLIPSE
  5
2039A
330
18
100
AcDbEntity
  8
姿図
100
AcDbEllipse
 10
2402.724800770049
 20
-1916.185532123501
 30
0.0000000000000045
 11
-7.134919858055636
 21
7.663008962192508
 31
0.0000000000000004
210
0.0
220
0.0
230
-1.0
 40
0.8394320487858438
 41
-1.376701961563219
 42
-0.9346820271869077
  0
ELLIPSE
  5
2039B
330
18
100
AcDbEntity
  8
姿図
100
AcDbEllipse
 10
2403.12641265476
 20
-1916.013550358698
 30
0.0000000000000045
 11
-6.29901068421054
 21
9.420978589118478
 31
0.0000000000000002
210
0.0
220
0.0
230
-0.9999999999999998
 40
0.7445887407022687
 41
-1.53029344492134
 42
-1.020444988477862
  0
LINE
  5
2039C
330
18
100
AcDbEntity
  8
姿図
100
AcDbLine
 10
2395.036842575255
 20
-1920.584324570426
 30
0.0000000000000046
 11
2395.862352742913
 21
-1920.318403779427
 31
0.0000000000000045
  0
LINE
  5
2039D
330
18
100
AcDbEntity
  8
姿図
100
AcDbLine
 10
2394.098887900375
 20
-1916.252299687394
 30
0.0000000000000045
 11
2393.311699381094
 21
-1916.450974276927
 31
0.0000000000000047
  0
ELLIPSE
  5
2039E
330
18
100
AcDbEntity
  8
姿図
100
AcDbEllipse
 10
2403.12641265476
 20
-1916.013550358698
 30
0.0000000000000045
 11
-6.299010684200371
 21
9.420978589124233
 31
0.0000000000000007
210
0.0
220
0.0
230
-1.0
 40
0.7445887407026288
 41
-1.020444988478581
 42
-0.6754224664370412
  0
ELLIPSE
  5
2039F
330
18
100
AcDbEntity
  8
姿図
100
AcDbEllipse
 10
2403.373853328688
 20
-1915.341284481943
 30
0.0000000000000034
 11
-7.050469393301602
 21
10.54488149447318
 31
0.0000000000000011
210
0.0
220
0.0000000000000001
230
-0.9999999999999998
 40
0.7445887407026735
 41
2.121095593058011
 42
2.942897457598436
  0
LINE
  5
203A0
330
18
100
AcDbEntity
  8
姿図
100
AcDbLine
 10
2417.724487778946
 20
-1912.934115876409
 30
0.0000000000000034
 11
2416.557854737871
 21
-1913.136689129975
 31
0.0000000000000034
  0
LINE
  5
203A1
330
18
100
AcDbEntity
  8
姿図
100
AcDbLine
 10
2417.724494747166
 20
-1912.934099068858
 30
0.0000000000000034
 11
2416.557871350323
 21
-1913.136670647809
 31
0.0000000000000034
  0
LINE
  5
203A2
330
18
100
AcDbEntity
  8
姿図
100
AcDbLine
 10
2417.05613210294
 20
-1912.051278289145
 30
0.0000000000000034
 11
2416.972801171434
 21
-1912.065747807256
 31
0.0000000000000034
  0
LINE
  5
203A3
330
18
100
AcDbEntity
  8
姿図
100
AcDbLine
 10
2417.05614459627
 20
-1912.051268779768
 30
0.0000000000000034
 11
2416.972814353639
 21
-1912.065738178265
 31
0.0000000000000034
  0
ELLIPSE
  5
203A4
330
18
100
AcDbEntity
  8
姿図
100
AcDbEllipse
 10
2416.656477008891
 20
-1911.232771558205
 30
0.0000000000000034
 11
-0.2432012366327588
 21
1.40061233861955
 31
0.0000000000000001
210
0.0
220
0.0000000000000001
230
-1.0
 40
0.6338586264284999
 41
2.631951070170127
 42
2.705517797047795
  0
ELLIPSE
  5
203A5
330
18
100
AcDbEntity
  8
姿図
100
AcDbEllipse
 10
2416.823138871902
 20
-1911.20383252198
 30
0.0000000000000034
 11
-0.2244934493018608
 21
1.292872927912704
 31
0.0000000000000001
210
0.0
220
0.0
230
-1.0
 40
0.6338586263920022
 41
2.425367404913895
 42
2.905458641278171
  0
ELLIPSE
  5
203A6
330
18
100
AcDbEntity
  8
姿図
100
AcDbEllipse
 10
2416.823138871902
 20
-1911.20383252198
 30
0.0000000000000034
 11
-0.149662299531178
 21
0.8619152852760079
 31
0.0
210
0.0
220
0.0
230
-0.9999999999999996
 40
0.6338586263915972
 41
3.141592653587503
 42
3.378250081946796
  0
ELLIPSE
  5
203A7
330
18
100
AcDbEntity
  8
姿図
100
AcDbEllipse
 10
2416.65649280606
 20
-1911.232768815196
 30
0.0000000000000034
 11
-0.2431992262705477
 21
1.400600760095082
 31
0.0000000000000001
210
0.0
220
0.0000000000000001
230
-1.0
 40
0.633858626392815
 41
2.631951070262136
 42
2.705517797147201
  0
ELLIPSE
  5
203A8
330
18
100
AcDbEntity
  8
姿図
100
AcDbEllipse
 10
2416.823153291323
 20
-1911.203830018203
 30
0.0000000000000034
 11
-0.2244915934775465
 21
1.292862240090204
 31
0.0000000000000001
210
0.0
220
0.0
230
-1.0
 40
0.6338586263919847
 41
2.425367404914655
 42
2.905458641278939
  0
ELLIPSE
  5
203A9
330
18
100
AcDbEntity
  8
姿図
100
AcDbEllipse
 10
2416.823153291323
 20
-1911.203830018203
 30
0.0000000000000034
 11
-0.1496610623154923
 21
0.8619081600611671
 31
0.0
210
0.0
220
0.0
230
-1.0
 40
0.6338586263915939
 41
3.141592653589114
 42
3.378250081949307
  0
ARC
  5
203AA
330
18
100
AcDbEntity
  8
姿図
100
AcDbCircle
 10
2416.186456467051
 20
-1912.655971693076
 30
0.0000000000000027
 40
2.211023901695694
100
AcDbArc
 50
321.6058978528179
 51
6.603639829777054
  0
ARC
  5
203AB
330
18
100
AcDbEntity
  8
姿図
100
AcDbCircle
 10
2408.543837188775
 20
-1912.545951653865
 30
0.0000000000000027
 40
9.492123308739225
100
AcDbArc
 50
308.0532583007649
 51
351.0102729434048
  0
ELLIPSE
  5
203AC
330
18
100
AcDbEntity
  8
姿図
100
AcDbEllipse
 10
2416.239822351364
 20
-1911.305119148764
 30
0.0000000000000034
 11
-0.318032386505682
 21
1.831569981211348
 31
0.0000000000000001
210
0.0
220
0.0000000000000001
230
-1.0
 40
0.6338586263931409
 41
3.141592653589124
 42
3.809748048092985
  0
LINE
  5
203AD
330
18
100
AcDbEntity
  8
姿図
100
AcDbLine
 10
2416.904866936381
 20
-1913.099288000301
 30
0.0000000000000045
 11
2413.753295370177
 21
-1916.380972738496
 31
0.0000000000000045
  0
ARC
  5
203AE
330
18
100
AcDbEntity
  8
姿図
100
AcDbCircle
 10
2420.249268756804
 20
-1950.220793121081
 30
0.0000000000000045
 40
50.89502870933777
100
AcDbArc
 50
99.15983974176127
 51
112.3175226532979
  0
SPLINE
  5
203AF
330
18
100
AcDbEntity
  8
姿図
100
AcDbSpline
210
0.0
220
0.0
230
1.0
 70
     8
 71
     3
 72
    18
 73
    14
 74
     0
 42
0.0000000001
 43
0.0000000001
 40
28.74698734064234
 40
28.74698734064234
 40
28.74698734064234
 40
28.74698734064234
 40
33.44137084920912
 40
33.44137084920912
 40
41.29196149669883
 40
41.29196149669883
 40
50.54402678597218
 40
50.54402678597218
 40
58.56297097631615
 40
58.56297097631615
 40
66.12555618457822
 40
66.12555618457822
 40
66.63663448405962
 40
66.63663448405962
 40
66.63663448405962
 40
66.63663448405962
 10
2409.135654408497
 20
-1906.310953727405
 30
0.0000000000000039
 10
2408.768546922566
 20
-1905.997555527382
 30
0.0000000000000042
 10
2408.371044324394
 20
-1905.688509597832
 30
0.0000000000000045
 10
2407.226036120777
 20
-1904.897797176164
 30
0.0000000000000045
 10
2406.472943760818
 20
-1904.473046990419
 30
0.0000000000000006
 10
2404.807797409044
 20
-1903.73346811802
 30
0.0000000000000045
 10
2403.895368462534
 20
-1903.454141298264
 30
0.0000000000000006
 10
2402.191347898205
 20
-1903.154031445056
 30
0.0000000000000045
 10
2401.499659165986
 20
-1903.119891483572
 30
0.0000000000000045
 10
2400.352685619143
 20
-1903.158741876955
 30
0.0000000000000045
 10
2399.66371536677
 20
-1903.233540347436
 30
0.0000000000000045
 10
2398.902071570188
 20
-1903.433645253885
 30
0.0000000000000045
 10
2398.854002944259
 20
-1903.446754448937
 30
0.0000000000000045
 10
2398.806091042577
 20
-1903.460297311915
 30
0.0000000000000046
  0
SPLINE
  5
203B0
330
18
100
AcDbEntity
  8
姿図
100
AcDbSpline
210
0.0
220
0.0
230
1.0
 70
    24
 71
     1
 72
     4
 73
     2
 74
     0
 42
0.0000000001
 43
0.0000000001
 40
0.0
 40
0.0
 40
0.500003153875532
 40
0.500003153875532
 10
2398.806091042577
 20
-1903.460297311915
 30
0.0000000000000046
 10
2398.718558261813
 20
-1903.498426528873
 30
0.0000000000000046
  0
SPLINE
  5
203B1
330
18
100
AcDbEntity
  8
姿図
100
AcDbSpline
210
0.0
220
0.0
230
1.0
 70
    24
 71
     1
 72
     4
 73
     2
 74
     0
 42
0.0000000001
 43
0.0000000001
 40
0.500003153875532
 40
0.500003153875532
 40
1.000006307751063
 40
1.000006307751063
 10
2398.718558261813
 20
-1903.498426528873
 30
0.0000000000000046
 10
2398.630597256079
 20
-1903.552547686089
 30
0.0000000000000124
  0
LINE
  5
203B2
330
18
100
AcDbEntity
  8
姿図
100
AcDbLine
 10
2394.591370118446
 20
-1909.106119870887
 30
0.0000000000000045
 11
2394.266879258338
 21
-1908.883908310158
 31
0.000000000000005
  0
ELLIPSE
  5
203B3
330
18
100
AcDbEntity
  8
姿図
100
AcDbEllipse
 10
2400.400498997022
 20
-1917.329314991657
 30
0.0000000000000045
 11
-6.442671526449122
 21
9.635841803967839
 31
0.0000000000000002
210
0.0
220
0.0
230
-0.9999999999999998
 40
0.7445887377144082
 41
-0.019715365650429
 42
-0.0169158927453148
  0
LINE
  5
203B4
330
18
100
AcDbEntity
  8
姿図
100
AcDbLine
 10
2419.889842903662
 20
-1901.431094873585
 30
0.0000000000000045
 11
2417.90359857963
 21
-1902.40217103761
 31
0.0000000000000045
  0
LINE
  5
203B5
330
18
100
AcDbEntity
  8
姿図
100
AcDbLine
 10
2420.143873261327
 20
-1901.606634388851
 30
0.0000000000000045
 11
2420.544634659032
 21
-1903.245822758242
 31
0.0000000000000045
  0
LINE
  5
203B6
330
18
100
AcDbEntity
  8
姿図
100
AcDbLine
 10
2418.20195683283
 20
-1901.059656365755
 30
0.0000000000000045
 11
2418.468956466444
 21
-1902.151734336732
 31
0.0000000000000045
  0
LINE
  5
203B7
330
18
100
AcDbEntity
  8
姿図
100
AcDbLine
 10
2412.160992715924
 20
-1900.879968768827
 30
0.0000000000000027
 11
2409.476393211442
 21
-1902.395457813117
 31
0.0000000000000027
  0
ARC
  5
203B8
330
18
100
AcDbEntity
  8
姿図
100
AcDbCircle
 10
2411.53790955479
 20
-1909.666405480654
 30
0.0000000000000045
 40
9.616042523332964
100
AcDbArc
 50
32.49829009886629
 51
65.6051628784579
  0
ELLIPSE
  5
203B9
330
18
100
AcDbEntity
  8
姿図
100
AcDbEllipse
 10
2421.234595847596
 20
-1903.018251056719
 30
0.0000000000000045
 11
-0.0456140769533999
 21
0.0874292229097453
 31
0.0
210
0.0
220
0.0
230
-0.9999999999999998
 40
0.7445887406997008
 41
0.0194714738012121
 42
1.456954302896388
  0
LINE
  5
203BA
330
18
100
AcDbEntity
  8
姿図
100
AcDbLine
 10
2417.088423005933
 20
-1909.270975913986
 30
0.0000000000000034
 11
2416.710610771712
 21
-1909.336578936384
 31
0.0000000000000034
  0
LINE
  5
203BB
330
18
100
AcDbEntity
  8
姿図
100
AcDbLine
 10
2417.088435232324
 20
-1909.270989388598
 30
0.0000000000000034
 11
2416.710626121372
 21
-1909.336591868674
 31
0.0000000000000034
  0
LINE
  5
203BC
330
18
100
AcDbEntity
  8
姿図
100
AcDbLine
 10
2416.756807503875
 20
-1910.327447718593
 30
0.0000000000000034
 11
2416.67347657237
 21
-1910.341917236705
 31
0.0000000000000034
  0
LINE
  5
203BD
330
18
100
AcDbEntity
  8
姿図
100
AcDbLine
 10
2416.75682247164
 20
-1910.327452459646
 30
0.0000000000000034
 11
2416.673492229008
 21
-1910.341921858142
 31
0.0000000000000034
  0
LINE
  5
203BE
330
18
100
AcDbEntity
  8
姿図
100
AcDbLine
 10
2421.438002063367
 20
-1909.175814335183
 30
0.0000000000000045
 11
2422.162689129073
 21
-1908.643248653376
 31
0.0000000000000045
  0
LINE
  5
203BF
330
18
100
AcDbEntity
  8
姿図
100
AcDbLine
 10
2422.162689129073
 20
-1908.643248653376
 30
0.0000000000000045
 11
2421.101320705123
 21
-1907.893401758467
 31
0.0000000000000045
  0
LINE
  5
203C0
330
18
100
AcDbEntity
  8
姿図
100
AcDbLine
 10
2420.81401925648
 20
-1908.122909892344
 30
0.0000000000000045
 11
2422.512134700186
 21
-1906.723482985708
 31
0.0000000000000045
  0
ELLIPSE
  5
203C1
330
18
100
AcDbEntity
  8
姿図
100
AcDbEllipse
 10
2416.823138871902
 20
-1911.20383252198
 30
0.0000000000000034
 11
-0.1496622995360435
 21
0.861915285275163
 31
0.0
210
0.0
220
0.0
230
-0.9999999999999996
 40
0.6338586263859888
 41
-0.2366574283554155
 42
0.0000000000066163
  0
ELLIPSE
  5
203C2
330
18
100
AcDbEntity
  8
姿図
100
AcDbEllipse
 10
2416.656477008891
 20
-1911.232771558205
 30
0.0000000000000034
 11
-0.2432012368186573
 21
1.400612338578587
 31
0.0000000000000001
210
0.0
220
0.0000000000000001
230
-1.0
 40
0.6338586264159721
 41
0.4360748565125947
 42
0.5096415833923702
  0
ELLIPSE
  5
203C3
330
18
100
AcDbEntity
  8
姿図
100
AcDbEllipse
 10
2416.823153291323
 20
-1911.203830018203
 30
0.0000000000000034
 11
-0.1496610623122442
 21
0.861908160061731
 31
0.0
210
0.0
220
0.0
230
-1.0
 40
0.6338586264024267
 41
-0.2366574283618756
 42
-0.000000000006624
  0
ELLIPSE
  5
203C4
330
18
100
AcDbEntity
  8
姿図
100
AcDbEllipse
 10
2416.65649280606
 20
-1911.232768815196
 30
0.0000000000000034
 11
-0.2431992262000854
 21
1.400600760094655
 31
0.0000000000000001
210
0.0
220
0.0000000000000001
230
-1.0
 40
0.6338586263759957
 41
0.4360748564000963
 42
0.5096415832883366
  0
SPLINE
  5
203C5
330
18
100
AcDbEntity
  8
姿図
100
AcDbSpline
210
0.0
220
0.0
230
1.0
 70
     8
 71
     3
 72
     8
 73
     4
 74
     0
 42
0.0000000001
 43
0.0000000001
 40
0.0522524473711179
 40
0.0522524473711179
 40
0.0522524473711179
 40
0.0522524473711179
 40
3.97467365710715
 40
3.97467365710715
 40
3.97467365710715
 40
3.97467365710715
 10
2420.835488854659
 20
-1908.173344728952
 30
0.0000000000000045
 10
2420.850047237132
 20
-1908.4110043996
 30
0.0000000000000045
 10
2420.851345854069
 20
-1908.645143319991
 30
0.0000000000000045
 10
2420.839100955543
 20
-1908.874258821972
 30
0.0000000000000045
  0
ELLIPSE
  5
203C6
330
18
100
AcDbEntity
  8
姿図
100
AcDbEllipse
 10
2416.239822351364
 20
-1911.305119148764
 30
0.0000000000000034
 11
-0.318032386507098
 21
1.831569981210897
 31
0.0000000000000001
210
0.0
220
0.0000000000000001
230
-1.0
 40
0.6338586263935216
 41
-1.249552989788738
 42
-0.5274645292535301
  0
ELLIPSE
  5
203C7
330
18
100
AcDbEntity
  8
姿図
100
AcDbEllipse
 10
2416.239841592902
 20
-1911.305115807678
 30
0.0000000000000034
 11
-0.3180297574186536
 21
1.831554840131086
 31
0.0000000000000001
210
0.0
220
0.0000000000000001
230
-0.9999999999999998
 40
0.6338586263935344
 41
-1.249552989790041
 42
-0.5274645292557248
  0
SPLINE
  5
203C8
330
18
100
AcDbEntity
  8
姿図
100
AcDbSpline
210
-0.0000000000000653
220
-0.0000000000000509
230
-1.0
 70
     8
 71
     3
 72
    10
 73
     6
 74
     0
 42
0.0000000001
 43
0.0000000001
 40
0.0507684683112425
 40
0.0507684683112425
 40
0.0507684683112425
 40
0.0507684683112425
 40
16.17239265914957
 40
16.17239265914957
 40
28.35901754380262
 40
28.35901754380262
 40
28.35901754380262
 40
28.35901754380262
 10
2413.029637927422
 20
-1911.30024484782
 30
0.0000000000000045
 10
2412.768141598785
 20
-1910.712224971086
 30
0.0000000000000084
 10
2412.157928267018
 20
-1909.693221518926
 30
0.0000000000000045
 10
2410.901487218263
 20
-1908.043754246428
 30
0.0000000000000012
 10
2410.166030411064
 20
-1907.204034301013
 30
0.0000000000000027
 10
2409.135654408497
 20
-1906.310953727405
 30
0.0000000000000039
  0
LINE
  5
203C9
330
18
100
AcDbEntity
  8
姿図
100
AcDbLine
 10
2421.190257907166
 20
-1902.930177125115
 30
0.0000000000000045
 11
2419.230721299125
 21
-1903.888195869123
 31
0.0000000000000045
  0
ELLIPSE
  5
203CA
330
18
100
AcDbEntity
  8
姿図
100
AcDbEllipse
 10
2417.563080964973
 20
-1904.417436707968
 30
0.0000000000000045
 11
-4.272686050717395
 21
3.893993074897321
 31
0.0000000000000002
210
0.0
220
0.0
230
-1.0
 40
0.6510494580119232
 41
1.884826547670682
 42
2.693896839940106
  0
LINE
  5
203CB
330
18
100
AcDbEntity
  8
姿図
100
AcDbLine
 10
2417.947926475167
 20
-1900.884116850489
 30
0.0000000000000045
 11
2416.641520036691
 21
-1901.516470888304
 31
0.0000000000000045
  0
LINE
  5
203CC
330
18
100
AcDbEntity
  8
姿図
100
AcDbLine
 10
2417.55129857918
 20
-1900.956117872635
 30
0.0000000000000045
 11
2417.577528823505
 21
-1901.063404431847
 31
0.0000000000000045
  0
ELLIPSE
  5
203CD
330
18
100
AcDbEntity
  8
姿図
100
AcDbEllipse
 10
2417.390772349705
 20
-1900.966317165057
 30
0.0000000000000045
 11
-0.0961953680607231
 21
0.1843791837664973
 31
0.0
210
0.0
220
0.0
230
-1.0
 40
0.7445887407020885
 41
0.0194714738088548
 42
1.88973887963489
  0
ELLIPSE
  5
203CE
330
18
100
AcDbEntity
  8
姿図
100
AcDbEllipse
 10
2418.041430603355
 20
-1901.069855658178
 30
0.0000000000000045
 11
-0.0961953680607231
 21
0.1843791837664973
 31
0.0
210
0.0
220
0.0
230
-1.0
 40
0.7445887407020885
 41
0.0194714738088548
 42
1.88973887963489
  0
ELLIPSE
  5
203CF
330
18
100
AcDbEntity
  8
姿図
100
AcDbEllipse
 10
2419.983347031851
 20
-1901.616833681273
 30
0.0000000000000045
 11
-0.0961953680607231
 21
0.1843791837664973
 31
0.0
210
-0.0000000000000001
220
0.0000000000000001
230
-1.0
 40
0.7445887407020885
 41
0.0194714738088548
 42
1.88973887963489
  0
ARC
  5
203D0
330
18
100
AcDbEntity
  8
姿図
100
AcDbCircle
 10
2413.146526137286
 20
-1903.969367630306
 30
0.0000000000000027
 40
3.586107561023746
100
AcDbArc
 50
87.16683646673866
 51
97.65876395038334
  0
LINE
  5
203D1
330
18
100
AcDbEntity
  8
姿図
100
AcDbLine
 10
2412.50225793704
 20
-1900.136076828795
 30
0.0000000000000045
 11
2412.668595056048
 21
-1900.415250395208
 31
0.0000000000000027
  0
ELLIPSE
  5
203D2
330
18
100
AcDbEntity
  8
姿図
100
AcDbEllipse
 10
2412.240832133284
 20
-1900.160512152273
 30
0.0000000000000045
 11
-0.2812355643301689
 21
0.0809565419966116
 31
0.0
210
0.0
220
0.0000000000000001
230
-1.0
 40
0.5954474281840117
 41
1.067175184772985
 42
2.559533103277177
  0
LINE
  5
203D3
330
18
100
AcDbEntity
  8
姿図
100
AcDbLine
 10
2417.297268221516
 20
-1900.780578357369
 30
0.0000000000000045
 11
2416.253329710852
 21
-1901.285887205371
 31
0.0000000000000045
  0
ARC
  5
203D8
330
18
100
AcDbEntity
  8
姿図
  6
Continuous
100
AcDbCircle
 10
2401.90330853908
 20
-1887.633635680056
 30
0.0000000000000033
 40
0.2363024440898693
100
AcDbArc
 50
78.41246877169503
 51
140.882083942096
  0
ARC
  5
203D9
330
18
100
AcDbEntity
  8
姿図
  6
Continuous
100
AcDbCircle
 10
2401.750863954974
 20
-1887.501608113885
 30
0.0000000000000033
 40
0.2363024440898693
100
AcDbArc
 50
78.41246877169503
 51
140.882083942096
  0
SPLINE
  5
203DA
330
18
100
AcDbEntity
  8
姿図
  6
Continuous
100
AcDbSpline
210
0.0
220
0.0
230
1.0
 70
     8
 71
     3
 72
     8
 73
     4
 74
     0
 42
0.0000000001
 43
0.0000000001
 40
3.357032710531274
 40
3.357032710531274
 40
3.357032710531274
 40
3.357032710531274
 40
4.0
 40
4.0
 40
4.0
 40
4.0
 10
2404.419346679498
 20
-1887.440615554754
 30
0.0000000000000033
 10
2403.985492407793
 20
-1887.473870233556
 30
0.0000000000000033
 10
2403.419432278889
 20
-1887.518040288791
 30
0.0000000000000033
 10
2403.419432278889
 20
-1887.518040288791
 30
0.0000000000000033
  0
SPLINE
  5
203DB
330
18
100
AcDbEntity
  8
姿図
  6
Continuous
100
AcDbSpline
210
0.0
220
0.0
230
1.0
 70
    24
 71
     3
 72
     8
 73
     4
 74
     0
 42
0.0000000001
 43
0.0000000001
 40
1.0
 40
1.0
 40
1.0
 40
1.0
 40
2.0
 40
2.0
 40
2.0
 40
2.0
 10
2401.950773368103
 20
-1887.402149319575
 30
0.0000000000000033
 10
2401.950773368103
 20
-1887.402149319575
 30
0.0000000000000033
 10
2404.341146032141
 20
-1887.094274419773
 30
0.0000000000000033
 10
2404.341146032141
 20
-1887.094274419773
 30
0.0000000000000033
  0
SPLINE
  5
203DC
330
18
100
AcDbEntity
  8
姿図
  6
Continuous
100
AcDbSpline
210
0.0
220
0.0
230
1.0
 70
    24
 71
     3
 72
     8
 73
     4
 74
     0
 42
0.0000000001
 43
0.0000000001
 40
1.0
 40
1.0
 40
1.0
 40
1.0
 40
2.0
 40
2.0
 40
2.0
 40
2.0
 10
2401.798328783996
 20
-1887.270121753404
 30
0.0000000000000033
 10
2401.798328783996
 20
-1887.270121753404
 30
0.0000000000000033
 10
2404.188701448034
 20
-1886.962246853601
 30
0.0000000000000033
 10
2404.188701448034
 20
-1886.962246853601
 30
0.0000000000000033
  0
SPLINE
  5
203DD
330
18
100
AcDbEntity
  8
姿図
  6
Continuous
100
AcDbSpline
210
0.0
220
0.0
230
1.0
 70
     8
 71
     3
 72
     8
 73
     4
 74
     0
 42
0.0000000001
 43
0.0000000001
 40
3.357032710531274
 40
3.357032710531274
 40
3.357032710531274
 40
3.357032710531274
 40
4.0
 40
4.0
 40
4.0
 40
4.0
 10
2404.319886359448
 20
-1887.565876039267
 30
0.0000000000000033
 10
2403.886032087743
 20
-1887.599130718067
 30
0.0000000000000033
 10
2403.319971958839
 20
-1887.643300773303
 30
0.0000000000000033
 10
2403.319971958839
 20
-1887.643300773303
 30
0.0000000000000033
  0
SPLINE
  5
203DE
330
18
100
AcDbEntity
  8
姿図
  6
Continuous
100
AcDbSpline
210
0.0
220
0.0
230
1.0
 70
     8
 71
     3
 72
     8
 73
     4
 74
     0
 42
0.0000000001
 43
0.0000000001
 40
14.0
 40
14.0
 40
14.0
 40
14.0
 40
15.0
 40
15.0
 40
15.0
 40
15.0
 10
2401.046147988175
 20
-1885.296963493667
 30
0.0000000000000033
 10
2400.695927872457
 20
-1885.407757167527
 30
0.0000000000000033
 10
2400.675467062098
 20
-1886.220996702511
 30
0.0000000000000033
 10
2400.675467062098
 20
-1886.220996702511
 30
0.0000000000000033
  0
LINE
  5
203E6
330
18
100
AcDbEntity
  8
姿図
  6
Continuous
100
AcDbLine
 10
2407.397169406433
 20
-1880.354966643716
 30
0.0000000000000033
 11
2441.661468436385
 21
-1888.808365383648
 31
0.0000000000000007
  0
LINE
  5
203E7
330
18
100
AcDbEntity
  8
姿図
  6
Continuous
100
AcDbLine
 10
2441.912686131824
 20
-1876.728021175926
 30
0.0000000000000007
 11
2441.730300680401
 21
-1888.652040539251
 31
0.0000000000000007
  0
SPLINE
  5
203E9
330
18
100
AcDbEntity
  8
姿図
  6
Continuous
100
AcDbSpline
210
0.0
220
0.0
230
1.0
 70
    24
 71
     3
 72
     8
 73
     4
 74
     0
 42
0.0000000001
 43
0.0000000001
 40
10.0
 40
10.0
 40
10.0
 40
10.0
 40
10.56265067495566
 40
10.56265067495566
 40
10.56265067495566
 40
10.56265067495566
 10
2411.332693034886
 20
-1883.927125408977
 30
0.0000000000000033
 10
2411.332693034886
 20
-1883.927125408977
 30
0.0000000000000033
 10
2409.813970488426
 20
-1884.081375167211
 30
0.0000000000000033
 10
2408.485545927176
 20
-1884.216297222514
 30
0.0000000000000033
  0
SPLINE
  5
203EA
330
18
100
AcDbEntity
  8
姿図
  6
Continuous
100
AcDbSpline
210
0.0
220
0.0
230
1.0
 70
     8
 71
     3
 72
     8
 73
     4
 74
     0
 42
0.0000000001
 43
0.0000000001
 40
9.0
 40
9.0
 40
9.0
 40
9.0
 40
10.0
 40
10.0
 40
10.0
 40
10.0
 10
2412.761283869518
 20
-1884.563303171091
 30
0.0000000000000033
 10
2412.55224305997
 20
-1883.751507140793
 30
0.0000000000000033
 10
2411.332693034886
 20
-1883.927125408977
 30
0.0000000000000033
 10
2411.332693034886
 20
-1883.927125408977
 30
0.0000000000000033
  0
ARC
  5
203EB
330
18
100
AcDbEntity
  8
姿図
  6
Continuous
100
AcDbCircle
 10
2441.479816190258
 20
-1888.635064720968
 30
0.0000000000000007
 40
0.2510590731453141
100
AcDbArc
 50
289.9774861119613
 51
356.1228828826977
  0
ARC
  5
203EC
330
18
100
AcDbEntity
  8
姿図
  6
Continuous
100
AcDbCircle
 10
2433.223192898763
 20
-1890.965537356471
 30
0.0000000000000007
 40
0.3076179234526221
100
AcDbArc
 50
255.6605964763281
 51
288.8184409594273
  0
LINE
  5
203ED
330
18
100
AcDbEntity
  8
姿図
  6
Continuous
100
AcDbLine
 10
2441.565590741704
 20
-1888.871016801977
 30
0.0000000000000007
 11
2433.322421323925
 21
-1891.256711713977
 31
0.0000000000000007
  0
SPLINE
  5
203EE
330
18
100
AcDbEntity
  8
姿図
  6
Continuous
100
AcDbSpline
210
0.0
220
0.0
230
1.0
 70
     8
 71
     3
 72
     8
 73
     4
 74
     0
 42
0.0000000001
 43
0.0000000001
 40
5.0
 40
5.0
 40
5.0
 40
5.0
 40
6.0
 40
6.0
 40
6.0
 40
6.0
 10
2409.784491242581
 20
-1886.435427200945
 30
0.0000000000000033
 10
2409.784491242581
 20
-1886.435427200945
 30
0.0000000000000033
 10
2409.883110031046
 20
-1886.434988422644
 30
0.0000000000000033
 10
2409.964192881387
 20
-1886.597670755705
 30
0.0000000000000033
  0
SPLINE
  5
203EF
330
18
100
AcDbEntity
  8
姿図
  6
Continuous
100
AcDbSpline
210
0.0
220
0.0
230
1.0
 70
     8
 71
     3
 72
     8
 73
     4
 74
     0
 42
0.0000000001
 43
0.0000000001
 40
4.562871291847087
 40
4.562871291847087
 40
4.562871291847087
 40
4.562871291847087
 40
5.0
 40
5.0
 40
5.0
 40
5.0
 10
2408.662099903285
 20
-1886.709320811432
 30
0.0000000000000033
 10
2409.323460464137
 20
-1886.64595406046
 30
0.0000000000000033
 10
2409.798744199975
 20
-1886.635127076039
 30
0.0000000000000033
 10
2409.798744199975
 20
-1886.635127076039
 30
0.0000000000000033
  0
SPLINE
  5
203F0
330
18
100
AcDbEntity
  8
姿図
  6
Continuous
100
AcDbSpline
210
0.0
220
0.0
230
1.0
 70
     8
 71
     3
 72
     8
 73
     4
 74
     0
 42
0.0000000001
 43
0.0000000001
 40
5.0
 40
5.0
 40
5.0
 40
5.0
 40
6.0
 40
6.0
 40
6.0
 40
6.0
 10
2409.798744199975
 20
-1886.635127076039
 30
0.0000000000000033
 10
2409.798744199975
 20
-1886.635127076039
 30
0.0000000000000033
 10
2409.897362988442
 20
-1886.634688297739
 30
0.0000000000000033
 10
2409.978445838782
 20
-1886.797370630799
 30
0.0000000000000033
  0
SPLINE
  5
203F1
330
18
100
AcDbEntity
  8
姿図
  6
Continuous
100
AcDbSpline
210
0.0
220
0.0
230
1.0
 70
     8
 71
     3
 72
     8
 73
     4
 74
     0
 42
0.0000000001
 43
0.0000000001
 40
0.0
 40
0.0
 40
0.0
 40
0.0
 40
0.4810436403893932
 40
0.4810436403893932
 40
0.4810436403893932
 40
0.4810436403893932
 10
2410.080162557763
 20
-1887.165068852006
 30
0.0000000000000033
 10
2410.080162557763
 20
-1887.165068852006
 30
0.0000000000000033
 10
2409.407812542962
 20
-1887.106236268358
 30
0.0000000000000033
 10
2408.661122062911
 20
-1887.10275534343
 30
0.0000000000000033
  0
SPLINE
  5
203F2
330
18
100
AcDbEntity
  8
姿図
  6
Continuous
100
AcDbSpline
210
0.0
220
0.0
230
1.0
 70
     8
 71
     3
 72
     8
 73
     4
 74
     0
 42
0.0000000001
 43
0.0000000001
 40
0.0
 40
0.0
 40
0.0
 40
0.0
 40
0.4810436403893932
 40
0.4810436403893932
 40
0.4810436403893932
 40
0.4810436403893932
 10
2410.114805507311
 20
-1887.281120664993
 30
0.0000000000000033
 10
2410.114805507311
 20
-1887.281120664993
 30
0.0000000000000033
 10
2409.442455492511
 20
-1887.222288081346
 30
0.0000000000000033
 10
2408.799530876806
 20
-1887.194184208132
 30
0.0000000000000033
  0
SPLINE
  5
203F3
330
18
100
AcDbEntity
  8
姿図
  6
Continuous
100
AcDbSpline
210
0.0
220
0.0
230
1.0
 70
     8
 71
     3
 72
     8
 73
     4
 74
     0
 42
0.0000000001
 43
0.0000000001
 40
4.562871291847087
 40
4.562871291847087
 40
4.562871291847087
 40
4.562871291847087
 40
5.0
 40
5.0
 40
5.0
 40
5.0
 10
2408.64784694589
 20
-1886.509620936337
 30
0.0000000000000033
 10
2409.309207506741
 20
-1886.446254185365
 30
0.0000000000000033
 10
2409.784491242581
 20
-1886.435427200945
 30
0.0000000000000033
 10
2409.784491242581
 20
-1886.435427200945
 30
0.0000000000000033
  0
LINE
  5
203F5
330
18
100
AcDbEntity
  8
姿図
  6
Continuous
100
AcDbLine
 10
2407.583284911155
 20
-1868.258560972822
 30
0.0000000000000033
 11
2441.912686131824
 21
-1876.728021175926
 31
0.0000000000000033
  0
LINE
  5
20407
330
18
100
AcDbEntity
  8
姿図
  6
Continuous
100
AcDbLine
 10
2405.913786353039
 20
-1868.096349264881
 30
0.0000000000000033
 11
2407.048072813945
 21
-1868.376190849586
 31
0.0000000000000033
  0
LINE
  5
20409
330
18
100
AcDbEntity
  8
姿図
  6
Continuous
100
AcDbLine
 10
2405.925831131279
 20
-1868.70098415865
 30
0.0000000000000033
 11
2405.913786353039
 21
-1868.096349264881
 31
0.0000000000000033
  0
LINE
  5
2040A
330
18
100
AcDbEntity
  8
姿図
  6
Continuous
100
AcDbLine
 10
2404.097559314865
 20
-1869.267381415328
 30
0.0000000000000033
 11
2404.084776377942
 21
-1868.625691750816
 31
0.0000000000000033
  0
LINE
  5
2040B
330
18
100
AcDbEntity
  8
姿図
  6
Continuous
100
AcDbLine
 10
2405.913786353039
 20
-1868.096349264881
 30
0.0000000000000033
 11
2404.084776377942
 21
-1868.625691750816
 31
0.0000000000000033
  0
LINE
  5
214B9
330
18
100
AcDbEntity
  8
姿図
  6
Continuous
100
AcDbLine
 10
2407.583284911155
 20
-1868.258560972822
 30
0.0000000000000033
 11
2396.917532181872
 21
-1871.345387256413
 31
0.0000000000000033
  0
LINE
  5
214C1
330
18
100
AcDbEntity
  8
姿図
  6
Continuous
100
AcDbLine
 10
2407.397169406433
 20
-1880.354966643716
 30
0.0000000000000033
 11
2396.73141667715
 21
-1883.441792927308
 31
0.0000000000000033
  0
LINE
  5
214C9
330
18
100
AcDbEntity
  8
姿図
  6
Continuous
100
AcDbLine
 10
2407.583284911155
 20
-1868.258560972822
 30
0.0000000000000033
 11
2407.397169406433
 21
-1880.354966643716
 31
0.0000000000000033
  0
LINE
  5
214CD
330
18
100
AcDbEntity
  8
姿図
  6
Continuous
100
AcDbLine
 10
2396.917532181872
 20
-1871.345387256413
 30
0.0000000000000033
 11
2396.73141667715
 21
-1883.441792927308
 31
0.0000000000000033
  0
LINE
  5
214D5
330
18
100
AcDbEntity
  8
姿図
  6
Continuous
100
AcDbLine
 10
2407.198366848105
 20
-1881.10591975399
 30
0.0000000000000033
 11
2414.520473921948
 21
-1882.912368228467
 31
0.0000000000000033
  0
LINE
  5
214D6
330
18
100
AcDbEntity
  8
姿図
  6
Continuous
100
AcDbLine
 10
2402.756019329995
 20
-1884.929105224567
 30
0.000000000000002
 11
2397.636236075466
 21
-1883.873341552086
 31
0.000000000000002
  0
LINE
  5
214D7
330
18
100
AcDbEntity
  8
姿図
  6
Continuous
100
AcDbLine
 10
2407.198366848105
 20
-1881.10591975399
 30
0.0000000000000022
 11
2397.636236075467
 21
-1883.873341552086
 31
0.0000000000000022
  0
LINE
  5
214DA
330
18
100
AcDbEntity
  8
姿図
  6
Continuous
100
AcDbLine
 10
2414.52047392195
 20
-1882.912368228467
 30
0.0000000000000007
 11
2410.84205327439
 21
-1883.9769574633
 31
0.0000000000000007
  0
LINE
  5
214DB
330
18
100
AcDbEntity
  8
姿図
  6
Continuous
100
AcDbLine
 10
2396.731416677151
 20
-1883.441792927308
 30
0.0000000000000033
 11
2397.636236075467
 21
-1883.873341552086
 31
0.000000000000002
  0
LINE
  5
214DF
330
18
100
AcDbEntity
  8
姿図
  6
Continuous
100
AcDbLine
 10
2407.397169406433
 20
-1880.354966643716
 30
0.0000000000000033
 11
2407.198366848105
 21
-1881.10591975399
 31
0.0000000000000022
  0
LINE
  5
214E0
330
18
100
AcDbEntity
  8
姿図
  6
Continuous
100
AcDbLine
 10
2415.259063994299
 20
-1882.294586939011
 30
0.0000000000000007
 11
2414.485429663796
 21
-1882.941680410962
 31
0.0000000000000007
  0
LINE
  5
214E1
330
18
100
AcDbEntity
  8
姿図
  6
Continuous
100
AcDbLine
 10
2413.070757061297
 20
-1886.325184690719
 30
0.0000000000000033
 11
2433.147006592873
 21
-1891.263571639103
 31
0.0000000000000007
  0
ENDSEC
  0
SECTION
  2
OBJECTS
  0
DICTIONARY
  5
C
330
0
100
AcDbDictionary
281
     1
  3
ACAD_COLOR
350
1FA5F
  3
ACAD_GROUP
350
D
  3
ACAD_IMAGE_VARS
350
1D6CF
  3
ACAD_LAYOUT
350
40CB
  3
ACAD_MATERIAL
350
1FA35
  3
ACAD_MLEADERSTYLE
350
1FA62
  3
ACAD_MLINESTYLE
350
E
  3
ACAD_PLOTSETTINGS
350
40CC
  3
ACAD_PLOTSTYLENAME
350
40C9
  3
ACAD_SCALELIST
350
171C9
  3
ACAD_TABLESTYLE
350
1FA60
  3
ACAD_VISUALSTYLE
350
1FA4E
  3
ACDB_RECOMPOSE_DATA
350
1FA86
  3
AcDbVariableDictionary
350
6377
  3
APPDATA
350
1D6CE
  3
DWGPROPS
350
21A1D
  0
DICTIONARY
  5
1FA88
330
8
100
AcDbDictionary
280
     1
281
     1
  0
DICTIONARY
  5
189BB
330
2
100
AcDbDictionary
280
     1
281
     1
  3
ACAD_LAYERSTATES
360
189BC
  0
DICTIONARY
  5
171F1
330
F
100
AcDbDictionary
280
     1
281
     1
  3
ADSK_XREC_LAYER_RECONCILED
360
171F2
  0
DICTIONARY
  5
171F9
330
4C
100
AcDbDictionary
280
     1
281
     1
  3
ADSK_XREC_LAYER_RECONCILED
360
171FA
  0
DICTIONARY
  5
171FB
330
4D
100
AcDbDictionary
280
     1
281
     1
  3
ADSK_XREC_LAYER_RECONCILED
360
171FC
  0
DICTIONARY
  5
171FF
330
40D4
100
AcDbDictionary
280
     1
281
     1
  3
ADSK_XREC_LAYER_RECONCILED
360
17200
  0
DICTIONARY
  5
2134C
330
18
100
AcDbDictionary
280
     1
281
     1
  3
ACAD_SORTENTS
360
2134D
  0
DICTIONARY
  5
1FA5F
102
{ACAD_REACTORS
330
C
102
}
330
C
100
AcDbDictionary
281
     1
  0
DICTIONARY
  5
D
102
{ACAD_REACTORS
330
C
102
}
330
C
100
AcDbDictionary
281
     1
  3
*A1
350
EFF2
  3
*A2
350
F1F0
  3
*A3
350
F219
  3
*A4
350
F250
  3
*A5
350
FB90
  3
*A6
350
FB91
  0
RASTERVARIABLES
  5
1D6CF
102
{ACAD_REACTORS
330
C
102
}
330
C
100
AcDbRasterVariables
 90
        0
 70
     1
 71
     1
 72
     0
  0
DICTIONARY
  5
40CB
102
{ACAD_REACTORS
330
C
102
}
330
C
100
AcDbDictionary
281
     1
  3
Model
350
40CD
  3
ﾚｲｱｳﾄ1
350
40CE
  0
DICTIONARY
  5
1FA35
102
{ACAD_REACTORS
330
C
102
}
330
C
100
AcDbDictionary
281
     1
  3
ByBlock
350
1FA3E
  3
ByLayer
350
1FA36
  3
Global
350
1FA46
  0
DICTIONARY
  5
1FA62
102
{ACAD_REACTORS
330
C
102
}
330
C
100
AcDbDictionary
281
     1
  3
Standard
350
1FA63
  0
DICTIONARY
  5
E
102
{ACAD_REACTORS
330
C
102
}
330
C
100
AcDbDictionary
281
     1
  3
STANDARD
350
1B
  0
DICTIONARY
  5
40CC
102
{ACAD_REACTORS
330
C
102
}
330
C
100
AcDbDictionary
281
     1
  0
ACDBDICTIONARYWDFLT
  5
40C9
102
{ACAD_REACTORS
330
C
102
}
330
C
100
AcDbDictionary
281
     1
  3
Normal
350
40CA
100
AcDbDictionaryWithDefault
340
40CA
  0
DICTIONARY
  5
171C9
102
{ACAD_REACTORS
330
C
102
}
330
C
100
AcDbDictionary
281
     1
  3
A0
350
171CA
  3
A1
350
171CB
  3
A2
350
171CC
  3
A3
350
171CD
  3
A4
350
171CE
  3
A5
350
171CF
  3
A6
350
171D0
  3
A7
350
171D1
  3
A8
350
171D2
  3
A9
350
171D3
  3
B0
350
171D4
  3
B1
350
171D5
  3
B2
350
171D6
  3
B3
350
171D7
  3
B4
350
171D8
  3
B5
350
171D9
  3
B6
350
171DA
  3
B7
350
171DB
  3
B8
350
171DC
  3
B9
350
171DD
  3
C0
350
171DE
  3
C1
350
171DF
  3
C2
350
171E0
  3
C3
350
171E1
  3
C4
350
171E2
  3
C5
350
171E3
  3
C6
350
171E4
  3
C7
350
171E5
  3
C8
350
171E6
  3
C9
350
171E7
  3
D0
350
171E8
  3
D1
350
171E9
  3
D2
350
171EA
  0
DICTIONARY
  5
1FA60
102
{ACAD_REACTORS
330
C
102
}
330
C
100
AcDbDictionary
281
     1
  3
Standard
350
1FA61
  0
DICTIONARY
  5
1FA4E
102
{ACAD_REACTORS
330
C
102
}
330
C
100
AcDbDictionary
281
     1
  3
2dWireframe
350
1FA54
  3
3D Hidden
350
1FA56
  3
3dWireframe
350
1FA55
  3
Basic
350
1FA53
  3
Brighten
350
1FA5A
  3
ColorChange
350
1FA5E
  3
Conceptual
350
1FA57
  3
Dim
350
1FA59
  3
Facepattern
350
1FA5D
  3
Flat
350
1FA4F
  3
FlatWithEdges
350
1FA50
  3
Gouraud
350
1FA51
  3
GouraudWithEdges
350
1FA52
  3
Linepattern
350
1FA5C
  3
Realistic
350
1FA58
  3
Thicken
350
1FA5B
  0
XRECORD
  5
1FA86
102
{ACAD_REACTORS
330
C
102
}
330
C
100
AcDbXrecord
280
     1
 90
        1
330
1FA61
  0
DICTIONARY
  5
6377
102
{ACAD_REACTORS
330
C
102
}
330
C
100
AcDbDictionary
281
     1
  3
CANNOSCALE
350
1FA96
  3
CMLEADERSTYLE
350
1FA95
  3
CTABLESTYLE
350
1FA94
  3
DIMASSOC
350
73F2
  3
INDEXCTL
350
17245
  3
PROJECTNAME
350
12912
  3
SORTENTS
350
6378
  0
DICTIONARY
  5
1D6CE
102
{ACAD_REACTORS
330
C
102
}
330
C
100
AcDbDictionary
281
     1
  0
XRECORD
  5
21A1D
102
{ACAD_REACTORS
330
C
102
}
330
C
100
AcDbXrecord
280
     1
  1
DWGPROPS COOKIE
  2

  3

  4

  6

  7

  8
SPAX
  9

300
=
301
=
302
=
303
=
304
=
305
=
306
=
307
=
308
=
309
=
 40
2.868764074074073
 41
2449505.922222222
 42
2457098.384405752
  1

 90
        0
  0
DICTIONARY
  5
189BC
102
{ACAD_REACTORS
330
189BB
102
}
330
189BB
100
AcDbDictionary
281
     1
  0
XRECORD
  5
171F2
102
{ACAD_REACTORS
330
171F1
102
}
330
171F1
100
AcDbXrecord
280
     1
290
     1
  0
XRECORD
  5
171FA
102
{ACAD_REACTORS
330
171F9
102
}
330
171F9
100
AcDbXrecord
280
     1
290
     1
  0
XRECORD
  5
171FC
102
{ACAD_REACTORS
330
171FB
102
}
330
171FB
100
AcDbXrecord
280
     1
290
     1
  0
XRECORD
  5
17200
102
{ACAD_REACTORS
330
171FF
102
}
330
171FF
100
AcDbXrecord
280
     1
290
     1
  0
SORTENTSTABLE
  5
2134D
102
{ACAD_REACTORS
330
2134C
102
}
330
2134C
100
AcDbSortentsTable
330
18
331
20374
  5
20374
331
203F2
  5
203F2
331
203B1
  5
203B1
331
202F1
  5
202F1
331
2038F
  5
2038F
331
20381
  5
20381
331
20407
  5
20407
331
202C1
  5
202C1
331
2039C
  5
2039C
331
202FE
  5
202FE
331
214D6
  5
214D6
331
203CF
  5
203CF
331
2030B
  5
2030B
331
203A9
  5
203A9
331
2036C
  5
2036C
331
202CE
  5
202CE
331
203DC
  5
203DC
331
20318
  5
20318
331
203B6
  5
203B6
331
202DB
  5
202DB
331
202B5
  5
202B5
331
202F6
  5
202F6
331
203E9
  5
203E9
331
203C3
  5
203C3
331
202E8
  5
202E8
331
20386
  5
20386
331
202C6
  5
202C6
331
20303
  5
20303
331
202B8
  5
202B8
331
20393
  5
20393
331
20310
  5
20310
331
203AE
  5
203AE
331
202D3
  5
202D3
331
1FFE8
  5
1FFE8
331
214CD
  5
214CD
331
203A0
  5
203A0
331
20363
  5
20363
331
203BB
  5
203BB
331
202E0
  5
202E0
331
2037E
  5
2037E
331
214DA
  5
214DA
331
203EE
  5
203EE
331
20370
  5
20370
331
2038B
  5
2038B
331
202ED
  5
202ED
331
202FA
  5
202FA
331
20398
  5
20398
331
202BD
  5
202BD
331
20315
  5
20315
331
203CB
  5
203CB
331
202CA
  5
202CA
331
20368
  5
20368
331
203E6
  5
203E6
331
203A5
  5
203A5
331
202E5
  5
202E5
331
214DF
  5
214DF
331
203D8
  5
203D8
331
203B2
  5
203B2
331
203F3
  5
203F3
331
20375
  5
20375
331
202F2
  5
202F2
331
20382
  5
20382
331
202FF
  5
202FF
331
202C2
  5
202C2
331
2039D
  5
2039D
331
214D7
  5
214D7
331
203D0
  5
203D0
331
2030C
  5
2030C
331
203AA
  5
203AA
331
202CF
  5
202CF
331
2036D
  5
2036D
331
214C9
  5
214C9
331
203DD
  5
203DD
331
203B7
  5
203B7
331
202DC
  5
202DC
331
202B6
  5
202B6
331
202F7
  5
202F7
331
203EA
  5
203EA
331
203C4
  5
203C4
331
20387
  5
20387
331
202E9
  5
202E9
331
20304
  5
20304
331
202C7
  5
202C7
331
202B9
  5
202B9
331
20394
  5
20394
331
20311
  5
20311
331
203AF
  5
203AF
331
202D4
  5
202D4
331
1FFE9
  5
1FFE9
331
203A1
  5
203A1
331
20364
  5
20364
331
203BC
  5
203BC
331
2037F
  5
2037F
331
202E1
  5
202E1
331
214DB
  5
214DB
331
20371
  5
20371
331
203EF
  5
203EF
331
2038C
  5
2038C
331
202EE
  5
202EE
331
202FB
  5
202FB
331
202BE
  5
202BE
331
20399
  5
20399
331
20316
  5
20316
331
203CC
  5
203CC
331
202CB
  5
202CB
331
203A6
  5
203A6
331
203E7
  5
203E7
331
20369
  5
20369
331
20308
  5
20308
331
202E6
  5
202E6
331
214E0
  5
214E0
331
203D9
  5
203D9
331
203B3
  5
203B3
331
202D8
  5
202D8
331
202F3
  5
202F3
331
203C0
  5
203C0
331
20409
  5
20409
331
20383
  5
20383
331
20300
  5
20300
331
202C3
  5
202C3
331
2039E
  5
2039E
331
20390
  5
20390
331
203D1
  5
203D1
331
203AB
  5
203AB
331
202D0
  5
202D0
331
2036E
  5
2036E
331
2030D
  5
2030D
331
1FFE5
  5
1FFE5
331
203DE
  5
203DE
331
203B8
  5
203B8
331
202DD
  5
202DD
331
202B7
  5
202B7
331
203EB
  5
203EB
331
203C5
  5
203C5
331
202EA
  5
202EA
331
20388
  5
20388
331
20305
  5
20305
331
202BA
  5
202BA
331
20395
  5
20395
331
20312
  5
20312
331
202D5
  5
202D5
331
203C8
  5
203C8
331
20365
  5
20365
331
203A2
  5
203A2
331
203BD
  5
203BD
331
202E2
  5
202E2
331
203F0
  5
203F0
331
20372
  5
20372
331
202EF
  5
202EF
331
2038D
  5
2038D
331
202BF
  5
202BF
331
2039A
  5
2039A
331
202FC
  5
202FC
331
20317
  5
20317
331
203CD
  5
203CD
331
202CC
  5
202CC
331
2036A
  5
2036A
331
203A7
  5
203A7
331
202E7
  5
202E7
331
214E1
  5
214E1
331
203DA
  5
203DA
331
203B4
  5
203B4
331
202D9
  5
202D9
331
203F5
  5
203F5
331
202F4
  5
202F4
331
203C1
  5
203C1
331
20384
  5
20384
331
2040A
  5
2040A
331
20301
  5
20301
331
2039F
  5
2039F
331
202C4
  5
202C4
331
203D2
  5
203D2
331
20391
  5
20391
331
2030E
  5
2030E
331
202D1
  5
202D1
331
2036F
  5
2036F
331
203AC
  5
203AC
331
1FFE6
  5
1FFE6
331
202DE
  5
202DE
331
2037C
  5
2037C
331
203B9
  5
203B9
331
214C1
  5
214C1
331
203EC
  5
203EC
331
203C6
  5
203C6
331
20389
  5
20389
331
20306
  5
20306
331
202F8
  5
202F8
331
202BB
  5
202BB
331
20359
  5
20359
331
20396
  5
20396
331
202D6
  5
202D6
331
20313
  5
20313
331
214B9
  5
214B9
331
203C9
  5
203C9
331
202C8
  5
202C8
331
203A3
  5
203A3
331
20366
  5
20366
331
202E3
  5
202E3
331
203BE
  5
203BE
331
203B0
  5
203B0
331
203F1
  5
203F1
331
20373
  5
20373
331
2038E
  5
2038E
331
202F0
  5
202F0
331
20380
  5
20380
331
202FD
  5
202FD
331
202C0
  5
202C0
331
2039B
  5
2039B
331
214D5
  5
214D5
331
203CE
  5
203CE
331
202CD
  5
202CD
331
2030A
  5
2030A
331
2036B
  5
2036B
331
203A8
  5
203A8
331
203DB
  5
203DB
331
203B5
  5
203B5
331
202DA
  5
202DA
331
202F5
  5
202F5
331
203C2
  5
203C2
331
2040B
  5
2040B
331
20385
  5
20385
331
20302
  5
20302
331
202C5
  5
202C5
331
20392
  5
20392
331
203D3
  5
203D3
331
202D2
  5
202D2
331
2030F
  5
2030F
331
203AD
  5
203AD
331
1FFE7
  5
1FFE7
331
20362
  5
20362
331
202DF
  5
202DF
331
2037D
  5
2037D
331
203BA
  5
203BA
331
203ED
  5
203ED
331
2038A
  5
2038A
331
203C7
  5
203C7
331
20307
  5
20307
331
202F9
  5
202F9
331
202BC
  5
202BC
331
20397
  5
20397
331
202D7
  5
202D7
331
20314
  5
20314
331
203CA
  5
203CA
331
203A4
  5
203A4
331
20367
  5
20367
331
202C9
  5
202C9
331
202E4
  5
202E4
331
203BF
  5
203BF
  0
GROUP
  5
EFF2
102
{ACAD_REACTORS
330
D
102
}
330
D
100
AcDbGroup
300

 70
     1
 71
     1
  0
GROUP
  5
F1F0
102
{ACAD_REACTORS
330
D
102
}
330
D
100
AcDbGroup
300

 70
     1
 71
     1
  0
GROUP
  5
F219
102
{ACAD_REACTORS
330
D
102
}
330
D
100
AcDbGroup
300

 70
     1
 71
     1
  0
GROUP
  5
F250
102
{ACAD_REACTORS
330
D
102
}
330
D
100
AcDbGroup
300

 70
     1
 71
     1
  0
GROUP
  5
FB90
102
{ACAD_REACTORS
330
D
102
}
330
D
100
AcDbGroup
300

 70
     1
 71
     1
  0
GROUP
  5
FB91
102
{ACAD_REACTORS
330
D
102
}
330
D
100
AcDbGroup
300

 70
     1
 71
     1
  0
LAYOUT
  5
40CD
102
{ACAD_XDICTIONARY
360
21A1E
102
}
102
{ACAD_REACTORS
330
40CB
102
}
330
40CB
100
AcDbPlotSettings
  1

  2
JUST PDF 3
  4
A4
  6

 40
3.174999952316284
 41
3.174999952316284
 42
3.175003051757812
 43
3.17498779296875
 44
209.8886566162109
 45
297.0530090332031
 46
14.27171755861525
 47
9.855173074625781
 48
2368.192700416368
 49
-2364.588972005195
140
2718.18313740618
141
-1822.603621727862
142
1.0
143
2.0
 70
  3748
 72
     1
 73
     0
 74
     4
  7
spax form.ctb
 75
    16
147
1.0
148
-2368.192700416368
149
2364.588972005195
100
AcDbLayout
  1
Model
 70
     1
 71
     0
 10
0.0
 20
0.0
 11
12.0
 21
9.0
 12
0.0
 22
0.0
 32
0.0
 14
0.0
 24
0.0
 34
0.0
 15
0.0
 25
0.0
 35
0.0
146
0.0
 13
0.0
 23
0.0
 33
0.0
 16
1.0
 26
0.0
 36
0.0
 17
0.0
 27
1.0
 37
0.0
 76
     0
330
18
331
1CB7C
1001
ACAD_PSEXT
1000
JUST PDF 3
1000
JUST PDF 3
1000
JUST PDF 3 Port:
1000

1070
     0
  0
LAYOUT
  5
40CE
102
{ACAD_XDICTIONARY
360
21A20
102
}
102
{ACAD_REACTORS
330
40CB
102
}
330
40CB
100
AcDbPlotSettings
  1

  2
なし
  4

  6

 40
0.0
 41
0.0
 42
0.0
 43
0.0
 44
0.0
 45
0.0
 46
0.0
 47
0.0
 48
0.0
 49
0.0
140
0.0
141
0.0
142
1.0
143
1.0
 70
   688
 72
     0
 73
     0
 74
     5
  7
Aiba.ctb
 75
    16
147
1.0
148
0.0
149
0.0
100
AcDbLayout
  1
ﾚｲｱｳﾄ1
 70
     0
 71
     1
 10
0.0
 20
0.0
 11
12.0
 21
9.0
 12
0.0
 22
0.0
 32
0.0
 14
1.000000000000000E+20
 24
1.000000000000000E+20
 34
1.000000000000000E+20
 15
-1.000000000000000E+20
 25
-1.000000000000000E+20
 35
-1.000000000000000E+20
146
0.0
 13
0.0
 23
0.0
 33
0.0
 16
1.0
 26
0.0
 36
0.0
 17
0.0
 27
1.0
 37
0.0
 76
     0
330
15
  0
MATERIAL
  5
1FA3E
102
{ACAD_XDICTIONARY
360
1FA3F
102
}
102
{ACAD_REACTORS
330
1FA35
102
}
330
1FA35
100
AcDbMaterial
  1
ByBlock
 72
     0
 43
0.0208333333333333
 43
0.0
 43
0.0
 43
0.0
 43
0.0
 43
0.0208333333333333
 43
0.0
 43
0.0
 43
0.0
 43
0.0
 43
1.0
 43
0.0
 43
0.0
 43
0.0
 43
0.0
 43
1.0
 77
     0
 47
0.0208333333333333
 47
0.0
 47
0.0
 47
0.0
 47
0.0
 47
0.0208333333333333
 47
0.0
 47
0.0
 47
0.0
 47
0.0
 47
1.0
 47
0.0
 47
0.0
 47
0.0
 47
0.0
 47
1.0
171
     0
 49
0.0208333333333333
 49
0.0
 49
0.0
 49
0.0
 49
0.0
 49
0.0208333333333333
 49
0.0
 49
0.0
 49
0.0
 49
0.0
 49
1.0
 49
0.0
 49
0.0
 49
0.0
 49
0.0
 49
1.0
175
     0
142
0.0208333333333333
142
0.0
142
0.0
142
0.0
142
0.0
142
0.0208333333333333
142
0.0
142
0.0
142
0.0
142
0.0
142
1.0
142
0.0
142
0.0
142
0.0
142
0.0
142
1.0
179
     0
144
0.0208333333333333
144
0.0
144
0.0
144
0.0
144
0.0
144
0.0208333333333333
144
0.0
144
0.0
144
0.0
144
0.0
144
1.0
144
0.0
144
0.0
144
0.0
144
0.0
144
1.0
147
0.0208333333333333
147
0.0
147
0.0
147
0.0
147
0.0
147
0.0208333333333333
147
0.0
147
0.0
147
0.0
147
0.0
147
1.0
147
0.0
147
0.0
147
0.0
147
0.0
147
1.0
  0
MATERIAL
  5
1FA36
102
{ACAD_XDICTIONARY
360
1FA37
102
}
102
{ACAD_REACTORS
330
1FA35
102
}
330
1FA35
100
AcDbMaterial
  1
ByLayer
 72
     0
 43
0.0208333333333333
 43
0.0
 43
0.0
 43
0.0
 43
0.0
 43
0.0208333333333333
 43
0.0
 43
0.0
 43
0.0
 43
0.0
 43
1.0
 43
0.0
 43
0.0
 43
0.0
 43
0.0
 43
1.0
 77
     0
 47
0.0208333333333333
 47
0.0
 47
0.0
 47
0.0
 47
0.0
 47
0.0208333333333333
 47
0.0
 47
0.0
 47
0.0
 47
0.0
 47
1.0
 47
0.0
 47
0.0
 47
0.0
 47
0.0
 47
1.0
171
     0
 49
0.0208333333333333
 49
0.0
 49
0.0
 49
0.0
 49
0.0
 49
0.0208333333333333
 49
0.0
 49
0.0
 49
0.0
 49
0.0
 49
1.0
 49
0.0
 49
0.0
 49
0.0
 49
0.0
 49
1.0
175
     0
142
0.0208333333333333
142
0.0
142
0.0
142
0.0
142
0.0
142
0.0208333333333333
142
0.0
142
0.0
142
0.0
142
0.0
142
1.0
142
0.0
142
0.0
142
0.0
142
0.0
142
1.0
179
     0
144
0.0208333333333333
144
0.0
144
0.0
144
0.0
144
0.0
144
0.0208333333333333
144
0.0
144
0.0
144
0.0
144
0.0
144
1.0
144
0.0
144
0.0
144
0.0
144
0.0
144
1.0
147
0.0208333333333333
147
0.0
147
0.0
147
0.0
147
0.0
147
0.0208333333333333
147
0.0
147
0.0
147
0.0
147
0.0
147
1.0
147
0.0
147
0.0
147
0.0
147
0.0
147
1.0
  0
MATERIAL
  5
1FA46
102
{ACAD_XDICTIONARY
360
1FA47
102
}
102
{ACAD_REACTORS
330
1FA35
102
}
330
1FA35
100
AcDbMaterial
  1
Global
 72
     0
 43
0.0208333333333333
 43
0.0
 43
0.0
 43
0.0
 43
0.0
 43
0.0208333333333333
 43
0.0
 43
0.0
 43
0.0
 43
0.0
 43
1.0
 43
0.0
 43
0.0
 43
0.0
 43
0.0
 43
1.0
 77
     0
 47
0.0208333333333333
 47
0.0
 47
0.0
 47
0.0
 47
0.0
 47
0.0208333333333333
 47
0.0
 47
0.0
 47
0.0
 47
0.0
 47
1.0
 47
0.0
 47
0.0
 47
0.0
 47
0.0
 47
1.0
171
     0
 49
0.0208333333333333
 49
0.0
 49
0.0
 49
0.0
 49
0.0
 49
0.0208333333333333
 49
0.0
 49
0.0
 49
0.0
 49
0.0
 49
1.0
 49
0.0
 49
0.0
 49
0.0
 49
0.0
 49
1.0
175
     0
142
0.0208333333333333
142
0.0
142
0.0
142
0.0
142
0.0
142
0.0208333333333333
142
0.0
142
0.0
142
0.0
142
0.0
142
1.0
142
0.0
142
0.0
142
0.0
142
0.0
142
1.0
179
     0
144
0.0208333333333333
144
0.0
144
0.0
144
0.0
144
0.0
144
0.0208333333333333
144
0.0
144
0.0
144
0.0
144
0.0
144
1.0
144
0.0
144
0.0
144
0.0
144
0.0
144
1.0
147
0.0208333333333333
147
0.0
147
0.0
147
0.0
147
0.0
147
0.0208333333333333
147
0.0
147
0.0
147
0.0
147
0.0
147
1.0
147
0.0
147
0.0
147
0.0
147
0.0
147
1.0
  0
MLEADERSTYLE
  5
1FA63
102
{ACAD_REACTORS
330
1FA62
102
}
330
1FA62
100
AcDbMLeaderStyle
170
     2
171
     1
172
     0
 90
        2
 40
0.0
 41
0.0
173
     1
 91
-1056964608
340
12
 92
       -2
290
     1
 42
0.09
291
     1
 43
0.36
  3
Standard
 44
0.18
300

342
10
174
     1
178
     6
175
     1
176
     0
 93
-1056964608
 45
0.18
292
     0
297
     0
 46
0.18
 94
-1056964608
 47
1.0
 49
1.0
140
1.0
293
     1
141
0.0
294
     1
177
     0
142
1.0
295
     0
296
     0
143
0.125
1001
ACAD_MLEADERVER
1070
     2
  0
MLINESTYLE
  5
1B
102
{ACAD_REACTORS
330
E
102
}
330
E
100
AcDbMlineStyle
  2
STANDARD
 70
     0
  3

 62
     0
 51
90.0
 52
90.0
 71
     2
 49
0.5
 62
   256
  6
BYLAYER
 49
-0.5
 62
   256
  6
BYLAYER
  0
ACDBPLACEHOLDER
  5
40CA
102
{ACAD_REACTORS
330
40C9
102
}
330
40C9
  0
SCALE
  5
171CA
102
{ACAD_REACTORS
330
171C9
102
}
330
171C9
100
AcDbScale
 70
     0
300
1:1
140
1.0
141
1.0
290
     1
1001
ACAD
1000
AcRTDxfName
1000
SCALE
  0
SCALE
  5
171CB
102
{ACAD_REACTORS
330
171C9
102
}
330
171C9
100
AcDbScale
 70
     0
300
1:2
140
1.0
141
2.0
290
     0
1001
ACAD
1000
AcRTDxfName
1000
SCALE
  0
SCALE
  5
171CC
102
{ACAD_REACTORS
330
171C9
102
}
330
171C9
100
AcDbScale
 70
     0
300
1:4
140
1.0
141
4.0
290
     0
1001
ACAD
1000
AcRTDxfName
1000
SCALE
  0
SCALE
  5
171CD
102
{ACAD_REACTORS
330
171C9
102
}
330
171C9
100
AcDbScale
 70
     0
300
1:5
140
1.0
141
5.0
290
     0
1001
ACAD
1000
AcRTDxfName
1000
SCALE
  0
SCALE
  5
171CE
102
{ACAD_REACTORS
330
171C9
102
}
330
171C9
100
AcDbScale
 70
     0
300
1:8
140
1.0
141
8.0
290
     0
1001
ACAD
1000
AcRTDxfName
1000
SCALE
  0
SCALE
  5
171CF
102
{ACAD_REACTORS
330
171C9
102
}
330
171C9
100
AcDbScale
 70
     0
300
1:10
140
1.0
141
10.0
290
     0
1001
ACAD
1000
AcRTDxfName
1000
SCALE
  0
SCALE
  5
171D0
102
{ACAD_REACTORS
330
171C9
102
}
330
171C9
100
AcDbScale
 70
     0
300
1:16
140
1.0
141
16.0
290
     0
1001
ACAD
1000
AcRTDxfName
1000
SCALE
  0
SCALE
  5
171D1
102
{ACAD_REACTORS
330
171C9
102
}
330
171C9
100
AcDbScale
 70
     0
300
1:20
140
1.0
141
20.0
290
     0
1001
ACAD
1000
AcRTDxfName
1000
SCALE
  0
SCALE
  5
171D2
102
{ACAD_REACTORS
330
171C9
102
}
330
171C9
100
AcDbScale
 70
     0
300
1:30
140
1.0
141
30.0
290
     0
1001
ACAD
1000
AcRTDxfName
1000
SCALE
  0
SCALE
  5
171D3
102
{ACAD_REACTORS
330
171C9
102
}
330
171C9
100
AcDbScale
 70
     0
300
1:40
140
1.0
141
40.0
290
     0
1001
ACAD
1000
AcRTDxfName
1000
SCALE
  0
SCALE
  5
171D4
102
{ACAD_REACTORS
330
171C9
102
}
330
171C9
100
AcDbScale
 70
     0
300
1:50
140
1.0
141
50.0
290
     0
1001
ACAD
1000
AcRTDxfName
1000
SCALE
  0
SCALE
  5
171D5
102
{ACAD_REACTORS
330
171C9
102
}
330
171C9
100
AcDbScale
 70
     0
300
1:100
140
1.0
141
100.0
290
     0
1001
ACAD
1000
AcRTDxfName
1000
SCALE
  0
SCALE
  5
171D6
102
{ACAD_REACTORS
330
171C9
102
}
330
171C9
100
AcDbScale
 70
     0
300
2:1
140
2.0
141
1.0
290
     0
1001
ACAD
1000
AcRTDxfName
1000
SCALE
  0
SCALE
  5
171D7
102
{ACAD_REACTORS
330
171C9
102
}
330
171C9
100
AcDbScale
 70
     0
300
4:1
140
4.0
141
1.0
290
     0
1001
ACAD
1000
AcRTDxfName
1000
SCALE
  0
SCALE
  5
171D8
102
{ACAD_REACTORS
330
171C9
102
}
330
171C9
100
AcDbScale
 70
     0
300
8:1
140
8.0
141
1.0
290
     0
1001
ACAD
1000
AcRTDxfName
1000
SCALE
  0
SCALE
  5
171D9
102
{ACAD_REACTORS
330
171C9
102
}
330
171C9
100
AcDbScale
 70
     0
300
10:1
140
10.0
141
1.0
290
     0
1001
ACAD
1000
AcRTDxfName
1000
SCALE
  0
SCALE
  5
171DA
102
{ACAD_REACTORS
330
171C9
102
}
330
171C9
100
AcDbScale
 70
     0
300
100:1
140
100.0
141
1.0
290
     0
1001
ACAD
1000
AcRTDxfName
1000
SCALE
  0
SCALE
  5
171DB
102
{ACAD_REACTORS
330
171C9
102
}
330
171C9
100
AcDbScale
 70
     0
300
1/128" = 1'-0"
140
0.0078125
141
12.0
290
     0
1001
ACAD
1000
AcRTDxfName
1000
SCALE
  0
SCALE
  5
171DC
102
{ACAD_REACTORS
330
171C9
102
}
330
171C9
100
AcDbScale
 70
     0
300
1/64" = 1'-0"
140
0.015625
141
12.0
290
     0
1001
ACAD
1000
AcRTDxfName
1000
SCALE
  0
SCALE
  5
171DD
102
{ACAD_REACTORS
330
171C9
102
}
330
171C9
100
AcDbScale
 70
     0
300
1/32" = 1'-0"
140
0.03125
141
12.0
290
     0
1001
ACAD
1000
AcRTDxfName
1000
SCALE
  0
SCALE
  5
171DE
102
{ACAD_REACTORS
330
171C9
102
}
330
171C9
100
AcDbScale
 70
     0
300
1/16" = 1'-0"
140
0.0625
141
12.0
290
     0
1001
ACAD
1000
AcRTDxfName
1000
SCALE
  0
SCALE
  5
171DF
102
{ACAD_REACTORS
330
171C9
102
}
330
171C9
100
AcDbScale
 70
     0
300
3/32" = 1'-0"
140
0.09375
141
12.0
290
     0
1001
ACAD
1000
AcRTDxfName
1000
SCALE
  0
SCALE
  5
171E0
102
{ACAD_REACTORS
330
171C9
102
}
330
171C9
100
AcDbScale
 70
     0
300
1/8" = 1'-0"
140
0.125
141
12.0
290
     0
1001
ACAD
1000
AcRTDxfName
1000
SCALE
  0
SCALE
  5
171E1
102
{ACAD_REACTORS
330
171C9
102
}
330
171C9
100
AcDbScale
 70
     0
300
3/16" = 1'-0"
140
0.1875
141
12.0
290
     0
1001
ACAD
1000
AcRTDxfName
1000
SCALE
  0
SCALE
  5
171E2
102
{ACAD_REACTORS
330
171C9
102
}
330
171C9
100
AcDbScale
 70
     0
300
1/4" = 1'-0"
140
0.25
141
12.0
290
     0
1001
ACAD
1000
AcRTDxfName
1000
SCALE
  0
SCALE
  5
171E3
102
{ACAD_REACTORS
330
171C9
102
}
330
171C9
100
AcDbScale
 70
     0
300
3/8" = 1'-0"
140
0.375
141
12.0
290
     0
1001
ACAD
1000
AcRTDxfName
1000
SCALE
  0
SCALE
  5
171E4
102
{ACAD_REACTORS
330
171C9
102
}
330
171C9
100
AcDbScale
 70
     0
300
1/2" = 1'-0"
140
0.5
141
12.0
290
     0
1001
ACAD
1000
AcRTDxfName
1000
SCALE
  0
SCALE
  5
171E5
102
{ACAD_REACTORS
330
171C9
102
}
330
171C9
100
AcDbScale
 70
     0
300
3/4" = 1'-0"
140
0.75
141
12.0
290
     0
1001
ACAD
1000
AcRTDxfName
1000
SCALE
  0
SCALE
  5
171E6
102
{ACAD_REACTORS
330
171C9
102
}
330
171C9
100
AcDbScale
 70
     0
300
1" = 1'-0"
140
1.0
141
12.0
290
     0
1001
ACAD
1000
AcRTDxfName
1000
SCALE
  0
SCALE
  5
171E7
102
{ACAD_REACTORS
330
171C9
102
}
330
171C9
100
AcDbScale
 70
     0
300
1-1/2" = 1'-0"
140
1.5
141
12.0
290
     0
1001
ACAD
1000
AcRTDxfName
1000
SCALE
  0
SCALE
  5
171E8
102
{ACAD_REACTORS
330
171C9
102
}
330
171C9
100
AcDbScale
 70
     0
300
3" = 1'-0"
140
3.0
141
12.0
290
     0
1001
ACAD
1000
AcRTDxfName
1000
SCALE
  0
SCALE
  5
171E9
102
{ACAD_REACTORS
330
171C9
102
}
330
171C9
100
AcDbScale
 70
     0
300
6" = 1'-0"
140
6.0
141
12.0
290
     0
1001
ACAD
1000
AcRTDxfName
1000
SCALE
  0
SCALE
  5
171EA
102
{ACAD_REACTORS
330
171C9
102
}
330
171C9
100
AcDbScale
 70
     0
300
1'-0" = 1'-0"
140
12.0
141
12.0
290
     0
1001
ACAD
1000
AcRTDxfName
1000
SCALE
  0
TABLESTYLE
  5
1FA61
102
{ACAD_XDICTIONARY
360
1FA84
102
}
102
{ACAD_REACTORS
330
1FA60
102
}
330
1FA60
100
AcDbTableStyle
  3
Standard
 70
     0
 71
     0
 40
0.06
 41
0.06
280
     0
281
     0
  7
STANDARD
140
0.18
170
     2
 62
     0
 63
     7
283
     0
274
    -2
284
     1
 64
     0
275
    -2
285
     1
 65
     0
276
    -2
286
     1
 66
     0
277
    -2
287
     1
 67
     0
278
    -2
288
     1
 68
     0
279
    -2
289
     1
 69
     0
  7
STANDARD
140
0.25
170
     5
 62
     0
 63
     7
283
     0
274
    -2
284
     1
 64
     0
275
    -2
285
     1
 65
     0
276
    -2
286
     1
 66
     0
277
    -2
287
     1
 67
     0
278
    -2
288
     1
 68
     0
279
    -2
289
     1
 69
     0
  7
STANDARD
140
0.18
170
     5
 62
     0
 63
     7
283
     0
274
    -2
284
     1
 64
     0
275
    -2
285
     1
 65
     0
276
    -2
286
     1
 66
     0
277
    -2
287
     1
 67
     0
278
    -2
288
     1
 68
     0
279
    -2
289
     1
 69
     0
  0
VISUALSTYLE
  5
1FA54
102
{ACAD_REACTORS
330
1FA4E
102
}
330
1FA4E
100
AcDbVisualStyle
  2
2dWireframe
 70
     4
 71
     0
 72
     2
 73
     0
 90
        0
 40
-0.6
 41
-30.0
 62
     5
 63
     7
 74
     1
 91
        4
 64
     7
 65
   257
 75
     1
175
     1
 42
1.0
 92
        0
 66
   257
 43
1.0
 76
     1
 77
     6
 78
     2
 67
     7
 79
     5
170
     0
171
     0
290
     0
174
     0
 93
        1
 44
0.0
173
     0
291
     0
 45
0.0
1001
ACAD
1000
AcDbSavedByObjectVersion
1070
     0
  0
VISUALSTYLE
  5
1FA56
102
{ACAD_REACTORS
330
1FA4E
102
}
330
1FA4E
100
AcDbVisualStyle
  2
3D Hidden
 70
     6
 71
     1
 72
     2
 73
     2
 90
        0
 40
-0.6
 41
-30.0
 62
     5
 63
     7
 74
     2
 91
        2
 64
     7
 65
   257
 75
     2
175
     1
 42
40.0
 92
        0
 66
   257
 43
1.0
 76
     1
 77
     6
 78
     2
 67
     7
 79
     3
170
     0
171
     0
290
     0
174
     0
 93
        1
 44
0.0
173
     0
291
     0
 45
0.0
1001
ACAD
1000
AcDbSavedByObjectVersion
1070
     0
  0
VISUALSTYLE
  5
1FA55
102
{ACAD_REACTORS
330
1FA4E
102
}
330
1FA4E
100
AcDbVisualStyle
  2
3dWireframe
 70
     5
 71
     0
 72
     2
 73
     0
 90
        0
 40
-0.6
 41
-30.0
 62
     5
 63
     7
 74
     1
 91
        4
 64
     7
 65
   257
 75
     1
175
     1
 42
1.0
 92
        0
 66
   257
 43
1.0
 76
     1
 77
     6
 78
     2
 67
     7
 79
     5
170
     0
171
     0
290
     0
174
     0
 93
        1
 44
0.0
173
     0
291
     0
 45
0.0
1001
ACAD
1000
AcDbSavedByObjectVersion
1070
     0
  0
VISUALSTYLE
  5
1FA53
102
{ACAD_REACTORS
330
1FA4E
102
}
330
1FA4E
100
AcDbVisualStyle
  2
Basic
 70
     7
 71
     1
 72
     0
 73
     1
 90
        0
 40
-0.6
 41
-30.0
 62
     5
 63
     7
 74
     0
 91
        4
 64
     7
 65
   257
 75
     1
175
     1
 42
1.0
 92
        8
 66
     7
 43
1.0
 76
     1
 77
     6
 78
     2
 67
     7
 79
     5
170
     0
171
     0
290
     0
174
     0
 93
        1
 44
0.0
173
     0
291
     1
 45
0.0
1001
ACAD
1000
AcDbSavedByObjectVersion
1070
     0
  0
VISUALSTYLE
  5
1FA5A
102
{ACAD_REACTORS
330
1FA4E
102
}
330
1FA4E
100
AcDbVisualStyle
  2
Brighten
 70
    12
 71
     2
 72
     2
 73
     0
 90
        0
 40
-0.6
 41
-30.0
 62
     5
 63
     7
 74
     1
 91
        4
 64
     7
 65
   257
 75
     1
175
     1
 42
1.0
 92
        8
 66
     7
 43
1.0
 76
     1
 77
     6
 78
     2
 67
     7
 79
     5
170
     0
171
     0
290
     0
174
     0
 93
        1
 44
50.0
173
     0
291
     1
 45
0.0
1001
ACAD
1000
AcDbSavedByObjectVersion
1070
     0
  0
VISUALSTYLE
  5
1FA5E
102
{ACAD_REACTORS
330
1FA4E
102
}
330
1FA4E
100
AcDbVisualStyle
  2
ColorChange
 70
    16
 71
     2
 72
     2
 73
     3
 90
        0
 40
-0.6
 41
-30.0
 62
     5
 63
     8
 74
     1
 91
        4
 64
     7
 65
   257
 75
     1
175
     1
 42
1.0
 92
        8
 66
     8
 43
1.0
 76
     1
 77
     6
 78
     2
 67
     7
 79
     5
170
     0
171
     0
290
     0
174
     0
 93
        1
 44
0.0
173
     0
291
     1
 45
0.0
1001
ACAD
1000
AcDbSavedByObjectVersion
1070
     0
  0
VISUALSTYLE
  5
1FA57
102
{ACAD_REACTORS
330
1FA4E
102
}
330
1FA4E
100
AcDbVisualStyle
  2
Conceptual
 70
     9
 71
     3
 72
     2
 73
     0
 90
        0
 40
-0.6
 41
-30.0
 62
     5
 63
     7
 74
     2
 91
        2
 64
     7
 65
   257
 75
     1
175
     1
 42
40.0
 92
        8
 66
     7
 43
1.0
 76
     1
 77
     6
 78
     2
 67
     7
 79
     3
170
     0
171
     0
290
     0
174
     0
 93
        1
 44
0.0
173
     0
291
     0
 45
0.0
1001
ACAD
1000
AcDbSavedByObjectVersion
1070
     0
  0
VISUALSTYLE
  5
1FA59
102
{ACAD_REACTORS
330
1FA4E
102
}
330
1FA4E
100
AcDbVisualStyle
  2
Dim
 70
    11
 71
     2
 72
     2
 73
     0
 90
        0
 40
-0.6
 41
-30.0
 62
     5
 63
     7
 74
     1
 91
        4
 64
     7
 65
   257
 75
     1
175
     1
 42
1.0
 92
        8
 66
     7
 43
1.0
 76
     1
 77
     6
 78
     2
 67
     7
 79
     5
170
     0
171
     0
290
     0
174
     0
 93
        1
 44
-50.0
173
     0
291
     1
 45
0.0
1001
ACAD
1000
AcDbSavedByObjectVersion
1070
     0
  0
VISUALSTYLE
  5
1FA5D
102
{ACAD_REACTORS
330
1FA4E
102
}
330
1FA4E
100
AcDbVisualStyle
  2
Facepattern
 70
    15
 71
     2
 72
     2
 73
     0
 90
        0
 40
-0.6
 41
-30.0
 62
     5
 63
     7
 74
     1
 91
        4
 64
     7
 65
   257
 75
     1
175
     1
 42
1.0
 92
        8
 66
     7
 43
1.0
 76
     1
 77
     6
 78
     2
 67
     7
 79
     5
170
     0
171
     0
290
     0
174
     0
 93
        1
 44
0.0
173
     0
291
     1
 45
0.0
1001
ACAD
1000
AcDbSavedByObjectVersion
1070
     0
  0
VISUALSTYLE
  5
1FA4F
102
{ACAD_REACTORS
330
1FA4E
102
}
330
1FA4E
100
AcDbVisualStyle
  2
Flat
 70
     0
 71
     2
 72
     1
 73
     1
 90
        2
 40
-0.6
 41
30.0
 62
     5
 63
     7
 74
     0
 91
        4
 64
     7
 65
   257
 75
     1
175
     1
 42
1.0
 92
        8
 66
     7
 43
1.0
 76
     1
 77
     6
 78
     2
 67
     7
 79
     5
170
     0
171
     0
290
     0
174
     0
 93
       13
 44
0.0
173
     0
291
     1
 45
0.0
1001
ACAD
1000
AcDbSavedByObjectVersion
1070
     0
  0
VISUALSTYLE
  5
1FA50
102
{ACAD_REACTORS
330
1FA4E
102
}
330
1FA4E
100
AcDbVisualStyle
  2
FlatWithEdges
 70
     1
 71
     2
 72
     1
 73
     1
 90
        2
 40
-0.6
 41
30.0
 62
     5
 63
     7
 74
     1
 91
        4
 64
     7
 65
   257
 75
     1
175
     1
 42
1.0
 92
        0
 66
   257
 43
1.0
 76
     1
 77
     6
 78
     2
 67
     7
 79
     5
170
     0
171
     0
290
     0
174
     0
 93
       13
 44
0.0
173
     0
291
     1
 45
0.0
1001
ACAD
1000
AcDbSavedByObjectVersion
1070
     0
  0
VISUALSTYLE
  5
1FA51
102
{ACAD_REACTORS
330
1FA4E
102
}
330
1FA4E
100
AcDbVisualStyle
  2
Gouraud
 70
     2
 71
     2
 72
     2
 73
     1
 90
        2
 40
-0.6
 41
30.0
 62
     5
 63
     7
 74
     0
 91
        4
 64
     7
 65
   257
 75
     1
175
     1
 42
1.0
 92
        0
 66
     7
 43
1.0
 76
     1
 77
     6
 78
     2
 67
     7
 79
     5
170
     0
171
     0
290
     0
174
     0
 93
       13
 44
0.0
173
     0
291
     1
 45
0.0
1001
ACAD
1000
AcDbSavedByObjectVersion
1070
     0
  0
VISUALSTYLE
  5
1FA52
102
{ACAD_REACTORS
330
1FA4E
102
}
330
1FA4E
100
AcDbVisualStyle
  2
GouraudWithEdges
 70
     3
 71
     2
 72
     2
 73
     1
 90
        2
 40
-0.6
 41
30.0
 62
     5
 63
     7
 74
     1
 91
        4
 64
     7
 65
   257
 75
     1
175
     1
 42
1.0
 92
        0
 66
   257
 43
1.0
 76
     1
 77
     6
 78
     2
 67
     7
 79
     5
170
     0
171
     0
290
     0
174
     0
 93
       13
 44
0.0
173
     0
291
     1
 45
0.0
1001
ACAD
1000
AcDbSavedByObjectVersion
1070
     0
  0
VISUALSTYLE
  5
1FA5C
102
{ACAD_REACTORS
330
1FA4E
102
}
330
1FA4E
100
AcDbVisualStyle
  2
Linepattern
 70
    14
 71
     2
 72
     2
 73
     0
 90
        0
 40
-0.6
 41
-30.0
 62
     5
 63
     7
 74
     1
 91
        4
 64
     7
 65
   257
 75
     7
175
     7
 42
1.0
 92
        8
 66
     7
 43
1.0
 76
     1
 77
     6
 78
     2
 67
     7
 79
     5
170
     0
171
     0
290
     0
174
     0
 93
        1
 44
0.0
173
     0
291
     1
 45
0.0
1001
ACAD
1000
AcDbSavedByObjectVersion
1070
     0
  0
VISUALSTYLE
  5
1FA58
102
{ACAD_REACTORS
330
1FA4E
102
}
330
1FA4E
100
AcDbVisualStyle
  2
Realistic
 70
     8
 71
     2
 72
     2
 73
     0
 90
        0
 40
-0.6
 41
-30.0
 62
     5
 63
     7
 74
     1
 91
        0
 64
     7
 65
   257
 75
     1
175
     1
 42
1.0
 92
        8
 66
     8
 43
1.0
 76
     1
 77
     6
 78
     2
 67
     7
 79
     5
170
     0
171
     0
290
     0
174
     0
 93
       13
 44
0.0
173
     0
291
     0
 45
0.0
1001
ACAD
1000
AcDbSavedByObjectVersion
1070
     0
  0
VISUALSTYLE
  5
1FA5B
102
{ACAD_REACTORS
330
1FA4E
102
}
330
1FA4E
100
AcDbVisualStyle
  2
Thicken
 70
    13
 71
     2
 72
     2
 73
     0
 90
        0
 40
-0.6
 41
-30.0
 62
     5
 63
     7
 74
     1
 91
        4
 64
     7
 65
   257
 75
     1
175
     1
 42
1.0
 92
       12
 66
     7
 43
1.0
 76
     1
 77
     6
 78
     2
 67
     7
 79
     5
170
     0
171
     0
290
     0
174
     0
 93
        1
 44
0.0
173
     0
291
     1
 45
0.0
1001
ACAD
1000
AcDbSavedByObjectVersion
1070
     0
  0
DICTIONARYVAR
  5
1FA96
102
{ACAD_REACTORS
330
6377
102
}
330
6377
100
DictionaryVariables
280
     0
  1
1:1
  0
DICTIONARYVAR
  5
1FA95
102
{ACAD_REACTORS
330
6377
102
}
330
6377
100
DictionaryVariables
280
     0
  1
STANDARD
  0
DICTIONARYVAR
  5
1FA94
102
{ACAD_REACTORS
330
6377
102
}
330
6377
100
DictionaryVariables
280
     0
  1
STANDARD
  0
DICTIONARYVAR
  5
73F2
102
{ACAD_REACTORS
330
6377
102
}
330
6377
100
DictionaryVariables
280
     0
  1
1
  0
DICTIONARYVAR
  5
17245
102
{ACAD_REACTORS
330
6377
102
}
330
6377
100
DictionaryVariables
280
     0
  1
0
  0
DICTIONARYVAR
  5
12912
102
{ACAD_REACTORS
330
6377
102
}
330
6377
100
DictionaryVariables
280
     0
  1

  0
DICTIONARYVAR
  5
6378
102
{ACAD_REACTORS
330
6377
102
}
330
6377
100
DictionaryVariables
280
     0
  1
96
  0
DICTIONARY
  5
21A1E
330
40CD
100
AcDbDictionary
280
     1
281
     1
  3
ACAD_XREC_ROUNDTRIP
360
21A1F
  0
DICTIONARY
  5
21A20
330
40CE
100
AcDbDictionary
280
     1
281
     1
  3
ACAD_XREC_ROUNDTRIP
360
21A21
  0
DICTIONARY
  5
1FA3F
330
1FA3E
100
AcDbDictionary
280
     1
281
     1
  3
ACAD_XREC_ROUNDTRIP
360
21A23
  3
BUMPTILE
360
1FA41
  3
DIFFUSETILE
360
1FA40
  3
OPACITYTILE
360
1FA44
  3
REFLECTIONTILE
360
1FA43
  3
REFRACTIONTILE
360
1FA45
  3
SPECULARTILE
360
1FA42
  0
DICTIONARY
  5
1FA37
330
1FA36
100
AcDbDictionary
280
     1
281
     1
  3
ACAD_XREC_ROUNDTRIP
360
21A22
  3
BUMPTILE
360
1FA39
  3
DIFFUSETILE
360
1FA38
  3
OPACITYTILE
360
1FA3C
  3
REFLECTIONTILE
360
1FA3B
  3
REFRACTIONTILE
360
1FA3D
  3
SPECULARTILE
360
1FA3A
  0
DICTIONARY
  5
1FA47
330
1FA46
100
AcDbDictionary
280
     1
281
     1
  3
ACAD_XREC_ROUNDTRIP
360
21A24
  3
BUMPTILE
360
1FA49
  3
DIFFUSETILE
360
1FA48
  3
OPACITYTILE
360
1FA4C
  3
REFLECTIONTILE
360
1FA4B
  3
REFRACTIONTILE
360
1FA4D
  3
SPECULARTILE
360
1FA4A
  0
DICTIONARY
  5
1FA84
330
1FA61
100
AcDbDictionary
280
     1
281
     1
  3
ACAD_ROUNDTRIP_2008_TABLESTYLE_CELLSTYLEMAP
360
21A1C
  3
ACAD_XREC_ROUNDTRIP
360
21A25
  0
XRECORD
  5
21A1F
102
{ACAD_REACTORS
330
21A1E
102
}
330
21A1E
100
AcDbXrecord
280
     1
102
SHADEPLOT
 70
     0
102
SHADEPLOTRESLEVEL
 70
     2
102
SHADEPLOTCUSTOMDPI
 70
   300
  0
XRECORD
  5
21A21
102
{ACAD_REACTORS
330
21A20
102
}
330
21A20
100
AcDbXrecord
280
     1
102
SHADEPLOT
 70
     0
102
SHADEPLOTRESLEVEL
 70
     2
102
SHADEPLOTCUSTOMDPI
 70
   300
  0
XRECORD
  5
21A23
102
{ACAD_REACTORS
330
1FA3F
102
}
330
1FA3F
100
AcDbXrecord
280
     1
102
MATERIAL
148
0.0
149
0.0
149
0.0
 93
        0
 94
      127
282
     0
 72
     0
 77
     0
171
     0
175
     0
179
     0
273
     0
  0
XRECORD
  5
1FA41
102
{ACAD_REACTORS
330
1FA3F
102
}
330
1FA3F
100
AcDbXrecord
280
     1
270
     1
271
     1
  0
XRECORD
  5
1FA40
102
{ACAD_REACTORS
330
1FA3F
102
}
330
1FA3F
100
AcDbXrecord
280
     1
270
     1
271
     1
  0
XRECORD
  5
1FA44
102
{ACAD_REACTORS
330
1FA3F
102
}
330
1FA3F
100
AcDbXrecord
280
     1
270
     1
271
     1
  0
XRECORD
  5
1FA43
102
{ACAD_REACTORS
330
1FA3F
102
}
330
1FA3F
100
AcDbXrecord
280
     1
270
     1
271
     1
  0
XRECORD
  5
1FA45
102
{ACAD_REACTORS
330
1FA3F
102
}
330
1FA3F
100
AcDbXrecord
280
     1
270
     1
271
     1
  0
XRECORD
  5
1FA42
102
{ACAD_REACTORS
330
1FA3F
102
}
330
1FA3F
100
AcDbXrecord
280
     1
270
     1
271
     1
  0
XRECORD
  5
21A22
102
{ACAD_REACTORS
330
1FA37
102
}
330
1FA37
100
AcDbXrecord
280
     1
102
MATERIAL
148
0.0
149
0.0
149
0.0
 93
        0
 94
      127
282
     0
 72
     0
 77
     0
171
     0
175
     0
179
     0
273
     0
  0
XRECORD
  5
1FA39
102
{ACAD_REACTORS
330
1FA37
102
}
330
1FA37
100
AcDbXrecord
280
     1
270
     1
271
     1
  0
XRECORD
  5
1FA38
102
{ACAD_REACTORS
330
1FA37
102
}
330
1FA37
100
AcDbXrecord
280
     1
270
     1
271
     1
  0
XRECORD
  5
1FA3C
102
{ACAD_REACTORS
330
1FA37
102
}
330
1FA37
100
AcDbXrecord
280
     1
270
     1
271
     1
  0
XRECORD
  5
1FA3B
102
{ACAD_REACTORS
330
1FA37
102
}
330
1FA37
100
AcDbXrecord
280
     1
270
     1
271
     1
  0
XRECORD
  5
1FA3D
102
{ACAD_REACTORS
330
1FA37
102
}
330
1FA37
100
AcDbXrecord
280
     1
270
     1
271
     1
  0
XRECORD
  5
1FA3A
102
{ACAD_REACTORS
330
1FA37
102
}
330
1FA37
100
AcDbXrecord
280
     1
270
     1
271
     1
  0
XRECORD
  5
21A24
102
{ACAD_REACTORS
330
1FA47
102
}
330
1FA47
100
AcDbXrecord
280
     1
102
MATERIAL
148
0.0
149
0.0
149
0.0
 93
        0
 94
      127
282
     0
 72
     0
 77
     0
171
     0
175
     0
179
     0
273
     0
  0
XRECORD
  5
1FA49
102
{ACAD_REACTORS
330
1FA47
102
}
330
1FA47
100
AcDbXrecord
280
     1
270
     1
271
     1
  0
XRECORD
  5
1FA48
102
{ACAD_REACTORS
330
1FA47
102
}
330
1FA47
100
AcDbXrecord
280
     1
270
     1
271
     1
  0
XRECORD
  5
1FA4C
102
{ACAD_REACTORS
330
1FA47
102
}
330
1FA47
100
AcDbXrecord
280
     1
270
     1
271
     1
  0
XRECORD
  5
1FA4B
102
{ACAD_REACTORS
330
1FA47
102
}
330
1FA47
100
AcDbXrecord
280
     1
270
     1
271
     1
  0
XRECORD
  5
1FA4D
102
{ACAD_REACTORS
330
1FA47
102
}
330
1FA47
100
AcDbXrecord
280
     1
270
     1
271
     1
  0
XRECORD
  5
1FA4A
102
{ACAD_REACTORS
330
1FA47
102
}
330
1FA47
100
AcDbXrecord
280
     1
270
     1
271
     1
  0
CELLSTYLEMAP
  5
21A1C
102
{ACAD_REACTORS
330
1FA84
102
}
330
1FA84
100
AcDbCellStyleMap
 90
        3
300
CELLSTYLE
  1
TABLEFORMAT_BEGIN
 90
        5
170
     1
 91
        0
 92
    32768
 62
   257
 93
        1
300
CONTENTFORMAT
  1
CONTENTFORMAT_BEGIN
 90
        0
 91
        0
 92
      512
 93
        0
300

 40
0.0
140
1.0
 94
        5
 62
     0
340
10
144
0.25
309
CONTENTFORMAT_END
171
     0
 94
        0
309
TABLEFORMAT_END
  1
CELLSTYLE_BEGIN
 90
        1
 91
        1
300
_TITLE
309
CELLSTYLE_END
300
CELLSTYLE
  1
TABLEFORMAT_BEGIN
 90
        5
170
     1
 91
        0
 92
        0
 62
   257
 93
        1
300
CONTENTFORMAT
  1
CONTENTFORMAT_BEGIN
 90
        0
 91
        0
 92
      512
 93
        0
300

 40
0.0
140
1.0
 94
        5
 62
     0
340
10
144
0.18
309
CONTENTFORMAT_END
171
     0
 94
        0
309
TABLEFORMAT_END
  1
CELLSTYLE_BEGIN
 90
        2
 91
        1
300
_HEADER
309
CELLSTYLE_END
300
CELLSTYLE
  1
TABLEFORMAT_BEGIN
 90
        5
170
     1
 91
        0
 92
        0
 62
   257
 93
        1
300
CONTENTFORMAT
  1
CONTENTFORMAT_BEGIN
 90
        0
 91
        0
 92
      512
 93
        0
300

 40
0.0
140
1.0
 94
        2
 62
     0
340
10
144
0.18
309
CONTENTFORMAT_END
171
     0
 94
        0
309
TABLEFORMAT_END
  1
CELLSTYLE_BEGIN
 90
        3
 91
        2
300
_DATA
309
CELLSTYLE_END
  0
XRECORD
  5
21A25
102
{ACAD_REACTORS
330
1FA84
102
}
330
1FA84
100
AcDbXrecord
280
     1
102
ACAD_ROUNDTRIP_PRE2007_TABLESTYLE
 90
      512
 91
        0
  1

 92
      512
 93
        0
  2

 94
      512
 95
        0
  3

  0
ENDSEC
  0
EOF
