  0
SECTION
  2
HEADER
  9
$ACADVER
  1
AC1015
  9
$ACADMAINTVER
 70
     6
  9
$DWGCODEPAGE
  3
ANSI_932
  9
$INSBASE
 10
0.0
 20
0.0
 30
0.0
  9
$EXTMIN
 10
-1907.612964328114
 20
878.0584882918754
 30
-0.0000000000000469
  9
$EXTMAX
 10
-1806.662020575763
 20
1021.757254443129
 30
0.000000000000016
  9
$LIMMIN
 10
0.0
 20
0.0
  9
$LIMMAX
 10
840.0
 20
594.0
  9
$ORTHOMODE
 70
     1
  9
$REGENMODE
 70
     1
  9
$FILLMODE
 70
     1
  9
$QTEXTMODE
 70
     0
  9
$MIRRTEXT
 70
     1
  9
$LTSCALE
 40
7.0
  9
$ATTMODE
 70
     0
  9
$TEXTSIZE
 40
6.0
  9
$TRACEWID
 40
1.0
  9
$TEXTSTYLE
  7
STANDARD
  9
$CLAYER
  8
寸法線
  9
$CELTYPE
  6
BYLAYER
  9
$CECOLOR
 62
   256
  9
$CELTSCALE
 40
1.0
  9
$DISPSILH
 70
     0
  9
$DIMSCALE
 40
1.0
  9
$DIMASZ
 40
6.0
  9
$DIMEXO
 40
3.0
  9
$DIMDLI
 40
7.149999999999999
  9
$DIMRND
 40
0.0
  9
$DIMDLE
 40
0.0
  9
$DIMEXE
 40
2.0
  9
$DIMTP
 40
0.0
  9
$DIMTM
 40
0.0
  9
$DIMTXT
 40
5.0
  9
$DIMCEN
 40
0.0
  9
$DIMTSZ
 40
0.0
  9
$DIMTOL
 70
     0
  9
$DIMLIM
 70
     0
  9
$DIMTIH
 70
     0
  9
$DIMTOH
 70
     0
  9
$DIMSE1
 70
     0
  9
$DIMSE2
 70
     0
  9
$DIMTAD
 70
     3
  9
$DIMZIN
 70
     8
  9
$DIMBLK
  1
Open30
  9
$DIMASO
 70
     1
  9
$DIMSHO
 70
     0
  9
$DIMPOST
  1

  9
$DIMAPOST
  1

  9
$DIMALT
 70
     0
  9
$DIMALTD
 70
     2
  9
$DIMALTF
 40
25.4
  9
$DIMLFAC
 40
1.0
  9
$DIMTOFL
 70
     0
  9
$DIMTVP
 40
0.0
  9
$DIMTIX
 70
     0
  9
$DIMSOXD
 70
     0
  9
$DIMSAH
 70
     0
  9
$DIMBLK1
  1

  9
$DIMBLK2
  1

  9
$DIMSTYLE
  2
STANDARD
  9
$DIMCLRD
 70
     0
  9
$DIMCLRE
 70
     0
  9
$DIMCLRT
 70
     0
  9
$DIMTFAC
 40
1.0
  9
$DIMGAP
 40
2.0
  9
$DIMJUST
 70
     0
  9
$DIMSD1
 70
     0
  9
$DIMSD2
 70
     0
  9
$DIMTOLJ
 70
     1
  9
$DIMTZIN
 70
     0
  9
$DIMALTZ
 70
     0
  9
$DIMALTTZ
 70
     0
  9
$DIMUPT
 70
     1
  9
$DIMDEC
 70
     2
  9
$DIMTDEC
 70
     2
  9
$DIMALTU
 70
     2
  9
$DIMALTTD
 70
     2
  9
$DIMTXSTY
  7
STANDARD
  9
$DIMAUNIT
 70
     0
  9
$DIMADEC
 70
     2
  9
$DIMALTRND
 40
0.0
  9
$DIMAZIN
 70
     2
  9
$DIMDSEP
 70
    46
  9
$DIMATFIT
 70
     3
  9
$DIMFRAC
 70
     0
  9
$DIMLDRBLK
  1
Open30
  9
$DIMLUNIT
 70
     2
  9
$DIMLWD
 70
    -2
  9
$DIMLWE
 70
    -2
  9
$DIMTMOVE
 70
     0
  9
$LUNITS
 70
     2
  9
$LUPREC
 70
     2
  9
$SKETCHINC
 40
0.1
  9
$FILLETRAD
 40
0.0
  9
$AUNITS
 70
     0
  9
$AUPREC
 70
     2
  9
$MENU
  1
ACAD
  9
$ELEVATION
 40
0.0
  9
$PELEVATION
 40
0.0
  9
$THICKNESS
 40
0.0
  9
$LIMCHECK
 70
     0
  9
$CHAMFERA
 40
0.0
  9
$CHAMFERB
 40
0.0
  9
$CHAMFERC
 40
0.0
  9
$CHAMFERD
 40
0.0
  9
$SKPOLY
 70
     0
  9
$TDCREATE
 40
2449505.922222222
  9
$TDUCREATE
 40
2449505.547222222
  9
$TDUPDATE
 40
2456821.613569109
  9
$TDUUPDATE
 40
2456821.238569109
  9
$TDINDWG
 40
2.6535281134
  9
$TDUSRTIMER
 40
2456821.238432164
  9
$USRTIMER
 70
     1
  9
$ANGBASE
 50
0.0
  9
$ANGDIR
 70
     0
  9
$PDMODE
 70
     3
  9
$PDSIZE
 40
0.0
  9
$PLINEWID
 40
0.0
  9
$SPLFRAME
 70
     0
  9
$SPLINETYPE
 70
     6
  9
$SPLINESEGS
 70
     8
  9
$HANDSEED
  5
1DAB5
  9
$SURFTAB1
 70
     6
  9
$SURFTAB2
 70
     6
  9
$SURFTYPE
 70
     6
  9
$SURFU
 70
     6
  9
$SURFV
 70
     6
  9
$UCSBASE
  2

  9
$UCSNAME
  2

  9
$UCSORG
 10
0.0
 20
0.0
 30
0.0
  9
$UCSXDIR
 10
1.0
 20
0.0
 30
0.0
  9
$UCSYDIR
 10
0.0
 20
1.0
 30
0.0
  9
$UCSORTHOREF
  2

  9
$UCSORTHOVIEW
 70
     0
  9
$UCSORGTOP
 10
0.0
 20
0.0
 30
0.0
  9
$UCSORGBOTTOM
 10
0.0
 20
0.0
 30
0.0
  9
$UCSORGLEFT
 10
0.0
 20
0.0
 30
0.0
  9
$UCSORGRIGHT
 10
0.0
 20
0.0
 30
0.0
  9
$UCSORGFRONT
 10
0.0
 20
0.0
 30
0.0
  9
$UCSORGBACK
 10
0.0
 20
0.0
 30
0.0
  9
$PUCSBASE
  2

  9
$PUCSNAME
  2

  9
$PUCSORG
 10
0.0
 20
0.0
 30
0.0
  9
$PUCSXDIR
 10
1.0
 20
0.0
 30
0.0
  9
$PUCSYDIR
 10
0.0
 20
1.0
 30
0.0
  9
$PUCSORTHOREF
  2

  9
$PUCSORTHOVIEW
 70
     0
  9
$PUCSORGTOP
 10
0.0
 20
0.0
 30
0.0
  9
$PUCSORGBOTTOM
 10
0.0
 20
0.0
 30
0.0
  9
$PUCSORGLEFT
 10
0.0
 20
0.0
 30
0.0
  9
$PUCSORGRIGHT
 10
0.0
 20
0.0
 30
0.0
  9
$PUCSORGFRONT
 10
0.0
 20
0.0
 30
0.0
  9
$PUCSORGBACK
 10
0.0
 20
0.0
 30
0.0
  9
$USERI1
 70
     0
  9
$USERI2
 70
     0
  9
$USERI3
 70
     0
  9
$USERI4
 70
     0
  9
$USERI5
 70
     0
  9
$USERR1
 40
0.0
  9
$USERR2
 40
0.0
  9
$USERR3
 40
0.0
  9
$USERR4
 40
0.0
  9
$USERR5
 40
0.0
  9
$WORLDVIEW
 70
     0
  9
$SHADEDGE
 70
     3
  9
$SHADEDIF
 70
    70
  9
$TILEMODE
 70
     1
  9
$MAXACTVP
 70
    16
  9
$PINSBASE
 10
0.0
 20
0.0
 30
0.0
  9
$PLIMCHECK
 70
     0
  9
$PEXTMIN
 10
1.000000000000000E+20
 20
1.000000000000000E+20
 30
1.000000000000000E+20
  9
$PEXTMAX
 10
-1.000000000000000E+20
 20
-1.000000000000000E+20
 30
-1.000000000000000E+20
  9
$PLIMMIN
 10
0.0
 20
0.0
  9
$PLIMMAX
 10
0.0
 20
0.0
  9
$UNITMODE
 70
     0
  9
$VISRETAIN
 70
     0
  9
$PLINEGEN
 70
     0
  9
$PSLTSCALE
 70
     0
  9
$TREEDEPTH
 70
  3020
  9
$CMLSTYLE
  2
STANDARD
  9
$CMLJUST
 70
     0
  9
$CMLSCALE
 40
1.0
  9
$PROXYGRAPHICS
 70
     1
  9
$MEASUREMENT
 70
     0
  9
$CELWEIGHT
370
    -1
  9
$ENDCAPS
280
     0
  9
$JOINSTYLE
280
     0
  9
$LWDISPLAY
290
     0
  9
$INSUNITS
 70
     0
  9
$HYPERLINKBASE
  1

  9
$STYLESHEET
  1
spax form.ctb
  9
$XEDIT
290
     1
  9
$CEPSNTYPE
380
     0
  9
$PSTYLEMODE
290
     1
  9
$FINGERPRINTGUID
  2
{C1CFCF3E-DF91-11D3-B30C-0060B0FA8DFC}
  9
$VERSIONGUID
  2
{1A6110E4-A11C-4803-82B9-705D0696B486}
  9
$EXTNAMES
290
     1
  9
$PSVPSCALE
 40
0.0
  9
$OLESTARTUP
290
     0
  0
ENDSEC
  0
SECTION
  2
CLASSES
  0
CLASS
  1
LWPOLYLINE
  2
AcDbPolyline
  3
ObjectDBX Classes
 90
        0
280
     0
281
     1
  0
CLASS
  1
ACDBDICTIONARYWDFLT
  2
AcDbDictionaryWithDefault
  3
ObjectDBX Classes
 90
        0
280
     0
281
     0
  0
CLASS
  1
ACDBPLACEHOLDER
  2
AcDbPlaceHolder
  3
ObjectDBX Classes
 90
        0
280
     0
281
     0
  0
CLASS
  1
LAYOUT
  2
AcDbLayout
  3
ObjectDBX Classes
 90
        0
280
     0
281
     0
  0
CLASS
  1
DICTIONARYVAR
  2
AcDbDictionaryVar
  3
ObjectDBX Classes
 90
        0
280
     0
281
     0
  0
CLASS
  1
LONG_TRANSACTION
  2
AcDbLongTransaction
  3
ObjectDBX Classes
 90
        0
280
     0
281
     0
  0
CLASS
  1
LWPOLYLINE
  2
AcDbPolyline
  3
ObjectDBX Classes
 90
        0
280
     0
281
     1
  0
CLASS
  1
HATCH
  2
AcDbHatch
  3
ObjectDBX Classes
 90
        0
280
     0
281
     1
  0
CLASS
  1
XRECORD
  2
AcDbXrecord
  3
ObjectDBX Classes
 90
        0
280
     0
281
     0
  0
CLASS
  1
MATERIAL
  2
AcDbMaterial
  3
ObjectDBX Classes
 90
     1153
280
     0
281
     0
  0
CLASS
  1
VISUALSTYLE
  2
AcDbVisualStyle
  3
ObjectDBX Classes
 90
     4095
280
     0
281
     0
  0
CLASS
  1
TABLESTYLE
  2
AcDbTableStyle
  3
ObjectDBX Classes
 90
     4095
280
     0
281
     0
  0
CLASS
  1
SCALE
  2
AcDbScale
  3
ObjectDBX Classes
 90
     1153
280
     0
281
     0
  0
CLASS
  1
MLEADERSTYLE
  2
AcDbMLeaderStyle
  3
ACDB_MLEADERSTYLE_CLASS
 90
     4095
280
     0
281
     0
  0
CLASS
  1
CELLSTYLEMAP
  2
AcDbCellStyleMap
  3
ObjectDBX Classes
 90
     1152
280
     0
281
     0
  0
CLASS
  1
SORTENTSTABLE
  2
AcDbSortentsTable
  3
ObjectDBX Classes
 90
        0
280
     0
281
     0
  0
CLASS
  1
RASTERVARIABLES
  2
AcDbRasterVariables
  3
ISM
 90
        0
280
     0
281
     0
  0
CLASS
  1
AEC_VARS_DWG_SETUP
  2
AecDbVarsDwgSetup
  3
AecBase60
 90
      129
280
     0
281
     0
  0
CLASS
  1
AEC_DISP_REP_2D_SECTION
  2
AecDbDispRep2dSection
  3
AecBase60
 90
      129
280
     0
281
     0
  0
CLASS
  1
AEC_DISP_PROPS_2D_SECTION
  2
AecDbDispProps2dSection
  3
AecBase60
 90
      129
280
     0
281
     0
  0
CLASS
  1
AEC_DISP_REP_CLIP_VOLUME_MODEL
  2
AecDbDispRepClipVolModel
  3
AecBase60
 90
      129
280
     0
281
     0
  0
CLASS
  1
AEC_DISP_PROPS_CLIP_VOLUME
  2
AecDbDispPropsClipVol
  3
AecBase60
 90
      129
280
     0
281
     0
  0
CLASS
  1
AEC_DISP_REP_CLIP_VOLUME_PLAN
  2
AecDbDispRepClipVolPlan
  3
AecBase60
 90
      129
280
     0
281
     0
  0
CLASS
  1
AEC_DISP_REP_CLIP_VOLUME_RESULT
  2
AecDbDispRepClipVolResult
  3
AecBase60
 90
      129
280
     0
281
     0
  0
CLASS
  1
AEC_DISP_REP_CLIP_VOLUME_RESULT_SUBDIV
  2
AecDbDispRepClipVolResSubDiv
  3
AecBase60
 90
      129
280
     0
281
     0
  0
CLASS
  1
AEC_DISP_PROPS_CLIP_VOLUME_RESULT
  2
AecDbDispPropsClipVolResSubDiv
  3
AecBase60
 90
      129
280
     0
281
     0
  0
CLASS
  1
AEC_DISP_REP_DISPLAYTHEME
  2
AecDbDispRepDisplayTheme
  3
AecBase60
 90
      129
280
     0
281
     0
  0
CLASS
  1
AEC_DISP_PROPS_DISPLAYTHEME
  2
AecDbDispPropsDisplayTheme
  3
AecBase60
 90
      129
280
     0
281
     0
  0
CLASS
  1
AEC_DISP_REP_ENT_REF
  2
AecDbDispRepEntRef
  3
AecBase60
 90
      129
280
     0
281
     0
  0
CLASS
  1
AEC_DISP_PROPS_ENT_REF
  2
AecDbDispPropsEntRef
  3
AecBase60
 90
      129
280
     0
281
     0
  0
CLASS
  1
AEC_DISP_REP_LAYOUT_CURVE
  2
AecDbDispRepLayoutCurve
  3
AecBase60
 90
      129
280
     0
281
     0
  0
CLASS
  1
AEC_DISP_PROPS_LAYOUT_CURVE
  2
AecDbDispPropsLayoutCurve
  3
AecBase60
 90
      129
280
     0
281
     0
  0
CLASS
  1
AEC_DISP_REP_LAYOUT_GRID2D
  2
AecDbDispRepLayoutGrid2d
  3
AecBase60
 90
      129
280
     0
281
     0
  0
CLASS
  1
AEC_DISP_PROPS_LAYOUT_GRID2D
  2
AecDbDispPropsLayoutGrid2d
  3
AecBase60
 90
      129
280
     0
281
     0
  0
CLASS
  1
AEC_DISP_REP_LAYOUT_GRID3D
  2
AecDbDispRepLayoutGrid3d
  3
AecBase60
 90
      129
280
     0
281
     0
  0
CLASS
  1
AEC_DISP_PROPS_LAYOUT_GRID3D
  2
AecDbDispPropsLayoutGrid3d
  3
AecBase60
 90
      129
280
     0
281
     0
  0
CLASS
  1
AEC_DISP_REP_MASKBLOCK_REF
  2
AecDbDispRepMaskBlockRef
  3
AecBase60
 90
      129
280
     0
281
     0
  0
CLASS
  1
AEC_DISP_PROPS_MASKBLOCK
  2
AecDbDispPropsMaskBlock
  3
AecBase60
 90
      129
280
     0
281
     0
  0
CLASS
  1
AEC_DISP_REP_MASKBLOCK_REF_RCP
  2
AecDbDispRepMaskBlockRefRcp
  3
AecArchBase60
 90
      129
280
     0
281
     0
  0
CLASS
  1
AEC_DISP_REP_MASS_ELEM_MODEL
  2
AecDbDispRepMassElemModel
  3
AecBase60
 90
      129
280
     0
281
     0
  0
CLASS
  1
AEC_DISP_PROPS_MASS_ELEM_MODEL
  2
AecDbDispPropsMassElem
  3
AecBase60
 90
      129
280
     0
281
     0
  0
CLASS
  1
AEC_DISP_REP_MASS_ELEM_SCHEM
  2
AecDbDispRepMassElemSchem
  3
AecBase60
 90
      129
280
     0
281
     0
  0
CLASS
  1
AEC_DISPREPAECDBDISPREPMASSELEMPLAN50
  2
AecDbDispRepMassElemPlan50
  3
AecArchDACHBase60
 90
      129
280
     0
281
     0
  0
CLASS
  1
AEC_DISPROPSMASSELEMPLANCOMMON
  2
AecDbDispPropsMassElemPlanCommon
  3
AecArchDACHBase60
 90
      129
280
     0
281
     0
  0
CLASS
  1
AEC_DISPREPAECDBDISPREPMASSELEMPLAN100
  2
AecDbDispRepMassElemPlan100
  3
AecArchDACHBase60
 90
      129
280
     0
281
     0
  0
CLASS
  1
AEC_DISP_REP_MASS_ELEM_RCP
  2
AecDbDispRepMassElemRcp
  3
AecArchBase60
 90
      129
280
     0
281
     0
  0
CLASS
  1
AEC_DISP_REP_MASS_GROUP_MODEL
  2
AecDbDispRepMassGroupModel
  3
AecBase60
 90
      129
280
     0
281
     0
  0
CLASS
  1
AEC_DISP_PROPS_MASS_GROUP
  2
AecDbDispPropsMassGroup
  3
AecBase60
 90
      129
280
     0
281
     0
  0
CLASS
  1
AEC_DISP_REP_MASS_GROUP_PLAN
  2
AecDbDispRepMassGroupPlan
  3
AecBase60
 90
      129
280
     0
281
     0
  0
CLASS
  1
AEC_DISPREPAECDBDISPREPMASSGROUPPLAN50
  2
AecDbDispRepMassGroupPlan50
  3
AecArchDACHBase60
 90
      129
280
     0
281
     0
  0
CLASS
  1
AEC_DISPROPSMASSGROUPPLANCOMMON
  2
AecDbDispPropsMassGroupPlanCommon
  3
AecArchDACHBase60
 90
      129
280
     0
281
     0
  0
CLASS
  1
AEC_DISPREPAECDBDISPREPMASSGROUPPLAN100
  2
AecDbDispRepMassGroupPlan100
  3
AecArchDACHBase60
 90
      129
280
     0
281
     0
  0
CLASS
  1
AEC_DISP_REP_MASS_GROUP_RCP
  2
AecDbDispRepMassGroupRcp
  3
AecArchBase60
 90
      129
280
     0
281
     0
  0
CLASS
  1
AEC_DISP_REP_MVBLOCK_REF
  2
AecDbDispRepMvBlockRef
  3
AecBase60
 90
      129
280
     0
281
     0
  0
CLASS
  1
AEC_DISP_REP_MVBLOCK_REF_MODEL
  2
AecDbDispRepMvBlockRefModel
  3
AecBase60
 90
      129
280
     0
281
     0
  0
CLASS
  1
AEC_AECDBDISPREPMVBLOCKREFPLAN100
  2
AecDbDispRepMvBlockRefPlan100
  3
AecBase60
 90
      129
280
     0
281
     0
  0
CLASS
  1
AEC_AECDBDISPREPMVBLOCKREFPLAN50
  2
AecDbDispRepMvBlockRefPlan50
  3
AecBase60
 90
      129
280
     0
281
     0
  0
CLASS
  1
AEC_DISP_REP_POLYGON_MODEL
  2
AecDbDispRepPolygonModel
  3
AecBase60
 90
      129
280
     0
281
     0
  0
CLASS
  1
AEC_DISP_PROPS_POLYGON_MODEL
  2
AecDbDispPropsPolygonModel
  3
AecBase60
 90
      129
280
     0
281
     0
  0
CLASS
  1
AEC_DISP_REP_POLYGON_TRUECOLOUR
  2
AecDbDispRepPolygonTrueColour
  3
AecBase60
 90
      129
280
     0
281
     0
  0
CLASS
  1
AEC_DISP_PROPS_POLYGON_TRUECOLOUR
  2
AecDbDispPropsPolygonTrueColour
  3
AecBase60
 90
      129
280
     0
281
     0
  0
CLASS
  1
AEC_DISP_REP_SLICE
  2
AecDbDispRepSlice
  3
AecBase60
 90
      129
280
     0
281
     0
  0
CLASS
  1
AEC_DISP_PROPS_SLICE
  2
AecDbDispPropsSlice
  3
AecBase60
 90
      129
280
     0
281
     0
  0
CLASS
  1
AEC_DISP_REP_ANCHOR
  2
AecDbDispRepAnchor
  3
AecBase60
 90
      129
280
     0
281
     0
  0
CLASS
  1
AEC_DISP_REP_ANCHOR_ENT_TO_NODE
  2
AecDbDispRepAnchorEntToNode
  3
AecBase60
 90
      129
280
     0
281
     0
  0
CLASS
  1
AEC_DISP_PROPS_ENT
  2
AecDbDispPropsEnt
  3
AecBase60
 90
      129
280
     0
281
     0
  0
CLASS
  1
AEC_DISP_REP_MATERIAL
  2
AecDbDispRepMaterial
  3
AecBase60
 90
      129
280
     0
281
     0
  0
CLASS
  1
AEC_DISP_PROPS_MATERIAL
  2
AecDbDispPropsMaterial
  3
AecBase60
 90
      129
280
     0
281
     0
  0
CLASS
  1
AEC_DISP_REP_EDITINPLACEPROFILE
  2
AecDbDispRepEditInPlaceProfile
  3
AecBase60
 90
      129
280
     0
281
     0
  0
CLASS
  1
AEC_DISP_PROPS_EDITINPLACEPROFILE_MODEL
  2
AecDbDispPropsEditInPlaceProfile
  3
AecBase60
 90
      129
280
     0
281
     0
  0
CLASS
  1
SUN
  2
AcDbSun
  3
SCENEOE
 90
     1153
280
     0
281
     0
  0
ENDSEC
  0
SECTION
  2
TABLES
  0
TABLE
  2
VPORT
  5
8
330
0
100
AcDbSymbolTable
 70
     1
  0
VPORT
  5
1DA35
330
8
100
AcDbSymbolTableRecord
100
AcDbViewportTableRecord
  2
*Active
 70
     0
 10
0.0
 20
0.0
 11
1.0
 21
1.0
 12
-1857.137492451938
 22
949.9078713675019
 13
0.0
 23
0.0
 14
1.0
 24
1.0
 15
20.0
 25
20.0
 16
0.0
 26
0.0
 36
1.0
 17
0.0
 27
0.0
 37
0.0
 40
146.5727414742782
 41
1.731829573934837
 42
50.0
 43
0.0
 44
0.0
 50
0.0
 51
0.0
 71
    16
 72
  2000
 73
     1
 74
     0
 75
     0
 76
     0
 77
     0
 78
     1
281
     0
 65
     1
110
0.0
120
0.0
130
0.0
111
1.0
121
0.0
131
0.0
112
0.0
122
1.0
132
0.0
 79
     0
146
0.0
  0
ENDTAB
  0
TABLE
  2
LTYPE
  5
5
330
0
100
AcDbSymbolTable
 70
     5
  0
LTYPE
  5
12
330
5
100
AcDbSymbolTableRecord
100
AcDbLinetypeTableRecord
  2
BYBLOCK
 70
     0
  3

 72
    65
 73
     0
 40
0.0
  0
LTYPE
  5
13
330
5
100
AcDbSymbolTableRecord
100
AcDbLinetypeTableRecord
  2
BYLAYER
 70
     0
  3

 72
    65
 73
     0
 40
0.0
  0
LTYPE
  5
14
330
5
100
AcDbSymbolTableRecord
100
AcDbLinetypeTableRecord
  2
CONTINUOUS
 70
     0
  3
Solid line
 72
    65
 73
     0
 40
0.0
  0
LTYPE
  5
3D
330
5
100
AcDbSymbolTableRecord
100
AcDbLinetypeTableRecord
  2
PHANTOM
 70
     0
  3
_____ _ _ _____ _ _ _____ _ _ _____ _ _ ____
 72
    65
 73
     6
 40
2.5
 49
1.25
 74
     0
 49
-0.25
 74
     0
 49
0.25
 74
     0
 49
-0.25
 74
     0
 49
0.25
 74
     0
 49
-0.25
 74
     0
  0
LTYPE
  5
40D2
330
5
100
AcDbSymbolTableRecord
100
AcDbLinetypeTableRecord
  2
CENTER
 70
     0
  3
____ _ ____ _ ____ _ ____ _ ____ _ ____ _ ____ 
 72
    65
 73
     4
 40
2.0
 49
1.25
 74
     0
 49
-0.25
 74
     0
 49
0.25
 74
     0
 49
-0.25
 74
     0
  0
LTYPE
  5
A244
330
5
100
AcDbSymbolTableRecord
100
AcDbLinetypeTableRecord
  2
HIDDEN
 70
     0
  3
_ _ _ _ _ _ _ _ _ _ _ _ _ _ _ _ _ _ _ _ _ _ _
 72
    65
 73
     2
 40
0.375
 49
0.25
 74
     0
 49
-0.125
 74
     0
  0
ENDTAB
  0
TABLE
  2
LAYER
  5
2
102
{ACAD_XDICTIONARY
360
189BB
102
}
330
0
100
AcDbSymbolTable
 70
    32
  0
LAYER
  5
F
102
{ACAD_XDICTIONARY
360
171F1
102
}
330
2
100
AcDbSymbolTableRecord
100
AcDbLayerTableRecord
  2
0
 70
     0
 62
     7
  6
CONTINUOUS
370
    -3
390
40CA
  0
LAYER
  5
4C
102
{ACAD_XDICTIONARY
360
171F9
102
}
330
2
100
AcDbSymbolTableRecord
100
AcDbLayerTableRecord
  2
寸法線
 70
     0
 62
     7
  6
CONTINUOUS
370
    -3
390
40CA
  0
LAYER
  5
4D
102
{ACAD_XDICTIONARY
360
171FB
102
}
330
2
100
AcDbSymbolTableRecord
100
AcDbLayerTableRecord
  2
姿図
 70
     0
 62
     8
  6
CONTINUOUS
370
    -3
390
40CA
  0
LAYER
  5
40D4
102
{ACAD_XDICTIONARY
360
171FF
102
}
330
2
100
AcDbSymbolTableRecord
100
AcDbLayerTableRecord
  2
文字
 70
     0
 62
     7
  6
CONTINUOUS
370
    -3
390
40CA
  0
ENDTAB
  0
TABLE
  2
STYLE
  5
3
330
0
100
AcDbSymbolTable
 70
     1
  0
STYLE
  5
10
330
3
100
AcDbSymbolTableRecord
100
AcDbTextStyleTableRecord
  2
STANDARD
 70
     0
 40
0.0
 41
1.0
 50
0.0
 71
     0
 42
6.0
  3
MONOTXT
  4
BIGFONT
  0
ENDTAB
  0
TABLE
  2
VIEW
  5
6
330
0
100
AcDbSymbolTable
 70
     1
  0
VIEW
  5
41
330
6
100
AcDbSymbolTableRecord
100
AcDbViewTableRecord
  2
CUT1
 70
     0
 40
612.7795527156796
 10
420.0000000000169
 20
306.3897763578398
 41
840.0000000000338
 11
0.0
 21
0.0
 31
1.0
 12
0.0
 22
0.0
 32
0.0
 42
50.0
 43
0.0
 44
0.0
 50
0.0
 71
     0
281
     0
 72
     0
  0
ENDTAB
  0
TABLE
  2
UCS
  5
7
330
0
100
AcDbSymbolTable
 70
     0
  0
ENDTAB
  0
TABLE
  2
APPID
  5
9
330
0
100
AcDbSymbolTable
 70
    12
  0
APPID
  5
11
330
9
100
AcDbSymbolTableRecord
100
AcDbRegAppTableRecord
  2
ACAD
 70
     0
  0
APPID
  5
171ED
330
9
100
AcDbSymbolTableRecord
100
AcDbRegAppTableRecord
  2
ACAD_MLEADERVER
 70
     0
  0
APPID
  5
189B7
330
9
100
AcDbSymbolTableRecord
100
AcDbRegAppTableRecord
  2
ACAD_PSEXT
 70
     0
  0
APPID
  5
189B8
330
9
100
AcDbSymbolTableRecord
100
AcDbRegAppTableRecord
  2
AcadAnnotative
 70
     0
  0
APPID
  5
189B9
330
9
100
AcDbSymbolTableRecord
100
AcDbRegAppTableRecord
  2
ACAD_DSTYLE_DIMJAG
 70
     0
  0
APPID
  5
189BA
330
9
100
AcDbSymbolTableRecord
100
AcDbRegAppTableRecord
  2
ACAD_DSTYLE_DIMTALN
 70
     0
  0
APPID
  5
189CC
330
9
100
AcDbSymbolTableRecord
100
AcDbRegAppTableRecord
  2
ACAD_EXEMPT_FROM_CAD_STANDARDS
 70
     0
  0
APPID
  5
19683
330
9
100
AcDbSymbolTableRecord
100
AcDbRegAppTableRecord
  2
ASK_MEN_XD
 70
     0
  0
APPID
  5
1B19E
330
9
100
AcDbSymbolTableRecord
100
AcDbRegAppTableRecord
  2
AcAecLayerStandard
 70
     0
  0
APPID
  5
1DA51
330
9
100
AcDbSymbolTableRecord
100
AcDbRegAppTableRecord
  2
AECBASE
 70
     0
  0
APPID
  5
1DA52
330
9
100
AcDbSymbolTableRecord
100
AcDbRegAppTableRecord
  2
AEC_2DSECTION_XDATA
 70
     0
  0
APPID
  5
1DA53
330
9
100
AcDbSymbolTableRecord
100
AcDbRegAppTableRecord
  2
AEC_MASSGROUP_XDADA
 70
     0
  0
ENDTAB
  0
TABLE
  2
DIMSTYLE
  5
A
330
0
100
AcDbSymbolTable
 70
     2
100
AcDbDimStyleTable
  0
DIMSTYLE
105
1B3A
330
A
100
AcDbSymbolTableRecord
100
AcDbDimStyleTableRecord
  2
STANDARD
 70
     0
 41
4.0
 42
3.0
 43
7.149999999999999
 44
2.0
 73
     0
 74
     0
 77
     3
 78
     8
 79
     2
140
5.0
141
0.0
147
2.0
178
     0
179
     2
271
     2
272
     2
288
     1
340
10
341
49C3
342
49C3
  0
ENDTAB
  0
TABLE
  2
BLOCK_RECORD
  5
1
330
0
100
AcDbSymbolTable
 70
    24
  0
BLOCK_RECORD
  5
18
330
1
100
AcDbSymbolTableRecord
100
AcDbBlockTableRecord
  2
*MODEL_SPACE
340
40CD
  0
BLOCK_RECORD
  5
15
330
1
100
AcDbSymbolTableRecord
100
AcDbBlockTableRecord
  2
*PAPER_SPACE
340
40CE
  0
BLOCK_RECORD
  5
49C3
330
1
100
AcDbSymbolTableRecord
100
AcDbBlockTableRecord
  2
_OPEN
340
0
102
{BLKREFS
331
1CDD2
331
1CDD3
331
1CDDB
331
1CDDC
331
1CDE4
331
1CDE5
331
1CDED
331
1CDEE
331
1CDF6
331
1CDF7
331
1CE00
331
1CE01
331
1CE09
331
1CE0A
331
1CE12
331
1CE13
331
1CE1B
331
1CE1C
331
1CE24
331
1CE25
331
1D9D3
331
1D9D4
331
1D9DC
331
1D9DD
331
1D9E5
331
1D9E6
331
1D9EE
331
1D9EF
331
1D9F7
331
1D9F8
331
1DA00
331
1DA01
331
1DA09
331
1DA0A
331
1DA12
331
1DA13
331
1DA1B
331
1DA1C
331
1DA24
331
1DA25
102
}
  0
BLOCK_RECORD
  5
FD36
330
1
100
AcDbSymbolTableRecord
100
AcDbBlockTableRecord
  2
_Open30
340
0
  0
ENDTAB
  0
ENDSEC
  0
SECTION
  2
BLOCKS
  0
BLOCK
  5
52
330
18
100
AcDbEntity
  8
0
100
AcDbBlockBegin
  2
*MODEL_SPACE
 70
     0
 10
0.0
 20
0.0
 30
0.0
  3
*MODEL_SPACE
  1
*MODEL_SPACE
  0
ENDBLK
  5
53
330
18
100
AcDbEntity
  8
0
100
AcDbBlockEnd
  0
BLOCK
  5
50
330
15
100
AcDbEntity
 67
     1
  8
0
100
AcDbBlockBegin
  2
*PAPER_SPACE
 70
     0
 10
0.0
 20
0.0
 30
0.0
  3
*PAPER_SPACE
  1
*PAPER_SPACE
  0
ENDBLK
  5
51
330
15
100
AcDbEntity
 67
     1
  8
0
100
AcDbBlockEnd
  0
BLOCK
  5
49C7
330
49C3
100
AcDbEntity
  8
0
100
AcDbBlockBegin
  2
_OPEN
 70
     0
 10
0.0
 20
0.0
 30
0.0
  3
_OPEN
  1
_OPEN
  0
LINE
  5
49C4
330
49C3
100
AcDbEntity
  8
0
  6
ByBlock
 62
     0
100
AcDbLine
 10
-1.0
 20
0.1666666666666667
 30
0.0
 11
0.0
 21
0.0
 31
0.0
  0
LINE
  5
49C5
330
49C3
100
AcDbEntity
  8
0
  6
ByBlock
 62
     0
100
AcDbLine
 10
0.0
 20
0.0
 30
0.0
 11
-1.0
 21
-0.1666666666666667
 31
0.0
  0
LINE
  5
49C6
330
49C3
100
AcDbEntity
  8
0
  6
ByBlock
 62
     0
100
AcDbLine
 10
0.0
 20
0.0
 30
0.0
 11
-1.0
 21
0.0
 31
0.0
  0
ENDBLK
  5
49C8
330
49C3
100
AcDbEntity
  8
0
100
AcDbBlockEnd
  0
BLOCK
  5
FD3A
330
FD36
100
AcDbEntity
  8
0
100
AcDbBlockBegin
  2
_Open30
 70
     0
 10
0.0
 20
0.0
 30
0.0
  3
_Open30
  1
_Open30
  0
LINE
  5
FD37
330
FD36
100
AcDbEntity
  8
寸法線
 62
     0
370
    -2
100
AcDbLine
 10
-1.0
 20
0.26794919
 30
0.0
 11
0.0
 21
0.0
 31
0.0
  0
LINE
  5
FD38
330
FD36
100
AcDbEntity
  8
寸法線
 62
     0
370
    -2
100
AcDbLine
 10
0.0
 20
0.0
 30
0.0
 11
-1.0
 21
-0.26794919
 31
0.0
  0
LINE
  5
FD39
330
FD36
100
AcDbEntity
  8
寸法線
 62
     0
370
    -2
100
AcDbLine
 10
0.0
 20
0.0
 30
0.0
 11
-1.0
 21
0.0
 31
0.0
  0
ENDBLK
  5
FD3B
330
FD36
100
AcDbEntity
  8
0
100
AcDbBlockEnd
  0
ENDSEC
  0
SECTION
  2
ENTITIES
  0
LINE
  5
1D79F
330
18
100
AcDbEntity
  8
姿図
100
AcDbLine
 10
-1901.784210354492
 20
1010.19939669102
 30
-0.0000000000000029
 11
-1806.662020575763
 21
1010.433687798849
 31
-0.0000000000000029
  0
LINE
  5
1D7A0
330
18
100
AcDbEntity
  8
姿図
100
AcDbLine
 10
-1808.536349438397
 20
982.2406578233802
 30
-0.0000000000000029
 11
-1873.747374450909
 21
982.2406578233802
 31
-0.0000000000000029
  0
LINE
  5
1D7A1
330
18
100
AcDbEntity
  8
姿図
100
AcDbLine
 10
-1901.784210354492
 20
1010.19939669102
 30
-0.0000000000000029
 11
-1806.662020575763
 21
1010.433687798849
 31
-0.0000000000000029
  0
LINE
  5
1D7A2
330
18
100
AcDbEntity
  8
姿図
100
AcDbLine
 10
-1901.784210354492
 20
984.1930837219584
 30
-0.0000000000000029
 11
-1806.974408719535
 21
984.3492777938445
 31
-0.0000000000000029
  0
SPLINE
  5
1D7AA
330
18
100
AcDbEntity
  8
姿図
100
AcDbSpline
210
0.0
220
0.0
230
1.0
 70
    24
 71
     3
 72
     8
 73
     4
 74
     0
 42
0.000000001
 43
0.0000000001
 40
3.0
 40
3.0
 40
3.0
 40
3.0
 40
4.0
 40
4.0
 40
4.0
 40
4.0
 10
-1895.848835311519
 20
968.8079654702901
 30
-0.0000000000000029
 10
-1895.848835311519
 20
968.8079654702901
 30
-0.0000000000000029
 10
-1895.458350111324
 20
970.7603914712679
 30
-0.0000000000000029
 10
-1895.458350111324
 20
970.7603914712679
 30
-0.0000000000000029
  0
SPLINE
  5
1D7AB
330
18
100
AcDbEntity
  8
姿図
100
AcDbSpline
210
0.0
220
0.0
230
1.0
 70
     8
 71
     3
 72
    11
 73
     7
 74
     0
 42
0.000000001
 43
0.0000000001
 40
22.0
 40
22.0
 40
22.0
 40
22.0
 40
23.0
 40
23.0
 40
23.0
 40
24.0
 40
24.0
 40
24.0
 40
24.0
 10
-1869.608231545923
 20
942.5673635642711
 30
-0.0000000000000029
 10
-1869.608231545923
 20
942.5673635642711
 30
-0.0000000000000029
 10
-1869.764425617809
 20
944.3635953909632
 30
-0.0000000000000029
 10
-1870.233007833469
 20
947.1750886849156
 30
-0.0000000000000029
 10
-1870.701590049127
 20
949.9865819788683
 30
-0.0000000000000029
 10
-1874.450247774397
 20
971.6975579710579
 30
-0.0000000000000029
 10
-1874.450247774397
 20
971.6975579710579
 30
-0.0000000000000029
  0
SPLINE
  5
1D7AC
330
18
100
AcDbEntity
  8
姿図
100
AcDbSpline
210
0.0
220
0.0
230
1.0
 70
    24
 71
     3
 72
     8
 73
     4
 74
     0
 42
0.000000001
 43
0.0000000001
 40
17.0
 40
17.0
 40
17.0
 40
17.0
 40
18.0
 40
18.0
 40
18.0
 40
18.0
 10
-1883.197115800027
 20
972.1661401867166
 30
-0.0000000000000029
 10
-1883.197115800027
 20
972.1661401867166
 30
-0.0000000000000029
 10
-1876.871255888635
 20
945.3788568582238
 30
-0.0000000000000029
 10
-1876.871255888635
 20
945.3788568582238
 30
-0.0000000000000029
  0
SPLINE
  5
1D7AD
330
18
100
AcDbEntity
  8
姿図
100
AcDbSpline
210
0.0
220
0.0
230
1.0
 70
    24
 71
     3
 72
     8
 73
     4
 74
     0
 42
0.000000001
 43
0.0000000001
 40
13.0
 40
13.0
 40
13.0
 40
13.0
 40
14.0
 40
14.0
 40
14.0
 40
14.0
 10
-1907.48529397834
 20
943.7388191034183
 30
-0.0000000000000029
 10
-1907.48529397834
 20
943.7388191034183
 30
-0.0000000000000029
 10
-1904.283315504672
 20
971.6194609351146
 30
-0.0000000000000029
 10
-1904.283315504672
 20
971.6194609351146
 30
-0.0000000000000029
  0
SPLINE
  5
1D7AE
330
18
100
AcDbEntity
  8
姿図
100
AcDbSpline
210
0.0
220
0.0
230
1.0
 70
    24
 71
     3
 72
     8
 73
     4
 74
     0
 42
0.000000001
 43
0.0000000001
 40
7.0
 40
7.0
 40
7.0
 40
7.0
 40
8.0
 40
8.0
 40
8.0
 40
8.0
 10
-1904.049024396843
 20
970.7603935397406
 30
-0.0000000000000029
 10
-1904.049024396843
 20
970.7603935397406
 30
-0.0000000000000029
 10
-1907.251002870512
 20
942.8797517080436
 30
-0.0000000000000029
 10
-1907.251002870512
 20
942.8797517080436
 30
-0.0000000000000029
  0
SPLINE
  5
1D7AF
330
18
100
AcDbEntity
  8
姿図
100
AcDbSpline
210
0.0
220
0.0
230
1.0
 70
    24
 71
     3
 72
     8
 73
     4
 74
     0
 42
0.000000001
 43
0.0000000001
 40
3.0
 40
3.0
 40
3.0
 40
3.0
 40
4.0
 40
4.0
 40
4.0
 40
4.0
 10
-1877.574129212123
 20
945.0664687144513
 30
-0.0000000000000029
 10
-1877.574129212123
 20
945.0664687144513
 30
-0.0000000000000029
 10
-1883.899989123515
 20
972.400431294546
 30
-0.0000000000000029
 10
-1883.899989123515
 20
972.400431294546
 30
-0.0000000000000029
  0
ARC
  5
1D7B0
330
18
100
AcDbEntity
  8
姿図
100
AcDbCircle
 10
-1864.955973642082
 20
935.2496197965925
 30
-0.0000000000000469
 40
17.96893218222434
100
AcDbArc
 50
288.098769154093
 51
336.7149368566637
  0
ELLIPSE
  5
1D7B1
330
18
100
AcDbEntity
  8
姿図
100
AcDbEllipse
 10
-1882.209739242016
 20
930.5063435338741
 30
0.0000000000000122
 11
-8.782634028036137
 21
20.33365511510165
 31
9.578754923987070E-16
210
-1.416612653055126E-17
220
4.098916711078758E-17
230
-1.0
 40
0.7212488145120733
 41
3.547863408263924
 42
6.141197072414585
  0
ELLIPSE
  5
1D7B2
330
18
100
AcDbEntity
  8
姿図
100
AcDbEllipse
 10
-1878.307244924074
 20
931.5885338751591
 30
0.0000000000000122
 11
-6.900221919832092
 21
20.49969497840945
 31
3.126716133318077E-16
210
-4.722042176850419E-18
220
1.366305570359587E-17
230
-1.0
 40
0.7210291192186224
 41
3.532257842056294
 42
5.995539524716962
  0
ELLIPSE
  5
1D7B3
330
18
100
AcDbEntity
  8
姿図
100
AcDbEllipse
 10
-1884.610997328764
 20
930.180922800012
 30
0.0000000000000122
 11
-7.785491283804456
 21
22.52703324251798
 31
6.891030564778096E-16
210
-9.444084353700805E-18
220
2.732611140719173E-17
230
-1.0
 40
0.7445887407027176
 41
1.383605537452026
 42
2.018796356135911
  0
ELLIPSE
  5
1D7B4
330
18
100
AcDbEntity
  8
姿図
100
AcDbEllipse
 10
-1884.849616677594
 20
929.9820816759743
 30
0.0000000000000122
 11
-7.785491283811407
 21
22.5270332425148
 31
6.891030564777884E-16
210
-9.444084353700820E-18
220
2.732611140719174E-17
230
-1.0
 40
0.7445887407027572
 41
1.406877266824791
 42
2.016282995373657
  0
ELLIPSE
  5
1D7B5
330
18
100
AcDbEntity
  8
姿図
100
AcDbEllipse
 10
-1883.914417929733
 20
930.4216652351674
 30
0.0000000000000122
 11
-7.575758609200028
 21
21.92017944734707
 31
2.011618106977203E-15
210
-2.833225306110254E-17
220
8.197833422157523E-17
230
-1.0
 40
0.7445887407027045
 41
3.636283805279216
 42
5.673615026346977
  0
ELLIPSE
  5
1D7B6
330
18
100
AcDbEntity
  8
姿図
100
AcDbEllipse
 10
-1880.573355456915
 20
931.2876639431788
 30
0.0000000000000122
 11
-7.467653954931868
 21
20.73347250863466
 31
1.911271000510566E-15
210
-2.833225306110238E-17
220
8.197833422157524E-17
230
-1.0
 40
0.7056022756696182
 41
3.486045950244565
 42
5.025651057886397
  0
ELLIPSE
  5
1D7B7
330
18
100
AcDbEntity
  8
姿図
100
AcDbEllipse
 10
-1877.53884422376
 20
931.7496930432494
 30
0.0000000000000122
 11
-7.269668263237191
 21
21.03451826716154
 31
3.217234749332501E-16
210
-4.722042176850395E-18
220
1.366305570359589E-17
230
-1.0
 40
0.7445887407027162
 41
4.327427167059564
 42
4.752891862258742
  0
ELLIPSE
  5
1D7B8
330
18
100
AcDbEntity
  8
姿図
100
AcDbEllipse
 10
-1880.719419046656
 20
931.0214080239982
 30
0.0000000000000122
 11
-8.099791832349286
 21
20.65280763581861
 31
6.408560396398034E-16
210
-9.444084353700845E-18
220
2.732611140719174E-17
230
-1.0
 40
0.7569365384830411
 41
3.552643368148173
 42
5.078668158851169
  0
LINE
  5
1D7B9
330
18
100
AcDbEntity
  8
姿図
100
AcDbLine
 10
-1869.410790568541
 20
925.3899985319686
 30
0.0000000000000047
 11
-1866.407261139227
 21
927.4450629835883
 31
0.0000000000000047
  0
LINE
  5
1D7BA
330
18
100
AcDbEntity
  8
姿図
100
AcDbLine
 10
-1869.423002184059
 20
926.4524090820371
 30
0.0000000000000047
 11
-1866.484612710147
 21
928.4629037001052
 31
0.0000000000000047
  0
LINE
  5
1D7BB
330
18
100
AcDbEntity
  8
姿図
100
AcDbLine
 10
-1879.579900232137
 20
930.3659054568366
 30
0.0000000000000047
 11
-1888.658960079633
 21
923.9332302357927
 31
0.0000000000000047
  0
LINE
  5
1D7BC
330
18
100
AcDbEntity
  8
姿図
100
AcDbLine
 10
-1853.661501756032
 20
924.2264341807338
 30
0.0000000000000015
 11
-1848.051653152348
 21
930.6256990563766
 31
0.0000000000000015
  0
LINE
  5
1D7BD
330
18
100
AcDbEntity
  8
姿図
100
AcDbLine
 10
-1853.287372538246
 20
923.5246479590942
 30
0.0000000000000015
 11
-1846.759190372431
 21
931.0067818428183
 31
0.0000000000000015
  0
ARC
  5
1D7BE
330
18
100
AcDbEntity
  8
姿図
100
AcDbCircle
 10
-1887.309460293746
 20
970.8623004167393
 30
-0.0000000000000098
 40
61.37473374111882
100
AcDbArc
 50
295.5277776018743
 51
323.3240679749485
  0
ELLIPSE
  5
1D7BF
330
18
100
AcDbEntity
  8
姿図
100
AcDbEllipse
 10
-1886.955008285149
 20
929.5620599897011
 30
0.0000000000000047
 11
-6.937461603419968
 21
21.97419206319639
 31
0.0
210
0.0
220
0.0
230
1.0
 40
0.666050893018021
 41
5.220687027987028
 42
9.866230696541642
  0
ELLIPSE
  5
1D7C0
330
18
100
AcDbEntity
  8
姿図
100
AcDbEllipse
 10
-1887.452806138082
 20
929.1987811304198
 30
0.0000000000000047
 11
-6.428959651347085
 21
20.36352807712814
 31
0.0
210
0.0
220
0.0
230
1.0
 40
0.6621621934316988
 41
5.101939741011732
 42
9.889744416407636
  0
SPLINE
  5
1D7C1
330
18
100
AcDbEntity
  8
姿図
100
AcDbSpline
210
0.0
220
0.0
230
1.0
 70
    24
 71
     3
 72
     8
 73
     4
 74
     0
 42
0.000000001
 43
0.0000000001
 40
21.0
 40
21.0
 40
21.0
 40
21.0
 40
22.0
 40
22.0
 40
22.0
 40
22.0
 10
-1869.295843402151
 20
915.3895950560627
 30
-0.0000000000000029
 10
-1869.295843402151
 20
915.3895950560627
 30
-0.0000000000000029
 10
-1869.608231545923
 20
942.5673635642711
 30
-0.0000000000000029
 10
-1869.608231545923
 20
942.5673635642711
 30
-0.0000000000000029
  0
SPLINE
  5
1D7C2
330
18
100
AcDbEntity
  8
姿図
100
AcDbSpline
210
0.0
220
0.0
230
1.0
 70
    24
 71
     3
 72
     8
 73
     4
 74
     0
 42
0.000000001
 43
0.0000000001
 40
18.0
 40
18.0
 40
18.0
 40
18.0
 40
19.0
 40
19.0
 40
19.0
 40
19.0
 10
-1876.871255888635
 20
945.3788568582238
 30
-0.0000000000000029
 10
-1876.871255888635
 20
945.3788568582238
 30
-0.0000000000000029
 10
-1875.855994421373
 20
915.07720691229
 30
-0.0000000000000029
 10
-1875.855994421373
 20
915.07720691229
 30
-0.0000000000000029
  0
SPLINE
  5
1D7C3
330
18
100
AcDbEntity
  8
姿図
100
AcDbSpline
210
0.0
220
0.0
230
1.0
 70
    24
 71
     3
 72
     8
 73
     4
 74
     0
 42
0.000000001
 43
0.0000000001
 40
11.0
 40
11.0
 40
11.0
 40
11.0
 40
12.0
 40
12.0
 40
12.0
 40
12.0
 10
-1906.391935475137
 20
915.7800802357783
 30
-0.0000000000000029
 10
-1906.391935475137
 20
915.7800802357783
 30
-0.0000000000000029
 10
-1907.563391014283
 20
939.9901613781481
 30
-0.0000000000000029
 10
-1907.563391014283
 20
939.9901613781481
 30
-0.0000000000000029
  0
SPLINE
  5
1D7C4
330
18
100
AcDbEntity
  8
姿図
100
AcDbSpline
210
0.0
220
0.0
230
1.0
 70
    24
 71
     3
 72
     8
 73
     4
 74
     0
 42
0.000000001
 43
0.0000000001
 40
8.0
 40
8.0
 40
8.0
 40
8.0
 40
9.0
 40
9.0
 40
9.0
 40
9.0
 10
-1907.251002870512
 20
942.8797517080436
 30
-0.0000000000000029
 10
-1907.251002870512
 20
942.8797517080436
 30
-0.0000000000000029
 10
-1906.079547331364
 20
915.8581772717214
 30
-0.0000000000000029
 10
-1906.079547331364
 20
915.8581772717214
 30
-0.0000000000000029
  0
SPLINE
  5
1D7C5
330
18
100
AcDbEntity
  8
姿図
100
AcDbSpline
210
0.0
220
0.0
230
1.0
 70
    24
 71
     3
 72
     8
 73
     4
 74
     0
 42
0.000000001
 43
0.0000000001
 40
2.0
 40
2.0
 40
2.0
 40
2.0
 40
3.0
 40
3.0
 40
3.0
 40
3.0
 10
-1876.636964780805
 20
919.4506409251053
 30
-0.0000000000000029
 10
-1876.636964780805
 20
919.4506409251053
 30
-0.0000000000000029
 10
-1877.574129212123
 20
945.0664687144513
 30
-0.0000000000000029
 10
-1877.574129212123
 20
945.0664687144513
 30
-0.0000000000000029
  0
SPLINE
  5
1D7C6
330
18
100
AcDbEntity
  8
姿図
100
AcDbSpline
210
0.0
220
0.0
230
1.0
 70
    24
 71
     3
 72
     8
 73
     4
 74
     0
 42
0.000000001
 43
0.0000000001
 40
7.0
 40
7.0
 40
7.0
 40
7.0
 40
8.0
 40
8.0
 40
8.0
 40
8.0
 10
-1846.569605942701
 20
931.4775844603471
 30
-0.0000000000000029
 10
-1846.569605942701
 20
931.4775844603471
 30
-0.0000000000000029
 10
-1856.487929507478
 20
925.7765008364986
 30
-0.0000000000000029
 10
-1856.487929507478
 20
925.7765008364986
 30
-0.0000000000000029
  0
SPLINE
  5
1D7C7
330
18
100
AcDbEntity
  8
姿図
100
AcDbSpline
210
0.0
220
0.0
230
1.0
 70
    24
 71
     3
 72
     8
 73
     4
 74
     0
 42
0.000000001
 43
0.0000000001
 40
0.0
 40
0.0
 40
0.0
 40
0.0
 40
1.0
 40
1.0
 40
1.0
 40
1.0
 10
-1869.452037474037
 20
923.667880866034
 30
-0.0000000000000029
 10
-1869.452037474037
 20
923.667880866034
 30
-0.0000000000000029
 10
-1861.173751664065
 20
928.5879941304513
 30
-0.0000000000000029
 10
-1861.173751664065
 20
928.5879941304513
 30
-0.0000000000000029
  0
SPLINE
  5
1D7C8
330
18
100
AcDbEntity
  8
姿図
100
AcDbSpline
210
0.0
220
0.0
230
1.0
 70
    24
 71
     3
 72
     8
 73
     4
 74
     0
 42
0.000000001
 43
0.0000000001
 40
0.0
 40
0.0
 40
0.0
 40
0.0
 40
1.0
 40
1.0
 40
1.0
 40
1.0
 10
-1869.217746366207
 20
922.7307164347167
 30
-0.0000000000000029
 10
-1869.217746366207
 20
922.7307164347167
 30
-0.0000000000000029
 10
-1860.939460556237
 20
927.963217842906
 30
-0.0000000000000029
 10
-1860.939460556237
 20
927.963217842906
 30
-0.0000000000000029
  0
LINE
  5
1D7C9
330
18
100
AcDbEntity
  8
姿図
100
AcDbLine
 10
-1860.236587232748
 20
928.4318000585649
 30
-0.0000000000000029
 11
-1858.28416133417
 21
919.997320176707
 31
-0.0000000000000029
  0
LINE
  5
1D7CA
330
18
100
AcDbEntity
  8
姿図
100
AcDbLine
 10
-1858.908937621715
 20
932.8833311073233
 30
-0.0000000000000029
 11
-1856.878414687193
 21
925.1517245489536
 31
-0.0000000000000029
  0
ELLIPSE
  5
1D7CB
330
18
100
AcDbEntity
  8
姿図
100
AcDbEllipse
 10
-1877.53884422376
 20
931.7496930432494
 30
0.0000000000000122
 11
-7.076747441567131
 21
21.06196860247864
 31
1.605937750685256E-15
210
-2.361021088425220E-17
220
6.831527851797932E-17
230
-1.0
 40
0.743030257957332
 41
3.587432645584934
 42
4.013845773911598
  0
ARC
  5
1D7CC
330
18
100
AcDbEntity
  8
姿図
100
AcDbCircle
 10
-1881.145406897675
 20
922.9498670964504
 30
-0.0000000000000005
 40
16.02423187352383
100
AcDbArc
 50
261.170963557381
 51
272.511078902128
  0
LINE
  5
1D7CD
330
18
100
AcDbEntity
  8
姿図
100
AcDbLine
 10
-1884.971978071329
 20
914.1780299390953
 30
0.0000000000000112
 11
-1885.86393817973
 21
913.3941162707752
 31
0.0000000000000116
  0
LINE
  5
1D7CE
330
18
100
AcDbEntity
  8
姿図
100
AcDbLine
 10
-1889.324713504409
 20
918.833974929867
 30
0.0000000000000122
 11
-1890.144217205593
 21
917.687486165687
 31
0.0000000000000119
  0
ELLIPSE
  5
1D7CF
330
18
100
AcDbEntity
  8
姿図
100
AcDbEllipse
 10
-1849.50780067409
 20
956.9581151503321
 30
0.0000000000000129
 11
37.53014058012429
 21
42.59572841134379
 31
1.214306709890880E-15
210
-1.416612653055122E-17
220
4.098916711078764E-17
230
-1.0
 40
0.6410056557819603
 41
3.099784278963576
 42
3.266368125798957
  0
SPLINE
  5
1D7D0
330
18
100
AcDbEntity
  8
姿図
100
AcDbSpline
210
0.0
220
0.0
230
1.0
 70
     8
 71
     3
 72
     8
 73
     4
 74
     0
 42
0.000000001
 43
0.0000000001
 40
10.0
 40
10.0
 40
10.0
 40
10.0
 40
11.0
 40
11.0
 40
11.0
 40
11.0
 10
-1902.72137478581
 20
913.9057513731432
 30
-0.0000000000000029
 10
-1902.72137478581
 20
913.9057513731432
 30
-0.0000000000000029
 10
-1905.142382900047
 20
912.8904899058825
 30
-0.0000000000000029
 10
-1906.391935475137
 20
915.7800802357783
 30
-0.0000000000000029
  0
SPLINE
  5
1D7D1
330
18
100
AcDbEntity
  8
姿図
100
AcDbSpline
210
0.0
220
0.0
230
1.0
 70
     8
 71
     3
 72
     8
 73
     4
 74
     0
 42
0.000000001
 43
0.0000000001
 40
9.0
 40
9.0
 40
9.0
 40
9.0
 40
10.0
 40
10.0
 40
10.0
 40
10.0
 10
-1906.079547331364
 20
915.8581772717214
 30
-0.0000000000000029
 10
-1906.079547331364
 20
915.8581772717214
 30
-0.0000000000000029
 10
-1905.142382900047
 20
913.5152661934276
 30
-0.0000000000000029
 10
-1902.72137478581
 20
913.9057513731432
 30
-0.0000000000000029
  0
SPLINE
  5
1D7D2
330
18
100
AcDbEntity
  8
姿図
100
AcDbSpline
210
0.0
220
0.0
230
1.0
 70
    24
 71
     3
 72
     8
 73
     4
 74
     0
 42
0.000000001
 43
0.0000000001
 40
3.0
 40
3.0
 40
3.0
 40
3.0
 40
3.42326059421441
 40
3.42326059421441
 40
3.42326059421441
 40
3.42326059421441
 10
-1902.95566589364
 20
921.168775715854
 30
-0.0000000000000029
 10
-1902.95566589364
 20
921.168775715854
 30
-0.0000000000000029
 10
-1901.794408965116
 20
921.4905698044813
 30
-0.0000000000000029
 10
-1900.454923703272
 20
921.8617524674014
 30
-0.0000000000000029
  0
SPLINE
  5
1D7D3
330
18
100
AcDbEntity
  8
姿図
100
AcDbSpline
210
0.0
220
0.0
230
1.0
 70
     8
 71
     3
 72
    11
 73
     7
 74
     0
 42
0.000000001
 43
0.0000000001
 40
1.0
 40
1.0
 40
1.0
 40
1.0
 40
2.0
 40
2.0
 40
2.0
 40
3.0
 40
3.0
 40
3.0
 40
3.0
 10
-1902.72137478581
 20
913.9057513731432
 30
-0.0000000000000029
 10
-1902.72137478581
 20
913.9057513731432
 30
-0.0000000000000029
 10
-1905.298576971933
 20
913.9057513731432
 30
-0.0000000000000029
 10
-1905.532868079762
 20
917.0296328108684
 30
-0.0000000000000029
 10
-1905.767159187591
 20
920.1535142485934
 30
-0.0000000000000029
 10
-1904.205218468729
 20
921.0125816439679
 30
-0.0000000000000029
 10
-1902.95566589364
 20
921.168775715854
 30
-0.0000000000000029
  0
SPLINE
  5
1D7D4
330
18
100
AcDbEntity
  8
姿図
100
AcDbSpline
210
0.0
220
0.0
230
1.0
 70
    24
 71
     3
 72
     8
 73
     4
 74
     0
 42
0.000000001
 43
0.0000000001
 40
0.1737925465413257
 40
0.1737925465413257
 40
0.1737925465413257
 40
0.1737925465413257
 40
1.0
 40
1.0
 40
1.0
 40
1.0
 10
-1897.117820686337
 20
915.8454431768068
 30
-0.0000000000000029
 10
-1898.563155666115
 20
915.3451349145762
 30
-0.0000000000000029
 10
-1902.72137478581
 20
913.9057513731432
 30
-0.0000000000000029
 10
-1902.72137478581
 20
913.9057513731432
 30
-0.0000000000000029
  0
SPLINE
  5
1D7D5
330
18
100
AcDbEntity
  8
姿図
100
AcDbSpline
210
0.0
220
0.0
230
1.0
 70
    24
 71
     3
 72
     8
 73
     4
 74
     0
 42
0.000000001
 43
0.0000000001
 40
1.0
 40
1.0
 40
1.0
 40
1.0
 40
1.489882178085727
 40
1.489882178085727
 40
1.489882178085727
 40
1.489882178085727
 10
-1904.205218468729
 20
921.168775715854
 30
-0.0000000000000029
 10
-1904.205218468729
 20
921.168775715854
 30
-0.0000000000000029
 10
-1902.424720687976
 20
921.6935540091285
 30
-0.0000000000000029
 10
-1900.608193388295
 20
922.2289515290347
 30
-0.0000000000000029
  0
SPLINE
  5
1D7D6
330
18
100
AcDbEntity
  8
姿図
100
AcDbSpline
210
0.0
220
0.0
230
1.0
 70
     8
 71
     3
 72
     8
 73
     4
 74
     0
 42
0.000000001
 43
0.0000000001
 40
0.0
 40
0.0
 40
0.0
 40
0.0
 40
1.0
 40
1.0
 40
1.0
 40
1.0
 10
-1906.23574140325
 20
918.3572824219016
 30
-0.0000000000000029
 10
-1906.23574140325
 20
918.3572824219016
 30
-0.0000000000000029
 10
-1906.079547331364
 20
920.6220964642521
 30
-0.0000000000000029
 10
-1904.205218468729
 20
921.168775715854
 30
-0.0000000000000029
  0
ELLIPSE
  5
1D7D7
330
18
100
AcDbEntity
  8
姿図
100
AcDbEllipse
 10
-1881.475712155509
 20
931.2644980371876
 30
0.0000000000000122
 11
-7.045201340153929
 21
20.38503146907588
 31
3.117895583541485E-16
210
-4.722042176850432E-18
220
1.366305570359587E-17
230
-1.0
 40
0.7445887406479537
 41
3.384599285846378
 42
3.389850225848271
  0
ELLIPSE
  5
1D7D8
330
18
100
AcDbEntity
  8
姿図
100
AcDbEllipse
 10
-1884.617747109706
 20
930.1785900311943
 30
0.0000000000000122
 11
-7.784882683170223
 21
22.52533232295922
 31
6.890508292847254E-16
210
-9.444084353700782E-18
220
2.732611140719176E-17
230
-1.0
 40
0.7445878090676588
 41
3.329003987917414
 42
3.329225720040131
  0
ELLIPSE
  5
1D7D9
330
18
100
AcDbEntity
  8
姿図
100
AcDbEllipse
 10
-1884.727319854475
 20
930.1407209678282
 30
0.0000000000000122
 11
-7.775258095634674
 21
22.49742388584492
 31
1.376394609612767E-15
210
-1.888816870740163E-17
220
5.465222281438344E-17
230
-1.0
 40
0.7445887407386321
 41
3.32761543422472
 42
3.342055807969123
  0
ELLIPSE
  5
1D7DA
330
18
100
AcDbEntity
  8
姿図
100
AcDbEllipse
 10
-1884.610997328764
 20
930.180922800012
 30
0.0000000000000122
 11
-7.785491283804456
 21
22.52703324251798
 31
6.891030564778096E-16
210
-9.444084353700805E-18
220
2.732611140719173E-17
230
-1.0
 40
0.7445887407027176
 41
2.770077853063348
 42
3.301632058444413
  0
ELLIPSE
  5
1D7DB
330
18
100
AcDbEntity
  8
姿図
100
AcDbEllipse
 10
-1884.849616677594
 20
929.9820816759743
 30
0.0000000000000122
 11
-7.785491283811407
 21
22.5270332425148
 31
6.891030564777884E-16
210
-9.444084353700820E-18
220
2.732611140719174E-17
230
-1.0
 40
0.7445887407027572
 41
2.756499337784494
 42
2.858287793139967
  0
ELLIPSE
  5
1D7DC
330
18
100
AcDbEntity
  8
姿図
100
AcDbEllipse
 10
-1876.733780497941
 20
932.9033412939134
 30
0.0000000000000101
 11
-8.13692437732794
 21
23.54389199833048
 31
2.160626447713317E-15
210
-2.833225306110250E-17
220
8.197833422157526E-17
230
-1.0
 40
0.7445887407026733
 41
2.446130701479237
 42
2.942897457598437
  0
LINE
  5
1D7DD
330
18
100
AcDbEntity
  8
姿図
100
AcDbLine
 10
-1869.398578953022
 20
924.3275879818998
 30
0.0000000000000047
 11
-1866.3648239728
 21
926.403333254754
 31
0.0000000000000047
  0
LINE
  5
1D7DE
330
18
100
AcDbEntity
  8
姿図
100
AcDbLine
 10
-1854.37513975556
 20
923.791762847283
 30
0.0000000000000015
 11
-1853.661501756032
 21
924.2264341807338
 31
0.0000000000000015
  0
LINE
  5
1D7DF
330
18
100
AcDbEntity
  8
姿図
100
AcDbLine
 10
-1856.921150311216
 20
922.9200325924935
 30
0.0000000000000015
 11
-1854.37513975556
 21
923.791762847283
 31
0.0000000000000015
  0
LINE
  5
1D7E0
330
18
100
AcDbEntity
  8
姿図
100
AcDbLine
 10
-1854.001010537773
 20
923.0899766256439
 30
0.0000000000000015
 11
-1853.287372538246
 21
923.5246479590942
 31
0.0000000000000015
  0
LINE
  5
1D7E1
330
18
100
AcDbEntity
  8
姿図
100
AcDbLine
 10
-1857.031719686637
 20
921.8750210137146
 30
0.0000000000000015
 11
-1854.001010537773
 21
923.0899766256439
 31
0.0000000000000015
  0
ARC
  5
1D7E2
330
18
100
AcDbEntity
  8
姿図
100
AcDbCircle
 10
-1903.629533324425
 20
1015.517957771464
 30
0.0000000000000047
 40
111.3082674450056
100
AcDbArc
 50
283.0240337579918
 51
290.2222118781298
  0
LINE
  5
1D7E3
330
18
100
AcDbEntity
  8
姿図
100
AcDbLine
 10
-1876.275262532301
 20
907.8579960407396
 30
0.0000000000000047
 11
-1878.887796491163
 21
908.0394480694383
 31
0.0000000000000047
  0
LINE
  5
1D7E4
330
18
100
AcDbEntity
  8
姿図
100
AcDbLine
 10
-1874.591846748792
 20
908.6682350986475
 30
0.0000000000000047
 11
-1877.967914680081
 21
908.5481550534839
 31
0.0000000000000047
  0
LINE
  5
1D7E5
330
18
100
AcDbEntity
  8
姿図
100
AcDbLine
 10
-1873.072209762923
 20
909.6847419521096
 30
0.0000000000000047
 11
-1877.118402272338
 21
909.0045603973933
 31
0.0000000000000047
  0
LINE
  5
1D7E6
330
18
100
AcDbEntity
  8
姿図
100
AcDbLine
 10
-1876.48200257109
 20
909.5836056599499
 30
0.0000000000000047
 11
-1871.477492141978
 21
911.1267359054527
 31
0.0000000000000047
  0
SPLINE
  5
1D7E7
330
18
100
AcDbEntity
  8
姿図
100
AcDbSpline
210
-7.775473413318304E-11
220
9.545635719028790E-10
230
-1.0
 70
     8
 71
     3
 72
     8
 73
     4
 74
     0
 42
0.000000001
 43
0.0000000001
 40
104.4616887805064
 40
104.4616887805064
 40
104.4616887805064
 40
104.4616887805064
 40
104.5558158786619
 40
104.5558158786619
 40
104.5558158786619
 40
104.5558158786619
 10
-1880.048597062309
 20
906.9713969297363
 30
-0.0000000000000005
 10
-1880.055980512928
 20
906.9707866384047
 30
-0.0000000000000005
 10
-1880.063358625412
 20
906.9701811942298
 30
-0.0000000000000132
 10
-1880.070731339767
 20
906.9695806439245
 30
-0.0000000000000132
  0
SPLINE
  5
1D7E8
330
18
100
AcDbEntity
  8
姿図
100
AcDbSpline
210
0.0
220
0.0
230
1.0
 70
     8
 71
     3
 72
    12
 73
     8
 74
     0
 42
0.000000001
 43
0.0000000001
 40
-1.090507445860422
 40
-1.090507445860422
 40
-1.090507445860422
 40
-1.090507445860422
 40
-0.9471425154221369
 40
-0.9471425154221369
 40
-0.7528206779009274
 40
-0.7528206779009274
 40
-0.6501188551225207
 40
-0.6501188551225207
 40
-0.6501188551225207
 40
-0.6501188551225207
 10
-1880.098065917936
 20
906.9673612077092
 30
-0.0000000000000132
 10
-1880.110076864309
 20
906.9663865867687
 30
-0.0000000000000132
 10
-1880.124024700182
 20
906.9652546718344
 30
-0.0000000000000132
 10
-1880.160424442565
 20
906.9623099865137
 30
-0.0000000000000132
 10
-1880.183126797006
 20
906.960480906484
 30
-0.0000000000000132
 10
-1880.217997606185
 20
906.9577042830592
 30
-0.0000000000000132
 10
-1880.230465704964
 20
906.956717237726
 30
-0.0000000000000132
 10
-1880.243251655726
 20
906.9557138963637
 30
-0.0000000000000132
  0
SPLINE
  5
1D7E9
330
18
100
AcDbEntity
  8
姿図
100
AcDbSpline
210
0.0
220
0.0
230
1.0
 70
     8
 71
     3
 72
     8
 73
     4
 74
     0
 42
0.000000001
 43
0.0000000001
 40
211.7706370983692
 40
211.7706370983692
 40
211.7706370983692
 40
211.7706370983692
 40
212.1566911252955
 40
212.1566911252955
 40
212.1566911252955
 40
212.1566911252955
 10
-1880.184391405903
 20
906.9606775130578
 30
-0.0000000000000132
 10
-1880.154383029535
 20
906.9629336268683
 30
-0.0000000000000132
 10
-1880.124282091871
 20
906.965272127863
 30
-0.0000000000000005
 10
-1880.094090403714
 20
906.9676928354295
 30
-0.0000000000000132
  0
SPLINE
  5
1D7EA
330
18
100
AcDbEntity
  8
姿図
100
AcDbSpline
210
0.0
220
0.0
230
1.0
 70
     8
 71
     3
 72
     8
 73
     4
 74
     0
 42
0.000000001
 43
0.0000000001
 40
-0.691446024632862
 40
-0.691446024632862
 40
-0.691446024632862
 40
-0.691446024632862
 40
-0.6779385051869151
 40
-0.6779385051869151
 40
-0.6779385051869151
 40
-0.6779385051869151
 10
-1880.094044636699
 20
906.9676190471096
 30
-0.0000000000000132
 10
-1880.095377030801
 20
906.9675080707841
 30
-0.0000000000000132
 10
-1880.096717582114
 20
906.9674221300638
 30
-0.0000000000000132
 10
-1880.098065917936
 20
906.9673612077092
 30
-0.0000000000000132
  0
SPLINE
  5
1D7EB
330
18
100
AcDbEntity
  8
姿図
100
AcDbSpline
210
0.0
220
0.0
230
1.0
 70
    24
 71
     1
 72
     4
 73
     2
 74
     0
 42
0.000000001
 43
0.0000000001
 40
4.585382155010916
 40
4.585382155010916
 40
4.585545755352282
 40
4.585545755352282
 10
-1880.283249549713
 20
906.9525921335623
 30
-0.0000000000000132
 10
-1880.293247086142
 20
906.9518172124106
 30
-0.0000000000000132
  0
SPLINE
  5
1D7EC
330
18
100
AcDbEntity
  8
姿図
100
AcDbSpline
210
0.0
220
0.0
230
1.0
 70
    24
 71
     1
 72
     4
 73
     2
 74
     0
 42
0.000000001
 43
0.0000000001
 40
4.585218554669551
 40
4.585218554669551
 40
4.585382155010916
 40
4.585382155010916
 10
-1880.273251237277
 20
906.9533692621183
 30
-0.0000000000000132
 10
-1880.283249549713
 20
906.9525921335623
 30
-0.0000000000000132
  0
SPLINE
  5
1D7ED
330
18
100
AcDbEntity
  8
姿図
100
AcDbSpline
210
0.0
220
0.0
230
1.0
 70
    24
 71
     1
 72
     4
 73
     2
 74
     0
 42
0.000000001
 43
0.0000000001
 40
4.585054954328187
 40
4.585054954328187
 40
4.585218554669551
 40
4.585218554669551
 10
-1880.263252150013
 20
906.9541485984939
 30
-0.0000000000000132
 10
-1880.273251237277
 20
906.9533692621183
 30
-0.0000000000000132
  0
SPLINE
  5
1D7EE
330
18
100
AcDbEntity
  8
姿図
100
AcDbSpline
210
0.0
220
0.0
230
1.0
 70
    24
 71
     1
 72
     4
 73
     2
 74
     0
 42
0.000000001
 43
0.0000000001
 40
4.584891353986822
 40
4.584891353986822
 40
4.585054954328187
 40
4.585054954328187
 10
-1880.253252289103
 20
906.9549301431045
 30
-0.0000000000000132
 10
-1880.263252150013
 20
906.9541485984939
 30
-0.0000000000000132
  0
SPLINE
  5
1D7EF
330
18
100
AcDbEntity
  8
姿図
100
AcDbSpline
210
0.0
220
0.0
230
1.0
 70
    24
 71
     1
 72
     4
 73
     2
 74
     0
 42
0.000000001
 43
0.0000000001
 40
4.584727753645457
 40
4.584727753645457
 40
4.584891353986822
 40
4.584891353986822
 10
-1880.243251655726
 20
906.9557138963637
 30
-0.0000000000000132
 10
-1880.253252289103
 20
906.9549301431045
 30
-0.0000000000000132
  0
SPLINE
  5
1D7F0
330
18
100
AcDbEntity
  8
姿図
100
AcDbSpline
210
0.0
220
0.0
230
1.0
 70
    24
 71
     1
 72
     4
 73
     2
 74
     0
 42
0.000000001
 43
0.0000000001
 40
4.575549799467204
 40
4.575549799467204
 40
4.581065791234352
 40
4.581065791234352
 10
-1879.994544297482
 20
906.9762677879289
 30
-0.0000000000000132
 10
-1880.094044636699
 20
906.9676190471096
 30
-0.0000000000000132
  0
SPLINE
  5
1D7F1
330
18
100
AcDbEntity
  8
姿図
100
AcDbSpline
210
0.0
220
0.0
230
1.0
 70
    24
 71
     1
 72
     4
 73
     2
 74
     0
 42
0.000000001
 43
0.0000000001
 40
4.570033807700057
 40
4.570033807700057
 40
4.575549799467204
 40
4.575549799467204
 10
-1879.895181880595
 20
906.9856276068067
 30
-0.0000000000000132
 10
-1879.994544297482
 20
906.9762677879289
 30
-0.0000000000000132
  0
SPLINE
  5
1D7F2
330
18
100
AcDbEntity
  8
姿図
100
AcDbSpline
210
0.0
220
0.0
230
1.0
 70
    24
 71
     1
 72
     4
 73
     2
 74
     0
 42
0.000000001
 43
0.0000000001
 40
4.564517815932909
 40
4.564517815932909
 40
4.570033807700057
 40
4.570033807700057
 10
-1879.795960509466
 20
906.995698260753
 30
-0.0000000000000005
 10
-1879.895181880595
 20
906.9856276068067
 30
-0.0000000000000132
  0
SPLINE
  5
1D7F3
330
18
100
AcDbEntity
  8
姿図
100
AcDbSpline
210
0.0
220
0.0
230
1.0
 70
    24
 71
     1
 72
     4
 73
     2
 74
     0
 42
0.000000001
 43
0.0000000001
 40
4.559001824165762
 40
4.559001824165762
 40
4.564517815932909
 40
4.564517815932909
 10
-1879.696883304558
 20
907.0064794830234
 30
-0.0000000000000132
 10
-1879.795960509466
 20
906.995698260753
 30
-0.0000000000000005
  0
SPLINE
  5
1D7F4
330
18
100
AcDbEntity
  8
姿図
100
AcDbSpline
210
0.0
220
0.0
230
1.0
 70
    24
 71
     1
 72
     4
 73
     2
 74
     0
 42
0.000000001
 43
0.0000000001
 40
4.553485832398614
 40
4.553485832398614
 40
4.559001824165762
 40
4.559001824165762
 10
-1879.597953383235
 20
907.0179709831023
 30
-0.0000000000000132
 10
-1879.696883304558
 20
907.0064794830234
 30
-0.0000000000000132
  0
LINE
  5
1D7F5
330
18
100
AcDbEntity
  8
姿図
100
AcDbLine
 10
-1875.182056796339
 20
910.7302988956073
 30
0.0000000000000047
 11
-1873.536979344854
 21
911.3457623493116
 31
0.0000000000000047
  0
LINE
  5
1D7F6
330
18
100
AcDbEntity
  8
姿図
100
AcDbLine
 10
-1874.441030024465
 20
911.6955585874657
 30
0.0000000000000047
 11
-1874.188284592496
 21
911.819315254206
 31
0.0000000000000047
  0
SPLINE
  5
1D7F7
330
18
100
AcDbEntity
  8
姿図
100
AcDbSpline
210
0.0
220
0.0
230
1.0
 70
     8
 71
     3
 72
    16
 73
    12
 74
     0
 42
0.000000001
 43
0.0000000001
 40
60.97286850367482
 40
60.97286850367482
 40
60.97286850367482
 40
60.97286850367482
 40
63.27662545801321
 40
63.27662545801321
 40
65.63207741714923
 40
65.63207741714923
 40
66.46294226239624
 40
66.46294226239624
 40
68.78483332584179
 40
68.78483332584179
 40
76.49128118025473
 40
76.49128118025473
 40
76.49128118025473
 40
76.49128118025473
 10
-1865.154495092621
 20
911.0708331836124
 30
-0.0000000000000032
 10
-1864.573278776943
 20
911.4669500182379
 30
-0.0000000000000041
 10
-1864.073771094984
 20
911.8685558004067
 30
-0.0000000000000061
 10
-1863.242080332932
 20
912.6050245422616
 30
-0.0000000000000153
 10
-1862.862259227463
 20
912.9874008290064
 30
-0.0000000000000026
 10
-1862.521891547913
 20
913.3510883347681
 30
-0.0000000000000026
 10
-1862.428111873237
 20
913.45390714168
 30
-0.0000000000000026
 10
-1862.065350567658
 20
913.8618459163768
 30
-0.0000000000000026
 10
-1861.839161659986
 20
914.1368207502471
 30
-0.0000000000000153
 10
-1860.852402701496
 20
915.4120148819884
 30
-0.0000000000000046
 10
-1859.909222481336
 20
916.8480277253643
 30
-0.0000000000000112
 10
-1859.094805827366
 20
918.8119871443923
 30
-0.0000000000000094
  0
SPLINE
  5
1D7F8
330
18
100
AcDbEntity
  8
姿図
100
AcDbSpline
210
0.0
220
0.0
230
1.0
 70
     8
 71
     3
 72
     8
 73
     4
 74
     0
 42
0.000000001
 43
0.0000000001
 40
20.0
 40
20.0
 40
20.0
 40
20.0
 40
21.0
 40
21.0
 40
21.0
 40
21.0
 10
-1872.26353076799
 20
911.3285491870199
 30
-0.0000000000000029
 10
-1870.233007833469
 20
911.4847432589063
 30
-0.0000000000000029
 10
-1869.139649330265
 20
912.8904899058825
 30
-0.0000000000000029
 10
-1869.295843402151
 20
915.3895950560627
 30
-0.0000000000000029
  0
SPLINE
  5
1D7F9
330
18
100
AcDbEntity
  8
姿図
100
AcDbSpline
210
0.0
220
0.0
230
1.0
 70
     8
 71
     3
 72
     8
 73
     4
 74
     0
 42
0.000000001
 43
0.0000000001
 40
19.0
 40
19.0
 40
19.0
 40
19.0
 40
20.0
 40
20.0
 40
20.0
 40
20.0
 10
-1875.855994421373
 20
915.07720691229
 30
-0.0000000000000029
 10
-1875.855994421373
 20
915.07720691229
 30
-0.0000000000000029
 10
-1875.464899108565
 20
911.0820554173247
 30
-0.0000000000000029
 10
-1872.26353076799
 20
911.3285491870199
 30
-0.0000000000000029
  0
SPLINE
  5
1D7FA
330
18
100
AcDbEntity
  8
姿図
100
AcDbSpline
210
0.0
220
0.0
230
1.0
 70
     8
 71
     3
 72
    11
 73
     7
 74
     0
 42
0.000000001
 43
0.0000000001
 40
0.0
 40
0.0
 40
0.0
 40
0.0
 40
1.0
 40
1.0
 40
1.0
 40
2.0
 40
2.0
 40
2.0
 40
2.0
 10
-1872.26353076799
 20
911.3285491870199
 30
-0.0000000000000029
 10
-1872.26353076799
 20
911.3285491870199
 30
-0.0000000000000029
 10
-1874.61681410887
 20
910.8026144605906
 30
-0.0000000000000029
 10
-1875.777897385431
 20
913.124781013712
 30
-0.0000000000000029
 10
-1876.246479601089
 20
914.0619454450296
 30
-0.0000000000000029
 10
-1876.558867744861
 20
915.2334009841763
 30
-0.0000000000000029
 10
-1876.636964780805
 20
919.4506409251053
 30
-0.0000000000000029
  0
SPLINE
  5
1D7FB
330
18
100
AcDbEntity
  8
姿図
100
AcDbSpline
210
0.0
220
0.0
230
1.0
 70
     8
 71
     3
 72
     8
 73
     4
 74
     0
 42
0.000000001
 43
0.0000000001
 40
11.0
 40
11.0
 40
11.0
 40
11.0
 40
12.0
 40
12.0
 40
12.0
 40
12.0
 10
-1870.467298941297
 20
911.4847432589063
 30
-0.0000000000000029
 10
-1870.467298941297
 20
911.4847432589063
 30
-0.0000000000000029
 10
-1872.341627803933
 20
910.9380640073043
 30
-0.0000000000000029
 10
-1873.200695199307
 20
911.2504521510768
 30
-0.0000000000000029
  0
SPLINE
  5
1D7FC
330
18
100
AcDbEntity
  8
姿図
100
AcDbSpline
210
0.0
220
0.0
230
1.0
 70
    24
 71
     3
 72
     8
 73
     4
 74
     0
 42
0.000000001
 43
0.0000000001
 40
10.0
 40
10.0
 40
10.0
 40
10.0
 40
11.0
 40
11.0
 40
11.0
 40
11.0
 10
-1858.830840585772
 20
918.9820587094466
 30
-0.0000000000000029
 10
-1858.830840585772
 20
918.9820587094466
 30
-0.0000000000000029
 10
-1870.467298941297
 20
911.4847432589063
 30
-0.0000000000000029
 10
-1870.467298941297
 20
911.4847432589063
 30
-0.0000000000000029
  0
SPLINE
  5
1D7FD
330
18
100
AcDbEntity
  8
姿図
100
AcDbSpline
210
0.0
220
0.0
230
1.0
 70
     8
 71
     3
 72
    11
 73
     7
 74
     0
 42
0.000000001
 43
0.0000000001
 40
8.0
 40
8.0
 40
8.0
 40
8.0
 40
9.0
 40
9.0
 40
9.0
 40
10.0
 40
10.0
 40
10.0
 40
10.0
 10
-1856.487929507478
 20
925.7765008364986
 30
-0.0000000000000029
 10
-1856.487929507478
 20
925.7765008364986
 30
-0.0000000000000029
 10
-1856.80031765125
 20
925.2298215848969
 30
-0.0000000000000029
 10
-1856.878414687193
 20
923.9021719738635
 30
-0.0000000000000029
 10
-1856.956511723137
 20
922.5745223628303
 30
-0.0000000000000029
 10
-1856.80031765125
 20
920.3097083204798
 30
-0.0000000000000029
 10
-1858.830840585772
 20
918.9820587094466
 30
-0.0000000000000029
  0
ELLIPSE
  5
1D7FE
330
18
100
AcDbEntity
  8
姿図
100
AcDbEllipse
 10
-1872.393184050317
 20
915.81912875375
 30
-0.0000000000000029
 11
0.05094611329102488
 21
-2.342911078293838
 31
0.0
210
0.0
220
0.0
230
1.0
 40
0.8832045568248487
 41
0.0
 42
6.283185307179586
  0
ELLIPSE
  5
1D7FF
330
18
100
AcDbEntity
  8
姿図
100
AcDbEllipse
 10
-1872.18329826622
 20
915.7617762429791
 30
-0.0000000000000029
 11
0.04484478235796799
 21
-2.082994380545616
 31
0.0
210
0.0
220
0.0
230
1.0
 40
0.8835743841866798
 41
0.0
 42
6.283185307179586
  0
ELLIPSE
  5
1D800
330
18
100
AcDbEntity
  8
姿図
100
AcDbEllipse
 10
-1872.004834336429
 20
915.7867916998048
 30
-0.0000000000000029
 11
0.03782825178495267
 21
-1.780978499359301
 31
0.0
210
0.0
220
0.0
230
1.0
 40
0.8831958179658853
 41
0.0
 42
6.283185307179586
  0
ELLIPSE
  5
1D801
330
18
100
AcDbEntity
  8
姿図
100
AcDbEllipse
 10
-1876.733780497941
 20
932.9033412939134
 30
0.0000000000000101
 11
-8.136924377323641
 21
23.54389199833204
 31
2.160626447713321E-15
210
-2.833225306110242E-17
220
8.197833422157524E-17
230
-1.0
 40
0.7445887407026982
 41
0.1816174140284592
 42
0.2444861874498684
  0
ELLIPSE
  5
1D802
330
18
100
AcDbEntity
  8
姿図
100
AcDbEllipse
 10
-1884.610997328764
 20
930.180922800012
 30
0.0000000000000122
 11
-7.785491283804456
 21
22.52703324251798
 31
6.891030564778096E-16
210
-9.444084353700805E-18
220
2.732611140719173E-17
230
-1.0
 40
0.7445887407027176
 41
-0.160039409549761
 42
0.7510610570699096
  0
ELLIPSE
  5
1D803
330
18
100
AcDbEntity
  8
姿図
100
AcDbEllipse
 10
-1884.849616677594
 20
929.9820816759743
 30
0.0000000000000122
 11
-7.785491283811407
 21
22.5270332425148
 31
6.891030564777884E-16
210
-9.444084353700820E-18
220
2.732611140719174E-17
230
-1.0
 40
0.7445887407027572
 41
-0.1600394095493287
 42
0.7701698645318673
  0
LINE
  5
1D804
330
18
100
AcDbEntity
  8
姿図
100
AcDbLine
 10
-1881.37449033352
 20
948.256449756152
 30
0.0000000000000047
 11
-1878.730975306569
 21
950.0651864065035
 31
0.0000000000000047
  0
LINE
  5
1D805
330
18
100
AcDbEntity
  8
姿図
100
AcDbLine
 10
-1882.104795284828
 20
948.8275289835028
 30
0.0000000000000047
 11
-1879.464645784445
 21
950.6339628849805
 31
0.0000000000000047
  0
LINE
  5
1D806
330
18
100
AcDbEntity
  8
姿図
100
AcDbLine
 10
-1882.872702796119
 20
949.3728799181472
 30
0.0000000000000047
 11
-1880.316363100917
 21
951.1219697664426
 31
0.0000000000000047
  0
LINE
  5
1D807
330
18
100
AcDbEntity
  8
姿図
100
AcDbLine
 10
-1880.816406691725
 20
934.74039589057
 30
0.0000000000000047
 11
-1889.895466539221
 21
928.3077206695261
 31
0.0000000000000047
  0
LINE
  5
1D808
330
18
100
AcDbEntity
  8
姿図
100
AcDbLine
 10
-1879.31757672816
 20
938.6354311972768
 30
0.0000000000000047
 11
-1888.396636575658
 21
932.2027559762332
 31
0.0000000000000047
  0
SPLINE
  5
1D809
330
18
100
AcDbEntity
  8
姿図
100
AcDbSpline
210
0.0
220
0.0
230
1.0
 70
     8
 71
     3
 72
    10
 73
     6
 74
     0
 42
0.000000001
 43
0.0000000001
 40
64.86311517591892
 40
64.86311517591892
 40
64.86311517591892
 40
64.86311517591892
 40
66.12555618457822
 40
66.12555618457822
 40
66.75214355035303
 40
66.75214355035303
 40
66.75214355035303
 40
66.75214355035303
 10
-1880.396056343643
 20
957.2599810111483
 30
-0.0000000000000026
 10
-1880.617268801528
 20
957.2559766253364
 30
-0.0000000000000026
 10
-1880.841629866952
 20
957.2468458263854
 30
-0.0000000000000026
 10
-1881.180837773585
 20
957.2244577603083
 30
-0.0000000000000026
 10
-1881.293190278634
 20
957.2156577862438
 30
-0.0000000000000026
 10
-1881.405335602863
 20
957.2055059540669
 30
-0.0000000000000026
  0
ARC
  5
1D80A
330
18
100
AcDbEntity
  8
姿図
100
AcDbCircle
 10
-1861.036847841604
 20
891.18505184572
 30
0.0000000000000047
 40
69.09106783335264
100
AcDbArc
 50
106.3185863248103
 51
117.1919480268858
  0
SPLINE
  5
1D80B
330
18
100
AcDbEntity
  8
姿図
100
AcDbSpline
210
0.0
220
0.0
230
1.0
 70
     8
 71
     3
 72
    11
 73
     7
 74
     0
 42
0.000000001
 43
0.0000000001
 40
1.768707361997787
 40
1.768707361997787
 40
1.768707361997787
 40
1.768707361997787
 40
2.0
 40
2.0
 40
2.0
 40
3.0
 40
3.0
 40
3.0
 40
3.0
 10
-1900.208479657033
 20
946.3987944585781
 30
-0.0000000000000029
 10
-1900.082566782153
 20
947.3796494415819
 30
-0.0000000000000029
 10
-1899.910412788777
 20
948.4342003559805
 30
-0.0000000000000029
 10
-1899.675590273436
 20
949.5179965806292
 30
-0.0000000000000029
 10
-1898.660328752927
 20
954.2038189829761
 30
-0.0000000000000029
 10
-1895.848835311519
 20
968.8079654702901
 30
-0.0000000000000029
 10
-1895.848835311519
 20
968.8079654702901
 30
-0.0000000000000029
  0
ELLIPSE
  5
1D80C
330
18
100
AcDbEntity
  8
姿図
100
AcDbEllipse
 10
-1877.53884422376
 20
931.7496930432494
 30
0.0000000000000122
 11
-7.269668263233696
 21
21.03451826716344
 31
6.434469498665185E-16
210
-9.444084353700848E-18
220
2.732611140719172E-17
230
-1.0
 40
0.7445887407027736
 41
-0.6754224664352997
 42
-0.3300486139803771
  0
ELLIPSE
  5
1D80D
330
18
100
AcDbEntity
  8
姿図
100
AcDbEllipse
 10
-1877.134589107425
 20
931.592638761914
 30
0.0000000000000122
 11
-9.418242962512368
 21
21.04132194731686
 31
9.958862830328777E-16
210
-1.416612653055124E-17
220
4.098916711078760E-17
230
-1.0
 40
0.7846158028916365
 41
-0.5798433882897603
 42
-0.2849668007490926
  0
ELLIPSE
  5
1D80E
330
18
100
AcDbEntity
  8
姿図
100
AcDbEllipse
 10
-1880.573355456915
 20
931.2876639431788
 30
0.0000000000000122
 11
-5.238576233243199
 21
21.57486283215074
 31
1.917091983558817E-15
210
-2.833225306110246E-17
220
8.197833422157521E-17
230
-1.0
 40
0.7148769796037755
 41
-1.336025501013361
 42
-0.3740805824018341
  0
ELLIPSE
  5
1D80F
330
18
100
AcDbEntity
  8
姿図
100
AcDbEllipse
 10
-1880.719419046656
 20
931.0214080239982
 30
0.0000000000000122
 11
-9.89543427463447
 21
19.80860309453423
 31
6.347454109882355E-16
210
-9.444084353700817E-18
220
2.732611140719174E-17
230
-1.0
 40
0.7419878916067
 41
-1.136589550032932
 42
-0.1258430338670486
  0
LINE
  5
1D810
330
18
100
AcDbEntity
  8
姿図
100
AcDbLine
 10
-1894.054961159514
 20
945.1537395063997
 30
0.0000000000000122
 11
-1893.00561735462
 21
944.7698743169462
 31
0.0000000000000122
  0
ELLIPSE
  5
1D811
330
18
100
AcDbEntity
  8
姿図
100
AcDbEllipse
 10
-1878.387420333499
 20
931.623172347666
 30
0.0000000000000122
 11
-9.733631363023724
 21
18.11186044865322
 31
8.802779281074476E-16
210
-1.416612653055120E-17
220
4.098916711078763E-17
230
-1.0
 40
0.8394320487858437
 41
-1.37670196156322
 42
-0.9346820271869077
  0
ELLIPSE
  5
1D812
330
18
100
AcDbEntity
  8
姿図
100
AcDbEllipse
 10
-1877.53884422376
 20
931.7496930432494
 30
0.0000000000000122
 11
-7.269668263228371
 21
21.03451826717912
 31
3.217234749334480E-16
210
-4.722042176850413E-18
220
1.366305570359585E-17
230
-1.0
 40
0.7445887407022687
 41
-1.53029344492134
 42
-1.020444988477863
  0
LINE
  5
1D813
330
18
100
AcDbEntity
  8
姿図
100
AcDbLine
 10
-1895.183016414884
 20
927.0992530744602
 30
0.0000000000000125
 11
-1893.482426785064
 21
927.1929448864767
 31
0.0000000000000123
  0
LINE
  5
1D814
330
18
100
AcDbEntity
  8
姿図
100
AcDbLine
 10
-1894.80562955505
 20
935.7954062995755
 30
0.0000000000000122
 11
-1896.39991240379
 21
935.8103496537062
 31
0.0000000000000127
  0
ELLIPSE
  5
1D815
330
18
100
AcDbEntity
  8
姿図
100
AcDbEllipse
 10
-1877.53884422376
 20
931.7496930432494
 30
0.0000000000000122
 11
-7.269668263206176
 21
21.03451826718498
 31
1.286893899733694E-15
210
-1.888816870740167E-17
220
5.465222281438343E-17
230
-1.0
 40
0.7445887407026277
 41
-1.020444988478582
 42
-0.6754224664370412
  0
SPLINE
  5
1D816
330
18
100
AcDbEntity
  8
姿図
100
AcDbSpline
210
0.0
220
0.0
230
1.0
 70
     8
 71
     3
 72
     8
 73
     4
 74
     0
 42
0.000000001
 43
0.0000000001
 40
12.0
 40
12.0
 40
12.0
 40
12.0
 40
13.0
 40
13.0
 40
13.0
 40
13.0
 10
-1907.563391014283
 20
939.9901613781481
 30
-0.0000000000000029
 10
-1907.563391014283
 20
939.9901613781481
 30
-0.0000000000000029
 10
-1907.719585086169
 20
942.1768783845555
 30
-0.0000000000000029
 10
-1907.48529397834
 20
943.7388191034183
 30
-0.0000000000000029
  0
LINE
  5
1D817
330
18
100
AcDbEntity
  8
姿図
100
AcDbLine
 10
-1890.308582390479
 20
949.1241367405714
 30
0.0000000000000122
 11
-1890.814205442186
 21
949.7079505321803
 31
0.0000000000000132
  0
ELLIPSE
  5
1D818
330
18
100
AcDbEntity
  8
姿図
100
AcDbEllipse
 10
-1883.372483313239
 20
930.6089614133946
 30
0.0000000000000122
 11
-7.435466788459889
 21
21.51425019643783
 31
3.290609866347068E-16
210
-4.722042176850419E-18
220
1.366305570359588E-17
230
-1.0
 40
0.7445887377144083
 41
-0.019715365650429
 42
-0.0169158927453148
  0
LINE
  5
1D819
330
18
100
AcDbEntity
  8
姿図
100
AcDbLine
 10
-1888.671706423622
 20
951.8297014757591
 30
0.0000000000000047
 11
-1886.718761882968
 21
953.1659383916724
 31
0.0000000000000047
  0
LINE
  5
1D81A
330
18
100
AcDbEntity
  8
姿図
100
AcDbLine
 10
-1889.998432153106
 20
951.992699754252
 30
0.0000000000000047
 11
-1888.171098687242
 21
953.2429914977915
 31
0.0000000000000047
  0
LINE
  5
1D81B
330
18
100
AcDbEntity
  8
姿図
100
AcDbLine
 10
-1891.575866041806
 20
951.9841593686949
 30
0.0000000000000047
 11
-1889.882761433568
 21
953.1426095104857
 31
0.0000000000000047
  0
LINE
  5
1D81C
330
18
100
AcDbEntity
  8
姿図
100
AcDbLine
 10
-1883.682710151507
 20
949.8894254440011
 30
0.0000000000000047
 11
-1881.213925612223
 21
951.5786086082712
 31
0.0000000000000047
  0
LINE
  5
1D81D
330
18
100
AcDbEntity
  8
姿図
100
AcDbLine
 10
-1884.540688308901
 20
950.3731485546809
 30
0.0000000000000047
 11
-1882.16368295303
 21
951.9995348855361
 31
0.0000000000000047
  0
LINE
  5
1D81E
330
18
100
AcDbEntity
  8
姿図
100
AcDbLine
 10
-1885.454529505498
 20
950.8186492511222
 30
0.0000000000000047
 11
-1883.17412638098
 21
952.3789387394888
 31
0.0000000000000047
  0
LINE
  5
1D81F
330
18
100
AcDbEntity
  8
姿図
100
AcDbLine
 10
-1886.435258696549
 20
951.2183840768168
 30
0.0000000000000047
 11
-1884.257041836773
 21
952.7087560348061
 31
0.0000000000000047
  0
LINE
  5
1D820
330
18
100
AcDbEntity
  8
姿図
100
AcDbLine
 10
-1887.499095474642
 20
951.5612553185831
 30
0.0000000000000047
 11
-1885.429623653981
 21
952.9772221244193
 31
0.0000000000000047
  0
SPLINE
  5
1D821
330
18
100
AcDbEntity
  8
姿図
100
AcDbSpline
210
0.0
220
0.0
230
1.0
 70
    24
 71
     1
 72
     4
 73
     2
 74
     0
 42
0.000000001
 43
0.0000000001
 40
7.360687962796618
 40
7.360687962796618
 40
7.37499967158405
 40
7.37499967158405
 10
-1895.189602332225
 20
951.3599103477222
 30
-0.0000000000000132
 10
-1894.969954510228
 20
951.4962917203088
 30
-0.0000000000000005
  0
SPLINE
  5
1D822
330
18
100
AcDbEntity
  8
姿図
100
AcDbSpline
210
0.0
220
0.0
230
1.0
 70
    24
 71
     1
 72
     4
 73
     2
 74
     0
 42
0.000000001
 43
0.0000000001
 40
7.346376254009186
 40
7.346376254009186
 40
7.360687962796618
 40
7.360687962796618
 10
-1895.407049505588
 20
951.2191739743189
 30
-0.0000000000000005
 10
-1895.189602332225
 20
951.3599103477222
 30
-0.0000000000000132
  0
SPLINE
  5
1D823
330
18
100
AcDbEntity
  8
姿図
100
AcDbSpline
210
0.0
220
0.0
230
1.0
 70
    24
 71
     1
 72
     4
 73
     2
 74
     0
 42
0.000000001
 43
0.0000000001
 40
7.332064545221754
 40
7.332064545221754
 40
7.346376254009186
 40
7.346376254009186
 10
-1895.622250582668
 20
951.0741130855054
 30
-0.0000000000000005
 10
-1895.407049505588
 20
951.2191739743189
 30
-0.0000000000000005
  0
SPLINE
  5
1D824
330
18
100
AcDbEntity
  8
姿図
100
AcDbSpline
210
0.0
220
0.0
230
1.0
 70
    24
 71
     1
 72
     4
 73
     2
 74
     0
 42
0.000000001
 43
0.0000000001
 40
7.317752836434321
 40
7.317752836434321
 40
7.332064545221754
 40
7.332064545221754
 10
-1895.835160683928
 20
950.9247590842765
 30
-0.0000000000000132
 10
-1895.622250582668
 20
951.0741130855054
 30
-0.0000000000000005
  0
SPLINE
  5
1D825
330
18
100
AcDbEntity
  8
姿図
100
AcDbSpline
210
0.0
220
0.0
230
1.0
 70
    24
 71
     1
 72
     4
 73
     2
 74
     0
 42
0.000000001
 43
0.0000000001
 40
7.30344112764689
 40
7.30344112764689
 40
7.317752836434321
 40
7.317752836434321
 10
-1896.045735508139
 20
950.77114427723
 30
-0.0000000000000005
 10
-1895.835160683928
 20
950.9247590842765
 30
-0.0000000000000132
  0
SPLINE
  5
1D826
330
18
100
AcDbEntity
  8
姿図
100
AcDbSpline
210
0.0
220
0.0
230
1.0
 70
    24
 71
     1
 72
     4
 73
     2
 74
     0
 42
0.000000001
 43
0.0000000001
 40
7.289129418859456
 40
7.289129418859456
 40
7.30344112764689
 40
7.30344112764689
 10
-1896.253931341868
 20
950.6133018605108
 30
-0.0000000000000005
 10
-1896.045735508139
 20
950.77114427723
 30
-0.0000000000000005
  0
SPLINE
  5
1D827
330
18
100
AcDbEntity
  8
姿図
100
AcDbSpline
210
0.0
220
0.0
230
1.0
 70
    24
 71
     1
 72
     4
 73
     2
 74
     0
 42
0.000000001
 43
0.0000000001
 40
7.274817710072025
 40
7.274817710072025
 40
7.289129418859456
 40
7.289129418859456
 10
-1896.459705068216
 20
950.4512659056977
 30
-0.0000000000000132
 10
-1896.253931341868
 20
950.6133018605108
 30
-0.0000000000000005
  0
SPLINE
  5
1D828
330
18
100
AcDbEntity
  8
姿図
100
AcDbSpline
210
0.0
220
0.0
230
1.0
 70
    24
 71
     1
 72
     4
 73
     2
 74
     0
 42
0.000000001
 43
0.0000000001
 40
7.260506001284593
 40
7.260506001284593
 40
7.274817710072025
 40
7.274817710072025
 10
-1896.66301417486
 20
950.2850713456833
 30
-0.0000000000000005
 10
-1896.459705068216
 20
950.4512659056977
 30
-0.0000000000000132
  0
SPLINE
  5
1D829
330
18
100
AcDbEntity
  8
姿図
100
AcDbSpline
210
0.0
220
0.0
230
1.0
 70
    24
 71
     1
 72
     4
 73
     2
 74
     0
 42
0.000000001
 43
0.0000000001
 40
7.24619429249716
 40
7.24619429249716
 40
7.260506001284593
 40
7.260506001284593
 10
-1896.863816761424
 20
950.1147539606416
 30
-0.0000000000000132
 10
-1896.66301417486
 20
950.2850713456833
 30
-0.0000000000000005
  0
SPLINE
  5
1D82A
330
18
100
AcDbEntity
  8
姿図
100
AcDbSpline
210
0.0
220
0.0
230
1.0
 70
    24
 71
     1
 72
     4
 73
     2
 74
     0
 42
0.000000001
 43
0.0000000001
 40
7.231882583709728
 40
7.231882583709728
 40
7.24619429249716
 40
7.24619429249716
 10
-1897.062071546217
 20
949.9403503640624
 30
-0.0000000000000132
 10
-1896.863816761424
 20
950.1147539606416
 30
-0.0000000000000132
  0
SPLINE
  5
1D82B
330
18
100
AcDbEntity
  8
姿図
100
AcDbSpline
210
0.0
220
0.0
230
1.0
 70
    24
 71
     1
 72
     4
 73
     2
 74
     0
 42
0.000000001
 43
0.0000000001
 40
7.217570874922297
 40
7.217570874922297
 40
7.231882583709728
 40
7.231882583709728
 10
-1897.257737872354
 20
949.761897988941
 30
-0.0000000000000132
 10
-1897.062071546217
 20
949.9403503640624
 30
-0.0000000000000132
  0
SPLINE
  5
1D82C
330
18
100
AcDbEntity
  8
姿図
100
AcDbSpline
210
0.0
220
0.0
230
1.0
 70
    24
 71
     1
 72
     4
 73
     2
 74
     0
 42
0.000000001
 43
0.0000000001
 40
7.20717324291482
 40
7.20717324291482
 40
7.217570874922297
 40
7.217570874922297
 10
-1897.397982231965
 20
949.6293364429114
 30
-0.0000000000000039
 10
-1897.257737872354
 20
949.761897988941
 30
-0.0000000000000132
  0
LINE
  5
1D82D
330
18
100
AcDbEntity
  8
姿図
100
AcDbLine
 10
-1893.717008818308
 20
951.5899200500521
 30
0.0000000000000047
 11
-1892.138817896966
 21
952.6697443489807
 31
0.0000000000000047
  0
ARC
  5
1D82E
330
18
100
AcDbEntity
  8
姿図
100
AcDbCircle
 10
-1865.605160112173
 20
938.8745318227852
 30
-0.0000000000000029
 40
15.49096073739947
100
AcDbArc
 50
359.0994776742483
 51
85.07207034149381
  0
ARC
  5
1D82F
330
18
100
AcDbEntity
  8
姿図
100
AcDbCircle
 10
-1881.014437982029
 20
932.8103653935186
 30
-0.0000000000000029
 40
24.9131798258007
100
AcDbArc
 50
6.692591648343327
 51
59.3287808977645
  0
ARC
  5
1D830
330
18
100
AcDbEntity
  8
姿図
100
AcDbCircle
 10
-1883.871403501959
 20
931.1883732822262
 30
0.0000000000000122
 40
27.7160621246792
100
AcDbArc
 50
9.301004327640015
 51
64.09965444412273
  0
LINE
  5
1D831
330
18
100
AcDbEntity
  8
姿図
100
AcDbLine
 10
-1838.033908413636
 20
950.6343360772787
 30
0.0000000000000122
 11
-1838.089614854428
 21
947.3209605585623
 31
0.0000000000000122
  0
ELLIPSE
  5
1D832
330
18
100
AcDbEntity
  8
姿図
100
AcDbEllipse
 10
-1876.733780497941
 20
932.9033412939134
 30
0.0000000000000101
 11
-8.136924377323641
 21
23.54389199833204
 31
2.160626447713321E-15
210
-2.833225306110242E-17
220
8.197833422157524E-17
230
-1.0
 40
0.7445887407026982
 41
0.7073626242949911
 42
1.721396946041301
  0
ARC
  5
1D833
330
18
100
AcDbEntity
  8
姿図
100
AcDbCircle
 10
-1857.063107242127
 20
940.267015634211
 30
0.0000000000000052
 40
17.4147793819442
100
AcDbArc
 50
17.09268596762959
 51
67.43728728017877
  0
LINE
  5
1D834
330
18
100
AcDbEntity
  8
姿図
100
AcDbLine
 10
-1853.695208726341
 20
948.6201073393381
 30
0.0000000000000047
 11
-1859.52866381543
 21
945.4209973164081
 31
0.0000000000000047
  0
LINE
  5
1D835
330
18
100
AcDbEntity
  8
姿図
100
AcDbLine
 10
-1880.013304539514
 20
947.0462636839268
 30
0.0000000000000047
 11
-1878.303114263543
 21
948.2164041218239
 31
0.0000000000000047
  0
LINE
  5
1D836
330
18
100
AcDbEntity
  8
姿図
100
AcDbLine
 10
-1880.678263734631
 20
947.6620535571262
 30
0.0000000000000047
 11
-1878.517044785055
 21
949.140795264163
 31
0.0000000000000047
  0
SPLINE
  5
1D837
330
18
100
AcDbEntity
  8
姿図
100
AcDbSpline
210
0.0
220
0.0
230
1.0
 70
     8
 71
     3
 72
    14
 73
    10
 74
     0
 42
0.000000001
 43
0.0000000001
 40
0.0507684683112425
 40
0.0507684683112425
 40
0.0507684683112425
 40
0.0507684683112425
 40
16.17239265914957
 40
16.17239265914957
 40
33.44137084920912
 40
33.44137084920912
 40
41.29196149669883
 40
41.29196149669883
 40
46.30216709690585
 40
46.30216709690585
 40
46.30216709690585
 40
46.30216709690585
 10
-1858.072032318867
 20
935.527279976312
 30
-0.0000000000000026
 10
-1858.584645520644
 20
937.7667693607964
 30
-0.0000000000000026
 10
-1859.333874679283
 20
939.9794203918505
 30
-0.0000000000000026
 10
-1861.338540021957
 20
944.3259033355348
 30
-0.0000000000000026
 10
-1862.992084729313
 20
947.2292801366998
 30
-0.0000000000000026
 10
-1866.592101071032
 20
951.1840515661561
 30
-0.0000000000000026
 10
-1867.807925101492
 20
952.2980526094138
 30
-0.0000000000000026
 10
-1869.881917817662
 20
953.8589475699246
 30
-0.0000000000000026
 10
-1870.708446858964
 20
954.3995935534367
 30
-0.0000000000000026
 10
-1871.550185986187
 20
954.8728001759073
 30
-0.0000000000000026
  0
SPLINE
  5
1D838
330
18
100
AcDbEntity
  8
姿図
100
AcDbSpline
210
0.0
220
0.0
230
1.0
 70
     8
 71
     3
 72
     8
 73
     4
 74
     0
 42
0.000000001
 43
0.0000000001
 40
-29.73791167171498
 40
-29.73791167171498
 40
-29.73791167171498
 40
-29.73791167171498
 40
-21.81652578453031
 40
-21.81652578453031
 40
-21.81652578453031
 40
-21.81652578453031
 10
-1860.127649207249
 20
954.0546770539486
 30
0.0000000000000046
 10
-1855.634028995534
 20
952.9840720545053
 30
0.0000000000000117
 10
-1850.387754112036
 20
948.7379724190746
 30
0.0000000000000122
 10
-1849.224905164767
 20
939.1310939827736
 30
-0.0000000000000029
  0
SPLINE
  5
1D839
330
18
100
AcDbEntity
  8
姿図
100
AcDbSpline
210
0.0
220
0.0
230
1.0
 70
     8
 71
     3
 72
    11
 73
     7
 74
     0
 42
0.000000001
 43
0.0000000001
 40
5.0
 40
5.0
 40
5.0
 40
5.0
 40
6.0
 40
6.0
 40
6.0
 40
7.0
 40
7.0
 40
7.0
 40
7.0
 10
-1849.224905164767
 20
939.1310939827736
 30
-0.0000000000000029
 10
-1849.224905164767
 20
939.1310939827736
 30
-0.0000000000000029
 10
-1846.335314834871
 20
939.9901613781481
 30
-0.0000000000000029
 10
-1845.944829655155
 20
938.2720265873991
 30
-0.0000000000000029
 10
-1845.55434447544
 20
936.5538917966503
 30
-0.0000000000000029
 10
-1844.30479190035
 20
932.8833311073233
 30
-0.0000000000000029
 10
-1846.569605942701
 20
931.4775844603471
 30
-0.0000000000000029
  0
SPLINE
  5
1D83A
330
18
100
AcDbEntity
  8
姿図
100
AcDbSpline
210
0.0
220
0.0
230
1.0
 70
     8
 71
     3
 72
     8
 73
     4
 74
     0
 42
0.000000001
 43
0.0000000001
 40
5.0
 40
5.0
 40
5.0
 40
5.0
 40
6.0
 40
6.0
 40
6.0
 40
6.0
 10
-1848.678225913165
 20
938.740608803058
 30
-0.0000000000000029
 10
-1848.678225913165
 20
938.740608803058
 30
-0.0000000000000029
 10
-1846.257217798928
 20
939.365385090603
 30
-0.0000000000000029
 10
-1845.944829655155
 20
938.2720265873991
 30
-0.0000000000000029
  0
ELLIPSE
  5
1D83B
330
18
100
AcDbEntity
  8
姿図
100
AcDbEllipse
 10
-1848.756322949109
 20
934.3671747902426
 30
-0.0000000000000029
 11
0.2428329711356634
 21
-2.330708416427725
 31
0.0
210
0.0
220
0.0
230
1.0
 40
0.8832587106904687
 41
0.0
 42
6.283185307179586
  0
ELLIPSE
  5
1D83C
330
18
100
AcDbEntity
  8
姿図
100
AcDbEllipse
 10
-1848.542166233358
 20
934.3275161391778
 30
-0.0000000000000029
 11
0.2153769819369076
 21
-2.07262211795942
 31
0.0
210
0.0
220
0.0
230
1.0
 40
0.8834614323077812
 41
0.0
 42
6.283185307179586
  0
ELLIPSE
  5
1D83D
330
18
100
AcDbEntity
  8
姿図
100
AcDbEllipse
 10
-1848.366447902486
 20
934.3671747902426
 30
-0.0000000000000029
 11
0.1836500610850118
 21
-1.771826502959715
 31
0.0
210
0.0
220
0.0
230
1.0
 40
0.8833402404600682
 41
0.0
 42
6.283185307179586
  0
LINE
  5
1D83E
330
18
100
AcDbEntity
  8
姿図
100
AcDbLine
 10
-1854.846846048115
 20
935.9768231470052
 30
0.0000000000000122
 11
-1858.192609300118
 21
935.3589253948235
 31
0.0000000000000122
  0
LINE
  5
1D83F
330
18
100
AcDbEntity
  8
姿図
100
AcDbLine
 10
-1869.569541570275
 20
939.2013356828566
 30
0.0000000000000047
 11
-1869.506755956069
 21
939.244294637268
 31
0.0000000000000047
  0
LINE
  5
1D840
330
18
100
AcDbEntity
  8
姿図
100
AcDbLine
 10
-1877.626434999137
 20
944.3963354962409
 30
0.0000000000000047
 11
-1877.551488233949
 21
944.4476153110475
 31
0.0000000000000047
  0
SPLINE
  5
1D841
330
18
100
AcDbEntity
  8
姿図
100
AcDbSpline
210
0.0
220
0.0
230
1.0
 70
     8
 71
     3
 72
     8
 73
     4
 74
     0
 42
0.000000001
 43
0.0000000001
 40
-5.558709854342928
 40
-5.558709854342928
 40
-5.558709854342928
 40
-5.558709854342928
 40
-5.251204385375416
 40
-5.251204385375416
 40
-5.251204385375416
 40
-5.251204385375416
 10
-1851.177069118221
 20
937.3994637413621
 30
-0.0000000000000026
 10
-1851.150384983814
 20
937.420111239795
 30
-0.0000000000000026
 10
-1851.123491408756
 20
937.4401045166112
 30
-0.0000000000000153
 10
-1851.096408911751
 20
937.4593966211314
 30
-0.0000000000000153
  0
SPLINE
  5
1D842
330
18
100
AcDbEntity
  8
姿図
100
AcDbSpline
210
2.283894765959510E-6
220
-1.757936497269743E-5
230
-0.999999999842875
 70
     8
 71
     3
 72
     8
 73
     4
 74
     0
 42
0.000000001
 43
0.0000000001
 40
110.2937215201613
 40
110.2937215201613
 40
110.2937215201613
 40
110.2937215201613
 40
110.302956437032
 40
110.302956437032
 40
110.302956437032
 40
110.302956437032
 10
-1851.095971127361
 20
937.4594534969494
 30
-0.0000000000000026
 10
-1851.096117059819
 20
937.4594345373005
 30
-0.0000000000000153
 10
-1851.096262987838
 20
937.4594155787074
 30
-0.0000000000000026
 10
-1851.096408911751
 20
937.4593966211314
 30
-0.0000000000000153
  0
SPLINE
  5
1D843
330
18
100
AcDbEntity
  8
姿図
100
AcDbSpline
210
0.0
220
0.0
230
1.0
 70
     8
 71
     3
 72
     8
 73
     4
 74
     0
 42
0.000000001
 43
0.0000000001
 40
-5.558709854342928
 40
-5.558709854342928
 40
-5.558709854342928
 40
-5.558709854342928
 40
-5.251204385375416
 40
-5.251204385375416
 40
-5.251204385375416
 40
-5.251204385375416
 10
-1851.177023514989
 20
937.3994336999472
 30
-0.0000000000000026
 10
-1851.150339601172
 20
937.4200810276918
 30
-0.0000000000000026
 10
-1851.123446248438
 20
937.4400741392294
 30
-0.0000000000000153
 10
-1851.096363975314
 20
937.459366084267
 30
-0.0000000000000153
  0
SPLINE
  5
1D844
330
18
100
AcDbEntity
  8
姿図
100
AcDbSpline
210
2.283875921352596E-6
220
-1.757921979519078E-5
230
-0.9999999998428775
 70
     8
 71
     3
 72
     8
 73
     4
 74
     0
 42
0.000000001
 43
0.0000000001
 40
110.2937215201613
 40
110.2937215201613
 40
110.2937215201613
 40
110.2937215201613
 40
110.302956437032
 40
110.302956437032
 40
110.302956437032
 40
110.302956437032
 10
-1851.095926194545
 20
937.459422959615
 30
-0.0000000000000026
 10
-1851.096072125797
 20
937.459404000123
 30
-0.0000000000000153
 10
-1851.096218052608
 20
937.4593850416863
 30
-0.0000000000000026
 10
-1851.096363975314
 20
937.459366084267
 30
-0.0000000000000153
  0
LINE
  5
1D845
330
18
100
AcDbEntity
  8
姿図
100
AcDbLine
 10
-1851.176423012893
 20
941.9477100905904
 30
0.0000000000000047
 11
-1856.558681587023
 21
937.5624710511024
 31
0.0000000000000047
  0
LINE
  5
1D846
330
18
100
AcDbEntity
  8
姿図
100
AcDbLine
 10
-1855.317078536501
 20
942.6782688925748
 30
0.0000000000000015
 11
-1851.085760123478
 21
943.2906999701718
 31
0.0000000000000015
  0
LINE
  5
1D847
330
18
100
AcDbEntity
  8
姿図
100
AcDbLine
 10
-1855.848748412209
 20
942.6217551596255
 30
0.0000000000000015
 11
-1855.317078536501
 21
942.6782688925748
 31
0.0000000000000015
  0
LINE
  5
1D848
330
18
100
AcDbEntity
  8
姿図
100
AcDbLine
 10
-1857.792387070042
 20
941.8327198796726
 30
0.0000000000000015
 11
-1855.848748412209
 21
942.6217551596255
 31
0.0000000000000015
  0
SPLINE
  5
1D849
330
18
100
AcDbEntity
  8
姿図
100
AcDbSpline
210
0.0
220
0.0
230
1.0
 70
     8
 71
     3
 72
     8
 73
     4
 74
     0
 42
0.000000001
 43
0.0000000001
 40
20.17474574740567
 40
20.17474574740567
 40
20.17474574740567
 40
20.17474574740567
 40
20.51051228626665
 40
20.51051228626665
 40
20.51051228626665
 40
20.51051228626665
 10
-1858.040261642001
 20
935.3870610602628
 30
-0.0000000000000026
 10
-1858.050742614242
 20
935.4337553905111
 30
-0.0000000000000026
 10
-1858.061341433478
 20
935.4804950432956
 30
-0.0000000000000026
 10
-1858.072058892079
 20
935.5272822316551
 30
-0.0000000000000026
  0
LINE
  5
1D84A
330
18
100
AcDbEntity
  8
姿図
100
AcDbLine
 10
-1854.851851859528
 20
941.859565541226
 30
0.0000000000000015
 11
-1850.895282735549
 21
942.4746623582291
 31
0.0000000000000015
  0
LINE
  5
1D84B
330
18
100
AcDbEntity
  8
姿図
100
AcDbLine
 10
-1855.383521735235
 20
941.803051808276
 30
0.0000000000000015
 11
-1854.851851859528
 21
941.859565541226
 31
0.0000000000000015
  0
LINE
  5
1D84C
330
18
100
AcDbEntity
  8
姿図
100
AcDbLine
 10
-1857.470481872051
 20
940.9558340555498
 30
0.0000000000000015
 11
-1855.383521735235
 21
941.803051808276
 31
0.0000000000000015
  0
LINE
  5
1D84D
330
18
100
AcDbEntity
  8
姿図
100
AcDbLine
 10
-1878.185298868993
 20
945.0847175436006
 30
0.0000000000000047
 11
-1877.661322699005
 21
945.4432306948047
 31
0.0000000000000047
  0
LINE
  5
1D84E
330
18
100
AcDbEntity
  8
姿図
100
AcDbLine
 10
-1878.768513679255
 20
945.7564382752757
 30
0.0000000000000047
 11
-1877.875253220518
 21
946.3676218371452
 31
0.0000000000000047
  0
LINE
  5
1D84F
330
18
100
AcDbEntity
  8
姿図
100
AcDbLine
 10
-1879.377339971421
 20
946.4106352079473
 30
0.0000000000000047
 11
-1878.08918374203
 21
947.2920129794836
 31
0.0000000000000047
  0
LINE
  5
1D850
330
18
100
AcDbEntity
  8
姿図
100
AcDbLine
 10
-1869.435213799577
 20
927.514819632105
 30
0.0000000000000047
 11
-1866.594216266557
 21
929.458677075372
 31
0.0000000000000047
  0
LINE
  5
1D851
330
18
100
AcDbEntity
  8
姿図
100
AcDbLine
 10
-1869.447425415095
 20
928.5772301821735
 30
0.0000000000000047
 11
-1866.733893475379
 21
930.4338735608662
 31
0.0000000000000047
  0
LINE
  5
1D852
330
18
100
AcDbEntity
  8
姿図
100
AcDbLine
 10
-1869.496271877167
 20
932.8268723824467
 30
0.0000000000000047
 11
-1867.561653365508
 21
934.1505703265884
 31
0.0000000000000047
  0
LINE
  5
1D853
330
18
100
AcDbEntity
  8
姿図
100
AcDbLine
 10
-1869.471848646131
 20
930.7020512823105
 30
0.0000000000000047
 11
-1867.096584445488
 21
932.3272462859959
 31
0.0000000000000047
  0
LINE
  5
1D854
330
18
100
AcDbEntity
  8
姿図
100
AcDbLine
 10
-1869.484060261649
 20
931.7644618323782
 30
0.0000000000000047
 11
-1867.316864530307
 21
933.2472929522316
 31
0.0000000000000047
  0
LINE
  5
1D855
330
18
100
AcDbEntity
  8
姿図
100
AcDbLine
 10
-1869.459637030613
 20
929.6396407322422
 30
0.0000000000000047
 11
-1866.901846815234
 21
931.3897230504047
 31
0.0000000000000047
  0
LINE
  5
1D856
330
18
100
AcDbEntity
  8
姿図
100
AcDbLine
 10
-1869.508483492685
 20
933.8892829325143
 30
0.0000000000000047
 11
-1867.830093534687
 21
935.0376650675355
 31
0.0000000000000047
  0
LINE
  5
1D857
330
18
100
AcDbEntity
  8
姿図
100
AcDbLine
 10
-1869.520695108203
 20
934.9516934825831
 30
0.0000000000000047
 11
-1868.121479520149
 21
935.9090599019348
 31
0.0000000000000047
  0
LINE
  5
1D858
330
18
100
AcDbEntity
  8
姿図
100
AcDbLine
 10
-1869.532906723721
 20
936.0141040326516
 30
0.0000000000000047
 11
-1868.435238981281
 21
936.7651464346875
 31
0.0000000000000047
  0
LINE
  5
1D859
330
18
100
AcDbEntity
  8
姿図
100
AcDbLine
 10
-1869.545118339239
 20
937.0765145827188
 30
0.0000000000000047
 11
-1868.770918443518
 21
937.6062349405802
 31
0.0000000000000047
  0
LINE
  5
1D85A
330
18
100
AcDbEntity
  8
姿図
100
AcDbLine
 10
-1869.557329954757
 20
938.1389251327876
 30
0.0000000000000047
 11
-1869.128172508314
 21
938.4325617470072
 31
0.0000000000000047
  0
SPLINE
  5
1D85B
330
18
100
AcDbEntity
  8
姿図
100
AcDbSpline
210
0.0
220
0.0
230
1.0
 70
    24
 71
     3
 72
     8
 73
     4
 74
     0
 42
0.000000001
 43
0.0000000001
 40
4.0
 40
4.0
 40
4.0
 40
4.0
 40
5.0
 40
5.0
 40
5.0
 40
5.0
 10
-1858.946765873499
 20
933.6765041286208
 30
-0.0000000000000029
 10
-1858.946765873499
 20
933.6765041286208
 30
-0.0000000000000029
 10
-1849.224905164767
 20
939.1310939827736
 30
-0.0000000000000029
 10
-1849.224905164767
 20
939.1310939827736
 30
-0.0000000000000029
  0
SPLINE
  5
1D85C
330
18
100
AcDbEntity
  8
姿図
100
AcDbSpline
210
0.0
220
0.0
230
1.0
 70
     8
 71
     3
 72
     8
 73
     4
 74
     0
 42
0.000000001
 43
0.0000000001
 40
3.0
 40
3.0
 40
3.0
 40
3.0
 40
4.0
 40
4.0
 40
4.0
 40
4.0
 10
-1860.314684268691
 20
932.258554819778
 30
-0.0000000000000029
 10
-1860.314684268691
 20
932.258554819778
 30
-0.0000000000000029
 10
-1860.546534844148
 20
932.7515423591694
 30
-0.0000000000000029
 10
-1858.946765873499
 20
933.6765041286208
 30
-0.0000000000000029
  0
SPLINE
  5
1D85D
330
18
100
AcDbEntity
  8
姿図
100
AcDbSpline
210
0.0
220
0.0
230
1.0
 70
    24
 71
     3
 72
     8
 73
     4
 74
     0
 42
0.000000001
 43
0.0000000001
 40
2.0
 40
2.0
 40
2.0
 40
2.0
 40
3.0
 40
3.0
 40
3.0
 40
3.0
 10
-1860.392781304635
 20
930.228031885257
 30
-0.0000000000000029
 10
-1860.392781304635
 20
930.228031885257
 30
-0.0000000000000029
 10
-1860.314684268691
 20
932.258554819778
 30
-0.0000000000000029
 10
-1860.314684268691
 20
932.258554819778
 30
-0.0000000000000029
  0
SPLINE
  5
1D85E
330
18
100
AcDbEntity
  8
姿図
100
AcDbSpline
210
0.0
220
0.0
230
1.0
 70
     8
 71
     3
 72
     8
 73
     4
 74
     0
 42
0.000000001
 43
0.0000000001
 40
1.0
 40
1.0
 40
1.0
 40
1.0
 40
2.0
 40
2.0
 40
2.0
 40
2.0
 10
-1861.173751664065
 20
928.5879941304513
 30
-0.0000000000000029
 10
-1861.173751664065
 20
928.5879941304513
 30
-0.0000000000000029
 10
-1860.314684268691
 20
928.509897094508
 30
-0.0000000000000029
 10
-1860.392781304635
 20
930.228031885257
 30
-0.0000000000000029
  0
SPLINE
  5
1D85F
330
18
100
AcDbEntity
  8
姿図
100
AcDbSpline
210
0.0
220
0.0
230
1.0
 70
     8
 71
     3
 72
    11
 73
     7
 74
     0
 42
0.000000001
 43
0.0000000001
 40
3.0
 40
3.0
 40
3.0
 40
3.0
 40
4.0
 40
4.0
 40
4.0
 40
5.0
 40
5.0
 40
5.0
 40
5.0
 10
-1859.846102053033
 20
931.9461666760058
 30
-0.0000000000000029
 10
-1859.846102053033
 20
931.9461666760058
 30
-0.0000000000000029
 10
-1859.768005017089
 20
932.8052340713803
 30
-0.0000000000000029
 10
-1857.893676154455
 20
933.8204955386409
 30
-0.0000000000000029
 10
-1856.019347291819
 20
934.8357570059015
 30
-0.0000000000000029
 10
-1848.678225913165
 20
938.740608803058
 30
-0.0000000000000029
 10
-1848.678225913165
 20
938.740608803058
 30
-0.0000000000000029
  0
SPLINE
  5
1D860
330
18
100
AcDbEntity
  8
姿図
100
AcDbSpline
210
0.0
220
0.0
230
1.0
 70
    24
 71
     3
 72
     8
 73
     4
 74
     0
 42
0.000000001
 43
0.0000000001
 40
2.0
 40
2.0
 40
2.0
 40
2.0
 40
3.0
 40
3.0
 40
3.0
 40
3.0
 10
-1859.924199088976
 20
929.5251585617689
 30
-0.0000000000000029
 10
-1859.924199088976
 20
929.5251585617689
 30
-0.0000000000000029
 10
-1859.846102053033
 20
931.9461666760058
 30
-0.0000000000000029
 10
-1859.846102053033
 20
931.9461666760058
 30
-0.0000000000000029
  0
SPLINE
  5
1D861
330
18
100
AcDbEntity
  8
姿図
100
AcDbSpline
210
0.0
220
0.0
230
1.0
 70
     8
 71
     3
 72
     8
 73
     4
 74
     0
 42
0.000000001
 43
0.0000000001
 40
1.0
 40
1.0
 40
1.0
 40
1.0
 40
2.0
 40
2.0
 40
2.0
 40
2.0
 10
-1860.939460556237
 20
927.963217842906
 30
-0.0000000000000029
 10
-1860.939460556237
 20
927.963217842906
 30
-0.0000000000000029
 10
-1860.002296124919
 20
928.1194119147924
 30
-0.0000000000000029
 10
-1859.924199088976
 20
929.5251585617689
 30
-0.0000000000000029
  0
ELLIPSE
  5
1D862
330
18
100
AcDbEntity
  8
姿図
100
AcDbEllipse
 10
-1836.665613450976
 20
947.4093643274041
 30
0.0000000000000122
 11
-0.04307024783415563
 21
0.1888054742135976
 31
5.598986549208259E-18
210
-6.430221859997066E-18
220
2.818792899007104E-17
230
-1.0
 40
0.7445887406997004
 41
0.0194714738012121
 42
1.456954302896388
  0
LINE
  5
1D863
330
18
100
AcDbEntity
  8
姿図
100
AcDbLine
 10
-1839.34810412032
 20
935.6116892649939
 30
0.0000000000000122
 11
-1837.706135259544
 21
936.2621225155988
 31
0.0000000000000122
  0
LINE
  5
1D864
330
18
100
AcDbEntity
  8
姿図
100
AcDbLine
 10
-1837.706135259544
 20
936.2621225155988
 30
0.0000000000000122
 11
-1839.348490645704
 21
938.2154319103702
 31
0.0000000000000122
  0
LINE
  5
1D865
330
18
100
AcDbEntity
  8
姿図
100
AcDbLine
 10
-1840.008604432026
 20
937.9226687500748
 30
0.0000000000000122
 11
-1836.085573075444
 21
939.7345601781826
 31
0.0000000000000122
  0
SPLINE
  5
1D866
330
18
100
AcDbEntity
  8
姿図
100
AcDbSpline
210
0.0
220
0.0
230
1.0
 70
     8
 71
     3
 72
     8
 73
     4
 74
     0
 42
0.000000001
 43
0.0000000001
 40
0.0522524473711178
 40
0.0522524473711178
 40
0.0522524473711178
 40
0.0522524473711178
 40
3.974673657107151
 40
3.974673657107151
 40
3.974673657107151
 40
3.974673657107151
 10
-1839.992959063207
 20
937.8161675016856
 30
0.0000000000000122
 10
-1840.083752332642
 20
937.3574769041547
 30
0.0000000000000122
 10
-1840.197977841643
 20
936.9120824960908
 30
0.0000000000000122
 10
-1840.335425660487
 20
936.4829800154657
 30
0.0000000000000122
  0
ARC
  5
1D867
330
18
100
AcDbEntity
  8
姿図
100
AcDbCircle
 10
-1850.970498829775
 20
931.5704630499567
 30
-0.0000000000000146
 40
4.251358383233494
100
AcDbArc
 50
306.3504860386658
 51
358.7481707922232
  0
LINE
  5
1D868
330
18
100
AcDbEntity
  8
姿図
100
AcDbLine
 10
-1836.705938360139
 20
947.598758414395
 30
0.0000000000000122
 11
-1840.905546648845
 21
946.7556117809477
 31
0.0000000000000122
  0
ELLIPSE
  5
1D869
330
18
100
AcDbEntity
  8
姿図
100
AcDbEllipse
 10
-1844.336999436998
 20
946.5814514945589
 30
0.0000000000000122
 11
-6.175250020948564
 21
9.526104246520918
 31
4.623440665928955E-16
210
-9.645332789995639E-18
220
4.228189348510659E-17
230
-1.0
 40
0.6510494580119226
 41
1.884826547670682
 42
2.693896839940106
  0
LINE
  5
1D86A
330
18
100
AcDbEntity
  8
姿図
100
AcDbLine
 10
-1843.186809688552
 20
932.7244150773788
 30
0.0000000000000015
 11
-1846.52515420554
 21
929.6620849651654
 31
0.0000000000000015
  0
LINE
  5
1D86B
330
18
100
AcDbEntity
  8
姿図
100
AcDbLine
 10
-1841.139829673556
 20
935.4949702045501
 30
0.0000000000000015
 11
-1843.186809688552
 21
932.7244150773788
 31
0.0000000000000015
  0
LINE
  5
1D86C
330
18
100
AcDbEntity
  8
姿図
100
AcDbLine
 10
-1839.59316952135
 20
935.9014951683466
 30
0.0000000000000015
 11
-1838.085290335727
 21
934.2038902802212
 31
0.0000000000000015
  0
LINE
  5
1D86D
330
18
100
AcDbEntity
  8
姿図
100
AcDbLine
 10
-1840.355957163897
 20
936.4990644336226
 30
0.0000000000000015
 11
-1839.59316952135
 21
935.9014951683466
 31
0.0000000000000015
  0
SPLINE
  5
1D86E
330
18
100
AcDbEntity
  8
姿図
100
AcDbSpline
210
0.0
220
0.0
230
1.0
 70
     8
 71
     3
 72
    14
 73
    10
 74
     0
 42
0.000000001
 43
0.0000000001
 40
-17.67097520731171
 40
-17.67097520731171
 40
-17.67097520731171
 40
-17.67097520731171
 40
-15.46329434907155
 40
-15.46329434907155
 40
-11.48389074227961
 40
-11.48389074227961
 40
-5.954339038219556
 40
-5.954339038219556
 40
-0.5047492958822968
 40
-0.5047492958822968
 40
-0.5047492958822968
 40
-0.5047492958822968
 10
-1840.417529219383
 20
945.3855381955079
 30
0.0000000000000122
 10
-1840.311114191233
 20
945.0046162693784
 30
0.0000000000000046
 10
-1840.216495473631
 20
944.6232952401951
 30
0.0000000000000046
 10
-1839.986592383504
 20
943.5624278638488
 30
0.0000000000000046
 10
-1839.881049858154
 20
942.8960732694593
 30
0.0000000000000046
 10
-1839.721413964574
 20
941.2883491458215
 30
0.0000000000000122
 10
-1839.714912827809
 20
940.4906694790375
 30
0.0000000000000046
 10
-1839.78555216737
 20
939.117539463201
 30
0.0000000000000199
 10
-1839.866746339554
 20
938.4535820996398
 30
0.0000000000000199
 10
-1839.992947748668
 20
937.8161719575896
 30
0.0000000000000046
  0
ARC
  5
1D86F
330
18
100
AcDbEntity
  8
姿図
100
AcDbCircle
 10
-1865.845765200478
 20
928.6127905365518
 30
-0.0000000000000029
 40
25.74343985380927
100
AcDbArc
 50
86.50062563076675
 51
95.4838747417806
  0
LINE
  5
1D870
330
18
100
AcDbEntity
  8
姿図
100
AcDbLine
 10
-1852.835238603328
 20
955.9932172631638
 30
0.0000000000000087
 11
-1858.689941828628
 21
954.4525183329333
 31
0.0000000000000087
  0
ARC
  5
1D871
330
18
100
AcDbEntity
  8
姿図
100
AcDbCircle
 10
-1852.50293858323
 20
949.6337211066921
 30
0.0000000000000087
 40
7.042385568725733
100
AcDbArc
 50
72.46502945999049
 51
82.95695694361976
  0
LINE
  5
1D872
330
18
100
AcDbEntity
  8
姿図
100
AcDbLine
 10
-1851.816257391637
 20
957.2361582059198
 30
0.0000000000000122
 11
-1851.639436812309
 21
956.6229670739062
 31
0.0000000000000087
  0
ELLIPSE
  5
1D873
330
18
100
AcDbEntity
  8
姿図
100
AcDbEllipse
 10
-1852.325014348266
 20
957.3200349891226
 30
0.0000000000000122
 11
-0.493859489800556
 21
0.2939417366816048
 31
2.292246977576348E-17
210
-1.286044371999403E-17
220
5.637585798014207E-17
230
-1.0
 40
0.5954474281840118
 41
1.067175184772985
 42
2.559533103277177
  0
ARC
  5
1D874
330
18
100
AcDbEntity
  8
姿図
100
AcDbCircle
 10
-1862.062465508593
 20
858.2391487295245
 30
0.0000000000000123
 40
99.9474805491337
100
AcDbArc
 50
84.4580327350145
 51
95.72615034867906
  0
ARC
  5
1D875
330
18
100
AcDbEntity
  8
姿図
100
AcDbCircle
 10
-1866.975974751096
 20
929.4403306864535
 30
0.0000000000000046
 40
25.54927806912594
100
AcDbArc
 50
74.45210543303166
 51
94.83564678406209
  0
LINE
  5
1D876
330
18
100
AcDbEntity
  8
姿図
100
AcDbLine
 10
-1860.51002953351
 20
948.3674903285741
 30
0.0000000000000015
 11
-1853.695208726341
 21
948.6201073393381
 31
0.0000000000000015
  0
LINE
  5
1D877
330
18
100
AcDbEntity
  8
姿図
100
AcDbLine
 10
-1861.127207576244
 20
948.3052593612106
 30
0.0000000000000015
 11
-1860.51002953351
 21
948.3674903285741
 31
0.0000000000000015
  0
LINE
  5
1D878
330
18
100
AcDbEntity
  8
姿図
100
AcDbLine
 10
-1861.432341516368
 20
948.2119246341351
 30
0.0000000000000015
 11
-1861.127207576244
 21
948.3052593612106
 31
0.0000000000000015
  0
LINE
  5
1D879
330
18
100
AcDbEntity
  8
姿図
100
AcDbLine
 10
-1860.921257696447
 20
948.9692541354336
 30
0.0000000000000015
 11
-1854.10643688928
 21
949.2218711461978
 31
0.0000000000000015
  0
LINE
  5
1D87A
330
18
100
AcDbEntity
  8
姿図
100
AcDbLine
 10
-1861.538435739184
 20
948.9070231680705
 30
0.0000000000000015
 11
-1860.921257696447
 21
948.9692541354336
 31
0.0000000000000015
  0
LINE
  5
1D87B
330
18
100
AcDbEntity
  8
姿図
100
AcDbLine
 10
-1861.905195335656
 20
948.7948383130347
 30
0.0000000000000015
 11
-1861.538435739184
 21
948.9070231680705
 31
0.0000000000000015
  0
ARC
  5
1D87C
330
18
100
AcDbEntity
  8
姿図
100
AcDbCircle
 10
-1860.650956973612
 20
925.6827900981982
 30
-0.0000000000000105
 40
26.61141798800752
100
AcDbArc
 50
83.3367269243011
 51
99.49707069864934
  0
LINE
  5
1D87D
330
18
100
AcDbEntity
  8
姿図
100
AcDbLine
 10
-1856.625872446058
 20
951.4976161359318
 30
-0.0000000000000029
 11
-1862.867996666251
 21
949.8800225841517
 31
0.0000000000000047
  0
ARC
  5
1D87E
330
18
100
AcDbEntity
  8
姿図
100
AcDbCircle
 10
-1860.052132907683
 20
925.2048630704669
 30
-0.0000000000000105
 40
26.51505467677588
100
AcDbArc
 50
82.5755110408184
 51
99.41000613499361
  0
LINE
  5
1D87F
330
18
100
AcDbEntity
  8
姿図
100
AcDbLine
 10
-1841.845017560643
 20
953.1011945586761
 30
0.0000000000000122
 11
-1844.641696553206
 21
952.5511356575835
 31
0.0000000000000122
  0
LINE
  5
1D880
330
18
100
AcDbEntity
  8
姿図
100
AcDbLine
 10
-1842.634297287087
 20
953.1621034526859
 30
0.0000000000000122
 11
-1842.637943330746
 21
952.9452396282354
 31
0.0000000000000122
  0
LINE
  5
1D881
330
18
100
AcDbEntity
  8
姿図
100
AcDbLine
 10
-1838.428952475226
 20
951.0943795255407
 30
0.0000000000000122
 11
-1842.685799779008
 21
950.2397411339239
 31
0.0000000000000122
  0
LINE
  5
1D882
330
18
100
AcDbEntity
  8
姿図
100
AcDbLine
 10
-1841.449973499057
 20
952.6411511104138
 30
0.0000000000000122
 11
-1841.487086852205
 21
950.4336778991988
 31
0.0000000000000122
  0
ELLIPSE
  5
1D883
330
18
100
AcDbEntity
  8
姿図
100
AcDbEllipse
 10
-1842.944300288152
 20
953.2227343703603
 30
0.0000000000000122
 11
-0.09083069569013985
 21
0.3981712071506591
 31
0.0
210
0.0
220
0.0
230
-1.0
 40
0.7445887407020884
 41
0.0194714738088548
 42
1.889738879634891
  0
ELLIPSE
  5
1D884
330
18
100
AcDbEntity
  8
姿図
100
AcDbEllipse
 10
-1841.759976500121
 20
952.7017820280885
 30
0.0000000000000122
 11
-0.09083069569013985
 21
0.3981712071506591
 31
0.0
210
0.0
220
0.0
230
-1.0
 40
0.7445887407020884
 41
0.0194714738088548
 42
1.889738879634891
  0
ELLIPSE
  5
1D885
330
18
100
AcDbEntity
  8
姿図
100
AcDbEllipse
 10
-1838.343911414702
 20
950.694966994954
 30
0.0000000000000122
 11
-0.09083069569013985
 21
0.3981712071506591
 31
5.313457457117605E-17
210
-2.893599836998682E-17
220
1.268456804553197E-16
230
-1.0
 40
0.7445887407020884
 41
0.0194714738088548
 42
1.889738879634891
  0
LINE
  5
1D886
330
18
100
AcDbEntity
  8
姿図
100
AcDbLine
 10
-1843.029341348674
 20
953.6221469009488
 30
0.0000000000000122
 11
-1845.264144252516
 21
953.1825994116896
 31
0.0000000000000122
  0
LINE
  5
1D887
330
18
100
AcDbEntity
  8
姿図
100
AcDbLine
 10
-1880.882093774882
 20
1014.102395058152
 30
-0.0000000000000029
 11
-1880.892911083665
 21
1011.813118818468
 31
-0.0000000000000029
  0
LINE
  5
1D888
330
18
100
AcDbEntity
  8
姿図
100
AcDbLine
 10
-1880.892911083665
 20
1011.813118818468
 30
-0.0000000000000029
 11
-1881.595035605973
 21
1012.581812239858
 31
-0.0000000000000029
  0
LINE
  5
1D889
330
18
100
AcDbEntity
  8
姿図
100
AcDbLine
 10
-1890.536613460761
 20
1012.033505251271
 30
-0.0000000000000029
 11
-1889.714120096305
 21
1011.813118818468
 31
-0.0000000000000029
  0
SPLINE
  5
1D88A
330
18
100
AcDbEntity
  8
姿図
100
AcDbSpline
210
0.0
220
0.0
230
1.0
 70
     8
 71
     3
 72
     8
 73
     4
 74
     0
 42
0.000000001
 43
0.0000000001
 40
41.0
 40
41.0
 40
41.0
 40
41.0
 40
42.0
 40
42.0
 40
42.0
 40
42.0
 10
-1890.536613460761
 20
1010.492757771528
 30
-0.0000000000000029
 10
-1890.539132944807
 20
1011.263728237941
 30
-0.0000000000000029
 10
-1890.536613460761
 20
1012.033505251632
 30
-0.0000000000000029
 10
-1890.536613460761
 20
1012.033505251632
 30
-0.0000000000000029
  0
SPLINE
  5
1D88B
330
18
100
AcDbEntity
  8
姿図
100
AcDbSpline
210
0.0
220
0.0
230
1.0
 70
     8
 71
     3
 72
    14
 73
    10
 74
     0
 42
0.000000001
 43
0.0000000001
 40
46.0
 40
46.0
 40
46.0
 40
46.0
 40
47.0
 40
47.0
 40
47.0
 40
48.0
 40
48.0
 40
48.0
 40
49.0
 40
49.0
 40
49.0
 40
49.0
 10
-1890.630896226778
 20
1019.417397319194
 30
-0.0000000000000029
 10
-1890.630896226778
 20
1019.417397319194
 30
-0.0000000000000029
 10
-1890.536613460761
 20
1021.758951584052
 30
-0.0000000000000029
 10
-1885.587364971314
 20
1021.758951584052
 30
-0.0000000000000029
 10
-1880.638116481861
 20
1021.758951584052
 30
-0.0000000000000029
 10
-1879.94710734866
 20
1019.999802253562
 30
-0.0000000000000029
 10
-1879.94710734866
 20
1019.528388423496
 30
-0.0000000000000029
 10
-1879.94710734866
 20
1019.041459707871
 30
-0.0000000000000029
 10
-1879.94710734866
 20
1010.587040537583
 30
-0.0000000000000029
 10
-1879.94710734866
 20
1010.587040537583
 30
-0.0000000000000029
  0
LINE
  5
1D88C
330
18
100
AcDbEntity
  8
姿図
100
AcDbLine
 10
-1889.714120096305
 20
1011.813118818468
 30
-0.0000000000000029
 11
-1880.892911083665
 21
1011.813118818468
 31
-0.0000000000000029
  0
SPLINE
  5
1D88D
330
18
100
AcDbEntity
  8
姿図
100
AcDbSpline
210
0.0
220
0.0
230
1.0
 70
    24
 71
     3
 72
     8
 73
     4
 74
     0
 42
0.000000001
 43
0.0000000001
 40
5.0
 40
5.0
 40
5.0
 40
5.0
 40
6.0
 40
6.0
 40
6.0
 40
6.0
 10
-1882.884726665025
 20
976.383378354084
 30
-0.0000000000000029
 10
-1882.884726665025
 20
976.383378354084
 30
-0.0000000000000029
 10
-1879.05797170311
 20
976.0709901939276
 30
-0.0000000000000029
 10
-1879.05797170311
 20
976.0709901939276
 30
-0.0000000000000029
  0
SPLINE
  5
1D88E
330
18
100
AcDbEntity
  8
姿図
100
AcDbSpline
210
0.0
220
0.0
230
1.0
 70
    24
 71
     3
 72
     8
 73
     4
 74
     0
 42
0.000000001
 43
0.0000000001
 40
25.0
 40
25.0
 40
25.0
 40
25.0
 40
26.0
 40
26.0
 40
26.0
 40
26.0
 10
-1875.387412205715
 20
973.8061779415225
 30
-0.0000000000000029
 10
-1875.387412205715
 20
973.8061779415225
 30
-0.0000000000000029
 10
-1884.680959482947
 20
974.5090512650104
 30
-0.0000000000000029
 10
-1884.680959482947
 20
974.5090512650104
 30
-0.0000000000000029
  0
LINE
  5
1D88F
330
18
100
AcDbEntity
  8
姿図
100
AcDbLine
 10
-1880.541816577961
 20
978.4920000981101
 30
-0.0000000000000029
 11
-1882.884727656256
 21
978.4920000981101
 31
-0.0000000000000029
  0
LINE
  5
1D890
330
18
100
AcDbEntity
  8
姿図
100
AcDbLine
 10
-1898.972717060539
 20
979.4291645294277
 30
-0.0000000000000029
 11
-1880.932301757677
 21
979.5072615653708
 31
-0.0000000000000029
  0
LINE
  5
1D891
330
18
100
AcDbEntity
  8
姿図
100
AcDbLine
 10
-1901.784210354492
 20
984.1930837219584
 30
-0.0000000000000029
 11
-1901.784210354492
 21
1010.19939669102
 31
-0.0000000000000029
  0
SPLINE
  5
1D892
330
18
100
AcDbEntity
  8
姿図
100
AcDbSpline
210
0.0
220
0.0
230
1.0
 70
     8
 71
     3
 72
    11
 73
     7
 74
     0
 42
0.000000001
 43
0.0000000001
 40
1.0
 40
1.0
 40
1.0
 40
1.0
 40
2.0
 40
2.0
 40
2.0
 40
3.0
 40
3.0
 40
3.0
 40
3.0
 10
-1894.677379710933
 20
972.4004293120893
 30
-0.0000000000000029
 10
-1894.677379710933
 20
972.4004293120893
 30
-0.0000000000000029
 10
-1894.208797470697
 20
971.3070707515417
 30
-0.0000000000000029
 10
-1895.302156031245
 20
970.9946825913853
 30
-0.0000000000000029
 10
-1896.395514591793
 20
970.6822944312287
 30
-0.0000000000000029
 10
-1897.645067232418
 20
970.7603914712679
 30
-0.0000000000000029
 10
-1897.645067232418
 20
972.3223322720501
 30
-0.0000000000000029
  0
SPLINE
  5
1D893
330
18
100
AcDbEntity
  8
姿図
100
AcDbSpline
210
0.0
220
0.0
230
1.0
 70
     8
 71
     3
 72
     8
 73
     4
 74
     0
 42
0.000000001
 43
0.0000000001
 40
0.0
 40
0.0
 40
0.0
 40
0.0
 40
1.0
 40
1.0
 40
1.0
 40
1.0
 10
-1897.645067232418
 20
972.3223322720501
 30
-0.0000000000000029
 10
-1897.645067232418
 20
972.3223322720501
 30
-0.0000000000000029
 10
-1895.848835311519
 20
972.7128174722459
 30
-0.0000000000000029
 10
-1894.677379710933
 20
972.4004293120893
 30
-0.0000000000000029
  0
LINE
  5
1D894
330
18
100
AcDbEntity
  8
姿図
100
AcDbLine
 10
-1894.677379710933
 20
972.4004293120893
 30
-0.0000000000000029
 11
-1884.368570425769
 21
973.0252056324023
 31
-0.0000000000000029
  0
SPLINE
  5
1D895
330
18
100
AcDbEntity
  8
姿図
100
AcDbSpline
210
0.0
220
0.0
230
1.0
 70
    24
 71
     3
 72
     8
 73
     4
 74
     0
 42
0.000000001
 43
0.0000000001
 40
4.0
 40
4.0
 40
4.0
 40
4.0
 40
5.0
 40
5.0
 40
5.0
 40
5.0
 10
-1887.336257947256
 20
976.383378354084
 30
-0.0000000000000029
 10
-1887.336257947256
 20
976.383378354084
 30
-0.0000000000000029
 10
-1882.884726665025
 20
976.383378354084
 30
-0.0000000000000029
 10
-1882.884726665025
 20
976.383378354084
 30
-0.0000000000000029
  0
SPLINE
  5
1D896
330
18
100
AcDbEntity
  8
姿図
100
AcDbSpline
210
0.0
220
0.0
230
1.0
 70
    24
 71
     3
 72
     8
 73
     4
 74
     0
 42
0.000000001
 43
0.0000000001
 40
3.0
 40
3.0
 40
3.0
 40
3.0
 40
4.0
 40
4.0
 40
4.0
 40
4.0
 10
-1887.336257947256
 20
975.2119227534972
 30
-0.0000000000000029
 10
-1887.336257947256
 20
975.2119227534972
 30
-0.0000000000000029
 10
-1887.336257947256
 20
976.383378354084
 30
-0.0000000000000029
 10
-1887.336257947256
 20
976.383378354084
 30
-0.0000000000000029
  0
SPLINE
  5
1D897
330
18
100
AcDbEntity
  8
姿図
100
AcDbSpline
210
0.0
220
0.0
230
1.0
 70
     8
 71
     3
 72
    11
 73
     7
 74
     0
 42
0.000000001
 43
0.0000000001
 40
1.0
 40
1.0
 40
1.0
 40
1.0
 40
2.0
 40
2.0
 40
2.0
 40
3.0
 40
3.0
 40
3.0
 40
3.0
 10
-1900.690851793945
 20
974.1185641929501
 30
-0.0000000000000029
 10
-1900.690851793945
 20
974.1185641929501
 30
-0.0000000000000029
 10
-1901.237531074218
 20
974.5090493931455
 30
-0.0000000000000029
 10
-1895.692641231441
 20
974.8214375533018
 30
-0.0000000000000029
 10
-1890.147751388664
 20
975.133825713458
 30
-0.0000000000000029
 10
-1887.336257947256
 20
975.2119227534972
 30
-0.0000000000000029
 10
-1887.336257947256
 20
975.2119227534972
 30
-0.0000000000000029
  0
SPLINE
  5
1D898
330
18
100
AcDbEntity
  8
姿図
100
AcDbSpline
210
0.0
220
0.0
230
1.0
 70
    24
 71
     3
 72
     8
 73
     4
 74
     0
 42
0.000000001
 43
0.0000000001
 40
0.0
 40
0.0
 40
0.0
 40
0.0
 40
1.0
 40
1.0
 40
1.0
 40
1.0
 10
-1900.690851793945
 20
973.4156908325976
 30
-0.0000000000000029
 10
-1900.690851793945
 20
973.4156908325976
 30
-0.0000000000000029
 10
-1900.690851793945
 20
974.1185641929501
 30
-0.0000000000000029
 10
-1900.690851793945
 20
974.1185641929501
 30
-0.0000000000000029
  0
LINE
  5
1D899
330
18
100
AcDbEntity
  8
姿図
100
AcDbLine
 10
-1882.884726665025
 20
976.383378354084
 30
-0.0000000000000029
 11
-1882.884726665025
 21
974.5090493931455
 31
-0.0000000000000029
  0
LINE
  5
1D89A
330
18
100
AcDbEntity
  8
姿図
100
AcDbLine
 10
-1900.066075473632
 20
975.5243109136536
 30
-0.0000000000000029
 11
-1887.336257947256
 21
976.383378354084
 31
-0.0000000000000029
  0
LINE
  5
1D89B
330
18
100
AcDbEntity
  8
姿図
100
AcDbLine
 10
-1900.378463633788
 20
974.3528553130673
 30
-0.0000000000000029
 11
-1900.066075473632
 21
975.5243109136536
 31
-0.0000000000000029
  0
SPLINE
  5
1D89C
330
18
100
AcDbEntity
  8
姿図
100
AcDbSpline
210
0.0
220
0.0
230
1.0
 70
     8
 71
     3
 72
     8
 73
     4
 74
     0
 42
0.000000001
 43
0.0000000001
 40
16.0
 40
16.0
 40
16.0
 40
16.0
 40
17.0
 40
17.0
 40
17.0
 40
17.0
 10
-1884.915250590777
 20
974.3528571931242
 30
-0.0000000000000029
 10
-1884.915250590777
 20
974.3528571931242
 30
-0.0000000000000029
 10
-1883.431406907857
 20
974.6652453368965
 30
-0.0000000000000029
 10
-1883.197115800027
 20
972.1661401867166
 30
-0.0000000000000029
  0
SPLINE
  5
1D89D
330
18
100
AcDbEntity
  8
姿図
100
AcDbSpline
210
0.0
220
0.0
230
1.0
 70
    24
 71
     3
 72
     8
 73
     4
 74
     0
 42
0.000000001
 43
0.0000000001
 40
15.0
 40
15.0
 40
15.0
 40
15.0
 40
16.0
 40
16.0
 40
16.0
 40
16.0
 10
-1903.346151073355
 20
973.1033046180341
 30
-0.0000000000000029
 10
-1903.346151073355
 20
973.1033046180341
 30
-0.0000000000000029
 10
-1884.915250590777
 20
974.3528571931242
 30
-0.0000000000000029
 10
-1884.915250590777
 20
974.3528571931242
 30
-0.0000000000000029
  0
SPLINE
  5
1D89E
330
18
100
AcDbEntity
  8
姿図
100
AcDbSpline
210
0.0
220
0.0
230
1.0
 70
     8
 71
     3
 72
     8
 73
     4
 74
     0
 42
0.000000001
 43
0.0000000001
 40
14.0
 40
14.0
 40
14.0
 40
14.0
 40
15.0
 40
15.0
 40
15.0
 40
15.0
 10
-1904.283315504672
 20
971.6194609351146
 30
-0.0000000000000029
 10
-1904.283315504672
 20
971.6194609351146
 30
-0.0000000000000029
 10
-1904.517606612501
 20
973.1033046180341
 30
-0.0000000000000029
 10
-1903.346151073355
 20
973.1033046180341
 30
-0.0000000000000029
  0
SPLINE
  5
1D89F
330
18
100
AcDbEntity
  8
姿図
100
AcDbSpline
210
0.0
220
0.0
230
1.0
 70
     8
 71
     3
 72
     8
 73
     4
 74
     0
 42
0.000000001
 43
0.0000000001
 40
6.0
 40
6.0
 40
6.0
 40
6.0
 40
7.0
 40
7.0
 40
7.0
 40
7.0
 10
-1902.95566589364
 20
972.5566253664324
 30
-0.0000000000000029
 10
-1902.95566589364
 20
972.5566253664324
 30
-0.0000000000000029
 10
-1903.814733289014
 20
972.8690135102047
 30
-0.0000000000000029
 10
-1904.049024396843
 20
970.7603935397406
 30
-0.0000000000000029
  0
SPLINE
  5
1D8A0
330
18
100
AcDbEntity
  8
姿図
100
AcDbSpline
210
0.0
220
0.0
230
1.0
 70
    24
 71
     3
 72
     8
 73
     4
 74
     0
 42
0.000000001
 43
0.0000000001
 40
5.0
 40
5.0
 40
5.0
 40
5.0
 40
6.0
 40
6.0
 40
6.0
 40
6.0
 10
-1885.383832806436
 20
973.8061779415225
 30
-0.0000000000000029
 10
-1885.383832806436
 20
973.8061779415225
 30
-0.0000000000000029
 10
-1902.95566589364
 20
972.5566253664324
 30
-0.0000000000000029
 10
-1902.95566589364
 20
972.5566253664324
 30
-0.0000000000000029
  0
SPLINE
  5
1D8A1
330
18
100
AcDbEntity
  8
姿図
100
AcDbSpline
210
0.0
220
0.0
230
1.0
 70
     8
 71
     3
 72
     8
 73
     4
 74
     0
 42
0.000000001
 43
0.0000000001
 40
4.0
 40
4.0
 40
4.0
 40
4.0
 40
5.0
 40
5.0
 40
5.0
 40
5.0
 10
-1883.899989123515
 20
972.400431294546
 30
-0.0000000000000029
 10
-1883.899989123515
 20
972.400431294546
 30
-0.0000000000000029
 10
-1884.056183195402
 20
973.8842749774656
 30
-0.0000000000000029
 10
-1885.383832806436
 20
973.8061779415225
 30
-0.0000000000000029
  0
SPLINE
  5
1D8A2
330
18
100
AcDbEntity
  8
姿図
100
AcDbSpline
210
0.0
220
0.0
230
1.0
 70
    24
 71
     3
 72
     8
 73
     4
 74
     0
 42
0.000000001
 43
0.0000000001
 40
2.0
 40
2.0
 40
2.0
 40
2.0
 40
3.0
 40
3.0
 40
3.0
 40
3.0
 10
-1896.864097090076
 20
978.8043882418824
 30
-0.0000000000000029
 10
-1896.864097090076
 20
978.8043882418824
 30
-0.0000000000000029
 10
-1896.942194126018
 20
976.070991983873
 30
-0.0000000000000029
 10
-1896.942194126018
 20
976.070991983873
 30
-0.0000000000000029
  0
SPLINE
  5
1D8A3
330
18
100
AcDbEntity
  8
姿図
100
AcDbSpline
210
0.0
220
0.0
230
1.0
 70
     8
 71
     3
 72
     8
 73
     4
 74
     0
 42
0.000000001
 43
0.0000000001
 40
1.0
 40
1.0
 40
1.0
 40
1.0
 40
2.0
 40
2.0
 40
2.0
 40
2.0
 10
-1883.197115800027
 20
978.6481941699963
 30
-0.0000000000000029
 10
-1883.197115800027
 20
978.6481941699963
 30
-0.0000000000000029
 10
-1888.273423136331
 20
979.8196497091433
 30
-0.0000000000000029
 10
-1896.864097090076
 20
978.8043882418824
 30
-0.0000000000000029
  0
SPLINE
  5
1D8A4
330
18
100
AcDbEntity
  8
姿図
100
AcDbSpline
210
0.0
220
0.0
230
1.0
 70
    24
 71
     3
 72
     8
 73
     4
 74
     0
 42
0.000000001
 43
0.0000000001
 40
0.0
 40
0.0
 40
0.0
 40
0.0
 40
1.0
 40
1.0
 40
1.0
 40
1.0
 10
-1882.962824692198
 20
976.695768271418
 30
-0.0000000000000029
 10
-1882.962824692198
 20
976.695768271418
 30
-0.0000000000000029
 10
-1883.197115800027
 20
978.6481941699963
 30
-0.0000000000000029
 10
-1883.197115800027
 20
978.6481941699963
 30
-0.0000000000000029
  0
LINE
  5
1D8A5
330
18
100
AcDbEntity
  8
姿図
100
AcDbLine
 10
-1898.582231880824
 20
978.5700971340532
 30
-0.0000000000000029
 11
-1901.784210354492
 21
984.1930837219584
 31
-0.0000000000000029
  0
LINE
  5
1D8A6
330
18
100
AcDbEntity
  8
姿図
100
AcDbLine
 10
-1896.942194126018
 20
978.4920000981101
 30
-0.0000000000000029
 11
-1898.582231880824
 21
978.5700971340532
 31
-0.0000000000000029
  0
LINE
  5
1D8A7
330
18
100
AcDbEntity
  8
姿図
100
AcDbLine
 10
-1890.694431250568
 20
981.6939785717782
 30
-0.0000000000000029
 11
-1890.772528286511
 21
979.5853586013136
 31
-0.0000000000000029
  0
LINE
  5
1D8A8
330
18
100
AcDbEntity
  8
姿図
100
AcDbLine
 10
-1892.959245292919
 20
981.6158815358351
 30
-0.0000000000000029
 11
-1890.694431250568
 21
981.6939785717782
 31
-0.0000000000000029
  0
LINE
  5
1D8A9
330
18
100
AcDbEntity
  8
姿図
100
AcDbLine
 10
-1892.881148256975
 20
979.5072615653708
 30
-0.0000000000000029
 11
-1892.959245292919
 21
981.6158815358351
 31
-0.0000000000000029
  0
SPLINE
  5
1D8AA
330
18
100
AcDbEntity
  8
姿図
100
AcDbSpline
210
0.0
220
0.0
230
1.0
 70
    24
 71
     3
 72
     8
 73
     4
 74
     0
 42
0.000000001
 43
0.0000000001
 40
6.0
 40
6.0
 40
6.0
 40
6.0
 40
7.0
 40
7.0
 40
7.0
 40
7.0
 10
-1879.05797170311
 20
976.0709901939276
 30
-0.0000000000000029
 10
-1879.05797170311
 20
976.0709901939276
 30
-0.0000000000000029
 10
-1878.901777623032
 20
974.1966612329888
 30
-0.0000000000000029
 10
-1878.901777623032
 20
974.1966612329888
 30
-0.0000000000000029
  0
SPLINE
  5
1D8AB
330
18
100
AcDbEntity
  8
姿図
100
AcDbSpline
210
0.0
220
0.0
230
1.0
 70
     8
 71
     3
 72
     8
 73
     4
 74
     0
 42
0.000000001
 43
0.0000000001
 40
24.0
 40
24.0
 40
24.0
 40
24.0
 40
25.0
 40
25.0
 40
25.0
 40
25.0
 10
-1874.450247774397
 20
971.6975579710579
 30
-0.0000000000000029
 10
-1874.450247774397
 20
971.6975579710579
 30
-0.0000000000000029
 10
-1874.76263591817
 20
973.7280809055792
 30
-0.0000000000000029
 10
-1875.387412205715
 20
973.8061779415225
 30
-0.0000000000000029
  0
LINE
  5
1D8AC
330
18
100
AcDbEntity
  8
姿図
100
AcDbLine
 10
-1873.747374450909
 20
982.2406578233802
 30
-0.0000000000000029
 11
-1880.541816577961
 21
978.4920000981101
 31
-0.0000000000000029
  0
LINE
  5
1D8AD
330
18
100
AcDbEntity
  8
姿図
100
AcDbLine
 10
-1874.137859630625
 20
983.8806955781856
 30
-0.0000000000000029
 11
-1872.810210019591
 21
984.1149866860153
 31
-0.0000000000000029
  0
LINE
  5
1D8AE
330
18
100
AcDbEntity
  8
姿図
100
AcDbLine
 10
-1880.932301757677
 20
979.5072615653708
 30
-0.0000000000000029
 11
-1874.137859630625
 21
983.8806955781856
 31
-0.0000000000000029
  0
LINE
  5
1D8AF
330
18
100
AcDbEntity
  8
姿図
100
AcDbLine
 10
-1874.137859630625
 20
983.8806955781856
 30
-0.0000000000000029
 11
-1873.981665558739
 21
982.1625607874371
 31
-0.0000000000000029
  0
LINE
  5
1D8B0
330
18
100
AcDbEntity
  8
姿図
100
AcDbLine
 10
-1880.932301757677
 20
979.5072615653708
 30
-0.0000000000000029
 11
-1880.541816577961
 21
978.4920000981101
 31
-0.0000000000000029
  0
SPLINE
  5
1D8B1
330
18
100
AcDbEntity
  8
姿図
100
AcDbSpline
210
0.0
220
0.0
230
1.0
 70
     8
 71
     3
 72
     8
 73
     4
 74
     0
 42
0.000000001
 43
0.0000000001
 40
49.0
 40
49.0
 40
49.0
 40
49.0
 40
49.66101424066932
 40
49.66101424066932
 40
49.66101424066932
 40
49.66101424066932
 10
-1879.94710734866
 20
1010.587040537583
 30
-0.0000000000000029
 10
-1879.94710734866
 20
1010.587040537583
 30
-0.0000000000000029
 10
-1878.333688356168
 20
1010.456673779929
 30
-0.0000000000000029
 10
-1876.903756526714
 20
1010.173190253864
 30
-0.0000000000000029
  0
LINE
  5
1D8B2
330
18
100
AcDbEntity
  8
姿図
100
AcDbLine
 10
-1881.595035605973
 20
1014.514012216271
 30
-0.0000000000000029
 11
-1880.882093774882
 21
1014.102395058152
 31
-0.0000000000000029
  0
LINE
  5
1D8B4
330
18
100
AcDbEntity
  8
姿図
100
AcDbLine
 10
-1883.777953456351
 20
1016.333441833424
 30
-0.0000000000000029
 11
-1883.053176660145
 21
1015.950040201337
 31
-0.0000000000000029
  0
LINE
  5
1D8B5
330
18
100
AcDbEntity
  8
姿図
100
AcDbLine
 10
-1883.777953456351
 20
1017.429573615217
 30
-0.0000000000000029
 11
-1883.053176660145
 21
1017.94214490732
 31
-0.0000000000000029
  0
LINE
  5
1D8B6
330
18
100
AcDbEntity
  8
姿図
100
AcDbLine
 10
-1887.373633170419
 20
1015.950040201337
 30
-0.0000000000000029
 11
-1888.27643984952
 21
1016.333441833424
 31
-0.0000000000000029
  0
LINE
  5
1D8B7
330
18
100
AcDbEntity
  8
姿図
100
AcDbLine
 10
-1883.053176660145
 20
1015.950040201337
 30
-0.0000000000000029
 11
-1887.373633170419
 21
1015.950040201337
 31
-0.0000000000000029
  0
LINE
  5
1D8B8
330
18
100
AcDbEntity
  8
姿図
100
AcDbLine
 10
-1883.053176660145
 20
1017.94214490732
 30
-0.0000000000000029
 11
-1883.053176660145
 21
1015.950040201337
 31
-0.0000000000000029
  0
LINE
  5
1D8B9
330
18
100
AcDbEntity
  8
姿図
100
AcDbLine
 10
-1887.388640329096
 20
1017.94214490732
 30
-0.0000000000000029
 11
-1883.053176660145
 21
1017.94214490732
 31
-0.0000000000000029
  0
LINE
  5
1D8BA
330
18
100
AcDbEntity
  8
姿図
100
AcDbLine
 10
-1888.27643984952
 20
1017.429573615217
 30
-0.0000000000000029
 11
-1887.388640329096
 21
1017.94214490732
 31
-0.0000000000000029
  0
LINE
  5
1D8BB
330
18
100
AcDbEntity
  8
姿図
100
AcDbLine
 10
-1883.777953456351
 20
1017.429573615217
 30
-0.0000000000000029
 11
-1888.27643984952
 21
1017.429573615217
 31
-0.0000000000000029
  0
LINE
  5
1D8BC
330
18
100
AcDbEntity
  8
姿図
100
AcDbLine
 10
-1883.777953456351
 20
1016.333441833424
 30
-0.0000000000000029
 11
-1883.777953456351
 21
1017.429573615217
 31
-0.0000000000000029
  0
LINE
  5
1D8BD
330
18
100
AcDbEntity
  8
姿図
100
AcDbLine
 10
-1888.27643984952
 20
1016.333441833424
 30
-0.0000000000000029
 11
-1883.777953456351
 21
1016.333441833424
 31
-0.0000000000000029
  0
LINE
  5
1D8BE
330
18
100
AcDbEntity
  8
姿図
100
AcDbLine
 10
-1888.27643984952
 20
1017.362463614817
 30
-0.0000000000000029
 11
-1888.27643984952
 21
1016.333441833424
 31
-0.0000000000000029
  0
LINE
  5
1D8BF
330
18
100
AcDbEntity
  8
姿図
100
AcDbLine
 10
-1881.595035605973
 20
1014.514012216271
 30
-0.0000000000000029
 11
-1881.595035605973
 21
1012.581812239858
 31
-0.0000000000000029
  0
ARC
  5
1D8C0
330
18
100
AcDbEntity
  8
姿図
100
AcDbCircle
 10
-1885.489974016673
 20
986.6271657124694
 30
-0.0000000000000029
 40
26.24527046127078
100
AcDbArc
 50
81.46547474947272
 51
102.6277850518559
  0
ARC
  5
1D8C1
330
18
100
AcDbEntity
  8
姿図
100
AcDbCircle
 10
-1885.489974016673
 20
988.5593656888491
 30
-0.0000000000000029
 40
26.24527046127078
100
AcDbArc
 50
81.46547474947272
 51
102.6277850518559
  0
SPLINE
  5
1D8C2
330
18
100
AcDbEntity
  8
姿図
100
AcDbSpline
210
0.0
220
0.0
230
1.0
 70
    24
 71
     3
 72
     8
 73
     4
 74
     0
 42
0.000000001
 43
0.0000000001
 40
45.0
 40
45.0
 40
45.0
 40
45.0
 40
46.0
 40
46.0
 40
46.0
 40
46.0
 10
-1890.442330694739
 20
1014.279583297714
 30
-0.0000000000000029
 10
-1890.442330694739
 20
1014.279583297714
 30
-0.0000000000000029
 10
-1890.630896226778
 20
1019.417397319194
 30
-0.0000000000000029
 10
-1890.630896226778
 20
1019.417397319194
 30
-0.0000000000000029
  0
SPLINE
  5
1D8C3
330
18
100
AcDbEntity
  8
姿図
100
AcDbSpline
210
0.0
220
0.0
230
1.0
 70
    24
 71
     3
 72
     8
 73
     4
 74
     0
 42
0.000000001
 43
0.0000000001
 40
44.0
 40
44.0
 40
44.0
 40
44.0
 40
45.0
 40
45.0
 40
45.0
 40
45.0
 10
-1891.227622593962
 20
1014.169785646144
 30
-0.0000000000000029
 10
-1891.227622593962
 20
1014.169785646144
 30
-0.0000000000000029
 10
-1890.442330694739
 20
1014.279583297714
 30
-0.0000000000000029
 10
-1890.442330694739
 20
1014.279583297714
 30
-0.0000000000000029
  0
SPLINE
  5
1D8C4
330
18
100
AcDbEntity
  8
姿図
100
AcDbSpline
210
0.0
220
0.0
230
1.0
 70
    24
 71
     3
 72
     8
 73
     4
 74
     0
 42
0.000000001
 43
0.0000000001
 40
43.0
 40
43.0
 40
43.0
 40
43.0
 40
44.0
 40
44.0
 40
44.0
 40
44.0
 10
-1891.227622593962
 20
1012.237585669202
 30
-0.0000000000000029
 10
-1891.227622593962
 20
1012.237585669202
 30
-0.0000000000000029
 10
-1891.227622593962
 20
1014.169785646144
 30
-0.0000000000000029
 10
-1891.227622593962
 20
1014.169785646144
 30
-0.0000000000000029
  0
SPLINE
  5
1D8C5
330
18
100
AcDbEntity
  8
姿図
100
AcDbSpline
210
0.0
220
0.0
230
1.0
 70
    24
 71
     3
 72
     8
 73
     4
 74
     0
 42
0.000000001
 43
0.0000000001
 40
42.0
 40
42.0
 40
42.0
 40
42.0
 40
43.0
 40
43.0
 40
43.0
 40
43.0
 10
-1890.536613460761
 20
1012.033505251632
 30
-0.0000000000000029
 10
-1890.536613460761
 20
1012.033505251632
 30
-0.0000000000000029
 10
-1891.227622593962
 20
1012.237585669202
 30
-0.0000000000000029
 10
-1891.227622593962
 20
1012.237585669202
 30
-0.0000000000000029
  0
LINE
  5
1D92C
330
18
100
AcDbEntity
  8
姿図
100
AcDbLine
 10
-1806.662020575763
 20
1010.433687798849
 30
-0.0000000000000029
 11
-1806.662020575763
 21
984.661665937617
 31
-0.0000000000000029
  0
LINE
  5
1D92D
330
18
100
AcDbEntity
  8
姿図
100
AcDbLine
 10
-1806.662020575763
 20
984.661665937617
 30
-0.0000000000000029
 11
-1808.536349438397
 21
982.2406578233802
 31
-0.0000000000000029
  0
TEXT
  5
1D940
330
18
100
AcDbEntity
  8
文字
100
AcDbText
 10
-1902.592170019639
 20
878.0584882918754
 30
0.0
 40
9.0
  1
SX-503CBPC
100
AcDbText
  0
ENDSEC
  0
SECTION
  2
OBJECTS
  0
DICTIONARY
  5
C
330
0
100
AcDbDictionary
281
     1
  3
ACAD_GROUP
350
D
  3
ACAD_IMAGE_VARS
350
1DA4D
  3
ACAD_LAYOUT
350
40CB
  3
ACAD_MLINESTYLE
350
E
  3
ACAD_PLOTSETTINGS
350
40CC
  3
ACAD_PLOTSTYLENAME
350
40C9
  3
ACAD_SCALELIST
350
171C9
  3
AcDbVariableDictionary
350
6377
  3
AEC_DISP_REPS
350
1DA56
  3
AEC_DISPLAY_PROPS_DEFAULTS
350
1DA58
  3
AEC_VARS
350
1DA54
  3
APPDATA
350
1DA4C
  3
DWGPROPS
350
1DAB4
  0
DICTIONARY
  5
189BB
330
2
100
AcDbDictionary
280
     1
281
     1
  3
ACAD_LAYERSTATES
360
189BC
  0
DICTIONARY
  5
171F1
330
F
100
AcDbDictionary
280
     1
281
     1
  3
ADSK_XREC_LAYER_RECONCILED
360
171F2
  0
DICTIONARY
  5
171F9
330
4C
100
AcDbDictionary
280
     1
281
     1
  3
ADSK_XREC_LAYER_RECONCILED
360
171FA
  0
DICTIONARY
  5
171FB
330
4D
100
AcDbDictionary
280
     1
281
     1
  3
ADSK_XREC_LAYER_RECONCILED
360
171FC
  0
DICTIONARY
  5
171FF
330
40D4
100
AcDbDictionary
280
     1
281
     1
  3
ADSK_XREC_LAYER_RECONCILED
360
17200
  0
DICTIONARY
  5
D
102
{ACAD_REACTORS
330
C
102
}
330
C
100
AcDbDictionary
281
     1
  0
RASTERVARIABLES
  5
1DA4D
102
{ACAD_REACTORS
330
C
102
}
330
C
100
AcDbRasterVariables
 90
        0
 70
     1
 71
     1
 72
     0
  0
DICTIONARY
  5
40CB
102
{ACAD_REACTORS
330
C
102
}
330
C
100
AcDbDictionary
281
     1
  3
Model
350
40CD
  3
ﾚｲｱｳﾄ1
350
40CE
  0
DICTIONARY
  5
E
102
{ACAD_REACTORS
330
C
102
}
330
C
100
AcDbDictionary
281
     1
  3
STANDARD
350
1B
  0
DICTIONARY
  5
40CC
102
{ACAD_REACTORS
330
C
102
}
330
C
100
AcDbDictionary
281
     1
  0
ACDBDICTIONARYWDFLT
  5
40C9
102
{ACAD_REACTORS
330
C
102
}
330
C
100
AcDbDictionary
281
     1
  3
Normal
350
40CA
100
AcDbDictionaryWithDefault
340
40CA
  0
DICTIONARY
  5
171C9
102
{ACAD_REACTORS
330
C
102
}
330
C
100
AcDbDictionary
281
     1
  3
A0
350
171CA
  3
A1
350
171CB
  3
A2
350
171CC
  3
A3
350
171CD
  3
A4
350
171CE
  3
A5
350
171CF
  3
A6
350
171D0
  3
A7
350
171D1
  3
A8
350
171D2
  3
A9
350
171D3
  3
B0
350
171D4
  3
B1
350
171D5
  3
B2
350
171D6
  3
B3
350
171D7
  3
B4
350
171D8
  3
B5
350
171D9
  3
B6
350
171DA
  3
B7
350
171DB
  3
B8
350
171DC
  3
B9
350
171DD
  3
C0
350
171DE
  3
C1
350
171DF
  3
C2
350
171E0
  3
C3
350
171E1
  3
C4
350
171E2
  3
C5
350
171E3
  3
C6
350
171E4
  3
C7
350
171E5
  3
C8
350
171E6
  3
C9
350
171E7
  3
D0
350
171E8
  3
D1
350
171E9
  3
D2
350
171EA
  0
DICTIONARY
  5
6377
102
{ACAD_REACTORS
330
C
102
}
330
C
100
AcDbDictionary
281
     1
  3
DIMASSOC
350
73F2
  3
INDEXCTL
350
17245
  3
PROJECTNAME
350
12912
  3
SORTENTS
350
6378
  0
DICTIONARY
  5
1DA56
102
{ACAD_REACTORS
330
C
102
}
330
C
100
AcDbDictionary
281
     1
  3
AecDbDispRep2dSection
350
1DA57
  3
AecDbDispRepAnchor
350
1DA91
  3
AecDbDispRepAnchorEntToNode
350
1DA92
  3
AecDbDispRepClipVolModel
350
1DA5E
  3
AecDbDispRepClipVolPlan
350
1DA60
  3
AecDbDispRepClipVolResSubDiv
350
1DA63
  3
AecDbDispRepClipVolResult
350
1DA62
  3
AecDbDispRepDisplayTheme
350
1DA65
  3
AecDbDispRepEditInPlaceProfile
350
1DA96
  3
AecDbDispRepEntRef
350
1DA67
  3
AecDbDispRepLayoutCurve
350
1DA69
  3
AecDbDispRepLayoutGrid2d
350
1DA6B
  3
AecDbDispRepLayoutGrid3d
350
1DA6D
  3
AecDbDispRepMaskBlockRef
350
1DA6F
  3
AecDbDispRepMaskBlockRefRcp
350
1DA71
  3
AecDbDispRepMassElemModel
350
1DA73
  3
AecDbDispRepMassElemPlan100
350
1DA79
  3
AecDbDispRepMassElemPlan50
350
1DA77
  3
AecDbDispRepMassElemRcp
350
1DA7B
  3
AecDbDispRepMassElemSchem
350
1DA75
  3
AecDbDispRepMassGroupModel
350
1DA7D
  3
AecDbDispRepMassGroupPlan
350
1DA7F
  3
AecDbDispRepMassGroupPlan100
350
1DA83
  3
AecDbDispRepMassGroupPlan50
350
1DA81
  3
AecDbDispRepMassGroupRcp
350
1DA85
  3
AecDbDispRepMaterial
350
1DA94
  3
AecDbDispRepMvBlockRef
350
1DA87
  3
AecDbDispRepMvBlockRefModel
350
1DA88
  3
AecDbDispRepMvBlockRefPlan100
350
1DA89
  3
AecDbDispRepMvBlockRefPlan50
350
1DA8A
  3
AecDbDispRepPolygonModel
350
1DA8B
  3
AecDbDispRepPolygonTrueColour
350
1DA8D
  3
AecDbDispRepSlice
350
1DA8F
  0
DICTIONARY
  5
1DA58
102
{ACAD_REACTORS
330
C
102
}
330
C
100
AcDbDictionary
281
     1
  3
*A1
350
1DA59
  3
*A10
350
1DA70
  3
*A11
350
1DA72
  3
*A12
350
1DA74
  3
*A13
350
1DA76
  3
*A14
350
1DA78
  3
*A15
350
1DA7A
  3
*A16
350
1DA7C
  3
*A17
350
1DA7E
  3
*A18
350
1DA80
  3
*A19
350
1DA82
  3
*A2
350
1DA5F
  3
*A20
350
1DA84
  3
*A21
350
1DA86
  3
*A22
350
1DA8C
  3
*A23
350
1DA8E
  3
*A24
350
1DA90
  3
*A25
350
1DA93
  3
*A26
350
1DA95
  3
*A27
350
1DA97
  3
*A3
350
1DA61
  3
*A4
350
1DA64
  3
*A5
350
1DA66
  3
*A6
350
1DA68
  3
*A7
350
1DA6A
  3
*A8
350
1DA6C
  3
*A9
350
1DA6E
  0
DICTIONARY
  5
1DA54
102
{ACAD_REACTORS
330
C
102
}
330
C
100
AcDbDictionary
281
     1
  3
AEC_VARS_DWG_SETUP
350
1DA55
  0
DICTIONARY
  5
1DA4C
102
{ACAD_REACTORS
330
C
102
}
330
C
100
AcDbDictionary
281
     1
  0
XRECORD
  5
1DAB4
102
{ACAD_REACTORS
330
C
102
}
330
C
100
AcDbXrecord
280
     1
  1
DWGPROPS COOKIE
  2

  3

  4

  6

  7

  8
SPAX
  9

300
=
301
=
302
=
303
=
304
=
305
=
306
=
307
=
308
=
309
=
 40
0.0
 41
2449505.547222222
 42
2456821.238569109
  1

 90
        0
  0
DICTIONARY
  5
189BC
102
{ACAD_REACTORS
330
189BB
102
}
330
189BB
100
AcDbDictionary
281
     1
  0
XRECORD
  5
171F2
102
{ACAD_REACTORS
330
171F1
102
}
330
171F1
100
AcDbXrecord
280
     1
290
     1
  0
XRECORD
  5
171FA
102
{ACAD_REACTORS
330
171F9
102
}
330
171F9
100
AcDbXrecord
280
     1
290
     1
  0
XRECORD
  5
171FC
102
{ACAD_REACTORS
330
171FB
102
}
330
171FB
100
AcDbXrecord
280
     1
290
     1
  0
XRECORD
  5
17200
102
{ACAD_REACTORS
330
171FF
102
}
330
171FF
100
AcDbXrecord
280
     1
290
     1
  0
LAYOUT
  5
40CD
102
{ACAD_REACTORS
330
40CB
102
}
330
40CB
100
AcDbPlotSettings
  1

  2
JUST PDF 2
  4
A4
  6
CUT1
 40
3.174999952316284
 41
3.174999952316284
 42
3.175003051757812
 43
3.17498779296875
 44
209.8886566162109
 45
297.0530090332031
 46
14.27171755861552
 47
9.855173074625782
 48
-1920.183138788412
 49
275.3272938870396
140
-1395.197483303695
141
1088.305319303039
142
1.0
143
3.0
 70
 11940
 72
     1
 73
     0
 74
     4
  7
spax form.ctb
 75
    17
147
0.5
148
1920.183138788412
149
-275.3272938870396
100
AcDbLayout
  1
Model
 70
     1
 71
     0
 10
0.0
 20
0.0
 11
12.0
 21
9.0
 12
0.0
 22
0.0
 32
0.0
 14
-1907.612964328114
 24
878.0584882918754
 34
-0.0000000000000469
 15
-1806.662020575763
 25
1021.757254443129
 35
0.000000000000016
146
0.0
 13
0.0
 23
0.0
 33
0.0
 16
1.0
 26
0.0
 36
0.0
 17
0.0
 27
1.0
 37
0.0
 76
     0
330
18
331
1DA35
1001
ACAD_PSEXT
1000
JUST PDF 2
1000
JUST PDF 2
1000
JUST PDF 2 Port:
1000

1070
     0
  0
LAYOUT
  5
40CE
102
{ACAD_REACTORS
330
40CB
102
}
330
40CB
100
AcDbPlotSettings
  1

  2
なし
  4

  6

 40
0.0
 41
0.0
 42
0.0
 43
0.0
 44
0.0
 45
0.0
 46
0.0
 47
0.0
 48
0.0
 49
0.0
140
0.0
141
0.0
142
1.0
143
1.0
 70
   688
 72
     0
 73
     0
 74
     5
  7
Aiba.ctb
 75
    16
147
1.0
148
0.0
149
0.0
100
AcDbLayout
  1
ﾚｲｱｳﾄ1
 70
     0
 71
     1
 10
0.0
 20
0.0
 11
12.0
 21
9.0
 12
0.0
 22
0.0
 32
0.0
 14
1.000000000000000E+20
 24
1.000000000000000E+20
 34
1.000000000000000E+20
 15
-1.000000000000000E+20
 25
-1.000000000000000E+20
 35
-1.000000000000000E+20
146
0.0
 13
0.0
 23
0.0
 33
0.0
 16
1.0
 26
0.0
 36
0.0
 17
0.0
 27
1.0
 37
0.0
 76
     0
330
15
  0
MLINESTYLE
  5
1B
102
{ACAD_REACTORS
330
E
102
}
330
E
100
AcDbMlineStyle
  2
STANDARD
 70
     0
  3

 62
     0
 51
90.0
 52
90.0
 71
     2
 49
0.5
 62
   256
  6
BYLAYER
 49
-0.5
 62
   256
  6
BYLAYER
  0
ACDBPLACEHOLDER
  5
40CA
102
{ACAD_REACTORS
330
40C9
102
}
330
40C9
  0
SCALE
  5
171CA
102
{ACAD_REACTORS
330
171C9
102
}
330
171C9
100
AcDbScale
 70
     0
300
1:1
140
1.0
141
1.0
290
     1
1001
ACAD
1000
AcRTDxfName
1000
SCALE
  0
SCALE
  5
171CB
102
{ACAD_REACTORS
330
171C9
102
}
330
171C9
100
AcDbScale
 70
     0
300
1:2
140
1.0
141
2.0
290
     0
1001
ACAD
1000
AcRTDxfName
1000
SCALE
  0
SCALE
  5
171CC
102
{ACAD_REACTORS
330
171C9
102
}
330
171C9
100
AcDbScale
 70
     0
300
1:4
140
1.0
141
4.0
290
     0
1001
ACAD
1000
AcRTDxfName
1000
SCALE
  0
SCALE
  5
171CD
102
{ACAD_REACTORS
330
171C9
102
}
330
171C9
100
AcDbScale
 70
     0
300
1:5
140
1.0
141
5.0
290
     0
1001
ACAD
1000
AcRTDxfName
1000
SCALE
  0
SCALE
  5
171CE
102
{ACAD_REACTORS
330
171C9
102
}
330
171C9
100
AcDbScale
 70
     0
300
1:8
140
1.0
141
8.0
290
     0
1001
ACAD
1000
AcRTDxfName
1000
SCALE
  0
SCALE
  5
171CF
102
{ACAD_REACTORS
330
171C9
102
}
330
171C9
100
AcDbScale
 70
     0
300
1:10
140
1.0
141
10.0
290
     0
1001
ACAD
1000
AcRTDxfName
1000
SCALE
  0
SCALE
  5
171D0
102
{ACAD_REACTORS
330
171C9
102
}
330
171C9
100
AcDbScale
 70
     0
300
1:16
140
1.0
141
16.0
290
     0
1001
ACAD
1000
AcRTDxfName
1000
SCALE
  0
SCALE
  5
171D1
102
{ACAD_REACTORS
330
171C9
102
}
330
171C9
100
AcDbScale
 70
     0
300
1:20
140
1.0
141
20.0
290
     0
1001
ACAD
1000
AcRTDxfName
1000
SCALE
  0
SCALE
  5
171D2
102
{ACAD_REACTORS
330
171C9
102
}
330
171C9
100
AcDbScale
 70
     0
300
1:30
140
1.0
141
30.0
290
     0
1001
ACAD
1000
AcRTDxfName
1000
SCALE
  0
SCALE
  5
171D3
102
{ACAD_REACTORS
330
171C9
102
}
330
171C9
100
AcDbScale
 70
     0
300
1:40
140
1.0
141
40.0
290
     0
1001
ACAD
1000
AcRTDxfName
1000
SCALE
  0
SCALE
  5
171D4
102
{ACAD_REACTORS
330
171C9
102
}
330
171C9
100
AcDbScale
 70
     0
300
1:50
140
1.0
141
50.0
290
     0
1001
ACAD
1000
AcRTDxfName
1000
SCALE
  0
SCALE
  5
171D5
102
{ACAD_REACTORS
330
171C9
102
}
330
171C9
100
AcDbScale
 70
     0
300
1:100
140
1.0
141
100.0
290
     0
1001
ACAD
1000
AcRTDxfName
1000
SCALE
  0
SCALE
  5
171D6
102
{ACAD_REACTORS
330
171C9
102
}
330
171C9
100
AcDbScale
 70
     0
300
2:1
140
2.0
141
1.0
290
     0
1001
ACAD
1000
AcRTDxfName
1000
SCALE
  0
SCALE
  5
171D7
102
{ACAD_REACTORS
330
171C9
102
}
330
171C9
100
AcDbScale
 70
     0
300
4:1
140
4.0
141
1.0
290
     0
1001
ACAD
1000
AcRTDxfName
1000
SCALE
  0
SCALE
  5
171D8
102
{ACAD_REACTORS
330
171C9
102
}
330
171C9
100
AcDbScale
 70
     0
300
8:1
140
8.0
141
1.0
290
     0
1001
ACAD
1000
AcRTDxfName
1000
SCALE
  0
SCALE
  5
171D9
102
{ACAD_REACTORS
330
171C9
102
}
330
171C9
100
AcDbScale
 70
     0
300
10:1
140
10.0
141
1.0
290
     0
1001
ACAD
1000
AcRTDxfName
1000
SCALE
  0
SCALE
  5
171DA
102
{ACAD_REACTORS
330
171C9
102
}
330
171C9
100
AcDbScale
 70
     0
300
100:1
140
100.0
141
1.0
290
     0
1001
ACAD
1000
AcRTDxfName
1000
SCALE
  0
SCALE
  5
171DB
102
{ACAD_REACTORS
330
171C9
102
}
330
171C9
100
AcDbScale
 70
     0
300
1/128" = 1'-0"
140
0.0078125
141
12.0
290
     0
1001
ACAD
1000
AcRTDxfName
1000
SCALE
  0
SCALE
  5
171DC
102
{ACAD_REACTORS
330
171C9
102
}
330
171C9
100
AcDbScale
 70
     0
300
1/64" = 1'-0"
140
0.015625
141
12.0
290
     0
1001
ACAD
1000
AcRTDxfName
1000
SCALE
  0
SCALE
  5
171DD
102
{ACAD_REACTORS
330
171C9
102
}
330
171C9
100
AcDbScale
 70
     0
300
1/32" = 1'-0"
140
0.03125
141
12.0
290
     0
1001
ACAD
1000
AcRTDxfName
1000
SCALE
  0
SCALE
  5
171DE
102
{ACAD_REACTORS
330
171C9
102
}
330
171C9
100
AcDbScale
 70
     0
300
1/16" = 1'-0"
140
0.0625
141
12.0
290
     0
1001
ACAD
1000
AcRTDxfName
1000
SCALE
  0
SCALE
  5
171DF
102
{ACAD_REACTORS
330
171C9
102
}
330
171C9
100
AcDbScale
 70
     0
300
3/32" = 1'-0"
140
0.09375
141
12.0
290
     0
1001
ACAD
1000
AcRTDxfName
1000
SCALE
  0
SCALE
  5
171E0
102
{ACAD_REACTORS
330
171C9
102
}
330
171C9
100
AcDbScale
 70
     0
300
1/8" = 1'-0"
140
0.125
141
12.0
290
     0
1001
ACAD
1000
AcRTDxfName
1000
SCALE
  0
SCALE
  5
171E1
102
{ACAD_REACTORS
330
171C9
102
}
330
171C9
100
AcDbScale
 70
     0
300
3/16" = 1'-0"
140
0.1875
141
12.0
290
     0
1001
ACAD
1000
AcRTDxfName
1000
SCALE
  0
SCALE
  5
171E2
102
{ACAD_REACTORS
330
171C9
102
}
330
171C9
100
AcDbScale
 70
     0
300
1/4" = 1'-0"
140
0.25
141
12.0
290
     0
1001
ACAD
1000
AcRTDxfName
1000
SCALE
  0
SCALE
  5
171E3
102
{ACAD_REACTORS
330
171C9
102
}
330
171C9
100
AcDbScale
 70
     0
300
3/8" = 1'-0"
140
0.375
141
12.0
290
     0
1001
ACAD
1000
AcRTDxfName
1000
SCALE
  0
SCALE
  5
171E4
102
{ACAD_REACTORS
330
171C9
102
}
330
171C9
100
AcDbScale
 70
     0
300
1/2" = 1'-0"
140
0.5
141
12.0
290
     0
1001
ACAD
1000
AcRTDxfName
1000
SCALE
  0
SCALE
  5
171E5
102
{ACAD_REACTORS
330
171C9
102
}
330
171C9
100
AcDbScale
 70
     0
300
3/4" = 1'-0"
140
0.75
141
12.0
290
     0
1001
ACAD
1000
AcRTDxfName
1000
SCALE
  0
SCALE
  5
171E6
102
{ACAD_REACTORS
330
171C9
102
}
330
171C9
100
AcDbScale
 70
     0
300
1" = 1'-0"
140
1.0
141
12.0
290
     0
1001
ACAD
1000
AcRTDxfName
1000
SCALE
  0
SCALE
  5
171E7
102
{ACAD_REACTORS
330
171C9
102
}
330
171C9
100
AcDbScale
 70
     0
300
1-1/2" = 1'-0"
140
1.5
141
12.0
290
     0
1001
ACAD
1000
AcRTDxfName
1000
SCALE
  0
SCALE
  5
171E8
102
{ACAD_REACTORS
330
171C9
102
}
330
171C9
100
AcDbScale
 70
     0
300
3" = 1'-0"
140
3.0
141
12.0
290
     0
1001
ACAD
1000
AcRTDxfName
1000
SCALE
  0
SCALE
  5
171E9
102
{ACAD_REACTORS
330
171C9
102
}
330
171C9
100
AcDbScale
 70
     0
300
6" = 1'-0"
140
6.0
141
12.0
290
     0
1001
ACAD
1000
AcRTDxfName
1000
SCALE
  0
SCALE
  5
171EA
102
{ACAD_REACTORS
330
171C9
102
}
330
171C9
100
AcDbScale
 70
     0
300
1'-0" = 1'-0"
140
12.0
141
12.0
290
     0
1001
ACAD
1000
AcRTDxfName
1000
SCALE
  0
DICTIONARYVAR
  5
73F2
102
{ACAD_REACTORS
330
6377
102
}
330
6377
100
DictionaryVariables
280
     0
  1
1
  0
DICTIONARYVAR
  5
17245
102
{ACAD_REACTORS
330
6377
102
}
330
6377
100
DictionaryVariables
280
     0
  1
0
  0
DICTIONARYVAR
  5
12912
102
{ACAD_REACTORS
330
6377
102
}
330
6377
100
DictionaryVariables
280
     0
  1

  0
DICTIONARYVAR
  5
6378
102
{ACAD_REACTORS
330
6377
102
}
330
6377
100
DictionaryVariables
280
     0
  1
96
  0
ENDSEC
  0
EOF
