  0
SECTION
  2
HEADER
  9
$ACADVER
  1
AC1015
  9
$ACADMAINTVER
 70
     6
  9
$DWGCODEPAGE
  3
ANSI_932
  9
$INSBASE
 10
0.0
 20
0.0
 30
0.0
  9
$EXTMIN
 10
-4423.343443881158
 20
-18324.91641586658
 30
-0.0000000000000128
  9
$EXTMAX
 10
-4361.343443881158
 20
-18233.58499245995
 30
0.0000000000000242
  9
$LIMMIN
 10
0.0
 20
0.0
  9
$LIMMAX
 10
420.0
 20
297.0
  9
$ORTHOMODE
 70
     1
  9
$REGENMODE
 70
     1
  9
$FILLMODE
 70
     1
  9
$QTEXTMODE
 70
     0
  9
$MIRRTEXT
 70
     1
  9
$LTSCALE
 40
5.0
  9
$ATTMODE
 70
     0
  9
$TEXTSIZE
 40
2.5
  9
$TRACEWID
 40
1.0
  9
$TEXTSTYLE
  7
STANDARD
  9
$CLAYER
  8
寸法線
  9
$CELTYPE
  6
BYLAYER
  9
$CECOLOR
 62
   256
  9
$CELTSCALE
 40
1.0
  9
$DISPSILH
 70
     0
  9
$DIMSCALE
 40
1.0
  9
$DIMASZ
 40
3.0
  9
$DIMEXO
 40
0.2999999999999999
  9
$DIMDLI
 40
0.6300000000000001
  9
$DIMRND
 40
0.0
  9
$DIMDLE
 40
0.0
  9
$DIMEXE
 40
0.4999999999999996
  9
$DIMTP
 40
0.0
  9
$DIMTM
 40
0.0
  9
$DIMTXT
 40
2.5
  9
$DIMCEN
 40
0.0
  9
$DIMTSZ
 40
0.0
  9
$DIMTOL
 70
     0
  9
$DIMLIM
 70
     0
  9
$DIMTIH
 70
     0
  9
$DIMTOH
 70
     0
  9
$DIMSE1
 70
     0
  9
$DIMSE2
 70
     0
  9
$DIMTAD
 70
     3
  9
$DIMZIN
 70
     8
  9
$DIMBLK
  1

  9
$DIMASO
 70
     1
  9
$DIMSHO
 70
     0
  9
$DIMPOST
  1

  9
$DIMAPOST
  1

  9
$DIMALT
 70
     0
  9
$DIMALTD
 70
     0
  9
$DIMALTF
 40
25.4
  9
$DIMLFAC
 40
1.0
  9
$DIMTOFL
 70
     1
  9
$DIMTVP
 40
0.0
  9
$DIMTIX
 70
     0
  9
$DIMSOXD
 70
     0
  9
$DIMSAH
 70
     1
  9
$DIMBLK1
  1
OPEN
  9
$DIMBLK2
  1
OPEN
  9
$DIMSTYLE
  2
STANDARD
  9
$DIMCLRD
 70
     8
  9
$DIMCLRE
 70
     8
  9
$DIMCLRT
 70
   256
  9
$DIMTFAC
 40
1.0
  9
$DIMGAP
 40
0.7999999999999998
  9
$DIMJUST
 70
     0
  9
$DIMSD1
 70
     0
  9
$DIMSD2
 70
     0
  9
$DIMTOLJ
 70
     1
  9
$DIMTZIN
 70
     0
  9
$DIMALTZ
 70
     0
  9
$DIMALTTZ
 70
     0
  9
$DIMUPT
 70
     0
  9
$DIMDEC
 70
     2
  9
$DIMTDEC
 70
     2
  9
$DIMALTU
 70
     2
  9
$DIMALTTD
 70
     0
  9
$DIMTXSTY
  7
STANDARD
  9
$DIMAUNIT
 70
     0
  9
$DIMADEC
 70
     2
  9
$DIMALTRND
 40
0.0
  9
$DIMAZIN
 70
     2
  9
$DIMDSEP
 70
    46
  9
$DIMATFIT
 70
     0
  9
$DIMFRAC
 70
     0
  9
$DIMLDRBLK
  1
OPEN
  9
$DIMLUNIT
 70
     2
  9
$DIMLWD
 70
    -1
  9
$DIMLWE
 70
    -1
  9
$DIMTMOVE
 70
     0
  9
$LUNITS
 70
     2
  9
$LUPREC
 70
     2
  9
$SKETCHINC
 40
0.1
  9
$FILLETRAD
 40
9.0
  9
$AUNITS
 70
     0
  9
$AUPREC
 70
     1
  9
$MENU
  1
FM
  9
$ELEVATION
 40
0.0
  9
$PELEVATION
 40
0.0
  9
$THICKNESS
 40
0.0
  9
$LIMCHECK
 70
     0
  9
$CHAMFERA
 40
1.3
  9
$CHAMFERB
 40
0.8
  9
$CHAMFERC
 40
0.0
  9
$CHAMFERD
 40
0.0
  9
$SKPOLY
 70
     0
  9
$TDCREATE
 40
2448636.619629629
  9
$TDUCREATE
 40
2448636.244629629
  9
$TDUPDATE
 40
2456821.605282326
  9
$TDUUPDATE
 40
2456821.230282326
  9
$TDINDWG
 40
42.0912893634
  9
$TDUSRTIMER
 40
2456821.230064699
  9
$USRTIMER
 70
     1
  9
$ANGBASE
 50
0.0
  9
$ANGDIR
 70
     0
  9
$PDMODE
 70
     3
  9
$PDSIZE
 40
0.0
  9
$PLINEWID
 40
0.0
  9
$SPLFRAME
 70
     0
  9
$SPLINETYPE
 70
     6
  9
$SPLINESEGS
 70
     8
  9
$HANDSEED
  5
2727B7
  9
$SURFTAB1
 70
     6
  9
$SURFTAB2
 70
     6
  9
$SURFTYPE
 70
     6
  9
$SURFU
 70
     6
  9
$SURFV
 70
     6
  9
$UCSBASE
  2

  9
$UCSNAME
  2

  9
$UCSORG
 10
0.0
 20
0.0
 30
0.0
  9
$UCSXDIR
 10
1.0
 20
0.0
 30
0.0
  9
$UCSYDIR
 10
0.0
 20
1.0
 30
0.0
  9
$UCSORTHOREF
  2

  9
$UCSORTHOVIEW
 70
     0
  9
$UCSORGTOP
 10
0.0
 20
0.0
 30
0.0
  9
$UCSORGBOTTOM
 10
0.0
 20
0.0
 30
0.0
  9
$UCSORGLEFT
 10
0.0
 20
0.0
 30
0.0
  9
$UCSORGRIGHT
 10
0.0
 20
0.0
 30
0.0
  9
$UCSORGFRONT
 10
0.0
 20
0.0
 30
0.0
  9
$UCSORGBACK
 10
0.0
 20
0.0
 30
0.0
  9
$PUCSBASE
  2

  9
$PUCSNAME
  2

  9
$PUCSORG
 10
0.0
 20
0.0
 30
0.0
  9
$PUCSXDIR
 10
1.0
 20
0.0
 30
0.0
  9
$PUCSYDIR
 10
0.0
 20
1.0
 30
0.0
  9
$PUCSORTHOREF
  2

  9
$PUCSORTHOVIEW
 70
     0
  9
$PUCSORGTOP
 10
0.0
 20
0.0
 30
0.0
  9
$PUCSORGBOTTOM
 10
0.0
 20
0.0
 30
0.0
  9
$PUCSORGLEFT
 10
0.0
 20
0.0
 30
0.0
  9
$PUCSORGRIGHT
 10
0.0
 20
0.0
 30
0.0
  9
$PUCSORGFRONT
 10
0.0
 20
0.0
 30
0.0
  9
$PUCSORGBACK
 10
0.0
 20
0.0
 30
0.0
  9
$USERI1
 70
     0
  9
$USERI2
 70
     0
  9
$USERI3
 70
     0
  9
$USERI4
 70
     0
  9
$USERI5
 70
     0
  9
$USERR1
 40
0.0
  9
$USERR2
 40
0.0
  9
$USERR3
 40
0.0
  9
$USERR4
 40
0.0
  9
$USERR5
 40
0.0
  9
$WORLDVIEW
 70
     0
  9
$SHADEDGE
 70
     3
  9
$SHADEDIF
 70
    70
  9
$TILEMODE
 70
     1
  9
$MAXACTVP
 70
    16
  9
$PINSBASE
 10
0.0
 20
0.0
 30
0.0
  9
$PLIMCHECK
 70
     0
  9
$PEXTMIN
 10
1.000000000000000E+20
 20
1.000000000000000E+20
 30
1.000000000000000E+20
  9
$PEXTMAX
 10
-1.000000000000000E+20
 20
-1.000000000000000E+20
 30
-1.000000000000000E+20
  9
$PLIMMIN
 10
0.0
 20
0.0
  9
$PLIMMAX
 10
0.0
 20
0.0
  9
$UNITMODE
 70
     0
  9
$VISRETAIN
 70
     0
  9
$PLINEGEN
 70
     0
  9
$PSLTSCALE
 70
     0
  9
$TREEDEPTH
 70
  3020
  9
$CMLSTYLE
  2
STANDARD
  9
$CMLJUST
 70
     0
  9
$CMLSCALE
 40
1.0
  9
$PROXYGRAPHICS
 70
     1
  9
$MEASUREMENT
 70
     0
  9
$CELWEIGHT
370
    -1
  9
$ENDCAPS
280
     0
  9
$JOINSTYLE
280
     0
  9
$LWDISPLAY
290
     0
  9
$INSUNITS
 70
     0
  9
$HYPERLINKBASE
  1

  9
$STYLESHEET
  1
spax form.ctb
  9
$XEDIT
290
     1
  9
$CEPSNTYPE
380
     0
  9
$PSTYLEMODE
290
     1
  9
$FINGERPRINTGUID
  2
{E5B35D22-A717-11D3-9160-00E0294F7E09}
  9
$VERSIONGUID
  2
{E2F127A4-2193-4C48-A732-27937696727F}
  9
$EXTNAMES
290
     1
  9
$PSVPSCALE
 40
0.0
  9
$OLESTARTUP
290
     0
  0
ENDSEC
  0
SECTION
  2
CLASSES
  0
CLASS
  1
LWPOLYLINE
  2
AcDbPolyline
  3
ObjectDBX Classes
 90
        0
280
     0
281
     1
  0
CLASS
  1
ACDBDICTIONARYWDFLT
  2
AcDbDictionaryWithDefault
  3
ObjectDBX Classes
 90
        0
280
     0
281
     0
  0
CLASS
  1
ACDBPLACEHOLDER
  2
AcDbPlaceHolder
  3
ObjectDBX Classes
 90
        0
280
     0
281
     0
  0
CLASS
  1
LAYOUT
  2
AcDbLayout
  3
ObjectDBX Classes
 90
        0
280
     0
281
     0
  0
CLASS
  1
DICTIONARYVAR
  2
AcDbDictionaryVar
  3
ObjectDBX Classes
 90
        0
280
     0
281
     0
  0
CLASS
  1
SORTENTSTABLE
  2
AcDbSortentsTable
  3
ObjectDBX Classes
 90
        0
280
     0
281
     0
  0
CLASS
  1
MATERIAL
  2
AcDbMaterial
  3
ObjectDBX Classes
 90
     1153
280
     0
281
     0
  0
CLASS
  1
VISUALSTYLE
  2
AcDbVisualStyle
  3
ObjectDBX Classes
 90
     4095
280
     0
281
     0
  0
CLASS
  1
TABLESTYLE
  2
AcDbTableStyle
  3
ObjectDBX Classes
 90
     4095
280
     0
281
     0
  0
CLASS
  1
SCALE
  2
AcDbScale
  3
ObjectDBX Classes
 90
     1153
280
     0
281
     0
  0
CLASS
  1
MLEADERSTYLE
  2
AcDbMLeaderStyle
  3
ACDB_MLEADERSTYLE_CLASS
 90
     4095
280
     0
281
     0
  0
CLASS
  1
CELLSTYLEMAP
  2
AcDbCellStyleMap
  3
ObjectDBX Classes
 90
     1152
280
     0
281
     0
  0
CLASS
  1
RASTERVARIABLES
  2
AcDbRasterVariables
  3
ISM
 90
        0
280
     0
281
     0
  0
CLASS
  1
SUN
  2
AcDbSun
  3
SCENEOE
 90
     1153
280
     0
281
     0
  0
ENDSEC
  0
SECTION
  2
TABLES
  0
TABLE
  2
VPORT
  5
8
330
0
100
AcDbSymbolTable
 70
     1
  0
VPORT
  5
2717C1
330
8
100
AcDbSymbolTableRecord
100
AcDbViewportTableRecord
  2
*Active
 70
     0
 10
0.0
 20
0.0
 11
1.0
 21
1.0
 12
-4392.343443881158
 22
-18279.25070416326
 13
0.0
 23
0.0
 14
1.0
 24
1.0
 15
20.0
 25
20.0
 16
0.0
 26
0.0
 36
1.0
 17
0.0
 27
0.0
 37
0.0
 40
93.15805187477112
 41
1.731829573934837
 42
50.0
 43
0.0
 44
0.0
 50
0.0
 51
0.0
 71
    16
 72
   100
 73
     1
 74
     0
 75
     0
 76
     0
 77
     0
 78
     0
281
     0
 65
     1
110
0.0
120
0.0
130
0.0
111
1.0
121
0.0
131
0.0
112
0.0
122
1.0
132
0.0
 79
     0
146
0.0
  0
ENDTAB
  0
TABLE
  2
LTYPE
  5
5
330
0
100
AcDbSymbolTable
 70
     4
  0
LTYPE
  5
12
330
5
100
AcDbSymbolTableRecord
100
AcDbLinetypeTableRecord
  2
BYBLOCK
 70
     0
  3

 72
    65
 73
     0
 40
0.0
  0
LTYPE
  5
13
330
5
100
AcDbSymbolTableRecord
100
AcDbLinetypeTableRecord
  2
BYLAYER
 70
     0
  3

 72
    65
 73
     0
 40
0.0
  0
LTYPE
  5
14
330
5
100
AcDbSymbolTableRecord
100
AcDbLinetypeTableRecord
  2
CONTINUOUS
 70
     0
  3
Solid line
 72
    65
 73
     0
 40
0.0
  0
LTYPE
  5
25
330
5
100
AcDbSymbolTableRecord
100
AcDbLinetypeTableRecord
  2
CENTER
 70
     0
  3
____ _ ____ _ ____ _ ____ _ ____ _ ____ _ ____
 72
    65
 73
     4
 40
2.0
 49
1.25
 74
     0
 49
-0.25
 74
     0
 49
0.25
 74
     0
 49
-0.25
 74
     0
  0
LTYPE
  5
26
330
5
100
AcDbSymbolTableRecord
100
AcDbLinetypeTableRecord
  2
PHANTOM
 70
     0
  3
_____ _ _ _____ _ _ _____ _ _ _____ _ _ ____
 72
    65
 73
     6
 40
2.5
 49
1.25
 74
     0
 49
-0.25
 74
     0
 49
0.25
 74
     0
 49
-0.25
 74
     0
 49
0.25
 74
     0
 49
-0.25
 74
     0
  0
ENDTAB
  0
TABLE
  2
LAYER
  5
2
102
{ACAD_XDICTIONARY
360
1339DB
102
}
330
0
100
AcDbSymbolTable
 70
    16
  0
LAYER
  5
F
102
{ACAD_XDICTIONARY
360
26A939
102
}
330
2
100
AcDbSymbolTableRecord
100
AcDbLayerTableRecord
  2
0
 70
     0
 62
     7
  6
CONTINUOUS
370
    -3
390
352
  0
LAYER
  5
34
102
{ACAD_XDICTIONARY
360
26A93D
102
}
330
2
100
AcDbSymbolTableRecord
100
AcDbLayerTableRecord
  2
寸法線
 70
     0
 62
     7
  6
CONTINUOUS
370
    -3
390
352
  0
LAYER
  5
2F4
102
{ACAD_XDICTIONARY
360
26A945
102
}
330
2
100
AcDbSymbolTableRecord
100
AcDbLayerTableRecord
  2
文字
 70
     0
 62
     7
  6
CONTINUOUS
370
    -3
390
352
  0
LAYER
  5
305
102
{ACAD_XDICTIONARY
360
26A949
102
}
330
2
100
AcDbSymbolTableRecord
100
AcDbLayerTableRecord
  2
姿図
 70
     0
 62
     8
  6
CONTINUOUS
370
    -3
390
352
  0
LAYER
  5
1ACBD9
102
{ACAD_XDICTIONARY
360
26A94B
102
}
330
2
100
AcDbSymbolTableRecord
100
AcDbLayerTableRecord
  2
CONT-2
 70
     0
 62
     3
  6
CONTINUOUS
370
    -3
390
352
  0
LAYER
  5
1ACBDC
102
{ACAD_XDICTIONARY
360
26A94D
102
}
330
2
100
AcDbSymbolTableRecord
100
AcDbLayerTableRecord
  2
C-SUNPO
 70
     0
 62
     7
  6
CONTINUOUS
370
    -3
390
352
  0
ENDTAB
  0
TABLE
  2
STYLE
  5
3
330
0
100
AcDbSymbolTable
 70
     2
  0
STYLE
  5
10
330
3
100
AcDbSymbolTableRecord
100
AcDbTextStyleTableRecord
  2
STANDARD
 70
     0
 40
0.0
 41
1.0
 50
0.0
 71
     0
 42
2.5
  3
MONOTXT
  4
BIGFONT
  0
STYLE
  5
B3427
330
3
100
AcDbSymbolTableRecord
100
AcDbTextStyleTableRecord
  2
EXTFONT
 70
     0
 40
4.5
 41
1.0
 50
0.0
 71
     0
 42
4.5
  3
txt.shx
  4
extfont
  0
ENDTAB
  0
TABLE
  2
VIEW
  5
6
330
0
100
AcDbSymbolTable
 70
     0
  0
ENDTAB
  0
TABLE
  2
UCS
  5
7
330
0
100
AcDbSymbolTable
 70
     0
  0
ENDTAB
  0
TABLE
  2
APPID
  5
9
330
0
100
AcDbSymbolTable
 70
    11
  0
APPID
  5
11
330
9
100
AcDbSymbolTableRecord
100
AcDbRegAppTableRecord
  2
ACAD
 70
     0
  0
APPID
  5
7DDF6
330
9
100
AcDbSymbolTableRecord
100
AcDbRegAppTableRecord
  2
GENIUS_GENODEF_13
 70
     0
  0
APPID
  5
7DDF7
330
9
100
AcDbSymbolTableRecord
100
AcDbRegAppTableRecord
  2
GENIUS_GENREC_14
 70
     0
  0
APPID
  5
7DDF8
330
9
100
AcDbSymbolTableRecord
100
AcDbRegAppTableRecord
  2
GENIUS_GENOBJ-N-REC_13
 70
     0
  0
APPID
  5
7E5F3
330
9
100
AcDbSymbolTableRecord
100
AcDbRegAppTableRecord
  2
GENIUS_GENOBJ-N-FIL_13
 70
     0
  0
APPID
  5
1CF1BD
330
9
100
AcDbSymbolTableRecord
100
AcDbRegAppTableRecord
  2
ACAD_PSEXT
 70
     0
  0
APPID
  5
26A880
330
9
100
AcDbSymbolTableRecord
100
AcDbRegAppTableRecord
  2
ACAD_MLEADERVER
 70
     0
  0
APPID
  5
26A88E
330
9
100
AcDbSymbolTableRecord
100
AcDbRegAppTableRecord
  2
ACAD_DSTYLE_DIMJAG
 70
     0
  0
APPID
  5
26A88F
330
9
100
AcDbSymbolTableRecord
100
AcDbRegAppTableRecord
  2
ACAD_DSTYLE_DIMTALN
 70
     0
  0
APPID
  5
26B99F
330
9
100
AcDbSymbolTableRecord
100
AcDbRegAppTableRecord
  2
AcadAnnotative
 70
     0
  0
APPID
  5
26B9CC
330
9
100
AcDbSymbolTableRecord
100
AcDbRegAppTableRecord
  2
ACAD_EXEMPT_FROM_CAD_STANDARDS
 70
     0
  0
ENDTAB
  0
TABLE
  2
DIMSTYLE
  5
A
330
0
100
AcDbSymbolTable
 70
     2
100
AcDbDimStyleTable
  0
DIMSTYLE
105
1CC
330
A
100
AcDbSymbolTableRecord
100
AcDbDimStyleTableRecord
  2
STANDARD
 70
     0
 41
3.0
 42
0.2999999999999999
 43
0.6300000000000001
 44
0.4999999999999996
 73
     0
 74
     0
 77
     3
 78
     8
 79
     2
140
2.5
141
0.0
147
0.7999999999999998
171
     0
172
     1
173
     1
176
     8
177
     8
271
     2
178
   256
179
     2
271
     2
272
     2
274
     0
289
     0
340
10
341
33F
343
33F
344
33F
371
    -1
372
    -1
1001
ACAD_DSTYLE_DIMJAG
1070
   388
1040
1.5
1001
ACAD_DSTYLE_DIMTALN
1070
   392
1070
     0
  0
ENDTAB
  0
TABLE
  2
BLOCK_RECORD
  5
1
330
0
100
AcDbSymbolTable
 70
    53
  0
BLOCK_RECORD
  5
18
102
{ACAD_XDICTIONARY
360
26A92E
102
}
330
1
100
AcDbSymbolTableRecord
100
AcDbBlockTableRecord
  2
*MODEL_SPACE
340
355
  0
BLOCK_RECORD
  5
15
330
1
100
AcDbSymbolTableRecord
100
AcDbBlockTableRecord
  2
*PAPER_SPACE
340
356
  0
BLOCK_RECORD
  5
33F
330
1
100
AcDbSymbolTableRecord
100
AcDbBlockTableRecord
  2
_OPEN
340
0
102
{BLKREFS
331
26A8DE
331
26A8DF
331
26A8E6
331
26A8E7
331
26A8EF
331
26A8F0
331
26A8F8
331
26A8F9
331
26A903
331
26A904
331
26A90E
331
26A90F
331
26A916
331
26A917
331
26A91F
331
26A920
331
26B955
331
26B956
331
26B961
331
26B962
331
26B96B
331
26B96C
331
26B973
331
26B974
331
26B97C
331
26B97D
331
26B985
331
26B986
331
26B98E
331
26B98F
331
26B998
331
26B999
331
26F611
331
26F612
331
26F619
331
26F61A
331
26F625
331
26F626
331
26F62F
331
26F630
331
26F637
331
26F638
331
26F640
331
26F641
331
26F649
331
26F64A
331
26F652
331
26F653
331
270760
331
270761
331
270768
331
270769
331
270771
331
270772
331
27077A
331
27077B
331
270783
331
270784
331
27078C
331
27078D
331
270798
331
270799
331
2707A2
331
2707A3
331
2716EC
331
2716ED
331
27170A
331
27170B
331
271713
331
271714
331
27171C
331
27171D
331
271725
331
271726
331
27172F
331
271730
331
27179A
331
27179B
331
27271D
331
27271E
331
272726
331
272727
331
27272F
331
272730
331
272738
331
272739
331
272742
331
272743
331
27274A
331
27274B
331
272767
331
272768
331
27277C
331
27277D
102
}
  0
BLOCK_RECORD
  5
1ACB0D
330
1
100
AcDbSymbolTableRecord
100
AcDbBlockTableRecord
  2
YA
340
0
102
{BLKREFS
331
1ACB14
102
}
  0
BLOCK_RECORD
  5
1ACB12
330
1
100
AcDbSymbolTableRecord
100
AcDbBlockTableRecord
  2
SUN
340
0
  0
ENDTAB
  0
ENDSEC
  0
SECTION
  2
BLOCKS
  0
BLOCK
  5
39
330
18
100
AcDbEntity
  8
0
100
AcDbBlockBegin
  2
*MODEL_SPACE
 70
     0
 10
0.0
 20
0.0
 30
0.0
  3
*MODEL_SPACE
  1
*MODEL_SPACE
  0
ENDBLK
  5
3A
330
18
100
AcDbEntity
  8
0
100
AcDbBlockEnd
  0
BLOCK
  5
37
330
15
100
AcDbEntity
 67
     1
  8
0
100
AcDbBlockBegin
  2
*PAPER_SPACE
 70
     0
 10
0.0
 20
0.0
 30
0.0
  3
*PAPER_SPACE
  1
*PAPER_SPACE
  0
ENDBLK
  5
38
330
15
100
AcDbEntity
 67
     1
  8
0
100
AcDbBlockEnd
  0
BLOCK
  5
340
330
33F
100
AcDbEntity
  8
0
100
AcDbBlockBegin
  2
_OPEN
 70
     0
 10
0.0
 20
0.0
 30
0.0
  3
_OPEN
  1
_OPEN
  0
LINE
  5
341
330
33F
100
AcDbEntity
  8
0
  6
ByBlock
 62
     0
100
AcDbLine
 10
-1.0
 20
0.1666666666666667
 30
0.0
 11
0.0
 21
0.0
 31
0.0
  0
LINE
  5
342
330
33F
100
AcDbEntity
  8
0
  6
ByBlock
 62
     0
100
AcDbLine
 10
0.0
 20
0.0
 30
0.0
 11
-1.0
 21
-0.1666666666666667
 31
0.0
  0
LINE
  5
343
330
33F
100
AcDbEntity
  8
0
  6
ByBlock
 62
     0
100
AcDbLine
 10
0.0
 20
0.0
 30
0.0
 11
-1.0
 21
0.0
 31
0.0
  0
ENDBLK
  5
344
330
33F
100
AcDbEntity
  8
0
100
AcDbBlockEnd
  0
BLOCK
  5
1ACB0E
330
1ACB0D
100
AcDbEntity
  8
0
100
AcDbBlockBegin
  2
YA
 70
     0
 10
0.0
 20
0.0
 30
0.0
  3
YA
  1
YA
  0
LINE
  5
1ACB0F
330
1ACB0D
100
AcDbEntity
  8
C-SUNPO
100
AcDbLine
 10
0.0
 20
0.0
 30
0.0
 11
-10.92357602975926
 21
2.926963375633989
 31
0.0
  0
LINE
  5
1ACB10
330
1ACB0D
100
AcDbEntity
  8
C-SUNPO
100
AcDbLine
 10
0.0
 20
0.0
 30
0.0
 11
-10.92357602975926
 21
-2.926963375633989
 31
0.0
  0
ENDBLK
  5
1ACB11
330
1ACB0D
100
AcDbEntity
  8
0
100
AcDbBlockEnd
  0
BLOCK
  5
1ACB13
330
1ACB12
100
AcDbEntity
  8
0
100
AcDbBlockBegin
  2
SUN
 70
     0
 10
0.0
 20
0.0
 30
0.0
  3
SUN
  1
SUN
  0
INSERT
  5
1ACB14
330
1ACB12
100
AcDbEntity
  8
CONT-2
100
AcDbBlockReference
  2
YA
 10
0.0
 20
0.0
 30
0.0
 41
0.4753510464194477
 42
-0.4753510464194477
 43
0.4753510464194477
  0
ENDBLK
  5
1ACB15
330
1ACB12
100
AcDbEntity
  8
0
100
AcDbBlockEnd
  0
ENDSEC
  0
SECTION
  2
ENTITIES
  0
MTEXT
  5
1CADCE
330
18
100
AcDbEntity
  8
寸法線
100
AcDbMText
 10
-8190.898993724017
 20
-12886.90737958262
 30
-0.0000000000000001
 40
3.0
 41
0.0
 71
     9
 72
     1
  1
\A1;
 73
     1
 44
1.0
  0
MTEXT
  5
1CADD6
330
18
100
AcDbEntity
  8
寸法線
100
AcDbMText
 10
-8188.398993724017
 20
-12886.90737958262
 30
0.0000000000000001
 40
3.0
 41
0.0
 71
     9
 72
     1
  1
\A1;
 73
     1
 44
1.0
  0
MTEXT
  5
1CADDC
330
18
100
AcDbEntity
  8
寸法線
100
AcDbMText
 10
-8188.398993724017
 20
-12886.90737958262
 30
0.0000000000000001
 40
3.0
 41
0.0
 71
     9
 72
     1
  1
\A1;
 73
     1
 44
1.0
  0
MTEXT
  5
1CADE4
330
18
100
AcDbEntity
  8
寸法線
100
AcDbMText
 10
-8121.238459237466
 20
-12907.96180382428
 30
0.0
 40
3.0
 41
0.0
 71
     7
 72
     1
  1
\A1;
 73
     1
 44
1.0
  0
SPLINE
  5
2717EC
330
18
100
AcDbEntity
  8
姿図
100
AcDbSpline
210
0.0
220
0.0
230
1.0
 70
     8
 71
     3
 72
    14
 73
    10
 74
     0
 42
0.000000001
 43
0.0000000001
 40
-17.67097520731171
 40
-17.67097520731171
 40
-17.67097520731171
 40
-17.67097520731171
 40
-15.46329434907155
 40
-15.46329434907155
 40
-11.48389074227961
 40
-11.48389074227961
 40
-5.954339038219556
 40
-5.954339038219556
 40
-0.5047492958822968
 40
-0.5047492958822968
 40
-0.5047492958822968
 40
-0.5047492958822968
 10
-4374.576087497756
 20
-18274.48929805306
 30
0.0000000000000048
 10
-4374.458459406332
 20
-18274.71187641843
 30
0.0
 10
-4374.348115153957
 20
-18274.93629584155
 30
0.0
 10
-4374.061863166354
 20
-18275.56515063222
 30
0.0
 10
-4373.906237147857
 20
-18275.96539616087
 30
0.0
 10
-4373.589854334527
 20
-18276.94390330982
 30
0.0000000000000048
 10
-4373.478103392571
 20
-18277.43921084321
 30
0.0
 10
-4373.336636189336
 20
-18278.30288504757
 30
0.0000000000000097
 10
-4373.297490778766
 20
-18278.72685360663
 30
0.0000000000000097
 10
-4373.289926031933
 20
-18279.14038596148
 30
0.0
  0
SPLINE
  5
2717ED
330
18
100
AcDbEntity
  8
姿図
100
AcDbSpline
210
0.0
220
0.0
230
1.0
 70
    24
 71
     1
 72
     4
 73
     2
 74
     0
 42
0.000000001
 43
0.0000000001
 40
0.500003153875532
 40
0.500003153875532
 40
1.000006307751064
 40
1.000006307751064
 10
-4400.660458316309
 20
-18272.11807755195
 30
0.0000000000000049
 10
-4400.773206057765
 20
-18272.18095794608
 30
0.0000000000000146
  0
ARC
  5
2717EE
330
18
100
AcDbEntity
  8
姿図
100
AcDbCircle
 10
-4396.880902563345
 20
-18293.94438710638
 30
-0.0000000000000033
 40
10.19977863332881
100
AcDbArc
 50
273.418162713752
 51
284.7582780585444
  0
ELLIPSE
  5
2717EF
330
18
100
AcDbEntity
  8
姿図
100
AcDbEllipse
 10
-4401.387496789378
 20
-18290.6158097077
 30
0.0
 11
-7.28242352521681
 21
12.73200189802586
 31
0.0
210
0.0
220
0.0
230
1.0
 40
0.6660508930180213
 41
0.0
 42
6.283185307179586
  0
SPLINE
  5
2717F0
330
18
100
AcDbEntity
  8
姿図
100
AcDbSpline
210
0.0
220
0.0
230
1.0
 70
     8
 71
     3
 72
     8
 73
     4
 74
     0
 42
0.000000001
 43
0.0000000001
 40
8.0
 40
8.0
 40
8.0
 40
8.0
 40
9.0
 40
9.0
 40
9.0
 40
9.0
 10
-4378.437942603682
 20
-18280.40739993723
 30
-0.0000000000000097
 10
-4378.437942603682
 20
-18280.40739993723
 30
-0.0000000000000097
 10
-4381.764236066013
 20
-18250.2508807775
 30
0.0000000000000033
 10
-4381.980984397843
 20
-18249.22541830543
 30
0.0000000000000033
  0
SPLINE
  5
2717F1
330
18
100
AcDbEntity
  8
姿図
100
AcDbSpline
210
0.0
220
0.0
230
1.0
 70
     8
 71
     3
 72
     8
 73
     4
 74
     0
 42
0.000000001
 43
0.0000000001
 40
6.0
 40
6.0
 40
6.0
 40
6.0
 40
6.981114317255776
 40
6.981114317255776
 40
6.981114317255776
 40
6.981114317255776
 10
-4385.583049674598
 20
-18251.61630266721
 30
0.0000000000000033
 10
-4385.410439149758
 20
-18252.20526379658
 30
0.0000000000000033
 10
-4380.511207950077
 20
-18279.91573750329
 30
0.0000000000000033
 10
-4380.326189667395
 20
-18281.07564202237
 30
0.0000000000000033
  0
LINE
  5
2717F2
330
18
100
AcDbEntity
  8
姿図
100
AcDbLine
 10
-4394.031826538899
 20
-18252.64338613704
 30
0.0000000000000033
 11
-4398.143015180231
 21
-18271.8542650743
 31
0.0000000000000033
  0
SPLINE
  5
2717F3
330
18
100
AcDbEntity
  8
姿図
100
AcDbSpline
210
0.0
220
0.0
230
1.0
 70
     8
 71
     3
 72
     8
 73
     4
 74
     0
 42
0.000000001
 43
0.0000000001
 40
0.2696514016814274
 40
0.2696514016814274
 40
0.2696514016814274
 40
0.2696514016814274
 40
1.0
 40
1.0
 40
1.0
 40
1.0
 10
-4400.076502682045
 20
-18271.84391911531
 30
0.0000000000000033
 10
-4398.177210269911
 20
-18261.52921677899
 30
0.0000000000000033
 10
-4396.109660134492
 20
-18252.10948494885
 30
0.0000000000000033
 10
-4396.109660134492
 20
-18252.10948494885
 30
0.0000000000000033
  0
SPLINE
  5
2717F4
330
18
100
AcDbEntity
  8
姿図
100
AcDbSpline
210
0.0
220
0.0
230
1.0
 70
     8
 71
     3
 72
     8
 73
     4
 74
     0
 42
0.000000001
 43
0.0000000001
 40
15.0
 40
15.0
 40
15.0
 40
15.0
 40
15.72631331981369
 40
15.72631331981369
 40
15.72631331981369
 40
15.72631331981369
 10
-4397.163138345591
 20
-18250.64862150982
 30
0.0000000000000033
 10
-4397.163138345591
 20
-18250.64862150982
 30
0.0000000000000033
 10
-4398.919377518724
 20
-18261.09036557572
 30
0.0000000000000033
 10
-4400.674875736598
 20
-18272.05439977283
 30
0.0000000000000033
  0
LINE
  5
2717F5
330
18
100
AcDbEntity
  8
姿図
100
AcDbLine
 10
-4371.65761055512
 20
-18279.79828270143
 30
0.0000000000000048
 11
-4372.942960835916
 21
-18278.80501388964
 31
0.0000000000000048
  0
SPLINE
  5
2717F6
330
18
100
AcDbEntity
  8
姿図
100
AcDbSpline
210
0.0
220
0.0
230
1.0
 70
     8
 71
     3
 72
     8
 73
     4
 74
     0
 42
0.000000001
 43
0.0000000001
 40
0.0522524473711178
 40
0.0522524473711178
 40
0.0522524473711178
 40
0.0522524473711178
 40
3.974673657107151
 40
3.974673657107151
 40
3.974673657107151
 40
3.974673657107151
 10
-4373.289932468323
 20
-18279.14039026096
 30
0.0000000000000048
 10
-4373.284474263913
 20
-18279.43797165391
 30
0.0000000000000048
 10
-4373.295387075693
 20
-18279.73044628741
 30
0.0000000000000048
 10
-4373.322944820508
 20
-18280.01592235918
 30
0.0000000000000048
  0
LINE
  5
2717F7
330
18
100
AcDbEntity
  8
姿図
100
AcDbLine
 10
-4380.804311121407
 20
-18278.08047413592
 30
0.0
 11
-4382.822639847832
 21
-18280.61050262705
 31
0.0
  0
LWPOLYLINE
  5
2717F8
330
18
100
AcDbEntity
  8
姿図
100
AcDbPolyline
 90
        4
 70
     0
 43
0.0
 10
-4384.74539051975
 20
-18279.65654832392
 10
-4383.401744823558
 20
-18278.73852188647
 10
-4383.078657887346
 20
-18278.63157939028
 10
-4380.700583720493
 20
-18277.71472985931
  0
ELLIPSE
  5
2717F9
330
18
100
AcDbEntity
  8
姿図
100
AcDbEllipse
 10
-4397.650880262622
 20
-18288.68073706914
 30
0.0000000000000048
 11
-6.171736332991535
 21
12.71299744546082
 31
1.220271524174379E-15
210
-4.507750876087797E-17
220
7.410251041075204E-17
230
-1.0
 40
0.7148769796037835
 41
-1.336025501013204
 42
-0.3740805824015643
  0
ELLIPSE
  5
2717FA
330
18
100
AcDbEntity
  8
姿図
100
AcDbEllipse
 10
-4397.705785745019
 20
-18288.86608008893
 30
0.0000000000000048
 11
-8.829979100642742
 21
10.98552652668503
 31
4.040295180262875E-16
210
-1.502583625362599E-17
220
2.470083680358400E-17
230
-1.0
 40
0.7419878916066797
 41
-1.136589550032924
 42
-0.125843033866976
  0
ELLIPSE
  5
2717FB
330
18
100
AcDbEntity
  8
姿図
100
AcDbEllipse
 10
-4398.56327155925
 20
-18289.38769972218
 30
0.0000000000000048
 11
-8.208672799841843
 21
11.462383986619
 31
6.097089743752613E-16
210
-2.253875438043901E-17
220
3.705125520537599E-17
230
-1.0
 40
0.7212488145120978
 41
3.547863408263944
 42
6.141197072414606
  0
ELLIPSE
  5
2717FC
330
18
100
AcDbEntity
  8
姿図
100
AcDbEllipse
 10
-4396.281903342085
 20
-18288.1876027438
 30
0.0000000000000048
 11
-7.060164574590121
 21
11.81984014879487
 31
1.990224096906372E-16
210
-7.512918126813000E-18
220
1.235041840179201E-17
230
-1.0
 40
0.7210291192186467
 41
3.53225784205633
 42
5.995539524716994
  0
ELLIPSE
  5
2717FD
330
18
100
AcDbEntity
  8
姿図
100
AcDbEllipse
 10
-4400.013000122343
 20
-18289.91435387661
 30
0.0000000000000048
 11
-7.884575982221855
 21
12.96138340089481
 31
4.386293637723232E-16
210
-1.502583625362599E-17
220
2.470083680358400E-17
230
-1.0
 40
0.7445887407027094
 41
-0.1600394095497162
 42
3.301632058444431
  0
ELLIPSE
  5
2717FE
330
18
100
AcDbEntity
  8
姿図
100
AcDbEllipse
 10
-4400.134581313762
 20
-18290.07025985355
 30
0.0000000000000048
 11
-7.884575982221196
 21
12.9613834008953
 31
4.386293637723255E-16
210
-1.502583625362600E-17
220
2.470083680358401E-17
230
-1.0
 40
0.7445887407027151
 41
-0.1600394095497866
 42
2.858287793139493
  0
ELLIPSE
  5
2717FF
330
18
100
AcDbEntity
  8
姿図
100
AcDbEllipse
 10
-4401.648093034616
 20
-18290.90899752807
 30
0.0
 11
-6.74863655959689
 21
11.79877182209287
 31
0.0
210
0.0
220
0.0
230
1.0
 40
0.662162193431699
 41
0.0
 42
6.283185307179586
  0
ELLIPSE
  5
271800
330
18
100
AcDbEntity
  8
姿図
100
AcDbEllipse
 10
-4395.55302364492
 20
-18288.02671105735
 30
0.0000000000000048
 11
-8.699597329939269
 21
11.81675478891425
 31
6.339036848116349E-16
210
-2.253875438043899E-17
220
3.705125520537601E-17
230
-1.0
 40
0.7846158028914396
 41
-0.5798433882892109
 42
-0.2849668007484034
  0
ELLIPSE
  5
271801
330
18
100
AcDbEntity
  8
姿図
100
AcDbEllipse
 10
-4395.825691135346
 20
-18287.98360236505
 30
0.0000000000000048
 11
-7.362188164834699
 21
12.10263477567932
 31
4.095682403206245E-16
210
-1.502583625362597E-17
220
2.470083680358399E-17
230
-1.0
 40
0.7445887407026627
 41
-0.6754224664350246
 42
-0.3300486139800427
  0
LINE
  5
271802
330
18
100
AcDbEntity
  8
姿図
100
AcDbLine
 10
-4396.33838971657
 20
-18281.26355226235
 30
0.0
 11
-4394.572815465005
 21
-18279.39469574787
 31
0.0
  0
LINE
  5
271803
330
18
100
AcDbEntity
  8
姿図
100
AcDbLine
 10
-4396.743212638098
 20
-18280.87296341193
 30
0.0
 11
-4395.009537647776
 21
-18279.03787219625
 31
0.0
  0
LINE
  5
271804
330
18
100
AcDbEntity
  8
姿図
100
AcDbLine
 10
-4397.15955703829
 20
-18280.49457002166
 30
0.0
 11
-4395.458663616119
 21
-18278.69417802475
 31
0.0
  0
LINE
  5
271805
330
18
100
AcDbEntity
  8
姿図
100
AcDbLine
 10
-4397.587793467562
 20
-18280.12876431838
 30
0.0
 11
-4395.920621504821
 21
-18278.36406641311
 31
0.0
  0
LINE
  5
271806
330
18
100
AcDbEntity
  8
姿図
100
AcDbLine
 10
-4398.028375880483
 20
-18279.776026812
 30
0.0
 11
-4396.395928471592
 21
-18278.04808477164
 31
0.0
  0
SPLINE
  5
271807
330
18
100
AcDbEntity
  8
姿図
100
AcDbSpline
210
0.0
220
0.0
230
1.0
 70
     8
 71
     3
 72
    10
 73
     6
 74
     0
 42
0.000000001
 43
0.0000000001
 40
0.0507684683112425
 40
0.0507684683112425
 40
0.0507684683112425
 40
0.0507684683112425
 40
16.17239265914957
 40
16.17239265914957
 40
28.35901754380262
 40
28.35901754380262
 40
28.35901754380262
 40
28.35901754380262
 10
-4383.205691602047
 20
-18282.62754399934
 30
0.0000000000000048
 10
-4383.500782538043
 20
-18281.87919439584
 30
0.0000000000000097
 10
-4384.208297134027
 20
-18280.57394111132
 30
0.0000000000000048
 10
-4385.689103415455
 20
-18278.4467354338
 30
0.0000000000000007
 10
-4386.562626628503
 20
-18277.35867601764
 30
0.0000000000000026
 10
-4387.801603933892
 20
-18276.18818855966
 30
0.000000000000004
  0
ELLIPSE
  5
271808
330
18
100
AcDbEntity
  8
姿図
100
AcDbEllipse
 10
-4395.480684429877
 20
-18287.15728775431
 30
0.0000000000000035
 11
-8.240481708337285
 21
13.54645361661168
 31
1.375286606555164E-15
210
-4.507750876087788E-17
220
7.410251041075196E-17
230
-1.0
 40
0.7445887407027104
 41
0.1816174140285645
 42
1.721396946041356
  0
SPLINE
  5
271809
330
18
100
AcDbEntity
  8
姿図
100
AcDbSpline
210
0.0
220
0.0
230
1.0
 70
     8
 71
     3
 72
    20
 73
    16
 74
     0
 42
0.000000001
 43
0.0000000001
 40
0.0507684683112425
 40
0.0507684683112425
 40
0.0507684683112425
 40
0.0507684683112425
 40
16.17239265914957
 40
16.17239265914957
 40
33.44137084920912
 40
33.44137084920912
 40
41.29196149669883
 40
41.29196149669883
 40
50.54402678597219
 40
50.54402678597219
 40
58.56297097631615
 40
58.56297097631615
 40
66.12555618457822
 40
66.12555618457822
 40
66.75214355035303
 40
66.75214355035303
 40
66.75214355035303
 40
66.75214355035303
 10
-4384.226706307875
 20
-18283.00529413943
 30
-0.0000000000000046
 10
-4384.847958007908
 20
-18281.68146724353
 30
-0.0000000000000046
 10
-4385.612769457553
 20
-18280.40628392568
 30
-0.0000000000000046
 10
-4387.446628694045
 20
-18277.97329640457
 30
-0.0000000000000046
 10
-4388.867222348367
 20
-18276.3905624457
 30
-0.0000000000000046
 10
-4391.640556107343
 20
-18274.41664640867
 30
-0.0000000000000046
 10
-4392.547260661639
 20
-18273.88786492387
 30
-0.0000000000000046
 10
-4394.54314505704
 20
-18272.96909828562
 30
-0.0000000000000046
 10
-4395.631181829692
 20
-18272.623659626
 30
-0.0000000000000046
 10
-4397.653269797865
 20
-18272.25651214204
 30
-0.0000000000000046
 10
-4398.470152442363
 20
-18272.21749305608
 30
0.0000000000000035
 10
-4399.820463179612
 20
-18272.27256758233
 30
-0.0000000000000046
 10
-4400.629277489404
 20
-18272.37021926074
 30
-0.0000000000000046
 10
-4401.530881539306
 20
-18272.62914693749
 30
-0.0000000000000046
 10
-4401.59958060575
 20
-18272.64979127679
 30
-0.0000000000000046
 10
-4401.667968263136
 20
-18272.67124854563
 30
-0.0000000000000046
  0
ARC
  5
27180A
330
18
100
AcDbEntity
  8
姿図
100
AcDbCircle
 10
-4408.421537566333
 20
-18264.22797889308
 30
0.0
 40
40.50125572339087
100
AcDbArc
 50
309.6951363314268
 51
335.3347933006401
  0
ARC
  5
27180B
330
18
100
AcDbEntity
  8
姿図
100
AcDbCircle
 10
-4388.874486412721
 20
-18283.94310208311
 30
0.0000000000000026
 40
11.86515413592403
100
AcDbArc
 50
305.5986504503642
 51
348.5556650931363
  0
ELLIPSE
  5
27180C
330
18
100
AcDbEntity
  8
姿図
100
AcDbEllipse
 10
-4395.480684429877
 20
-18287.15728775431
 30
0.0000000000000035
 11
-8.240481708336526
 21
13.54645361661212
 31
1.375286606555164E-15
210
-4.507750876087789E-17
220
7.410251041075211E-17
230
-1.0
 40
0.7445887407026945
 41
2.121095593057874
 42
2.942897457598217
  0
SPLINE
  5
27180D
330
18
100
AcDbEntity
  8
姿図
100
AcDbSpline
210
0.0
220
0.0
230
1.0
 70
     8
 71
     3
 72
    20
 73
    16
 74
     0
 42
0.000000001
 43
0.0000000001
 40
61.91009950387845
 40
61.91009950387845
 40
61.91009950387845
 40
61.91009950387845
 40
63.27662545801321
 40
63.27662545801321
 40
65.63207741714923
 40
65.63207741714923
 40
66.46294226239624
 40
66.46294226239624
 40
68.78483332584179
 40
68.78483332584179
 40
78.37384755292882
 40
78.37384755292882
 40
82.12808435629299
 40
82.12808435629299
 40
85.66477676586585
 40
85.66477676586585
 40
85.66477676586585
 40
85.66477676586585
 10
-4384.947344925608
 20
-18298.92916716026
 30
-0.0000000000000016
 10
-4384.765034080562
 20
-18298.75195704009
 30
-0.0000000000000024
 10
-4384.602211849448
 20
-18298.58043950348
 30
-0.0000000000000028
 10
-4384.212046221469
 20
-18298.14442310273
 30
0.0
 10
-4383.993277673272
 20
-18297.86639354731
 30
-0.0000000000000049
 10
-4383.79918958627
 20
-18297.60410466709
 30
0.0
 10
-4383.745956682787
 20
-18297.53020446715
 30
-0.0000000000000049
 10
-4383.540989490738
 20
-18297.23796119977
 30
0.0000000000000048
 10
-4383.415106086996
 20
-18297.04286056379
 30
-0.0000000000000049
 10
-4382.77119387625
 20
-18295.97584246175
 30
-0.0000000000000049
 10
-4382.1268041187
 20
-18294.64617510311
 30
-0.0000000000000049
 10
-4381.635738024174
 20
-18292.10723210334
 30
-0.0000000000000049
 10
-4381.553286431627
 20
-18291.37490989475
 30
0.0000000000000048
 10
-4381.497537046233
 20
-18289.90844581829
 30
0.0000000000000048
 10
-4381.617650621322
 20
-18288.13315911735
 30
-0.0000000000000049
 10
-4381.617650621322
 20
-18288.13315911735
 30
-0.0000000000000049
  0
SPLINE
  5
27180E
330
18
100
AcDbEntity
  8
姿図
100
AcDbSpline
210
0.0
220
0.0
230
1.0
 70
     8
 71
     3
 72
    20
 73
    16
 74
     0
 42
0.000000001
 43
0.0000000001
 40
60.97286850367482
 40
60.97286850367482
 40
60.97286850367482
 40
60.97286850367482
 40
63.27662545801321
 40
63.27662545801321
 40
65.63207741714923
 40
65.63207741714923
 40
66.46294226239624
 40
66.46294226239624
 40
68.78483332584179
 40
68.78483332584179
 40
78.37384755292882
 40
78.37384755292882
 40
82.12808435629299
 40
82.12808435629299
 40
84.32250915659358
 40
84.32250915659358
 40
84.32250915659358
 40
84.32250915659358
 10
-4385.330011006902
 20
-18299.17439312134
 30
-0.000000000000005
 10
-4385.021959447212
 20
-18298.84951529316
 30
-0.0000000000000056
 10
-4384.765474734427
 20
-18298.53225588229
 30
-0.0000000000000068
 10
-4384.34757523518
 20
-18297.96184655738
 30
-0.0000000000000127
 10
-4384.162943394113
 20
-18297.67270930783
 30
-0.0000000000000046
 10
-4384.000329538697
 20
-18297.40052436401
 30
-0.0000000000000046
 10
-4383.955878367467
 20
-18297.32390474335
 30
-0.0000000000000046
 10
-4383.785309918278
 20
-18297.0211702158
 30
-0.0000000000000046
 10
-4383.681740890191
 20
-18296.8195847668
 30
-0.0000000000000127
 10
-4383.157222830873
 20
-18295.71921254764
 30
-0.0000000000000046
 10
-4382.652236159466
 20
-18294.35547104997
 30
-0.0000000000000127
 10
-4382.383465417411
 20
-18291.78651047129
 30
-0.0000000000000046
 10
-4382.361618291635
 20
-18291.04833565468
 30
-0.0000000000000046
 10
-4382.409853105651
 20
-18289.84651622247
 30
-0.0000000000000046
 10
-4382.445572511454
 20
-18289.39467433902
 30
-0.0000000000000046
 10
-4382.499394549
 20
-18288.94011476921
 30
-0.0000000000000046
  0
LINE
  5
27180F
330
18
100
AcDbEntity
  8
姿図
100
AcDbLine
 10
-4390.28655315718
 20
-18293.69683618891
 30
0.0
 11
-4387.881936150096
 21
-18291.15155430425
 31
0.0
  0
LINE
  5
271810
330
18
100
AcDbEntity
  8
姿図
100
AcDbLine
 10
-4390.374216193747
 20
-18292.97053428839
 30
0.0
 11
-4388.006334080613
 21
-18290.46413620928
 31
0.0
  0
LINE
  5
271811
330
18
100
AcDbEntity
  8
姿図
100
AcDbLine
 10
-4390.488076550219
 20
-18292.27196219416
 30
0.0
 11
-4388.153155644893
 21
-18289.80045348199
 31
0.0
  0
ELLIPSE
  5
271812
330
18
100
AcDbEntity
  8
姿図
100
AcDbEllipse
 10
-4395.825691135346
 20
-18287.98360236505
 30
0.0000000000000048
 11
-7.362188164830537
 21
12.10263477569337
 31
2.047841201604545E-16
210
-7.512918126813013E-18
220
1.235041840179197E-17
230
-1.0
 40
0.7445887407022102
 41
-1.530293444921352
 42
-1.020444988477903
  0
ELLIPSE
  5
271813
330
18
100
AcDbEntity
  8
姿図
100
AcDbEllipse
 10
-4399.612209101048
 20
-18289.67054755111
 30
0.0000000000000048
 11
-7.672174073519265
 21
12.61221781735697
 31
1.280439496127413E-15
210
-4.507750876087800E-17
220
7.410251041075201E-17
230
-1.0
 40
0.7445887407026809
 41
3.636283805279289
 42
5.673615026347025
  0
LINE
  5
271814
330
18
100
AcDbEntity
  8
姿図
100
AcDbLine
 10
-4398.038030567431
 20
-18286.46158563161
 30
0.0
 11
-4402.588699629937
 21
-18291.88871889074
 31
0.0
  0
LINE
  5
271815
330
18
100
AcDbEntity
  8
姿図
100
AcDbLine
 10
-4396.570071663434
 20
-18288.95513410432
 30
0.0
 11
-4401.12074072594
 21
-18294.38226736345
 31
0.0
  0
ELLIPSE
  5
271816
330
18
100
AcDbEntity
  8
姿図
100
AcDbEllipse
 10
-4396.336452394256
 20
-18288.1768820873
 30
0.0000000000000048
 11
-8.500228564433543
 21
9.951939267751863
 31
5.603164053892366E-16
210
-2.253875438043902E-17
220
3.705125520537600E-17
230
-1.0
 40
0.8394320487860444
 41
-1.376701961562133
 42
-0.9346820271856128
  0
ELLIPSE
  5
271817
330
18
100
AcDbEntity
  8
姿図
100
AcDbEllipse
 10
-4397.650880262622
 20
-18288.68073706914
 30
0.0000000000000048
 11
-7.444693544853399
 21
11.8886404268406
 31
1.216566339489824E-15
210
-4.507750876087802E-17
220
7.410251041075204E-17
230
-1.0
 40
0.7056022756695939
 41
3.486045950244612
 42
5.025651057886404
  0
ELLIPSE
  5
271818
330
18
100
AcDbEntity
  8
姿図
100
AcDbEllipse
 10
-4397.705785745019
 20
-18288.86608008893
 30
0.0000000000000048
 11
-7.82701416331038
 21
11.75310932543846
 31
4.079190685550499E-16
210
-1.502583625362602E-17
220
2.470083680358398E-17
230
-1.0
 40
0.7569365384830131
 41
3.552643368148212
 42
5.078668158851188
  0
ELLIPSE
  5
271819
330
18
100
AcDbEntity
  8
姿図
100
AcDbEllipse
 10
-4381.793153880447
 20
-18268.5181576533
 30
0.0000000000000052
 11
17.59358850054388
 21
31.5635918245737
 31
7.729331260063254E-16
210
-2.253875438043894E-17
220
3.705125520537598E-17
230
-1.0
 40
0.6410056557820725
 41
3.099784278963601
 42
3.266368125798948
  0
LINE
  5
27181A
330
18
100
AcDbEntity
  8
姿図
100
AcDbLine
 10
-4401.412974612119
 20
-18297.6090336006
 30
0.0000000000000048
 11
-4401.767930212379
 21
-18298.43284451726
 31
0.0000000000000046
  0
LINE
  5
27181B
330
18
100
AcDbEntity
  8
姿図
100
AcDbLine
 10
-4406.173071399263
 20
-18293.25875384942
 30
0.000000000000005
 11
-4405.127894451159
 21
-18292.97085141866
 31
0.0000000000000048
  0
ELLIPSE
  5
27181C
330
18
100
AcDbEntity
  8
姿図
100
AcDbEllipse
 10
-4395.825691135346
 20
-18287.98360236505
 30
0.0000000000000048
 11
-7.362188164839183
 21
12.10263477568438
 31
2.047841201604088E-16
210
-7.512918126812984E-18
220
1.235041840179202E-17
230
-1.0
 40
0.7445887407023684
 41
4.327427167059906
 42
4.752891862258899
  0
LINE
  5
27181D
330
18
100
AcDbEntity
  8
姿図
100
AcDbLine
 10
-4391.521533131444
 20
-18300.74019300824
 30
0.0
 11
-4388.779179018075
 21
-18298.97562602003
 31
0.0
  0
LINE
  5
27181E
330
18
100
AcDbEntity
  8
姿図
100
AcDbLine
 10
-4390.067955906713
 20
-18301.10568401148
 30
0.0
 11
-4392.492990940987
 21
-18302.07512001464
 31
0.0
  0
LINE
  5
27181F
330
18
100
AcDbEntity
  8
姿図
100
AcDbLine
 10
-4392.175313317865
 20
-18301.62900298805
 30
0.0
 11
-4389.270690155773
 21
-18299.99338471671
 31
0.0
  0
LINE
  5
271820
330
18
100
AcDbEntity
  8
姿図
100
AcDbLine
 10
-4391.1909224701
 20
-18300.03970944952
 30
0.0
 11
-4388.261698955098
 21
-18297.72337022015
 31
0.0
  0
LINE
  5
271821
330
18
100
AcDbEntity
  8
姿図
100
AcDbLine
 10
-4390.830206605512
 20
-18299.1868503915
 30
0.0
 11
-4387.859272759598
 21
-18296.04212336169
 31
0.0
  0
LINE
  5
271822
330
18
100
AcDbEntity
  8
姿図
100
AcDbLine
 10
-4390.501131835149
 20
-18298.01943242655
 30
0.0
 11
-4387.735915146218
 21
-18295.09245656105
 31
0.0
  0
LINE
  5
271823
330
18
100
AcDbEntity
  8
姿図
100
AcDbLine
 10
-4390.323902758258
 20
-18297.01274279868
 30
0.0
 11
-4387.680382185742
 21
-18294.21458200836
 31
0.0
  0
ELLIPSE
  5
271824
330
18
100
AcDbEntity
  8
姿図
100
AcDbEllipse
 10
-4395.825691135346
 20
-18287.98360236505
 30
0.0000000000000048
 11
-7.245890988991941
 21
12.14575907608555
 31
1.022214960765639E-15
210
-3.756459063406504E-17
220
6.175209200896002E-17
230
-1.0
 40
0.7430302579573002
 41
3.587432645584389
 42
4.013845773911165
  0
LINE
  5
271825
330
18
100
AcDbEntity
  8
姿図
100
AcDbLine
 10
-4398.076746363112
 20
-18299.91746854895
 30
0.0000000000000042
 11
-4398.525729287295
 21
-18300.52552821068
 31
0.0000000000000044
  0
LINE
  5
271826
330
18
100
AcDbEntity
  8
姿図
100
AcDbLine
 10
-4391.813712503313
 20
-18302.67447888657
 30
0.0
 11
-4393.463302922158
 21
-18302.9143676152
 31
0.0
  0
LINE
  5
271827
330
18
100
AcDbEntity
  8
姿図
100
AcDbLine
 10
-4390.875970369018
 20
-18301.94317728373
 30
0.0
 11
-4392.959791810131
 21
-18302.47372623947
 31
0.0
  0
ELLIPSE
  5
271828
330
18
100
AcDbEntity
  8
姿図
100
AcDbEllipse
 10
-4398.209050495946
 20
-18288.81698815125
 30
0.0000000000000048
 11
-7.13486450601208
 21
11.72893942405067
 31
1.984609621758720E-16
210
-7.512918126813008E-18
220
1.235041840179200E-17
230
-1.0
 40
0.7445887418889435
 41
3.384599287400112
 42
3.389850227392116
  0
SPLINE
  5
271829
330
18
100
AcDbEntity
  8
姿図
100
AcDbSpline
210
-2.784763448019300E-10
220
9.163440837386908E-10
230
-1.0
 70
     8
 71
     3
 72
     8
 73
     4
 74
     0
 42
0.000000001
 43
0.0000000001
 40
104.4616887805064
 40
104.4616887805064
 40
104.4616887805064
 40
104.4616887805064
 40
104.5558158786619
 40
104.5558158786619
 40
104.5558158786619
 40
104.5558158786619
 10
-4394.041148482235
 20
-18303.73547125749
 30
-0.0000000000000033
 10
-4394.045658848417
 20
-18303.73684783382
 30
-0.0000000000000033
 10
-4394.050166548576
 20
-18303.73822067426
 30
-0.0000000000000114
 10
-4394.054671551704
 20
-18303.73958974165
 30
-0.0000000000000114
  0
ELLIPSE
  5
27182A
330
18
100
AcDbEntity
  8
姿図
100
AcDbEllipse
 10
-4400.016883745088
 20
-18289.91671633421
 30
0.0000000000000048
 11
-7.883976894925901
 21
12.96040266558285
 31
4.385961370018242E-16
210
-1.502583625362601E-17
220
2.470083680358399E-17
230
-1.0
 40
0.7445885816862141
 41
3.329004700455244
 42
3.329226432330678
  0
SPLINE
  5
27182B
330
18
100
AcDbEntity
  8
姿図
100
AcDbSpline
210
0.0
220
0.0
230
1.0
 70
     8
 71
     3
 72
    12
 73
     8
 74
     0
 42
0.000000001
 43
0.0000000001
 40
-1.090507445860422
 40
-1.090507445860422
 40
-1.090507445860422
 40
-1.090507445860422
 40
-0.9471425154221369
 40
-0.9471425154221369
 40
-0.7528206779009274
 40
-0.7528206779009274
 40
-0.6501188551225207
 40
-0.6501188551225207
 40
-0.6501188551225207
 40
-0.6501188551225207
 10
-4394.071374959128
 20
-18303.74466117242
 30
-0.0000000000000114
 10
-4394.078714599834
 20
-18303.74688920421
 30
-0.0000000000000114
 10
-4394.08723781657
 20
-18303.74947660775
 30
-0.0000000000000114
 10
-4394.109482154109
 20
-18303.75622319672
 30
-0.0000000000000114
 10
-4394.123356860287
 20
-18303.76042634415
 30
-0.0000000000000114
 10
-4394.144672839176
 20
-18303.76686194781
 30
-0.0000000000000114
 10
-4394.152295167462
 20
-18303.7691594352
 30
-0.0000000000000114
 10
-4394.160113010698
 20
-18303.77150997738
 30
-0.0000000000000114
  0
SPLINE
  5
27182C
330
18
100
AcDbEntity
  8
姿図
100
AcDbSpline
210
0.0
220
0.0
230
1.0
 70
     8
 71
     3
 72
     8
 73
     4
 74
     0
 42
0.000000001
 43
0.0000000001
 40
211.7706370983692
 40
211.7706370983692
 40
211.7706370983692
 40
211.7706370983692
 40
212.1566911252955
 40
212.1566911252955
 40
212.1566911252955
 40
212.1566911252955
 10
-4394.124170039237
 20
-18303.76047480212
 30
-0.0000000000000114
 10
-4394.105808385878
 20
-18303.75501952595
 30
-0.0000000000000114
 10
-4394.087400280437
 20
-18303.74950050388
 30
-0.0000000000000033
 10
-4394.068946824907
 20
-18303.74391809276
 30
-0.0000000000000114
  0
SPLINE
  5
27182D
330
18
100
AcDbEntity
  8
姿図
100
AcDbSpline
210
0.0
220
0.0
230
1.0
 70
     8
 71
     3
 72
     8
 73
     4
 74
     0
 42
0.000000001
 43
0.0000000001
 40
-0.691446024632862
 40
-0.691446024632862
 40
-0.691446024632862
 40
-0.691446024632862
 40
-0.6779385051869151
 40
-0.6779385051869151
 40
-0.6779385051869151
 40
-0.6779385051869151
 10
-4394.068908392887
 20
-18303.74395781203
 30
-0.0000000000000114
 10
-4394.069722205167
 20
-18303.7442067503
 30
-0.0000000000000114
 10
-4394.070544471969
 20
-18303.74444121697
 30
-0.0000000000000114
 10
-4394.071374959128
 20
-18303.74466117242
 30
-0.0000000000000114
  0
ELLIPSE
  5
27182E
330
18
100
AcDbEntity
  8
姿図
100
AcDbEllipse
 10
-4400.079928636084
 20
-18289.95506735107
 30
0.0000000000000048
 11
-7.874212555822768
 21
12.94434706054504
 31
8.761056655230284E-16
210
-3.005167250725200E-17
220
4.940167360716802E-17
230
-1.0
 40
0.7445887405939735
 41
3.327615434085498
 42
3.342055807832923
  0
SPLINE
  5
27182F
330
18
100
AcDbEntity
  8
姿図
100
AcDbSpline
210
0.0
220
0.0
230
1.0
 70
     8
 71
     1
 72
     8
 73
     6
 74
     0
 42
0.000000001
 43
0.0000000001
 40
4.584727753645457
 40
4.584727753645457
 40
4.584891353986822
 40
4.585054954328187
 40
4.585218554669551
 40
4.585382155010916
 40
4.585545755352282
 40
4.585545755352282
 10
-4394.160113010698
 20
-18303.77150997738
 30
-0.0000000000000114
 10
-4394.166227936627
 20
-18303.77334783935
 30
-0.0000000000000114
 10
-4394.172342680277
 20
-18303.77518422316
 30
-0.0000000000000114
 10
-4394.178457240859
 20
-18303.77701912891
 30
-0.0000000000000114
 10
-4394.184571617582
 20
-18303.77885255669
 30
-0.0000000000000114
 10
-4394.190685809658
 20
-18303.7806845066
 30
-0.0000000000000114
  0
SPLINE
  5
271830
330
18
100
AcDbEntity
  8
姿図
100
AcDbSpline
210
0.0
220
0.0
230
1.0
 70
     8
 71
     1
 72
     8
 73
     6
 74
     0
 42
0.000000001
 43
0.0000000001
 40
4.553485832398614
 40
4.553485832398614
 40
4.559001824165762
 40
4.564517815932909
 40
4.570033807700057
 40
4.575549799467204
 40
4.581065791234352
 40
4.581065791234352
 10
-4393.767120636318
 20
-18303.64565219152
 30
-0.0000000000000114
 10
-4393.827106950118
 20
-18303.666158367
 30
-0.0000000000000114
 10
-4393.887280785118
 20
-18303.68624261124
 30
-0.0000000000000033
 10
-4393.947640241438
 20
-18303.70590432261
 30
-0.0000000000000114
 10
-4394.008183414052
 20
-18303.72514291383
 30
-0.0000000000000114
 10
-4394.068908392887
 20
-18303.74395781203
 30
-0.0000000000000114
  0
LINE
  5
271831
330
18
100
AcDbEntity
  8
姿図
100
AcDbLine
 10
-4390.235937210921
 20
-18296.10053842317
 30
0.0
 11
-4387.676021247252
 21
-18293.39087292992
 31
0.0
  0
LINE
  5
271832
330
18
100
AcDbEntity
  8
姿図
100
AcDbLine
 10
-4390.209552561236
 20
-18295.25351729421
 30
0.0
 11
-4387.71247046396
 21
-18292.6103613122
 31
0.0
  0
LINE
  5
271833
330
18
100
AcDbEntity
  8
姿図
100
AcDbLine
 10
-4390.229561503572
 20
-18294.45560368174
 30
0.0
 11
-4387.782759782359
 21
-18291.8656693687
 31
0.0
  0
ARC
  5
271834
330
18
100
AcDbEntity
  8
姿図
100
AcDbCircle
 10
-4423.365877135992
 20
-18239.3996436339
 30
0.0
 40
70.85017846467
100
AcDbArc
 50
295.2712329143715
 51
302.8369599190648
  0
LINE
  5
271835
330
18
100
AcDbEntity
  8
姿図
100
AcDbLine
 10
-4397.744439229117
 20
-18283.82135753661
 30
0.0
 11
-4402.295108291623
 21
-18289.24849079574
 31
0.0
  0
LINE
  5
271836
330
18
100
AcDbEntity
  8
姿図
100
AcDbLine
 10
-4407.112524654088
 20
-18287.79847795612
 30
0.0000000000000048
 11
-4408.106243477771
 21
-18288.00445130493
 31
0.0000000000000051
  0
ELLIPSE
  5
271837
330
18
100
AcDbEntity
  8
姿図
100
AcDbEllipse
 10
-4395.825691135346
 20
-18287.98360236505
 30
0.0000000000000048
 11
-7.3621881648323
 21
12.1026347756822
 31
8.191364806413193E-16
210
-3.005167250725200E-17
220
4.940167360716794E-17
230
-1.0
 40
0.7445887407026724
 41
-1.020444988477155
 42
-0.675422466435305
  0
LINE
  5
271838
330
18
100
AcDbEntity
  8
姿図
100
AcDbLine
 10
-4407.909194515531
 20
-18281.87589989114
 30
0.0000000000000048
 11
-4407.204633502985
 21
-18281.97298975345
 31
0.0000000000000048
  0
LWPOLYLINE
  5
271839
330
18
100
AcDbEntity
  8
姿図
100
AcDbPolyline
 90
        4
 70
     0
 43
0.0
 10
-4381.523224595449
 20
-18290.57910898643
 10
-4380.342513904637
 20
-18289.80603221507
 10
-4379.957297145826
 20
-18289.43929181787
 10
-4377.472778730747
 20
-18284.98056907717
  0
LWPOLYLINE
  5
27183A
330
18
100
AcDbEntity
  8
姿図
100
AcDbPolyline
 90
        4
 70
     0
 43
0.0
 10
-4381.529843406176
 20
-18291.18388174163
 10
-4380.015033164823
 20
-18290.19205146542
 10
-4379.629816406013
 20
-18289.82531106821
 10
-4377.145297990935
 20
-18285.36658832752
  0
LINE
  5
27183B
330
18
100
AcDbEntity
  8
姿図
100
AcDbLine
 10
-4378.462411430072
 20
-18285.08174441358
 30
0.0000000000000048
 11
-4382.573945814113
 21
-18289.01136757925
 31
0.0000000000000048
  0
ARC
  5
27183C
330
18
100
AcDbEntity
  8
姿図
100
AcDbCircle
 10
-4379.335867683499
 20
-18284.48964747572
 30
0.0000000000000026
 40
2.763779877119617
100
AcDbArc
 50
319.1512900025141
 51
4.149031979351955
  0
LWPOLYLINE
  5
27183D
330
18
100
AcDbEntity
  8
姿図
100
AcDbPolyline
 90
        3
 70
     0
 43
0.0
 10
-4373.689906554614
 20
-18280.73911484382
 10
-4374.589106249429
 20
-18282.73889372405
 10
-4376.252183934804
 20
-18285.09453409127
  0
ELLIPSE
  5
27183E
330
18
100
AcDbEntity
  8
姿図
100
AcDbEllipse
 10
-4379.196879628374
 20
-18282.80548490567
 30
0.0000000000000035
 11
-0.2991204167146964
 21
2.304368583474401
 31
1.343659714742013E-16
210
-7.443458355556932E-18
220
5.734303186422374E-17
230
-1.0
 40
0.6338586263934446
 41
3.141592653589488
 42
5.180284413960835
  0
ELLIPSE
  5
27183F
330
18
100
AcDbEntity
  8
姿図
100
AcDbEllipse
 10
-4377.729093763856
 20
-18282.61495778141
 30
0.0000000000000035
 11
-0.2991204167153053
 21
2.304368583474418
 31
1.343659714742069E-16
210
-7.443458355556967E-18
220
5.734303186422374E-17
230
-1.0
 40
0.6338586263934506
 41
4.868828357704045
 42
11.15201366488363
  0
LINE
  5
271840
330
18
100
AcDbEntity
  8
姿図
100
AcDbLine
 10
-4377.429982949213
 20
-18284.919346982
 30
0.0000000000000035
 11
-4378.89778094761
 21
-18285.10987568131
 31
0.0000000000000035
  0
LINE
  5
271841
330
18
100
AcDbEntity
  8
姿図
100
AcDbLine
 10
-4377.429973347141
 20
-18284.91932636488
 30
0.0000000000000035
 11
-4378.897759211658
 21
-18285.10985348914
 31
0.0000000000000035
  0
ELLIPSE
  5
271842
330
18
100
AcDbEntity
  8
姿図
100
AcDbEllipse
 10
-4379.196903837091
 20
-18282.8054880481
 30
0.0000000000000035
 11
-0.2991228894817231
 21
2.304387633208462
 31
1.343670822496472E-16
210
-7.443458355556995E-18
220
5.734303186422380E-17
230
-1.0
 40
0.6338586263936772
 41
3.141592653590172
 42
3.809748048093252
  0
LINE
  5
271843
330
18
100
AcDbEntity
  8
姿図
100
AcDbLine
 10
-4378.028228728176
 20
-18280.31057171558
 30
0.0000000000000035
 11
-4378.503572749504
 21
-18280.37227412845
 31
0.0000000000000035
  0
LINE
  5
271844
330
18
100
AcDbEntity
  8
姿図
100
AcDbLine
 10
-4378.02821418057
 20
-18280.31058919794
 30
0.0000000000000035
 11
-4378.503554272363
 21
-18280.37229110073
 31
0.0000000000000035
  0
LINE
  5
271845
330
18
100
AcDbEntity
  8
姿図
100
AcDbLine
 10
-4378.498925836419
 20
-18281.61219679589
 30
0.0000000000000035
 11
-4378.60376855059
 21
-18281.6258059887
 31
0.0000000000000035
  0
LINE
  5
271846
330
18
100
AcDbEntity
  8
姿図
100
AcDbLine
 10
-4378.498907397691
 20
-18281.61220351807
 30
0.0000000000000035
 11
-4378.603749245157
 21
-18281.62581259838
 31
0.0000000000000035
  0
LINE
  5
271847
330
18
100
AcDbEntity
  8
姿図
100
AcDbLine
 10
-4378.217398411024
 20
-18283.78103221539
 30
0.0000000000000035
 11
-4378.322241125195
 21
-18283.79464140819
 31
0.0000000000000035
  0
LINE
  5
271848
330
18
100
AcDbEntity
  8
姿図
100
AcDbLine
 10
-4378.217382299607
 20
-18283.7810210084
 30
0.0000000000000035
 11
-4378.322224147071
 21
-18283.79463008871
 31
0.0000000000000035
  0
LWPOLYLINE
  5
271849
330
18
100
AcDbEntity
  8
姿図
100
AcDbPolyline
 90
        3
 70
     0
 43
0.0
 10
-4373.337887956451
 20
-18280.00868954851
 10
-4372.78271967626
 20
-18280.2774033632
 10
-4371.615545012276
 20
-18281.12977250447
  0
LINE
  5
27184A
330
18
100
AcDbEntity
  8
姿図
100
AcDbLine
 10
-4372.591149057677
 20
-18280.42458297605
 30
0.0000000000000048
 11
-4371.65761055512
 21
-18279.79828270143
 31
0.0000000000000048
  0
ELLIPSE
  5
27184B
330
18
100
AcDbEntity
  8
姿図
100
AcDbEllipse
 10
-4378.463004837892
 20
-18282.71022369845
 30
0.0000000000000035
 11
-0.1407637126969691
 21
1.08441770974517
 31
4.742367608810947E-17
210
-5.582593766667818E-18
220
4.300727389816781E-17
230
-1.0
 40
0.6338586263940376
 41
-0.2366574283589882
 42
-0.0000000000003468
  0
ELLIPSE
  5
27184C
330
18
100
AcDbEntity
  8
姿図
100
AcDbEllipse
 10
-4378.672690266235
 20
-18282.73744208406
 30
0.0000000000000035
 11
-0.2287410332444538
 21
1.762178778345462
 31
1.027512981922848E-16
210
-7.443458355556964E-18
220
5.734303186422369E-17
230
-1.0
 40
0.6338586264241365
 41
0.4360748565184052
 42
0.5096415833980092
  0
ELLIPSE
  5
27184D
330
18
100
AcDbEntity
  8
姿図
100
AcDbEllipse
 10
-4378.462986696114
 20
-18282.71022134354
 30
0.0000000000000035
 11
-0.1407625490411046
 21
1.084408745164576
 31
4.742328404971852E-17
210
-5.582593766667735E-18
220
4.300727389816782E-17
230
-1.0
 40
0.6338586263982071
 41
-0.2366574283595551
 42
-0.0000000000018734
  0
ELLIPSE
  5
27184E
330
18
100
AcDbEntity
  8
姿図
100
AcDbEllipse
 10
-4378.672670391045
 20
-18282.73743950415
 30
0.0000000000000035
 11
-0.2287391422591012
 21
1.762164210898996
 31
1.027504487752671E-16
210
-7.443458355556975E-18
220
5.734303186422369E-17
230
-1.0
 40
0.633858626409089
 41
0.4360748564913792
 42
0.5096415833729382
  0
SPLINE
  5
27184F
330
18
100
AcDbEntity
  8
姿図
100
AcDbSpline
210
0.0
220
0.0
230
1.0
 70
     8
 71
     3
 72
     8
 73
     4
 74
     0
 42
0.000000001
 43
0.0000000001
 40
-5.558709854342928
 40
-5.558709854342928
 40
-5.558709854342928
 40
-5.558709854342928
 40
-5.251204385375416
 40
-5.251204385375416
 40
-5.251204385375416
 40
-5.251204385375416
 10
-4380.19058432088
 20
-18280.90973367359
 30
-0.0000000000000046
 10
-4380.17677376894
 20
-18280.89328715385
 30
-0.0000000000000046
 10
-4380.162744600883
 20
-18280.8772193036
 30
-0.0000000000000127
 10
-4380.148503240544
 20
-18280.86156209841
 30
-0.0000000000000127
  0
SPLINE
  5
271850
330
18
100
AcDbEntity
  8
姿図
100
AcDbSpline
210
5.978477282481514E-6
220
-1.674367855028114E-5
230
-0.9999999998419535
 70
     8
 71
     3
 72
     8
 73
     4
 74
     0
 42
0.000000001
 43
0.0000000001
 40
110.2937215201613
 40
110.2937215201613
 40
110.2937215201613
 40
110.2937215201613
 40
110.302956437032
 40
110.302956437032
 40
110.302956437032
 40
110.302956437032
 10
-4380.148238602637
 20
-18280.8614676076
 30
-0.0000000000000046
 10
-4380.148326817824
 20
-18280.86149910577
 30
-0.0000000000000127
 10
-4380.148415030392
 20
-18280.86153060268
 30
-0.0000000000000046
 10
-4380.148503240544
 20
-18280.86156209841
 30
-0.0000000000000127
  0
ELLIPSE
  5
271851
330
18
100
AcDbEntity
  8
姿図
100
AcDbEllipse
 10
-4379.196903837091
 20
-18282.8054880481
 30
0.0000000000000035
 11
-0.2991228894807637
 21
2.304387633209254
 31
1.343670822496855E-16
210
-7.443458355557020E-18
220
5.734303186422380E-17
230
-1.0
 40
0.6338586263931683
 41
-1.249552989789342
 42
-0.5274645292546232
  0
ELLIPSE
  5
271852
330
18
100
AcDbEntity
  8
姿図
100
AcDbEllipse
 10
-4379.196879628374
 20
-18282.80548490567
 30
0.0000000000000035
 11
-0.2991204167161672
 21
2.304368583473515
 31
1.343659714741615E-16
210
-7.443458355557001E-18
220
5.734303186422372E-17
230
-1.0
 40
0.6338586263936181
 41
-1.249552989788636
 42
-0.5274645292532043
  0
SPLINE
  5
271853
330
18
100
AcDbEntity
  8
姿図
100
AcDbSpline
210
0.0
220
0.0
230
1.0
 70
     8
 71
     3
 72
     8
 73
     4
 74
     0
 42
0.000000001
 43
0.0000000001
 40
-5.558709854342928
 40
-5.558709854342928
 40
-5.558709854342928
 40
-5.558709854342928
 40
-5.251204385375416
 40
-5.251204385375416
 40
-5.251204385375416
 40
-5.251204385375416
 10
-4380.190551897681
 20
-18280.90974620283
 30
-0.0000000000000046
 10
-4380.176741459908
 20
-18280.89329981905
 30
-0.0000000000000046
 10
-4380.162712407829
 20
-18280.87723210163
 30
-0.0000000000000127
 10
-4380.148471165217
 20
-18280.86157502587
 30
-0.0000000000000127
  0
SPLINE
  5
271854
330
18
100
AcDbEntity
  8
姿図
100
AcDbSpline
210
-5.990160838870366E-6
220
1.677657119306604E-5
230
-0.9999999998413325
 70
     8
 71
     3
 72
     8
 73
     4
 74
     0
 42
0.000000001
 43
0.0000000001
 40
110.2937215201613
 40
110.2937215201613
 40
110.2937215201613
 40
110.2937215201613
 40
110.302956437032
 40
110.302956437032
 40
110.302956437032
 40
110.302956437032
 10
-4380.148206529498
 20
-18280.86148053585
 30
-0.0000000000000046
 10
-4380.148294743957
 20
-18280.86151203376
 30
-0.0000000000000127
 10
-4380.148382955796
 20
-18280.86154353041
 30
-0.0000000000000046
 10
-4380.148471165217
 20
-18280.86157502587
 30
-0.0000000000000127
  0
SPLINE
  5
271855
330
18
100
AcDbEntity
  8
姿図
100
AcDbSpline
210
0.0
220
0.0
230
1.0
 70
     8
 71
     3
 72
    14
 73
    10
 74
     0
 42
0.000000001
 43
0.0000000001
 40
-12.4176878319165
 40
-12.4176878319165
 40
-12.4176878319165
 40
-12.4176878319165
 40
-9.929941621284126
 40
-9.929941621284126
 40
-7.882361304732088
 40
-7.882361304732088
 40
-6.55536423551068
 40
-6.55536423551068
 40
-6.54232051596743
 40
-6.54232051596743
 40
-6.54232051596743
 40
-6.54232051596743
 10
-4380.148238602637
 20
-18280.8614676076
 30
-0.0000000000000046
 10
-4379.949500104837
 20
-18280.79050591959
 30
-0.0000000000000046
 10
-4379.710742251441
 20
-18280.70426640636
 30
-0.0000000000000046
 10
-4379.291523245053
 20
-18280.56445689416
 30
-0.0000000000000046
 10
-4379.098112725772
 20
-18280.50339287426
 30
-0.0000000000000127
 10
-4378.783492769336
 20
-18280.4221371136
 30
-0.0000000000000046
 10
-4378.641072903555
 20
-18280.39038068498
 30
-0.0000000000000127
 10
-4378.506192316671
 20
-18280.37261541533
 30
-0.0000000000000046
 10
-4378.50488150153
 20
-18280.37244398516
 30
-0.0000000000000127
 10
-4378.503572749504
 20
-18280.37227412845
 30
-0.0000000000000046
  0
SPLINE
  5
271856
330
18
100
AcDbEntity
  8
姿図
100
AcDbSpline
210
0.0
220
0.0
230
1.0
 70
     8
 71
     3
 72
    14
 73
    10
 74
     0
 42
0.000000001
 43
0.0000000001
 40
-12.4176878319165
 40
-12.4176878319165
 40
-12.4176878319165
 40
-12.4176878319165
 40
-9.929941621284126
 40
-9.929941621284126
 40
-7.882361304732088
 40
-7.882361304732088
 40
-6.55536423551068
 40
-6.55536423551068
 40
-6.54232051596743
 40
-6.54232051596743
 40
-6.54232051596743
 40
-6.54232051596743
 10
-4380.148206529498
 20
-18280.86148053585
 30
-0.0000000000000046
 10
-4379.949469674616
 20
-18280.79051943446
 30
-0.0000000000000046
 10
-4379.710713794963
 20
-18280.70428063414
 30
-0.0000000000000046
 10
-4379.291498254143
 20
-18280.56447227771
 30
-0.0000000000000046
 10
-4379.098089333734
 20
-18280.50340876262
 30
-0.0000000000000127
 10
-4378.783471978174
 20
-18280.42215367367
 30
-0.0000000000000046
 10
-4378.641053289738
 20
-18280.39039750757
 30
-0.0000000000000127
 10
-4378.506173817877
 20
-18280.37263238478
 30
-0.0000000000000046
 10
-4378.504863013569
 20
-18280.37246095603
 30
-0.0000000000000127
 10
-4378.503554272363
 20
-18280.37229110073
 30
-0.0000000000000046
  0
ELLIPSE
  5
271857
330
18
100
AcDbEntity
  8
姿図
100
AcDbEllipse
 10
-4378.672690266235
 20
-18282.73744208406
 30
0.0000000000000035
 11
-0.2287410330029986
 21
1.762178778387061
 31
1.027512981928730E-16
210
-7.443458355556966E-18
220
5.734303186422371E-17
230
-1.0
 40
0.633858626423758
 41
2.63195107017216
 42
2.705517797050096
  0
ELLIPSE
  5
271858
330
18
100
AcDbEntity
  8
姿図
100
AcDbEllipse
 10
-4378.463004837892
 20
-18282.71022369845
 30
0.0000000000000035
 11
-0.2111455690441831
 21
1.626626564618221
 31
7.113551413217713E-17
210
-5.582593766667726E-18
220
4.300727389816779E-17
230
-1.0
 40
0.6338586263939806
 41
2.425367404911215
 42
2.905458641273128
  0
ELLIPSE
  5
271859
330
18
100
AcDbEntity
  8
姿図
100
AcDbEllipse
 10
-4378.463004837892
 20
-18282.71022369845
 30
0.0000000000000035
 11
-0.14076371269443
 21
1.0844177097455
 31
4.742367608810951E-17
210
-5.582593766667761E-18
220
4.300727389816784E-17
230
-1.0
 40
0.6338586263885858
 41
3.141592653585752
 42
3.378250081947276
  0
ELLIPSE
  5
27185A
330
18
100
AcDbEntity
  8
姿図
100
AcDbEllipse
 10
-4378.672670391045
 20
-18282.73743950415
 30
0.0000000000000035
 11
-0.2287391421075747
 21
1.76216421092623
 31
1.027504487757009E-16
210
-7.443458355557017E-18
220
5.734303186422370E-17
230
-1.0
 40
0.633858626413942
 41
2.631951070199932
 42
2.705517797080201
  0
ELLIPSE
  5
27185B
330
18
100
AcDbEntity
  8
姿図
100
AcDbEllipse
 10
-4378.462986696114
 20
-18282.71022134354
 30
0.0000000000000035
 11
-0.2111438235688974
 21
1.626613117745057
 31
7.113492607454048E-17
210
-5.582593766667774E-18
220
4.300727389816779E-17
230
-1.0
 40
0.6338586263916416
 41
2.425367404914558
 42
2.905458641278822
  0
ELLIPSE
  5
27185C
330
18
100
AcDbEntity
  8
姿図
100
AcDbEllipse
 10
-4378.462986696114
 20
-18282.71022134354
 30
0.0000000000000035
 11
-0.1407625490449988
 21
1.084408745164072
 31
4.742328404971855E-17
210
-5.582593766667744E-18
220
4.300727389816780E-17
230
-1.0
 40
0.6338586263981275
 41
3.141592653593585
 42
3.378250081950879
  0
ELLIPSE
  5
27185D
330
18
100
AcDbEntity
  8
姿図
100
AcDbEllipse
 10
-4377.729093763856
 20
-18282.61495778141
 30
0.0000000000000035
 11
-0.2287391421940569
 21
1.762164210892201
 31
1.027504487743933E-16
210
-7.443458355556960E-18
220
5.734303186422367E-17
230
-1.0
 40
0.6338586263934508
 41
4.868828357704053
 42
11.15201366488364
  0
ELLIPSE
  5
27185E
330
18
100
AcDbEntity
  8
姿図
100
AcDbEllipse
 10
-4378.462986696114
 20
-18282.71022134354
 30
0.0000000000000035
 11
-0.2111438235632067
 21
1.6266131177468
 31
7.113492607458361E-17
210
-5.582593766667742E-18
220
4.300727389816779E-17
230
-1.0
 40
0.6338586263932079
 41
0.236134012315081
 42
2.425367404911594
  0
SPLINE
  5
27185F
330
18
100
AcDbEntity
  8
姿図
100
AcDbSpline
210
0.0
220
0.0
230
1.0
 70
     8
 71
     1
 72
    95
 73
    93
 74
     0
 42
0.000000001
 43
0.0000000001
 40
4.868828357704044
 40
4.868828357704044
 40
4.899304006515187
 40
4.929779655326332
 40
4.960255304137476
 40
4.99073095294862
 40
5.021206601759763
 40
5.051682250570908
 40
5.082157899382052
 40
5.112633548193195
 40
5.141866847195869
 40
5.171100146198544
 40
5.200333445201219
 40
5.229566744203892
 40
5.258800043206566
 40
5.288033342209241
 40
5.317266641211915
 40
5.346499940214589
 40
5.375733239217263
 40
5.410288874003569
 40
5.444844508789874
 40
5.479400143576179
 40
5.513955778362485
 40
5.548511413148789
 40
5.583067047935096
 40
5.617622682721401
 40
5.652178317507706
 40
5.686733952294011
 40
5.721773394811629
 40
5.756812837329247
 40
5.791852279846864
 40
5.826891722364483
 40
5.861931164882101
 40
5.896970607399719
 40
5.932010049917338
 40
5.967049492434954
 40
6.002088934952573
 40
6.037128377470191
 40
6.072869040478575
 40
6.108609703486958
 40
6.144350366495342
 40
6.180091029503725
 40
6.215831692512109
 40
6.251572355520493
 40
6.287313018528875
 40
6.323053681537259
 40
6.358794344545643
 40
6.394535007554026
 40
6.434056964704096
 40
6.473578921854168
 40
6.51310087900424
 40
6.55262283615431
 40
6.59214479330438
 40
6.631666750454452
 40
6.671188707604522
 40
6.710710664754592
 40
6.750232621904663
 40
6.785926488730394
 40
6.821620355556124
 40
6.857314222381854
 40
6.893008089207585
 40
6.928701956033316
 40
6.964395822859046
 40
7.000089689684777
 40
7.035783556510507
 40
7.071477423336238
 40
7.107171290161968
 40
7.142623453249049
 40
7.178075616336131
 40
7.213527779423211
 40
7.248979942510293
 40
7.284432105597374
 40
7.319884268684455
 40
7.355336431771536
 40
7.390788594858618
 40
7.426240757945699
 40
7.46169292103278
 40
7.497078312165116
 40
7.532463703297453
 40
7.567849094429789
 40
7.603234485562125
 40
7.638619876694462
 40
7.674005267826798
 40
7.709390658959135
 40
7.74477605009147
 40
7.780161441223807
 40
7.808943887482561
 40
7.837726333741315
 40
7.866508780000069
 40
7.895291226258823
 40
7.924073672517576
 40
7.952856118776331
 40
7.981638565035084
 40
8.010421011293838
 40
8.010421011293838
 10
-4378.217382299607
 20
-18283.7810210084
 30
-0.0000000000000046
 10
-4378.188740074441
 20
-18283.77660079075
 30
-0.0000000000000046
 10
-4378.160356928241
 20
-18283.77081421117
 30
-0.0000000000000046
 10
-4378.13230987095
 20
-18283.76368486281
 30
-0.0000000000000046
 10
-4378.104671682418
 20
-18283.75524429747
 30
-0.0000000000000046
 10
-4378.077509659551
 20
-18283.74553107312
 30
-0.0000000000000046
 10
-4378.050884630796
 20
-18283.73458960492
 30
-0.0000000000000127
 10
-4378.024850271547
 20
-18283.7224688963
 30
-0.0000000000000127
 10
-4377.999452729347
 20
-18283.70922122833
 30
-0.0000000000000046
 10
-4377.975724726978
 20
-18283.69550492358
 30
-0.0000000000000046
 10
-4377.952645780028
 20
-18283.68085023488
 30
-0.0000000000000046
 10
-4377.930237517697
 20
-18283.66530561888
 30
-0.0000000000000046
 10
-4377.908516060951
 20
-18283.64891863602
 30
-0.0000000000000046
 10
-4377.887492568237
 20
-18283.63173536588
 30
-0.0000000000000046
 10
-4377.867173834334
 20
-18283.61379996415
 30
-0.0000000000000127
 10
-4377.84756290904
 20
-18283.59515435394
 30
-0.0000000000000127
 10
-4377.828659708052
 20
-18283.57583803861
 30
-0.0000000000000127
 10
-4377.810461594688
 20
-18283.55588801966
 30
-0.0000000000000046
 10
-4377.789853124407
 20
-18283.53153559691
 30
-0.0000000000000046
 10
-4377.770212912857
 20
-18283.50639845874
 30
-0.0000000000000046
 10
-4377.751528555388
 20
-18283.48052481964
 30
-0.0000000000000046
 10
-4377.733786418396
 20
-18283.45395885382
 30
-0.0000000000000046
 10
-4377.716972286017
 20
-18283.42674113565
 30
-0.0000000000000046
 10
-4377.701071864042
 20
-18283.3989091
 30
-0.0000000000000127
 10
-4377.686071158209
 20
-18283.37049749851
 30
-0.0000000000000127
 10
-4377.671956745288
 20
-18283.34153883475
 30
-0.0000000000000046
 10
-4377.658715955163
 20
-18283.31206376724
 30
-0.0000000000000127
 10
-4377.646169729497
 20
-18283.28167865302
 30
-0.0000000000000046
 10
-4377.634498275643
 20
-18283.25082177925
 30
-0.0000000000000046
 10
-4377.623691224789
 20
-18283.21952143091
 30
-0.0000000000000046
 10
-4377.613739161595
 20
-18283.1878052276
 30
-0.0000000000000046
 10
-4377.604633573764
 20
-18283.15570033986
 30
-0.0000000000000046
 10
-4377.596366784494
 20
-18283.12323366777
 30
-0.0000000000000046
 10
-4377.588931874298
 20
-18283.09043198591
 30
-0.0000000000000046
 10
-4377.582322597135
 20
-18283.05732205824
 30
-0.0000000000000127
 10
-4377.57653329474
 20
-18283.0239307269
 30
-0.0000000000000127
 10
-4377.571558811979
 20
-18282.99028497825
 30
-0.0000000000000046
 10
-4377.567319313551
 20
-18282.95573198101
 30
-0.0000000000000046
 10
-4377.56391799577
 20
-18282.92097163673
 30
-0.0000000000000127
 10
-4377.561350498946
 20
-18282.88603328032
 30
-0.0000000000000046
 10
-4377.559612687001
 20
-18282.85094650736
 30
-0.0000000000000046
 10
-4377.558700583943
 20
-18282.81574116753
 30
-0.0000000000000046
 10
-4377.558610318282
 20
-18282.78044734898
 30
-0.0000000000000046
 10
-4377.559338075532
 20
-18282.74509535568
 30
-0.0000000000000046
 10
-4377.560880058777
 20
-18282.70971567892
 30
-0.0000000000000046
 10
-4377.563232457255
 20
-18282.67433896462
 30
-0.0000000000000046
 10
-4377.56639142282
 20
-18282.63899597734
 30
-0.0000000000000127
 10
-4377.570818977602
 20
-18282.59999021843
 30
-0.0000000000000127
 10
-4377.576222659777
 20
-18282.56110518266
 30
-0.0000000000000127
 10
-4377.582597015357
 20
-18282.52238263123
 30
-0.0000000000000046
 10
-4377.589936511976
 20
-18282.48386425931
 30
-0.0000000000000046
 10
-4377.598235565286
 20
-18282.44559163598
 30
-0.0000000000000046
 10
-4377.60748857839
 20
-18282.40760614935
 30
-0.0000000000000046
 10
-4377.617689994074
 20
-18282.36994895879
 30
-0.0000000000000127
 10
-4377.628834359503
 20
-18282.33266095648
 30
-0.0000000000000046
 10
-4377.640916403
 20
-18282.29578274063
 30
-0.0000000000000046
 10
-4377.652629856236
 20
-18282.2628622287
 30
-0.0000000000000127
 10
-4377.665100622765
 20
-18282.23033830168
 30
-0.0000000000000046
 10
-4377.678325581758
 20
-18282.19824024279
 30
-0.0000000000000046
 10
-4377.692301991002
 20
-18282.16659717729
 30
-0.0000000000000127
 10
-4377.707027558953
 20
-18282.13543811608
 30
-0.0000000000000127
 10
-4377.722500518193
 20
-18282.10479201704
 30
-0.0000000000000046
 10
-4377.738719698141
 20
-18282.07468786691
 30
-0.0000000000000046
 10
-4377.755684594214
 20
-18282.0451547864
 30
-0.0000000000000046
 10
-4377.773395429741
 20
-18282.01622216163
 30
-0.0000000000000046
 10
-4377.791853205928
 20
-18281.98791980476
 30
-0.0000000000000046
 10
-4377.81092715208
 20
-18281.96046303332
 30
-0.0000000000000046
 10
-4377.830742315079
 20
-18281.93368868524
 30
-0.0000000000000046
 10
-4377.851302035101
 20
-18281.90762848263
 30
-0.0000000000000046
 10
-4377.872610350044
 20
-18281.88231551818
 30
-0.0000000000000127
 10
-4377.894671869089
 20
-18281.85778458152
 30
-0.0000000000000127
 10
-4377.917491575806
 20
-18281.83407251746
 30
-0.0000000000000127
 10
-4377.941074544658
 20
-18281.81121860955
 30
-0.0000000000000127
 10
-4377.965425553542
 20
-18281.78926497792
 30
-0.0000000000000046
 10
-4377.990548574516
 20
-18281.76825697533
 30
-0.0000000000000046
 10
-4378.01644612598
 20
-18281.7482435581
 30
-0.0000000000000127
 10
-4378.043067509811
 20
-18281.72931230283
 30
-0.0000000000000127
 10
-4378.070457845307
 20
-18281.71148125284
 30
-0.0000000000000046
 10
-4378.098609906418
 20
-18281.69481128094
 30
-0.0000000000000046
 10
-4378.127510920839
 20
-18281.67936732686
 30
-0.0000000000000046
 10
-4378.157141213444
 20
-18281.66521802717
 30
-0.0000000000000046
 10
-4378.187472797433
 20
-18281.65243503659
 30
-0.0000000000000127
 10
-4378.218467993239
 20
-18281.6410919928
 30
-0.0000000000000046
 10
-4378.250078179838
 20
-18281.63126309489
 30
-0.0000000000000127
 10
-4378.28224280371
 20
-18281.62302129459
 30
-0.0000000000000127
 10
-4378.308764245215
 20
-18281.61753618887
 30
-0.0000000000000046
 10
-4378.335558899623
 20
-18281.6131819566
 30
-0.0000000000000046
 10
-4378.362575918211
 20
-18281.60998983776
 30
-0.0000000000000127
 10
-4378.389759481756
 20
-18281.60798670333
 30
-0.0000000000000046
 10
-4378.417049391969
 20
-18281.60719419525
 30
-0.0000000000000046
 10
-4378.4443818645
 20
-18281.60762796576
 30
-0.0000000000000127
 10
-4378.471690500331
 20
-18281.60929706486
 30
-0.0000000000000127
 10
-4378.498907397691
 20
-18281.61220351807
 30
-0.0000000000000046
  0
LINE
  5
271860
330
18
100
AcDbEntity
  8
姿図
100
AcDbLine
 10
-4380.540691723808
 20
-18281.56171667246
 30
0.0000000000000048
 11
-4384.278977371553
 21
-18283.12629767808
 31
0.0000000000000048
  0
SPLINE
  5
271861
330
18
100
AcDbEntity
  8
姿図
100
AcDbSpline
210
0.0
220
0.0
230
1.0
 70
     8
 71
     3
 72
     8
 73
     4
 74
     0
 42
0.000000001
 43
0.0000000001
 40
20.17474574740567
 40
20.17474574740567
 40
20.17474574740567
 40
20.17474574740567
 40
20.51051228626665
 40
20.51051228626665
 40
20.51051228626665
 40
20.51051228626665
 10
-4384.188010695075
 20
-18283.08822548468
 30
-0.0000000000000046
 10
-4384.200835155368
 20
-18283.06059513443
 30
-0.0000000000000046
 10
-4384.213739040407
 20
-18283.03295250426
 30
-0.0000000000000046
 10
-4384.226723141895
 20
-18283.00529632458
 30
-0.0000000000000046
  0
LINE
  5
271862
330
18
100
AcDbEntity
  8
姿図
100
AcDbLine
 10
-4392.066053659836
 20
-18287.38950326479
 30
0.0
 11
-4389.943700082837
 21
-18285.14299660844
 31
0.0
  0
LINE
  5
271863
330
18
100
AcDbEntity
  8
姿図
100
AcDbLine
 10
-4391.35789404805
 20
-18289.09719695577
 30
0.0
 11
-4389.160492294191
 21
-18286.77125196705
 31
0.0
  0
LINE
  5
271864
330
18
100
AcDbEntity
  8
姿図
100
AcDbLine
 10
-4391.580453712436
 20
-18288.51368284311
 30
0.0
 11
-4389.408215515235
 21
-18286.21437342451
 31
0.0
  0
LINE
  5
271865
330
18
100
AcDbEntity
  8
姿図
100
AcDbLine
 10
-4391.816738747538
 20
-18287.94469700558
 30
0.0
 11
-4389.669467278333
 21
-18285.6718148144
 31
0.0
  0
LINE
  5
271866
330
18
100
AcDbEntity
  8
姿図
100
AcDbLine
 10
-4390.624830382584
 20
-18291.59762279448
 30
0.0
 11
-4388.32021303859
 21
-18289.15819033623
 31
0.0
  0
LINE
  5
271867
330
18
100
AcDbEntity
  8
姿図
100
AcDbLine
 10
-4390.781961143221
 20
-18290.94485232917
 30
0.0
 11
-4388.50576282065
 21
-18288.53550134343
 31
0.0
  0
LINE
  5
271868
330
18
100
AcDbEntity
  8
姿図
100
AcDbLine
 10
-4390.957505445324
 20
-18290.31157255755
 30
0.0
 11
-4388.708394842825
 21
-18287.93089386474
 31
0.0
  0
LINE
  5
271869
330
18
100
AcDbEntity
  8
姿図
100
AcDbLine
 10
-4391.149902611182
 20
-18289.69613150564
 30
0.0
 11
-4388.926955352626
 21
-18287.34314665563
 31
0.0
  0
LINE
  5
27186A
330
18
100
AcDbEntity
  8
姿図
100
AcDbLine
 10
-4392.327823855804
 20
-18286.84749341473
 30
0.0
 11
-4390.230459798785
 21
-18284.62743811107
 31
0.0
  0
LINE
  5
27186B
330
18
100
AcDbEntity
  8
姿図
100
AcDbLine
 10
-4394.829290213321
 20
-18282.94254585055
 30
0.0
 11
-4392.943923862856
 21
-18280.9468896593
 31
0.0
  0
LINE
  5
27186C
330
18
100
AcDbEntity
  8
姿図
100
AcDbLine
 10
-4395.190388219507
 20
-18282.5056742721
 30
0.0
 11
-4393.333894369057
 21
-18280.54057955947
 31
0.0
  0
LINE
  5
27186D
330
18
100
AcDbEntity
  8
姿図
100
AcDbLine
 10
-4395.562181476674
 20
-18282.08012359361
 30
0.0
 11
-4393.735246357547
 21
-18280.14631673395
 31
0.0
  0
LINE
  5
27186E
330
18
100
AcDbEntity
  8
姿図
100
AcDbLine
 10
-4395.94479041564
 20
-18281.66602129084
 30
0.0
 11
-4394.148146048327
 21
-18279.76427712625
 31
0.0
  0
LINE
  5
27186F
330
18
100
AcDbEntity
  8
姿図
100
AcDbLine
 10
-4392.601575825541
 20
-18286.31816624622
 30
0.0
 11
-4390.529372749254
 21
-18284.12474378606
 31
0.0
  0
LINE
  5
271870
330
18
100
AcDbEntity
  8
姿図
100
AcDbLine
 10
-4392.886922166433
 20
-18285.80111169441
 30
0.0
 11
-4390.840135794463
 21
-18283.63459276063
 31
0.0
  0
LINE
  5
271871
330
18
100
AcDbEntity
  8
姿図
100
AcDbLine
 10
-4393.183550218614
 20
-18285.29599880954
 30
0.0
 11
-4391.162508751949
 21
-18283.15673080215
 31
0.0
  0
LINE
  5
271872
330
18
100
AcDbEntity
  8
姿図
100
AcDbLine
 10
-4393.491213464194
 20
-18284.80256665292
 30
0.0
 11
-4391.496308681629
 21
-18282.69096426895
 31
0.0
  0
LINE
  5
271873
330
18
100
AcDbEntity
  8
姿図
100
AcDbLine
 10
-4393.809725099548
 20
-18284.32061749334
 30
0.0
 11
-4391.84140570312
 21
-18282.23715568292
 31
0.0
  0
LINE
  5
271874
330
18
100
AcDbEntity
  8
姿図
100
AcDbLine
 10
-4394.138953369375
 20
-18283.85001186811
 30
0.0
 11
-4392.197720114666
 21
-18281.79522067992
 31
0.0
  0
LINE
  5
271875
330
18
100
AcDbEntity
  8
姿図
100
AcDbLine
 10
-4394.478818380766
 20
-18283.39066521074
 30
0.0
 11
-4392.565220661242
 21
-18281.36512617658
 31
0.0
  0
SPLINE
  5
271876
330
18
100
AcDbEntity
  8
姿図
100
AcDbSpline
210
0.0
220
0.0
230
1.0
 70
     8
 71
     3
 72
    18
 73
    14
 74
     0
 42
0.000000001
 43
0.0000000001
 40
28.74698734064234
 40
28.74698734064234
 40
28.74698734064234
 40
28.74698734064234
 40
33.44137084920912
 40
33.44137084920912
 40
41.29196149669883
 40
41.29196149669883
 40
50.54402678597219
 40
50.54402678597219
 40
58.56297097631615
 40
58.56297097631615
 40
66.12555618457822
 40
66.12555618457822
 40
66.63663448405963
 40
66.63663448405963
 40
66.63663448405963
 40
66.63663448405963
 10
-4387.801603933892
 20
-18276.18818855966
 30
0.000000000000004
 10
-4388.243289521214
 20
-18275.7771472052
 30
0.0000000000000045
 10
-4388.723167136296
 20
-18275.36991399914
 30
0.0000000000000048
 10
-4390.110783483545
 20
-18274.32113250472
 30
0.0000000000000048
 10
-4391.028546257606
 20
-18273.75036523484
 30
0.0
 10
-4393.068476161207
 20
-18272.73759650978
 30
0.0000000000000048
 10
-4394.193012141429
 20
-18272.33991159732
 30
0.0
 10
-4396.30501713612
 20
-18271.87389398569
 30
0.0000000000000048
 10
-4397.167007062832
 20
-18271.79422873245
 30
0.0000000000000048
 10
-4398.601488361423
 20
-18271.78134410151
 30
0.0000000000000048
 10
-4399.465915309544
 20
-18271.83787247815
 30
0.0000000000000048
 10
-4400.42780909938
 20
-18272.04699961571
 30
0.0000000000000048
 10
-4400.488541549873
 20
-18272.06079772735
 30
0.0000000000000049
 10
-4400.549101491156
 20
-18272.07514581673
 30
0.0000000000000049
  0
LINE
  5
271877
330
18
100
AcDbEntity
  8
姿図
100
AcDbLine
 10
-4400.44043166712
 20
-18278.23371745609
 30
0.0
 11
-4398.99946648851
 21
-18276.70845894102
 31
0.0
  0
LINE
  5
271878
330
18
100
AcDbEntity
  8
姿図
100
AcDbLine
 10
-4400.97181772127
 20
-18277.97709540693
 30
0.0
 11
-4399.573464502801
 21
-18276.49694155921
 31
0.0
  0
LINE
  5
271879
330
18
100
AcDbEntity
  8
姿図
100
AcDbLine
 10
-4405.462041380327
 20
-18276.99633616591
 30
0.0
 11
-4404.427665757464
 21
-18275.90145181341
 31
0.0
  0
LINE
  5
27187A
330
18
100
AcDbEntity
  8
姿図
100
AcDbLine
 10
-4406.11491700629
 20
-18278.90031423642
 30
0.0000000000000048
 11
-4406.508262352795
 21
-18278.60543307238
 31
0.0000000000000054
  0
LINE
  5
27187B
330
18
100
AcDbEntity
  8
姿図
100
AcDbLine
 10
-4406.30932125587
 20
-18277.0740870413
 30
0.0
 11
-4405.341475445309
 21
-18276.04962435077
 31
0.0
  0
LINE
  5
27187C
330
18
100
AcDbEntity
  8
姿図
100
AcDbLine
 10
-4407.289388521401
 20
-18277.29239308088
 30
0.0
 11
-4406.392636925407
 21
-18276.34318346221
 31
0.0
  0
LINE
  5
27187D
330
18
100
AcDbEntity
  8
姿図
100
AcDbLine
 10
-4408.568023779927
 20
-18277.82673269323
 30
0.0
 11
-4407.732136132695
 21
-18276.94194743227
 31
0.0
  0
LINE
  5
27187E
330
18
100
AcDbEntity
  8
姿図
100
AcDbLine
 10
-4403.988347345569
 20
-18277.07462029665
 30
0.0
 11
-4402.834656406497
 21
-18275.85344094082
 31
0.0
  0
LINE
  5
27187F
330
18
100
AcDbEntity
  8
姿図
100
AcDbLine
 10
-4404.696388283611
 20
-18277.0049870588
 30
0.0
 11
-4403.600294073595
 21
-18275.84477371571
 31
0.0
  0
ELLIPSE
  5
271880
330
18
100
AcDbEntity
  8
姿図
100
AcDbEllipse
 10
-4399.300396077692
 20
-18289.48086768448
 30
0.0000000000000048
 11
-7.530096776584824
 21
12.37865822770092
 31
2.094546089343517E-16
210
-7.512918126813005E-18
220
1.235041840179200E-17
230
-1.0
 40
0.7445887400054914
 41
-0.0197153658459095
 42
-0.0169158929493971
  0
LINE
  5
271881
330
18
100
AcDbEntity
  8
姿図
100
AcDbLine
 10
-4401.523119943334
 20
-18277.7415545783
 30
0.0
 11
-4400.169156525823
 21
-18276.30838723858
 31
0.0
  0
LINE
  5
271882
330
18
100
AcDbEntity
  8
姿図
100
AcDbLine
 10
-4402.096720316503
 20
-18277.52961629423
 30
0.0
 11
-4400.789130422178
 21
-18276.14553522819
 31
0.0
  0
SPLINE
  5
271883
330
18
100
AcDbEntity
  8
姿図
100
AcDbSpline
210
0.0
220
0.0
230
1.0
 70
    24
 71
     1
 72
     4
 73
     2
 74
     0
 42
0.000000001
 43
0.0000000001
 40
0.0
 40
0.0
 40
0.500003153875532
 40
0.500003153875532
 10
-4400.549101491156
 20
-18272.07514581673
 30
0.0000000000000049
 10
-4400.660458316309
 20
-18272.11807755195
 30
0.0000000000000049
  0
LINE
  5
271884
330
18
100
AcDbEntity
  8
姿図
100
AcDbLine
 10
-4402.695728389262
 20
-18277.34457200505
 30
0.0
 11
-4401.436749271142
 21
-18276.01194534015
 31
0.0
  0
LINE
  5
271885
330
18
100
AcDbEntity
  8
姿図
100
AcDbLine
 10
-4403.324324279168
 20
-18277.19084635612
 30
0.0
 11
-4402.116510461007
 21
-18275.91237805022
 31
0.0
  0
ARC
  5
271886
330
18
100
AcDbEntity
  8
姿図
100
AcDbCircle
 10
-4380.083601563582
 20
-18310.98807518304
 30
0.0
 40
43.97799551346176
100
AcDbArc
 50
118.0581559459496
 51
129.4391471833064
  0
LINE
  5
271887
330
18
100
AcDbEntity
  8
姿図
100
AcDbLine
 10
-4383.272029129011
 20
-18274.27010382579
 30
0.0
 11
-4386.187235795785
 21
-18276.80317270516
 31
0.0
  0
LINE
  5
271888
330
18
100
AcDbEntity
  8
姿図
100
AcDbLine
 10
-4372.56618581774
 20
-18272.61143675257
 30
0.0000000000000048
 11
-4375.064646545107
 21
-18273.70295790169
 31
0.0000000000000048
  0
LINE
  5
271889
330
18
100
AcDbEntity
  8
姿図
100
AcDbLine
 10
-4373.314044820419
 20
-18279.07625518798
 30
0.0000000000000048
 11
-4371.118429996976
 21
-18277.41948495021
 31
0.0000000000000048
  0
ELLIPSE
  5
27188A
330
18
100
AcDbEntity
  8
姿図
100
AcDbEllipse
 10
-4377.17561714766
 20
-18274.27462506787
 30
0.0000000000000048
 11
-5.127492779515051
 21
5.091762886143623
 31
2.942922424549431E-16
210
-1.839507314430161E-17
220
3.927355656585553E-17
230
-1.0
 40
0.6510494580119257
 41
1.88482654767138
 42
2.693896839941427
  0
ELLIPSE
  5
27188B
330
18
100
AcDbEntity
  8
姿図
100
AcDbEllipse
 10
-4372.51552926951
 20
-18272.72380177873
 30
0.0000000000000048
 11
-0.05228476964520482
 21
0.1116281975137274
 31
3.563878994237584E-18
210
-1.226338209620105E-17
220
2.618237104390372E-17
230
-1.0
 40
0.7445887407034333
 41
0.0194714738028587
 42
1.456954302896184
  0
ARC
  5
27188C
330
18
100
AcDbEntity
  8
姿図
100
AcDbCircle
 10
-4382.667257939896
 20
-18273.47861298986
 30
0.0000000000000026
 40
4.482634451279683
100
AcDbArc
 50
84.71222861638353
 51
95.20415610003903
  0
LINE
  5
27188D
330
18
100
AcDbEntity
  8
姿図
100
AcDbLine
 10
-4383.266639593455
 20
-18268.65690515443
 30
0.0000000000000048
 11
-4383.073854486679
 21
-18269.01445675694
 31
0.0000000000000026
  0
ELLIPSE
  5
27188E
330
18
100
AcDbEntity
  8
姿図
100
AcDbEllipse
 10
-4383.594430155593
 20
-18268.67342589052
 30
0.0000000000000048
 11
-0.3468879042634136
 21
0.1161587325640263
 31
1.459065990102709E-17
210
-2.452676419240198E-17
220
5.236474208780739E-17
230
-1.0
 40
0.5954474281841662
 41
1.067175184772285
 42
2.559533103277989
  0
LINE
  5
27188F
330
18
100
AcDbEntity
  8
姿図
100
AcDbLine
 10
-4377.312879520913
 20
-18269.7184930627
 30
0.0000000000000048
 11
-4378.643656983581
 21
-18270.29366247609
 31
0.0000000000000048
  0
LINE
  5
271890
330
18
100
AcDbEntity
  8
姿図
100
AcDbLine
 10
-4376.50584587424
 20
-18269.88263032523
 30
0.0000000000000048
 11
-4378.171208563371
 21
-18270.60240933251
 31
0.0000000000000048
  0
LINE
  5
271891
330
18
100
AcDbEntity
  8
姿図
100
AcDbLine
 10
-4377.005030408743
 20
-18269.95131560605
 30
0.0000000000000048
 11
-4376.97801625786
 21
-18270.08670498849
 31
0.0000000000000048
  0
ELLIPSE
  5
271892
330
18
100
AcDbEntity
  8
姿図
100
AcDbEllipse
 10
-4377.206050102738
 20
-18269.95545927513
 30
0.0000000000000048
 11
-0.1102631686521534
 21
0.2354123170481558
 31
0.0
210
0.0
220
0.0
230
-1.0
 40
0.7445887407032984
 41
0.01947147381301
 42
1.889738879637535
  0
ELLIPSE
  5
271893
330
18
100
AcDbEntity
  8
姿図
100
AcDbEllipse
 10
-4376.399016456066
 20
-18270.11959653766
 30
0.0000000000000048
 11
-0.1102631686521534
 21
0.2354123170481558
 31
0.0
210
0.0
220
0.0
230
-1.0
 40
0.7445887407032984
 41
0.01947147381301
 42
1.889738879637535
  0
ELLIPSE
  5
271894
330
18
100
AcDbEntity
  8
姿図
100
AcDbEllipse
 10
-4374.003130530428
 20
-18270.90665194496
 30
0.0000000000000048
 11
-0.1102631686521534
 21
0.2354123170481558
 31
3.382133400710607E-17
210
-5.518521943290480E-17
220
1.178206696975666E-16
230
-1.0
 40
0.7445887407032984
 41
0.01947147381301
 42
1.889738879637535
  0
ARC
  5
271895
330
18
100
AcDbEntity
  8
姿図
100
AcDbCircle
 10
-4384.981173820604
 20
-18280.5072592064
 30
0.0000000000000048
 40
12.02005315416621
100
AcDbArc
 50
30.04368224853913
 51
63.15055502808679
  0
LINE
  5
271896
330
18
100
AcDbEntity
  8
姿図
100
AcDbLine
 10
-4374.109959948601
 20
-18270.66968573253
 30
0.0000000000000048
 11
-4376.642473716495
 21
-18271.77608388714
 31
0.0000000000000048
  0
LINE
  5
271897
330
18
100
AcDbEntity
  8
姿図
100
AcDbLine
 10
-4373.802110836431
 20
-18270.90250827588
 30
0.0000000000000048
 11
-4373.389372444372
 21
-18272.9710684261
 31
0.0000000000000048
  0
LINE
  5
271898
330
18
100
AcDbEntity
  8
姿図
100
AcDbLine
 10
-4376.197996762071
 20
-18270.11545286858
 30
0.0000000000000048
 11
-4375.92301768452
 21
-18271.49359159496
 31
0.0000000000000048
  0
LINE
  5
271899
330
18
100
AcDbEntity
  8
姿図
100
AcDbLine
 10
-4383.732653864831
 20
-18269.56764731133
 30
0.0000000000000026
 11
-4387.166455717307
 21
-18271.31655082456
 31
0.0000000000000026
  0
LWPOLYLINE
  5
27189A
330
18
100
AcDbEntity
  8
姿図
100
AcDbPolyline
 90
        4
 70
     0
 43
0.0
 10
-4385.1453239254
 20
-18279.21010289631
 10
-4383.801678229208
 20
-18278.29207645887
 10
-4383.478591292996
 20
-18278.18513396267
 10
-4380.929253275316
 20
-18277.23284448945
  0
ARC
  5
27189B
330
18
100
AcDbEntity
  8
姿図
100
AcDbCircle
 10
-4400.766429066344
 20
-18291.08473540236
 30
0.0
 40
20.05365414378541
100
AcDbArc
 50
37.17842849426402
 51
45.47237121312146
  0
ARC
  5
27189C
330
18
100
AcDbEntity
  8
姿図
100
AcDbCircle
 10
-4388.943385079186
 20
-18287.99385306166
 30
0.0
 40
16.26268158145045
100
AcDbArc
 50
86.69930458945672
 51
107.0828459404719
  0
LINE
  5
27189D
330
18
100
AcDbEntity
  8
姿図
100
AcDbLine
 10
-4398.481855750871
 20
-18279.43694123636
 30
0.0
 11
-4396.885206224771
 21
-18277.74689117726
 31
0.0
  0
LINE
  5
27189E
330
18
100
AcDbEntity
  8
姿図
100
AcDbLine
 10
-4398.948900723592
 20
-18279.11221429212
 30
0.0
 11
-4397.38920138768
 21
-18277.46127592916
 31
0.0
  0
LINE
  5
27189F
330
18
100
AcDbEntity
  8
姿図
100
AcDbLine
 10
-4399.430319463968
 20
-18278.80270194974
 30
0.0
 11
-4397.908812472569
 21
-18277.19219010059
 31
0.0
  0
LINE
  5
2718A0
330
18
100
AcDbEntity
  8
姿図
100
AcDbLine
 10
-4399.927095186972
 20
-18278.50944494016
 30
0.0
 11
-4398.445126100835
 21
-18276.94078387794
 31
0.0
  0
ARC
  5
2718A1
330
18
100
AcDbEntity
  8
姿図
100
AcDbCircle
 10
-4376.273039366793
 20
-18331.62009254492
 30
0.0000000000000048
 40
63.61878588667222
100
AcDbArc
 50
96.70523189140971
 51
109.8629148030376
  0
ARC
  5
2718A2
330
18
100
AcDbEntity
  8
姿図
100
AcDbCircle
 10
-4386.293277317688
 20
-18282.75716449465
 30
0.0
 40
9.620582517572863
100
AcDbArc
 50
87.5445268159044
 51
115.8684151450313
  0
ARC
  5
2718A3
330
18
100
AcDbEntity
  8
姿図
100
AcDbCircle
 10
-4386.759553676585
 20
-18282.48531444723
 30
0.0
 40
9.620582517572863
100
AcDbArc
 50
87.5445268159044
 51
115.8684151450313
  0
LWPOLYLINE
  5
2718A4
330
18
100
AcDbEntity
  8
姿図
100
AcDbPolyline
 90
        4
 70
     0
 43
0.0
 10
-4388.313293689515
 20
-18275.72757723793
 10
-4387.852486403825
 20
-18275.46945904091
 10
-4387.476982293768
 20
-18275.347414447
 10
-4383.272029129011
 20
-18274.27010382579
  0
LWPOLYLINE
  5
2718A5
330
18
100
AcDbEntity
  8
姿図
100
AcDbPolyline
 90
        4
 70
     0
 43
0.0
 10
-4388.650345738543
 20
-18275.40878481492
 10
-4388.189538452853
 20
-18275.15066661789
 10
-4387.814034342796
 20
-18275.02862202399
 10
-4383.60908117804
 20
-18273.95131140278
  0
SPLINE
  5
2718A6
330
18
100
AcDbEntity
  8
姿図
100
AcDbSpline
210
0.0
220
0.0
230
1.0
 70
     8
 71
     3
 72
     8
 73
     4
 74
     0
 42
0.000000001
 43
0.0000000001
 40
-29.73791167171498
 40
-29.73791167171498
 40
-29.73791167171498
 40
-29.73791167171498
 40
-21.81652578453031
 40
-21.81652578453031
 40
-21.81652578453031
 40
-21.81652578453031
 10
-4388.00704258208
 20
-18271.758149352
 30
0.0
 10
-4385.067290851936
 20
-18271.81735125984
 30
0.0000000000000044
 10
-4383.665117535739
 20
-18272.58840223336
 30
0.0000000000000048
 10
-4381.161955866827
 20
-18276.0320389347
 30
0.0000000000000048
  0
LINE
  5
2718A7
330
18
100
AcDbEntity
  8
姿図
100
AcDbLine
 10
-4385.881102947232
 20
-18273.14541542043
 30
0.0
 11
-4387.398436045804
 21
-18273.87905216186
 31
0.0
  0
SPLINE
  5
2718A8
330
18
100
AcDbEntity
  8
姿図
100
AcDbSpline
210
0.0
220
0.0
230
1.0
 70
     8
 71
     3
 72
     8
 73
     4
 74
     0
 42
0.000000001
 43
0.0000000001
 40
9.0
 40
9.0
 40
9.0
 40
9.0
 40
10.0
 40
10.0
 40
10.0
 40
10.0
 10
-4381.980984397843
 20
-18249.22541830543
 30
0.0000000000000033
 10
-4382.198586272877
 20
-18248.20041336168
 30
0.0000000000000033
 10
-4383.731026778537
 20
-18248.35444634128
 30
0.0000000000000033
 10
-4383.731026778537
 20
-18248.35444634128
 30
0.0000000000000033
  0
SPLINE
  5
2718A9
330
18
100
AcDbEntity
  8
姿図
100
AcDbSpline
210
0.0
220
0.0
230
1.0
 70
    24
 71
     3
 72
     8
 73
     4
 74
     0
 42
0.000000001
 43
0.0000000001
 40
10.0
 40
10.0
 40
10.0
 40
10.0
 40
10.56265067495566
 40
10.56265067495566
 40
10.56265067495566
 40
10.56265067495566
 10
-4383.731026778537
 20
-18248.35444634128
 30
0.0000000000000033
 10
-4383.731026778537
 20
-18248.35444634128
 30
0.0000000000000033
 10
-4385.635945849294
 20
-18248.46577703333
 30
0.0000000000000033
 10
-4387.302175989017
 20
-18248.56315783938
 30
0.0000000000000033
  0
SPLINE
  5
2718AA
330
18
100
AcDbEntity
  8
姿図
100
AcDbSpline
210
0.0
220
0.0
230
1.0
 70
     8
 71
     3
 72
     8
 73
     4
 74
     0
 42
0.000000001
 43
0.0000000001
 40
4.562871291847087
 40
4.562871291847087
 40
4.562871291847087
 40
4.562871291847087
 40
5.0
 40
5.0
 40
5.0
 40
5.0
 10
-4387.215149672403
 20
-18251.6860298224
 30
0.0000000000000033
 10
-4386.385815168084
 20
-18251.64229990302
 30
0.0000000000000033
 10
-4385.791675988944
 20
-18251.65422283683
 30
0.0000000000000033
 10
-4385.791675988944
 20
-18251.65422283683
 30
0.0000000000000033
  0
SPLINE
  5
2718AB
330
18
100
AcDbEntity
  8
姿図
100
AcDbSpline
210
0.0
220
0.0
230
1.0
 70
     8
 71
     3
 72
     8
 73
     4
 74
     0
 42
0.000000001
 43
0.0000000001
 40
5.0
 40
5.0
 40
5.0
 40
5.0
 40
6.0
 40
6.0
 40
6.0
 40
6.0
 10
-4385.791675988944
 20
-18251.65422283683
 30
0.0000000000000033
 10
-4385.791675988944
 20
-18251.65422283683
 30
0.0000000000000033
 10
-4385.668492121143
 20
-18251.65895440991
 30
0.0000000000000033
 10
-4385.575940729023
 20
-18251.86646150162
 30
0.0000000000000033
  0
SPLINE
  5
2718AC
330
18
100
AcDbEntity
  8
姿図
100
AcDbSpline
210
0.0
220
0.0
230
1.0
 70
     8
 71
     3
 72
     8
 73
     4
 74
     0
 42
0.000000001
 43
0.0000000001
 40
5.0
 40
5.0
 40
5.0
 40
5.0
 40
6.0
 40
6.0
 40
6.0
 40
6.0
 10
-4385.798784934518
 20
-18251.40406400242
 30
0.0000000000000033
 10
-4385.798784934518
 20
-18251.40406400242
 30
0.0000000000000033
 10
-4385.675601066717
 20
-18251.40879557549
 30
0.0000000000000033
 10
-4385.583049674598
 20
-18251.61630266721
 30
0.0000000000000033
  0
SPLINE
  5
2718AD
330
18
100
AcDbEntity
  8
姿図
100
AcDbSpline
210
0.0
220
0.0
230
1.0
 70
     8
 71
     3
 72
     8
 73
     4
 74
     0
 42
0.000000001
 43
0.0000000001
 40
4.562871291847087
 40
4.562871291847087
 40
4.562871291847087
 40
4.562871291847087
 40
5.0
 40
5.0
 40
5.0
 40
5.0
 10
-4387.222258617975
 20
-18251.43587098799
 30
0.0000000000000033
 10
-4386.392924113658
 20
-18251.3921410686
 30
0.0000000000000033
 10
-4385.798784934518
 20
-18251.40406400242
 30
0.0000000000000033
 10
-4385.798784934518
 20
-18251.40406400242
 30
0.0000000000000033
  0
SPLINE
  5
2718AE
330
18
100
AcDbEntity
  8
姿図
100
AcDbSpline
210
0.0
220
0.0
230
1.0
 70
     8
 71
     3
 72
     8
 73
     4
 74
     0
 42
0.000000001
 43
0.0000000001
 40
0.0
 40
0.0
 40
0.0
 40
0.0
 40
0.4810436403893932
 40
0.4810436403893932
 40
0.4810436403893932
 40
0.4810436403893932
 10
-4385.448161141691
 20
-18252.38211524757
 30
0.0000000000000033
 10
-4385.448161141691
 20
-18252.38211524757
 30
0.0000000000000033
 10
-4386.276874582304
 20
-18252.36200348066
 30
0.0000000000000033
 10
-4387.078866272926
 20
-18252.33309798395
 30
0.0000000000000033
  0
SPLINE
  5
2718AF
330
18
100
AcDbEntity
  8
姿図
100
AcDbSpline
210
0.0
220
0.0
230
1.0
 70
     8
 71
     3
 72
     8
 73
     4
 74
     0
 42
0.000000001
 43
0.0000000001
 40
0.0
 40
0.0
 40
0.0
 40
0.0
 40
0.4810436403893932
 40
0.4810436403893932
 40
0.4810436403893932
 40
0.4810436403893932
 10
-4385.476893599021
 20
-18252.22381477441
 30
0.0000000000000033
 10
-4385.476893599021
 20
-18252.22381477441
 30
0.0000000000000033
 10
-4386.313404285423
 20
-18252.22120331485
 30
0.0000000000000033
 10
-4387.24539672887
 20
-18252.20955961883
 30
0.0000000000000033
  0
SPLINE
  5
2718B0
330
18
100
AcDbEntity
  8
姿図
100
AcDbSpline
210
0.0
220
0.0
230
1.0
 70
    24
 71
     3
 72
     8
 73
     4
 74
     0
 42
0.000000001
 43
0.0000000001
 40
1.0
 40
1.0
 40
1.0
 40
1.0
 40
2.0
 40
2.0
 40
2.0
 40
2.0
 10
-4395.63370097156
 20
-18252.19198093564
 30
0.0000000000000033
 10
-4395.63370097156
 20
-18252.19198093564
 30
0.0000000000000033
 10
-4392.631994665559
 20
-18251.93545867625
 30
0.0000000000000033
 10
-4392.631994665559
 20
-18251.93545867625
 30
0.0000000000000033
  0
SPLINE
  5
2718B1
330
18
100
AcDbEntity
  8
姿図
100
AcDbSpline
210
0.0
220
0.0
230
1.0
 70
    24
 71
     3
 72
     8
 73
     4
 74
     0
 42
0.000000001
 43
0.0000000001
 40
1.0
 40
1.0
 40
1.0
 40
1.0
 40
2.0
 40
2.0
 40
2.0
 40
2.0
 10
-4395.817013783347
 20
-18252.01893680382
 30
0.0000000000000033
 10
-4395.817013783347
 20
-18252.01893680382
 30
0.0000000000000033
 10
-4392.815307477345
 20
-18251.76241454444
 30
0.0000000000000033
 10
-4392.815307477345
 20
-18251.76241454444
 30
0.0000000000000033
  0
ARC
  5
2718B2
330
18
100
AcDbEntity
  8
姿図
100
AcDbCircle
 10
-4395.705370158675
 20
-18252.47853236743
 30
0.0000000000000033
 40
0.2953780551123366
100
AcDbArc
 50
75.9578609212885
 51
138.4274760918253
  0
ARC
  5
2718B3
330
18
100
AcDbEntity
  8
姿図
100
AcDbCircle
 10
-4395.888682970462
 20
-18252.30548823561
 30
0.0000000000000033
 40
0.2953780551123366
100
AcDbArc
 50
75.9578609212885
 51
138.4274760918253
  0
LWPOLYLINE
  5
2718B4
330
18
100
AcDbEntity
  8
姿図
100
AcDbPolyline
 90
        3
 70
     0
 43
0.0
 10
-4393.929049210469
 20
-18252.56622658421
 10
-4394.011938180553
 20
-18252.60675192214
 10
-4394.025903436924
 20
-18252.65295143294
  0
LWPOLYLINE
  5
2718B5
330
18
100
AcDbEntity
  8
姿図
100
AcDbPolyline
 90
        3
 70
     0
 43
0.0
 10
-4393.798132081206
 20
-18252.41511923612
 10
-4393.881021051288
 20
-18252.45564457405
 10
-4393.894986307659
 20
-18252.50184408485
  0
SPLINE
  5
2718B6
330
18
100
AcDbEntity
  8
姿図
100
AcDbSpline
210
0.0
220
0.0
230
1.0
 70
     8
 71
     3
 72
     8
 73
     4
 74
     0
 42
0.000000001
 43
0.0000000001
 40
3.357032710531275
 40
3.357032710531275
 40
3.357032710531275
 40
3.357032710531275
 40
4.0
 40
4.0
 40
4.0
 40
4.0
 10
-4392.552874869153
 20
-18252.37217433037
 30
0.0000000000000033
 10
-4393.096475397747
 20
-18252.39047821221
 30
0.0000000000000033
 10
-4393.805765971608
 20
-18252.41533617394
 30
0.0000000000000033
 10
-4393.805765971608
 20
-18252.41533617394
 30
0.0000000000000033
  0
SPLINE
  5
2718B7
330
18
100
AcDbEntity
  8
姿図
100
AcDbSpline
210
0.0
220
0.0
230
1.0
 70
     8
 71
     3
 72
     8
 73
     4
 74
     0
 42
0.000000001
 43
0.0000000001
 40
3.357032710531275
 40
3.357032710531275
 40
3.357032710531275
 40
3.357032710531275
 40
4.0
 40
4.0
 40
4.0
 40
4.0
 10
-4392.683791998416
 20
-18252.52328167846
 30
0.0000000000000033
 10
-4393.22739252701
 20
-18252.54158556031
 30
0.0000000000000033
 10
-4393.936683100871
 20
-18252.56644352203
 30
0.0000000000000033
 10
-4393.936683100871
 20
-18252.56644352203
 30
0.0000000000000033
  0
SPLINE
  5
2718B8
330
18
100
AcDbEntity
  8
姿図
100
AcDbSpline
210
0.0
220
0.0
230
1.0
 70
     8
 71
     3
 72
     8
 73
     4
 74
     0
 42
0.000000001
 43
0.0000000001
 40
13.0
 40
13.0
 40
13.0
 40
13.0
 40
14.0
 40
14.0
 40
14.0
 40
14.0
 10
-4392.909089200487
 20
-18248.90406966976
 30
0.0
 10
-4392.909089200487
 20
-18248.90406966976
 30
0.0
 10
-4396.207390338516
 20
-18249.39659979428
 30
0.0000000000000033
 10
-4396.650744343421
 20
-18249.51448413981
 30
0.0000000000000033
  0
SPLINE
  5
2718B9
330
18
100
AcDbEntity
  8
姿図
100
AcDbSpline
210
0.0
220
0.0
230
1.0
 70
     8
 71
     3
 72
     8
 73
     4
 74
     0
 42
0.000000001
 43
0.0000000001
 40
14.0
 40
14.0
 40
14.0
 40
14.0
 40
15.0
 40
15.0
 40
15.0
 40
15.0
 10
-4396.650744343421
 20
-18249.51448413981
 30
0.0000000000000033
 10
-4397.094049137583
 20
-18249.63410017713
 30
0.0000000000000033
 10
-4397.163138345591
 20
-18250.64862150982
 30
0.0000000000000033
 10
-4397.163138345591
 20
-18250.64862150982
 30
0.0000000000000033
  0
ELLIPSE
  5
2718BA
330
18
100
AcDbEntity
  8
姿図
100
AcDbEllipse
 10
-4390.00882566766
 20
-18249.13730054879
 30
0.0
 11
-2.977322425633557
 21
-0.0651525036592447
 31
0.0
210
0.0
220
0.0
230
1.0
 40
0.423425259805966
 41
3.562126164169125
 42
6.045724500716436
  0
ELLIPSE
  5
2718BB
330
18
100
AcDbEntity
  8
姿図
100
AcDbEllipse
 10
-4389.934097601202
 20
-18251.76692906529
 30
0.0
 11
2.908257364162413
 21
0.09033739870748021
 31
0.0
210
0.0
220
0.0
230
1.0
 40
0.4346217930958619
 41
3.572038920501568
 42
5.869050530619732
  0
ELLIPSE
  5
2718BC
330
18
100
AcDbEntity
  8
姿図
100
AcDbEllipse
 10
-4389.853879808604
 20
-18252.27577171903
 30
0.0
 11
-2.922366604295876
 21
-0.02352774701720397
 31
0.0
210
0.0
220
0.0
230
1.0
 40
0.4310041458033451
 41
3.612298197460502
 42
5.991115740086309
  0
ELLIPSE
  5
2718BD
330
18
100
AcDbEntity
  8
姿図
100
AcDbEllipse
 10
-4389.927567587837
 20
-18251.99671567918
 30
0.0
 11
-2.977322425633557
 21
-0.0651525036592447
 31
0.0
210
0.0
220
0.0
230
1.0
 40
0.423425259805966
 41
3.551025708286839
 42
6.045724500716436
  0
ELLIPSE
  5
2718BE
330
18
100
AcDbEntity
  8
姿図
100
AcDbEllipse
 10
-4389.927567587837
 20
-18251.99671567918
 30
0.0
 11
-2.977322425633557
 21
-0.0651525036592447
 31
0.0
210
0.0
220
0.0
230
1.0
 40
0.423425259805966
 41
0.3786499284263661
 42
2.848220962939281
  0
ELLIPSE
  5
2718BF
330
18
100
AcDbEntity
  8
姿図
100
AcDbEllipse
 10
-4390.00882566766
 20
-18249.13730054879
 30
0.0
 11
-2.977322425633557
 21
-0.0651525036592447
 31
0.0
210
0.0
220
0.0
230
1.0
 40
0.423425259805966
 41
3.562126164169125
 42
6.045724500716436
  0
SPLINE
  5
2718C0
330
18
100
AcDbEntity
  8
姿図
100
AcDbSpline
210
0.0
220
0.0
230
1.0
 70
     8
 71
     3
 72
    26
 73
    22
 74
     0
 42
0.000000001
 43
0.0000000001
 40
0.0
 40
0.0
 40
0.0
 40
0.0
 40
0.1264422350829495
 40
0.1264422350829495
 40
0.1588844121662647
 40
0.1588844121662647
 40
0.1751106177118944
 40
0.1751106177118944
 40
0.1858741810274541
 40
0.1858741810274541
 40
0.1957084812443391
 40
0.1957084812443391
 40
0.2081347559133095
 40
0.2081347559133095
 40
0.2307818527987925
 40
0.2307818527987925
 40
0.2883799021281352
 40
0.2883799021281352
 40
0.5072725936264543
 40
0.5072725936264543
 40
1.002470307424774
 40
1.002470307424774
 40
1.002470307424774
 40
1.002470307424774
 10
-4370.652501302832
 20
-18245.13703080045
 30
0.0000000000000066
 10
-4370.649526596794
 20
-18245.13730075002
 30
-0.0000000000000022
 10
-4370.645981564339
 20
-18245.13695754386
 30
0.0000000000000066
 10
-4370.643125555421
 20
-18245.13348953152
 30
0.0000000000000154
 10
-4370.642499454269
 20
-18245.13246823541
 30
0.0000000000000066
 10
-4370.641821955602
 20
-18245.13023923755
 30
0.0000000000000066
 10
-4370.641619900029
 20
-18245.12931572003
 30
0.0000000000000066
 10
-4370.641424887765
 20
-18245.12741432098
 30
0.0000000000000066
 10
-4370.641385690777
 20
-18245.12657224237
 30
0.0000000000000154
 10
-4370.641409020981
 20
-18245.12478062957
 30
0.0000000000000242
 10
-4370.641462312786
 20
-18245.12390378698
 30
0.0000000000000066
 10
-4370.641662054538
 20
-18245.12189175463
 30
0.0000000000000242
 10
-4370.641825048525
 20
-18245.12079308031
 30
0.0000000000000154
 10
-4370.642346270671
 20
-18245.11788521181
 30
0.0000000000000154
 10
-4370.642781820013
 20
-18245.11608581844
 30
0.0000000000000154
 10
-4370.644283448534
 20
-18245.11056873479
 30
0.0000000000000154
 10
-4370.645698838275
 20
-18245.10665499097
 30
0.0000000000000242
 10
-4370.652172363631
 20
-18245.09047704071
 30
0.0000000000000154
 10
-4370.659748423547
 20
-18245.0770515831
 30
-0.0000000000000022
 10
-4370.678351536916
 20
-18245.04638287551
 30
0.0000000000000066
 10
-4370.696262480699
 20
-18245.02136090752
 30
-0.0000000000000022
 10
-4370.720028555418
 20
-18244.99303354287
 30
0.0000000000000154
  0
SPLINE
  5
2718C1
330
18
100
AcDbEntity
  8
姿図
100
AcDbSpline
210
0.0
220
0.0
230
1.0
 70
     8
 71
     3
 72
    16
 73
    12
 74
     0
 42
0.000000001
 43
0.0000000001
 40
15.85860550385592
 40
15.85860550385592
 40
15.85860550385592
 40
15.85860550385592
 40
16.11243786898941
 40
16.11243786898941
 40
16.67677331177295
 40
16.67677331177295
 40
17.2411087545565
 40
17.2411087545565
 40
17.80544419734004
 40
17.80544419734004
 40
18.35651257010812
 40
18.35651257010812
 40
18.35651257010812
 40
18.35651257010812
 10
-4373.523459033072
 20
-18240.72764366422
 30
0.0000000000000154
 10
-4373.512169389526
 20
-18240.7154140449
 30
0.0000000000000154
 10
-4373.501393639547
 20
-18240.70233059039
 30
0.0000000000000154
 10
-4373.468504110154
 20
-18240.65780877298
 30
-0.0000000000000022
 10
-4373.44712030893
 20
-18240.62142387774
 30
0.0000000000000066
 10
-4373.409135739418
 20
-18240.53864491171
 30
0.0000000000000066
 10
-4373.392530506301
 20
-18240.492253672
 30
0.0000000000000154
 10
-4373.365382215395
 20
-18240.39228575275
 30
0.0000000000000154
 10
-4373.354815276914
 20
-18240.33862726098
 30
-0.0000000000000022
 10
-4373.340315509359
 20
-18240.22915543792
 30
-0.0000000000000022
 10
-4373.336232636861
 20
-18240.17342127898
 30
0.0000000000000154
 10
-4373.334992169211
 20
-18240.11823755996
 30
0.0000000000000066
  0
SPLINE
  5
2718C2
330
18
100
AcDbEntity
  8
姿図
100
AcDbSpline
210
0.0
220
0.0
230
1.0
 70
     8
 71
     3
 72
    30
 73
    26
 74
     0
 42
0.000000001
 43
0.0000000001
 40
5.468358937646049
 40
5.468358937646049
 40
5.468358937646049
 40
5.468358937646049
 40
5.554474529312383
 40
5.554474529312383
 40
5.597484804418004
 40
5.597484804418004
 40
5.640495079523625
 40
5.640495079523625
 40
5.653252350784877
 40
5.653252350784877
 40
5.659630986415502
 40
5.659630986415502
 40
5.666009622046128
 40
5.666009622046128
 40
5.672394292855955
 40
5.672394292855955
 40
5.678778963665781
 40
5.678778963665781
 40
5.691548305285435
 40
5.691548305285435
 40
5.734612320533793
 40
5.734612320533793
 40
5.77767633578215
 40
5.77767633578215
 40
5.877831414689104
 40
5.877831414689104
 40
5.877831414689104
 40
5.877831414689104
 10
-4370.741864540951
 20
-18243.87546786767
 30
0.0000000000000154
 10
-4370.739655616081
 20
-18243.8759085594
 30
0.0000000000000066
 10
-4370.737496551113
 20
-18243.87611375474
 30
-0.0000000000000022
 10
-4370.734371797204
 20
-18243.87561974569
 30
0.0000000000000154
 10
-4370.733243618402
 20
-18243.87530293301
 30
0.0000000000000066
 10
-4370.731094549027
 20
-18243.87397270241
 30
0.0000000000000066
 10
-4370.730063229236
 20
-18243.87304977323
 30
0.0000000000000242
 10
-4370.729046081933
 20
-18243.87054214118
 30
0.0000000000000154
 10
-4370.728813377241
 20
-18243.86980262513
 30
-0.0000000000000022
 10
-4370.728570417589
 20
-18243.86840266248
 30
0.0000000000000154
 10
-4370.728506102235
 20
-18243.86788953595
 30
0.0000000000000154
 10
-4370.72842732459
 20
-18243.86677286472
 30
-0.0000000000000022
 10
-4370.72841255448
 20
-18243.86617000587
 30
0.0000000000000154
 10
-4370.72843930048
 20
-18243.86489829502
 30
0.0000000000000066
 10
-4370.728480673203
 20
-18243.86423837591
 30
0.0000000000000154
 10
-4370.728610899171
 20
-18243.86291002316
 30
-0.0000000000000022
 10
-4370.728700037919
 20
-18243.86224167014
 30
-0.0000000000000022
 10
-4370.729013562713
 20
-18243.8602788787
 30
0.0000000000000066
 10
-4370.729287858023
 20
-18243.85902663725
 30
0.000000000000033
 10
-4370.730455989172
 20
-18243.85430797702
 30
-0.0000000000000022
 10
-4370.731571562491
 20
-18243.85121245998
 30
0.0000000000000242
 10
-4370.733870873956
 20
-18243.84538861914
 30
0.0000000000000242
 10
-4370.735061640308
 20
-18243.84273268452
 30
-0.0000000000000022
 10
-4370.738696973166
 20
-18243.8350366802
 30
0.0000000000000154
 10
-4370.741313692878
 20
-18243.83020302809
 30
0.0000000000000154
 10
-4370.743985120563
 20
-18243.82554958634
 30
0.0000000000000242
  0
SPLINE
  5
2718C3
330
18
100
AcDbEntity
  8
姿図
100
AcDbSpline
210
0.0
220
0.0
230
1.0
 70
    12
 71
     2
 72
     6
 73
     3
 74
     0
 42
0.000000001
 43
0.0000000001
 40
22.18928893771569
 40
22.18928893771569
 40
22.18928893771569
 40
29.25375354177516
 40
29.25375354177516
 40
29.25375354177516
 10
-4371.612113735543
 20
-18244.8030742656
 30
0.0000000000000242
 41
0.9999999984713707
 10
-4371.587956413022
 20
-18243.74594975144
 30
0.0000000000000154
 41
0.9999999989658331
 10
-4371.56376696017
 20
-18242.68743748697
 30
0.0000000000000066
 41
0.9999999999300861
  0
SPLINE
  5
2718C4
330
18
100
AcDbEntity
  8
姿図
100
AcDbSpline
210
0.0
220
0.0
230
1.0
 70
     8
 71
     3
 72
    26
 73
    22
 74
     0
 42
0.000000001
 43
0.0000000001
 40
5.508613077618151
 40
5.508613077618151
 40
5.508613077618151
 40
5.508613077618151
 40
6.179005067686559
 40
6.179005067686559
 40
6.340002190112532
 40
6.340002190112532
 40
6.392156946112854
 40
6.392156946112854
 40
6.417035445654846
 40
6.417035445654846
 40
6.433276212519534
 40
6.433276212519534
 40
6.447901642471058
 40
6.447901642471058
 40
6.46599523881348
 40
6.46599523881348
 40
6.498353151737191
 40
6.498353151737191
 40
6.578911697646714
 40
6.578911697646714
 40
6.714781857145347
 40
6.714781857145347
 40
6.714781857145347
 40
6.714781857145347
 10
-4371.942580298354
 20
-18244.11788653667
 30
0.0000000000000154
 10
-4371.997919335087
 20
-18244.09401594862
 30
0.0000000000000066
 10
-4372.03654058628
 20
-18244.08367053235
 30
0.0000000000000154
 10
-4372.063362226982
 20
-18244.083931603
 30
0.0000000000000066
 10
-4372.069406357303
 20
-18244.08460867429
 30
-0.0000000000000022
 10
-4372.074941781319
 20
-18244.08804677748
 30
-0.0000000000000022
 10
-4372.076279076983
 20
-18244.08919928556
 30
0.0000000000000154
 10
-4372.077698787608
 20
-18244.09157787538
 30
0.0000000000000154
 10
-4372.07811942828
 20
-18244.09253063177
 30
0.0000000000000154
 10
-4372.078550472631
 20
-18244.09446876689
 30
0.000000000000033
 10
-4372.07865062314
 20
-18244.09531854697
 30
0.0000000000000154
 10
-4372.078656972261
 20
-18244.09711267984
 30
0.0000000000000154
 10
-4372.078581275222
 20
-18244.09798292527
 30
0.0000000000000066
 10
-4372.078262149227
 20
-18244.0999577558
 30
0.0000000000000066
 10
-4372.077990651652
 20
-18244.1010226224
 30
0.0000000000000066
 10
-4372.077113233935
 20
-18244.10380916385
 30
0.0000000000000066
 10
-4372.076372619999
 20
-18244.10551180801
 30
0.0000000000000154
 10
-4372.073830055605
 20
-18244.11066176053
 30
0.0000000000000154
 10
-4372.071437096614
 20
-18244.11425584993
 30
-0.0000000000000022
 10
-4372.065271687022
 20
-18244.12258227029
 30
0.0000000000000242
 10
-4372.060774311157
 20
-18244.12761693998
 30
0.0000000000000154
 10
-4372.056786492095
 20
-18244.13179238308
 30
0.0000000000000242
  0
SPLINE
  5
2718C5
330
18
100
AcDbEntity
  8
姿図
100
AcDbSpline
210
0.0
220
0.0
230
1.0
 70
     8
 71
     3
 72
    10
 73
     6
 74
     0
 42
0.000000001
 43
0.0000000001
 40
0.505347474080478
 40
0.505347474080478
 40
0.505347474080478
 40
0.505347474080478
 40
0.5908081871204214
 40
0.5908081871204214
 40
0.6018930666040991
 40
0.6018930666040991
 40
0.6018930666040991
 40
0.6018930666040991
 10
-4371.756731249255
 20
-18244.63967211515
 30
0.0000000000000066
 10
-4371.758532631043
 20
-18244.63155947439
 30
-0.0000000000000022
 10
-4371.761461306217
 20
-18244.62261826407
 30
-0.0000000000000022
 10
-4371.766315515713
 20
-18244.61328267788
 30
0.0000000000000154
 10
-4371.766895019182
 20
-18244.61222173731
 30
0.0000000000000154
 10
-4371.767496284886
 20
-18244.61117474071
 30
0.0000000000000066
  0
SPLINE
  5
2718C6
330
18
100
AcDbEntity
  8
姿図
100
AcDbSpline
210
0.0
220
0.0
230
1.0
 70
     8
 71
     3
 72
    26
 73
    22
 74
     0
 42
0.000000001
 43
0.0000000001
 40
0.0
 40
0.0
 40
0.0
 40
0.0
 40
0.128245973690629
 40
0.128245973690629
 40
0.1709107023387558
 40
0.1709107023387558
 40
0.1890943956851749
 40
0.1890943956851749
 40
0.2007783270636655
 40
0.2007783270636655
 40
0.2111470640880597
 40
0.2111470640880597
 40
0.2237033505467542
 40
0.2237033505467542
 40
0.2457537947997618
 40
0.2457537947997618
 40
0.2995509632558
 40
0.2995509632558
 40
0.4920237835540287
 40
0.4920237835540287
 40
0.793426644719398
 40
0.793426644719398
 40
0.793426644719398
 40
0.793426644719398
 10
-4370.69568116217
 20
-18244.50732434829
 30
0.0000000000000154
 10
-4370.692569513917
 20
-18244.5077748992
 30
0.0000000000000154
 10
-4370.688950374676
 20
-18244.50768900856
 30
0.0000000000000154
 10
-4370.685648153837
 20
-18244.50474394232
 30
0.0000000000000154
 10
-4370.684824242401
 20
-18244.5036633177
 30
0.0000000000000154
 10
-4370.684015297767
 20
-18244.50132062309
 30
0.0000000000000066
 10
-4370.683792982146
 20
-18244.50043923794
 30
-0.0000000000000022
 10
-4370.683570861397
 20
-18244.49862502486
 30
0.0000000000000154
 10
-4370.683520492548
 20
-18244.497828454
 30
0.0000000000000154
 10
-4370.683523435259
 20
-18244.49613881242
 30
0.0000000000000154
 10
-4370.683565620157
 20
-18244.49531871332
 30
0.0000000000000242
 10
-4370.683737475028
 20
-18244.49346339353
 30
0.0000000000000242
 10
-4370.683879438059
 20
-18244.49246581565
 30
-0.0000000000000022
 10
-4370.684332615937
 20
-18244.48986718368
 30
0.0000000000000242
 10
-4370.684708558069
 20
-18244.48827872873
 30
-0.0000000000000022
 10
-4370.68598472408
 20
-18244.48350706081
 30
0.0000000000000066
 10
-4370.687168590651
 20
-18244.48016682151
 30
0.0000000000000066
 10
-4370.69241011453
 20
-18244.4668388963
 30
0.0000000000000154
 10
-4370.698363727798
 20
-18244.45596587295
 30
0.0000000000000242
 10
-4370.71055879492
 20
-18244.43532634975
 30
0.0000000000000066
 10
-4370.720133308862
 20
-18244.4210139272
 30
0.0000000000000154
 10
-4370.732093747321
 20
-18244.40505456635
 30
0.0000000000000154
  0
SPLINE
  5
2718C7
330
18
100
AcDbEntity
  8
姿図
100
AcDbSpline
210
0.0
220
0.0
230
1.0
 70
     8
 71
     3
 72
    30
 73
    26
 74
     0
 42
0.000000001
 43
0.0000000001
 40
16.78601875418834
 40
16.78601875418834
 40
16.78601875418834
 40
16.78601875418834
 40
16.8861738330952
 40
16.8861738330952
 40
16.92923784834355
 40
16.92923784834355
 40
16.97230186359191
 40
16.97230186359191
 40
16.98507120521156
 40
16.98507120521156
 40
16.99145587602139
 40
16.99145587602139
 40
16.99784054683122
 40
16.99784054683122
 40
17.00421918246185
 40
17.00421918246185
 40
17.01059781809247
 40
17.01059781809247
 40
17.02335508935372
 40
17.02335508935372
 40
17.06636536445934
 40
17.06636536445934
 40
17.10937563956496
 40
17.10937563956496
 40
17.1954912312313
 40
17.1954912312313
 40
17.1954912312313
 40
17.1954912312313
 10
-4371.96653686341
 20
-18242.95040258022
 30
0.0000000000000154
 10
-4371.970928133308
 20
-18242.95000028615
 30
-0.0000000000000022
 10
-4371.975235753355
 20
-18242.94987724399
 30
0.0000000000000066
 10
-4371.981192156497
 20
-18242.9507071348
 30
0.000000000000033
 10
-4371.983139504408
 20
-18242.95111669308
 30
0.0000000000000154
 10
-4371.986868582427
 20
-18242.95262519346
 30
0.0000000000000154
 10
-4371.988666883116
 20
-18242.9536348535
 30
0.0000000000000154
 10
-4371.990468597222
 20
-18242.95622759046
 30
-0.0000000000000022
 10
-4371.99088369929
 20
-18242.95698633619
 30
0.0000000000000154
 10
-4371.991328065836
 20
-18242.95840660145
 30
-0.0000000000000022
 10
-4371.991448154599
 20
-18242.9589251818
 30
0.0000000000000066
 10
-4371.991603566656
 20
-18242.96004906446
 30
0.000000000000033
 10
-4371.991639401115
 20
-18242.96065371587
 30
0.0000000000000154
 10
-4371.991614439189
 20
-18242.96192414961
 30
0.0000000000000066
 10
-4371.991553897079
 20
-18242.96258091969
 30
0.0000000000000066
 10
-4371.991350538309
 20
-18242.96389955442
 30
0.0000000000000066
 10
-4371.991207214496
 20
-18242.96456131663
 30
-0.0000000000000022
 10
-4371.990696560405
 20
-18242.96650074341
 30
-0.000000000000011
 10
-4371.99024183263
 20
-18242.96773234862
 30
-0.0000000000000022
 10
-4371.988296512892
 20
-18242.97236062233
 30
-0.0000000000000022
 10
-4371.986418879421
 20
-18242.97536588607
 30
-0.0000000000000022
 10
-4371.982548998455
 20
-18242.98100470025
 30
0.0000000000000154
 10
-4371.980543420924
 20
-18242.9835647697
 30
0.0000000000000066
 10
-4371.975021160421
 20
-18242.99024862619
 30
0.0000000000000066
 10
-4371.971251092874
 20
-18242.99428771956
 30
0.0000000000000066
 10
-4371.967423253978
 20
-18242.99816836292
 30
0.0000000000000066
  0
SPLINE
  5
2718C8
330
18
100
AcDbEntity
  8
姿図
100
AcDbSpline
210
0.0
220
0.0
230
1.0
 70
     8
 71
     3
 72
    12
 73
     8
 74
     0
 42
0.000000001
 43
0.0000000001
 40
2.214246753416005
 40
2.214246753416005
 40
2.214246753416005
 40
2.214246753416005
 40
2.273337669201671
 40
2.273337669201671
 40
2.651501823638109
 40
2.651501823638109
 40
2.971189770913845
 40
2.971189770913845
 40
2.971189770913845
 40
2.971189770913845
 10
-4371.56376696017
 20
-18242.68743748697
 30
0.0000000000000066
 10
-4371.565353269713
 20
-18242.69254658603
 30
0.0000000000000066
 10
-4371.566891585048
 20
-18242.69771639852
 30
-0.000000000000011
 10
-4371.577890487649
 20
-18242.73624219961
 30
-0.0000000000000022
 10
-4371.586465181974
 20
-18242.77576107845
 30
0.0000000000000154
 10
-4371.597600022485
 20
-18242.85103318666
 30
0.0000000000000154
 10
-4371.600910564108
 20
-18242.88644205909
 30
0.0000000000000066
 10
-4371.602285603226
 20
-18242.91929952688
 30
0.0000000000000242
  0
SPLINE
  5
2718C9
330
18
100
AcDbEntity
  8
姿図
100
AcDbSpline
210
0.0
220
0.0
230
1.0
 70
     8
 71
     3
 72
    12
 73
     8
 74
     0
 42
0.000000001
 43
0.0000000001
 40
2.214246753415932
 40
2.214246753415932
 40
2.214246753415932
 40
2.214246753415932
 40
2.27333766920167
 40
2.27333766920167
 40
2.65150182363811
 40
2.65150182363811
 40
2.971189770913846
 40
2.971189770913846
 40
2.971189770913846
 40
2.971189770913846
 10
-4393.403848401816
 20
-18236.24829036698
 30
0.0000000000000154
 10
-4393.399253449333
 20
-18236.2520507283
 30
-0.0000000000000022
 10
-4393.39481613023
 20
-18236.25592095296
 30
0.0000000000000066
 10
-4393.363219078792
 20
-18236.28521285655
 30
0.0000000000000066
 10
-4393.339372457986
 20
-18236.31788551804
 30
0.0000000000000066
 10
-4393.310012150848
 20
-18236.38498737306
 30
0.0000000000000066
 10
-4393.302146469107
 20
-18236.41835423205
 30
0.0000000000000066
 10
-4393.300030638019
 20
-18236.45087961188
 30
0.0000000000000066
  0
SPLINE
  5
2718CA
330
18
100
AcDbEntity
  8
姿図
100
AcDbSpline
210
0.0
220
0.0
230
1.0
 70
     8
 71
     3
 72
    14
 73
    10
 74
     0
 42
0.000000001
 43
0.0000000001
 40
0.0518711334186413
 40
0.0518711334186413
 40
0.0518711334186413
 40
0.0518711334186413
 40
0.3761852694724612
 40
0.3761852694724612
 40
0.7523705389449225
 40
0.7523705389449225
 40
1.132719326167469
 40
1.132719326167469
 40
1.510190416961686
 40
1.510190416961686
 40
1.510190416961686
 40
1.510190416961686
 10
-4393.424823575598
 20
-18236.361548288
 30
0.0000000000000154
 10
-4393.426454495068
 20
-18236.32896231783
 30
0.0000000000000154
 10
-4393.433980530398
 20
-18236.29543977529
 30
-0.0000000000000022
 10
-4393.462793316495
 20
-18236.22887085125
 30
0.0000000000000154
 10
-4393.486199315211
 20
-18236.1967702513
 30
0.0000000000000066
 10
-4393.540412708054
 20
-18236.14678490323
 30
0.0000000000000154
 10
-4393.574935652637
 20
-18236.1256919584
 30
0.0000000000000066
 10
-4393.650209144055
 20
-18236.09957281546
 30
0.0000000000000242
 10
-4393.690908398251
 20
-18236.0944195452
 30
0.0000000000000242
 10
-4393.72908817695
 20
-18236.09652882916
 30
0.0000000000000154
  0
SPLINE
  5
2718CB
330
18
100
AcDbEntity
  8
姿図
100
AcDbSpline
210
0.0
220
0.0
230
1.0
 70
     8
 71
     3
 72
    14
 73
    10
 74
     0
 42
0.000000001
 43
0.0000000001
 40
0.0516007629148517
 40
0.0516007629148517
 40
0.0516007629148517
 40
0.0516007629148517
 40
0.3775999287975693
 40
0.3775999287975693
 40
0.7551998575951386
 40
0.7551998575951386
 40
1.136339040160537
 40
1.136339040160537
 40
1.513620557812546
 40
1.513620557812546
 40
1.513620557812546
 40
1.513620557812546
 10
-4399.275521606502
 20
-18241.71575914356
 30
0.0000000000000066
 10
-4399.277446176106
 20
-18241.74884716279
 30
0.0000000000000154
 10
-4399.284687014268
 20
-18241.78394481017
 30
0.0000000000000154
 10
-4399.311491524518
 20
-18241.85606894236
 30
0.0000000000000154
 10
-4399.332922443437
 20
-18241.89253193713
 30
0.0000000000000242
 10
-4399.382092669449
 20
-18241.95248199251
 30
0.0000000000000154
 10
-4399.413166526368
 20
-18241.97986002554
 30
0.0000000000000154
 10
-4399.4803840186
 20
-18242.01975076217
 30
0.0000000000000066
 10
-4399.516468418761
 20
-18242.03242564718
 30
0.0000000000000066
 10
-4399.550164726655
 20
-18242.03752528981
 30
0.0000000000000066
  0
SPLINE
  5
2718CC
330
18
100
AcDbEntity
  8
姿図
100
AcDbSpline
210
0.0
220
0.0
230
1.0
 70
     8
 71
     3
 72
    14
 73
    10
 74
     0
 42
0.000000001
 43
0.0000000001
 40
1.526591127950939
 40
1.526591127950939
 40
1.526591127950939
 40
1.526591127950939
 40
1.903872645602957
 40
1.903872645602957
 40
2.285011828168357
 40
2.285011828168357
 40
2.662611756965921
 40
2.662611756965921
 40
2.988610922850349
 40
2.988610922850349
 40
2.988610922850349
 40
2.988610922850349
 10
-4392.877335423732
 20
-18241.41308816671
 30
0.0000000000000066
 10
-4392.915841063347
 20
-18241.41474511476
 30
0.0000000000000154
 10
-4392.956863178967
 20
-18241.40928578536
 30
0.0000000000000066
 10
-4393.032843654252
 20
-18241.38279538055
 30
0.0000000000000066
 10
-4393.067734716138
 20
-18241.36159028291
 30
0.0000000000000066
 10
-4393.122601980121
 20
-18241.31137595851
 30
0.0000000000000066
 10
-4393.146303585029
 20
-18241.27913642309
 30
0.0000000000000066
 10
-4393.175502934636
 20
-18241.21225307971
 30
0.0000000000000066
 10
-4393.183131474915
 20
-18241.17854689486
 30
0.0000000000000066
 10
-4393.184778917331
 20
-18241.14579314116
 30
0.0000000000000066
  0
SPLINE
  5
2718CD
330
18
100
AcDbEntity
  8
姿図
100
AcDbSpline
210
0.0
220
0.0
230
1.0
 70
     8
 71
     3
 72
    16
 73
    12
 74
     0
 42
0.000000001
 43
0.0000000001
 40
7.430778314876192
 40
7.430778314876192
 40
7.430778314876192
 40
7.430778314876192
 40
7.48439642458809
 40
7.48439642458809
 40
8.051682043090178
 40
8.051682043090178
 40
8.618967661592267
 40
8.618967661592267
 40
9.186253280094355
 40
9.186253280094355
 40
9.198233509684796
 40
9.198233509684796
 40
9.198233509684796
 40
9.198233509684796
 10
-4408.969449902836
 20
-18243.92454073845
 30
0.0000000000000066
 10
-4408.968861059426
 20
-18243.92085877556
 30
0.0000000000000066
 10
-4408.968276172149
 20
-18243.9171306406
 30
-0.0000000000000022
 10
-4408.96155444693
 20
-18243.87341191071
 30
0.0000000000000066
 10
-4408.955911937602
 20
-18243.82818939817
 30
0.0000000000000154
 10
-4408.946225593168
 20
-18243.72997289464
 30
0.0000000000000066
 10
-4408.942175624438
 20
-18243.67689660405
 30
0.0000000000000154
 10
-4408.935982837983
 20
-18243.56674580283
 30
-0.0000000000000022
 10
-4408.933841293026
 20
-18243.50966906433
 30
0.0000000000000066
 10
-4408.932602925423
 20
-18243.45182123732
 30
0.0000000000000154
 10
-4408.932577684164
 20
-18243.45062334737
 30
0.0000000000000066
 10
-4408.93255281533
 20
-18243.44942398035
 30
0.0000000000000066
  0
SPLINE
  5
2718CE
330
18
100
AcDbEntity
  8
姿図
100
AcDbSpline
210
0.0
220
0.0
230
1.0
 70
     8
 71
     1
 72
     9
 73
     7
 74
     0
 42
0.000000001
 43
0.0000000001
 40
8.843010394358767
 40
8.843010394358767
 40
8.844295783825991
 40
8.845581173293212
 40
8.846866562760436
 40
8.848151952227658
 40
8.84943734169488
 40
8.850046236987634
 40
8.850046236987634
 10
-4406.654468635622
 20
-18242.3595957316
 30
0.0000000000000154
 10
-4406.72320053629
 20
-18242.66849207692
 30
0.0000000000000154
 10
-4406.790605535906
 20
-18242.97836374262
 30
0.0000000000000066
 10
-4406.856670458058
 20
-18243.28919340688
 30
0.0000000000000154
 10
-4406.921382321377
 20
-18243.60096345528
 30
0.0000000000000066
 10
-4406.984728345923
 20
-18243.91365598427
 30
0.0000000000000154
 10
-4407.014082708313
 20
-18244.06220833568
 30
0.0000000000000066
  0
SPLINE
  5
2718CF
330
18
100
AcDbEntity
  8
姿図
100
AcDbSpline
210
7.530136495688930E-10
220
1.567454013693922E-11
230
-1.0
 70
    12
 71
     2
 72
     6
 73
     3
 74
     0
 42
0.000000001
 43
0.0000000001
 40
3.438957747159619
 40
3.438957747159619
 40
3.438957747159619
 40
27.9798144579688
 40
27.9798144579688
 40
27.9798144579688
 10
-4372.775708349468
 20
-18247.41433409816
 30
0.0000000000000066
 41
1.000002949620377
 10
-4372.852340121156
 20
-18243.73177698621
 30
0.0000000000000242
 41
1.000012270378906
 10
-4372.928350740661
 20
-18240.08018443554
 30
0.0000000000000242
 41
1.000004411873195
  0
ELLIPSE
  5
2718D6
330
18
100
AcDbEntity
  8
姿図
100
AcDbEllipse
 10
-4372.165791135344
 20
-18234.33632517183
 30
0.0
 11
0.05583457878010544
 21
-0.5551391896356209
 31
9.291567164033371E-17
210
-1.666545791913224E-17
220
1.656974764790396E-16
230
1.0
 40
0.3266547503873753
 41
1.290961286430822
 42
2.861757613225796
  0
LINE
  5
2718D7
330
18
100
AcDbEntity
  8
姿図
100
AcDbLine
 10
-4370.619250523727
 20
-18234.92789045222
 30
0.0
 11
-4371.365081678984
 21
-18234.99768463393
 31
0.0
  0
ELLIPSE
  5
2718D8
330
18
100
AcDbEntity
  8
姿図
100
AcDbEllipse
 10
-4371.913016539295
 20
-18236.98116827411
 30
0.0
 11
0.03608385743162927
 21
0.05040796858487177
 31
3.441247287127943E-18
210
-3.231153159914879E-17
220
-4.513815278383454E-17
230
1.0
 40
0.9083744652357183
 41
0.6674062465666986
 42
2.67181090378285
  0
ELLIPSE
  5
2718D9
330
18
100
AcDbEntity
  8
姿図
100
AcDbEllipse
 10
-4371.913016539295
 20
-18236.38237153588
 30
0.0
 11
0.03608385743163949
 21
0.05040796858488614
 31
3.441247287128919E-18
210
-3.231153159914874E-17
220
-4.513815278383452E-17
230
1.0
 40
0.9083744652357185
 41
0.66740624656714
 42
2.671810903783259
  0
LINE
  5
2718DA
330
18
100
AcDbEntity
  8
姿図
100
AcDbLine
 10
-4371.772665679119
 20
-18236.22431996503
 30
0.0
 11
-4371.965919768943
 21
-18235.8136837534
 31
0.0
  0
LINE
  5
2718DB
330
18
100
AcDbEntity
  8
姿図
100
AcDbLine
 10
-4371.772665679119
 20
-18235.62552322679
 30
0.0
 11
-4371.965919768943
 21
-18235.21488701517
 31
0.0
  0
LINE
  5
2718DC
330
18
100
AcDbEntity
  8
姿図
100
AcDbLine
 10
-4371.772665679119
 20
-18235.02672648856
 30
0.0
 11
-4371.9752604
 21
-18234.59624282452
 31
0.0
  0
ELLIPSE
  5
2718DD
330
18
100
AcDbEntity
  8
姿図
100
AcDbEllipse
 10
-4371.913016539295
 20
-18235.78357479764
 30
0.0
 11
0.03608385743163949
 21
0.05040796858488614
 31
3.441247287128919E-18
210
-3.231153159914874E-17
220
-4.513815278383452E-17
230
1.0
 40
0.9083744652357185
 41
0.6674062465669841
 42
2.671810903783383
  0
ELLIPSE
  5
2718DE
330
18
100
AcDbEntity
  8
姿図
100
AcDbEllipse
 10
-4371.913016539295
 20
-18235.18477805941
 30
0.0
 11
0.03608385743163949
 21
0.05040796858488614
 31
3.441247287128919E-18
210
-3.231153159914874E-17
220
-4.513815278383452E-17
230
1.0
 40
0.9083744652357185
 41
0.6674062465673603
 42
2.671810903782924
  0
LINE
  5
2718DF
330
18
100
AcDbEntity
  8
姿図
100
AcDbLine
 10
-4371.772665679119
 20
-18236.82311670326
 30
0.0
 11
-4371.965919768943
 21
-18236.41248049163
 31
0.0
  0
LINE
  5
2718E0
330
18
100
AcDbEntity
  8
姿図
100
AcDbLine
 10
-4371.9752604
 20
-18234.59624282452
 30
0.0
 11
-4371.976084830401
 21
-18234.47212384521
 31
0.0
  0
LINE
  5
2718E1
330
18
100
AcDbEntity
  8
姿図
100
AcDbLine
 10
-4371.913016539294
 20
-18236.92128860029
 30
0.0
 11
-4371.825568908768
 21
-18236.91310533284
 31
0.0
  0
ELLIPSE
  5
2718E2
330
18
100
AcDbEntity
  8
姿図
100
AcDbEllipse
 10
-4371.825568908769
 20
-18236.85322565901
 30
0.0
 11
0.03608385743162398
 21
0.05040796858487442
 31
-6.882494574255783E-18
210
6.462306319828891E-17
220
9.027630556767529E-17
230
1.0
 40
0.9083744652357181
 41
3.80899890015702
 42
5.813403557372653
  0
LINE
  5
2718E3
330
18
100
AcDbEntity
  8
姿図
100
AcDbLine
 10
-4371.913016539294
 20
-18235.72369512382
 30
0.0
 11
-4371.825568908768
 21
-18235.71551185637
 31
0.0
  0
LINE
  5
2718E4
330
18
100
AcDbEntity
  8
姿図
100
AcDbLine
 10
-4371.913016539294
 20
-18236.32249186205
 30
0.0
 11
-4371.825568908768
 21
-18236.3143085946
 31
0.0
  0
LINE
  5
2718E5
330
18
100
AcDbEntity
  8
姿図
100
AcDbLine
 10
-4371.913016539294
 20
-18235.12489838559
 30
0.0
 11
-4371.825568908768
 21
-18235.11671511814
 31
0.0
  0
ELLIPSE
  5
2718E6
330
18
100
AcDbEntity
  8
姿図
100
AcDbEllipse
 10
-4371.825568908769
 20
-18235.65563218255
 30
0.0
 11
0.03608385743162398
 21
0.05040796858487442
 31
-6.882494574255783E-18
210
6.462306319828891E-17
220
9.027630556767529E-17
230
1.0
 40
0.9083744652357181
 41
3.808998900156833
 42
5.813403557372844
  0
ELLIPSE
  5
2718E7
330
18
100
AcDbEntity
  8
姿図
100
AcDbEllipse
 10
-4371.825568908769
 20
-18236.25442892078
 30
0.0
 11
0.03608385743162398
 21
0.05040796858487442
 31
-6.882494574255783E-18
210
6.462306319828891E-17
220
9.027630556767529E-17
230
1.0
 40
0.9083744652357181
 41
3.808998900156709
 42
5.813403557372572
  0
ELLIPSE
  5
2718E8
330
18
100
AcDbEntity
  8
姿図
100
AcDbEllipse
 10
-4371.316538887078
 20
-18235.5535076193
 30
0.0
 11
0.04812166340265124
 21
-0.5558609181685003
 31
0.0
210
0.0
220
0.0
230
1.0
 40
0.3301839125655894
 41
3.14388787013195
 42
4.437113948144849
  0
ELLIPSE
  5
2718E9
330
18
100
AcDbEntity
  8
姿図
100
AcDbEllipse
 10
-4371.825568908769
 20
-18235.05683544432
 30
0.0
 11
0.03608385743162398
 21
0.05040796858487442
 31
-6.882494574255783E-18
210
6.462306319828891E-17
220
9.027630556767529E-17
230
1.0
 40
0.9083744652357181
 41
3.80899890015702
 42
5.813403557372702
  0
LINE
  5
2718EA
330
18
100
AcDbEntity
  8
姿図
100
AcDbLine
 10
-4370.743368025984
 20
-18236.09003402137
 30
0.0
 11
-4370.55011393616
 21
-18236.500670233
 31
0.0
  0
LINE
  5
2718EB
330
18
100
AcDbEntity
  8
姿図
100
AcDbLine
 10
-4369.896681108026
 20
-18236.36962448083
 30
0.0
 11
-4370.099275828906
 21
-18235.93914081679
 31
0.0
  0
LINE
  5
2718EC
330
18
100
AcDbEntity
  8
姿図
100
AcDbLine
 10
-4370.037031968202
 20
-18236.46779637786
 30
0.0
 11
-4369.949584337674
 21
-18236.45961311041
 31
0.0
  0
ELLIPSE
  5
2718ED
330
18
100
AcDbEntity
  8
姿図
100
AcDbEllipse
 10
-4370.037031968202
 20
-18236.52767605169
 30
0.0
 11
0.03608385743163949
 21
0.05040796858488614
 31
3.441247287128919E-18
210
-3.231153159914874E-17
220
-4.513815278383452E-17
230
1.0
 40
0.9083744652357185
 41
0.66740624656764
 42
2.671810903783141
  0
LINE
  5
2718EE
330
18
100
AcDbEntity
  8
姿図
100
AcDbLine
 10
-4370.603017165809
 20
-18236.59065886257
 30
0.0
 11
-4370.690464796335
 21
-18236.59884213002
 31
0.0
  0
ELLIPSE
  5
2718EF
330
18
100
AcDbEntity
  8
姿図
100
AcDbEllipse
 10
-4370.690464796336
 20
-18236.65872180385
 30
0.0
 11
0.0360838574316351
 21
0.05040796858488925
 31
3.441247287128919E-18
210
-3.231153159914480E-17
220
-4.513815278383737E-17
230
1.0
 40
0.908374465235718
 41
0.6674062465667575
 42
2.671810903783107
  0
ELLIPSE
  5
2718F0
330
18
100
AcDbEntity
  8
姿図
100
AcDbEllipse
 10
-4370.603017165809
 20
-18236.53077918875
 30
0.0
 11
0.03608385743162907
 21
0.05040796858487078
 31
3.441247287127869E-18
210
-3.231153159914888E-17
220
-4.513815278383401E-17
230
1.0
 40
0.908374465235718
 41
3.808998900156757
 42
5.813403557372718
  0
ELLIPSE
  5
2718F1
330
18
100
AcDbEntity
  8
姿図
100
AcDbEllipse
 10
-4369.949584337676
 20
-18236.39973343659
 30
0.0
 11
0.03608385743162398
 21
0.05040796858487442
 31
-6.882494574255783E-18
210
6.462306319828891E-17
220
9.027630556767529E-17
230
1.0
 40
0.9083744652357181
 41
3.808998900156673
 42
5.813403557372901
  0
LINE
  5
2718F2
330
18
100
AcDbEntity
  8
姿図
100
AcDbLine
 10
-4370.099275828906
 20
-18235.93914081679
 30
0.0
 11
-4370.100100259308
 21
-18235.81502183748
 31
0.0
  0
LINE
  5
2718F3
330
18
100
AcDbEntity
  8
姿図
100
AcDbLine
 10
-4370.752708657041
 20
-18235.47138983072
 30
0.0
 11
-4370.55011393616
 21
-18235.90187349476
 31
0.0
  0
LINE
  5
2718F4
330
18
100
AcDbEntity
  8
姿図
100
AcDbLine
 10
-4370.603017165809
 20
-18235.99186212434
 30
0.0
 11
-4370.690464796335
 21
-18236.00004539179
 31
0.0
  0
LINE
  5
2718F5
330
18
100
AcDbEntity
  8
姿図
100
AcDbLine
 10
-4370.753533087442
 20
-18235.34727085141
 30
0.0
 11
-4370.752708657041
 21
-18235.47138983072
 31
0.0
  0
LINE
  5
2718F6
330
18
100
AcDbEntity
  8
姿図
100
AcDbLine
 10
-4370.293383967318
 20
-18235.14064086973
 30
0.0
 11
-4370.567404185567
 21
-18234.94448723041
 31
0.0
  0
LINE
  5
2718F7
330
18
100
AcDbEntity
  8
姿図
100
AcDbLine
 10
-4370.099275828906
 20
-18235.93914081679
 30
0.0
 11
-4370.752708657041
 21
-18235.47138983072
 31
0.0
  0
ELLIPSE
  5
2718F8
330
18
100
AcDbEntity
  8
姿図
100
AcDbEllipse
 10
-4370.28980656425
 20
-18235.6792231641
 30
0.0
 11
0.05583457878010544
 21
-0.5551391896356209
 31
9.291567164033371E-17
210
-1.666545791913224E-17
220
1.656974764790396E-16
230
1.0
 40
0.3266547503873753
 41
1.29096128643083
 42
2.861757613225647
  0
ELLIPSE
  5
2718F9
330
18
100
AcDbEntity
  8
姿図
100
AcDbEllipse
 10
-4370.690464796336
 20
-18236.05992506562
 30
0.0
 11
0.0360838574316351
 21
0.05040796858488925
 31
3.441247287128919E-18
210
-3.231153159914480E-17
220
-4.513815278383737E-17
230
1.0
 40
0.908374465235718
 41
0.6674062465679877
 42
2.671810903783201
  0
ELLIPSE
  5
2718FA
330
18
100
AcDbEntity
  8
姿図
100
AcDbEllipse
 10
-4370.603017165809
 20
-18235.93198245052
 30
0.0
 11
0.03608385743162907
 21
0.05040796858487078
 31
3.441247287127869E-18
210
-3.231153159914888E-17
220
-4.513815278383401E-17
230
1.0
 40
0.908374465235718
 41
3.808998900156948
 42
5.813403557372959
  0
ELLIPSE
  5
2718FB
330
18
100
AcDbEntity
  8
姿図
100
AcDbEllipse
 10
-4370.563826782501
 20
-18235.48306952478
 30
0.0
 11
0.05583457878010544
 21
-0.5551391896356209
 31
9.291567164033371E-17
210
-1.666545791913224E-17
220
1.656974764790396E-16
230
1.0
 40
0.3266547503873753
 41
2.861757613225715
 42
4.432553940020625
  0
LINE
  5
2718FC
330
18
100
AcDbEntity
  8
姿図
100
AcDbLine
 10
-4369.896681108026
 20
-18236.96842121907
 30
0.0
 11
-4370.08993519785
 21
-18236.55778500744
 31
0.0
  0
LINE
  5
2718FD
330
18
100
AcDbEntity
  8
姿図
100
AcDbLine
 10
-4372.169368538412
 20
-18233.79774287745
 30
0.0
 11
-4372.443388756661
 21
-18233.60158923813
 31
0.0
  0
ELLIPSE
  5
2718FE
330
18
100
AcDbEntity
  8
姿図
100
AcDbEllipse
 10
-4373.192523458171
 20
-18234.21060962702
 30
0.0
 11
0.04812166340265124
 21
-0.5558609181685003
 31
0.0
210
0.0
220
0.0
230
1.0
 40
0.3301839125655894
 41
3.143887870131958
 42
4.437113948144826
  0
ELLIPSE
  5
2718FF
330
18
100
AcDbEntity
  8
姿図
100
AcDbEllipse
 10
-4372.56644936743
 20
-18236.51341728804
 30
0.0
 11
0.0360838574316245
 21
0.05040796858487516
 31
-3.441247287127940E-18
210
3.231153159914451E-17
220
4.513815278383757E-17
230
1.0
 40
0.9083744652357189
 41
0.6674062465669471
 42
2.671810903782859
  0
LINE
  5
271900
330
18
100
AcDbEntity
  8
姿図
100
AcDbLine
 10
-4372.479001736902
 20
-18236.44535434676
 30
0.0
 11
-4372.566449367429
 21
-18236.45353761422
 31
0.0
  0
LINE
  5
271901
330
18
100
AcDbEntity
  8
姿図
100
AcDbLine
 10
-4372.479001736902
 20
-18234.64896413207
 30
0.0
 11
-4372.566449367429
 21
-18234.65714739951
 31
0.0
  0
LINE
  5
271902
330
18
100
AcDbEntity
  8
姿図
100
AcDbLine
 10
-4372.629517658536
 20
-18234.00437285913
 30
0.0
 11
-4372.628693228134
 21
-18234.12849183845
 31
0.0
  0
LINE
  5
271903
330
18
100
AcDbEntity
  8
姿図
100
AcDbLine
 10
-4372.479001736902
 20
-18235.84655760853
 30
0.0
 11
-4372.566449367429
 21
-18235.85474087598
 31
0.0
  0
LINE
  5
271904
330
18
100
AcDbEntity
  8
姿図
100
AcDbLine
 10
-4372.479001736902
 20
-18235.2477608703
 30
0.0
 11
-4372.566449367429
 21
-18235.25594413775
 31
0.0
  0
ELLIPSE
  5
271905
330
18
100
AcDbEntity
  8
姿図
100
AcDbEllipse
 10
-4372.56644936743
 20
-18235.9146205498
 30
0.0
 11
0.03608385743163479
 21
0.05040796858488947
 31
3.441247287128920E-18
210
-3.231153159914453E-17
220
-4.513815278383757E-17
230
1.0
 40
0.908374465235719
 41
0.6674062465670006
 42
2.67181090378307
  0
ELLIPSE
  5
271906
330
18
100
AcDbEntity
  8
姿図
100
AcDbEllipse
 10
-4372.56644936743
 20
-18235.31582381157
 30
0.0
 11
0.03608385743163479
 21
0.05040796858488947
 31
3.441247287128920E-18
210
-3.231153159914453E-17
220
-4.513815278383757E-17
230
1.0
 40
0.908374465235719
 41
0.6674062465671249
 42
2.671810903782978
  0
ELLIPSE
  5
271907
330
18
100
AcDbEntity
  8
姿図
100
AcDbEllipse
 10
-4372.56644936743
 20
-18234.71702707334
 30
0.0
 11
0.03608385743163479
 21
0.05040796858488947
 31
3.441247287128920E-18
210
-3.231153159914453E-17
220
-4.513815278383757E-17
230
1.0
 40
0.908374465235719
 41
0.6674062465673204
 42
2.671810903783249
  0
LINE
  5
271908
330
18
100
AcDbEntity
  8
姿図
100
AcDbLine
 10
-4372.495235094821
 20
-18233.58499245995
 30
0.0
 11
-4373.241066250078
 21
-18233.65478664166
 31
0.0
  0
ELLIPSE
  5
271909
330
18
100
AcDbEntity
  8
姿図
100
AcDbEllipse
 10
-4372.439811353594
 20
-18234.14017153251
 30
0.0
 11
0.05583457878010544
 21
-0.5551391896356209
 31
9.291567164033371E-17
210
-1.666545791913224E-17
220
1.656974764790396E-16
230
1.0
 40
0.3266547503873753
 41
2.861757613225734
 42
4.432553940020584
  0
LINE
  5
27190A
330
18
100
AcDbEntity
  8
姿図
100
AcDbLine
 10
-4372.619352597078
 20
-18235.94472950556
 30
0.0
 11
-4372.426098507253
 21
-18236.35536571719
 31
0.0
  0
ELLIPSE
  5
27190B
330
18
100
AcDbEntity
  8
姿図
100
AcDbEllipse
 10
-4372.479001736902
 20
-18236.38547467294
 30
0.0
 11
0.0360838574316287
 21
0.05040796858487104
 31
3.441247287127889E-18
210
-3.231153159914881E-17
220
-4.513815278383448E-17
230
1.0
 40
0.9083744652357191
 41
3.808998900156817
 42
5.813403557372729
  0
LINE
  5
27190C
330
18
100
AcDbEntity
  8
姿図
100
AcDbLine
 10
-4371.9752604
 20
-18234.59624282452
 30
0.0
 11
-4372.628693228134
 21
-18234.12849183845
 31
0.0
  0
LINE
  5
27190D
330
18
100
AcDbEntity
  8
姿図
100
AcDbLine
 10
-4372.628693228134
 20
-18234.12849183845
 30
0.0
 11
-4372.426098507253
 21
-18234.55897550248
 31
0.0
  0
LINE
  5
27190E
330
18
100
AcDbEntity
  8
姿図
100
AcDbLine
 10
-4372.619352597078
 20
-18235.34593276733
 30
0.0
 11
-4372.426098507253
 21
-18235.75656897895
 31
0.0
  0
LINE
  5
27190F
330
18
100
AcDbEntity
  8
姿図
100
AcDbLine
 10
-4372.619352597078
 20
-18234.74713602909
 30
0.0
 11
-4372.426098507253
 21
-18235.15777224072
 31
0.0
  0
ELLIPSE
  5
271910
330
18
100
AcDbEntity
  8
姿図
100
AcDbEllipse
 10
-4372.479001736902
 20
-18235.78667793471
 30
0.0
 11
0.0360838574316287
 21
0.05040796858487104
 31
3.441247287127889E-18
210
-3.231153159914881E-17
220
-4.513815278383448E-17
230
1.0
 40
0.9083744652357191
 41
3.808998900156848
 42
5.813403557372545
  0
ELLIPSE
  5
271911
330
18
100
AcDbEntity
  8
姿図
100
AcDbEllipse
 10
-4372.479001736902
 20
-18235.18788119647
 30
0.0
 11
0.0360838574316287
 21
0.05040796858487104
 31
3.441247287127889E-18
210
-3.231153159914881E-17
220
-4.513815278383448E-17
230
1.0
 40
0.9083744652357191
 41
3.808998900156624
 42
5.813403557372816
  0
ELLIPSE
  5
271912
330
18
100
AcDbEntity
  8
姿図
100
AcDbEllipse
 10
-4372.479001736902
 20
-18234.58908445824
 30
0.0
 11
0.0360838574316287
 21
0.05040796858487104
 31
3.441247287127889E-18
210
-3.231153159914881E-17
220
-4.513815278383448E-17
230
1.0
 40
0.9083744652357191
 41
3.808998900157184
 42
5.813403557372866
  0
LINE
  5
271913
330
18
100
AcDbEntity
  8
姿図
100
AcDbLine
 10
-4372.619352597078
 20
-18236.54352624379
 30
0.0
 11
-4372.426098507253
 21
-18236.95416245542
 31
0.0
  0
LINE
  5
271914
330
18
100
AcDbEntity
  8
姿図
100
AcDbLine
 10
-4371.913016539294
 20
-18237.52008533852
 30
0.0
 11
-4371.825568908768
 21
-18237.51190207107
 31
0.0
  0
LINE
  5
271915
330
18
100
AcDbEntity
  8
姿図
100
AcDbLine
 10
-4369.896681108026
 20
-18237.5672179573
 30
0.0
 11
-4370.08993519785
 21
-18237.15658174567
 31
0.0
  0
LINE
  5
271916
330
18
100
AcDbEntity
  8
姿図
100
AcDbLine
 10
-4370.743368025984
 20
-18237.28762749783
 30
0.0
 11
-4370.55011393616
 21
-18237.69826370946
 31
0.0
  0
LINE
  5
271917
330
18
100
AcDbEntity
  8
姿図
100
AcDbLine
 10
-4372.619352597078
 20
-18237.14232298202
 30
0.0
 11
-4372.426098507253
 21
-18237.55295919365
 31
0.0
  0
LINE
  5
271918
330
18
100
AcDbEntity
  8
姿図
100
AcDbLine
 10
-4371.772665679119
 20
-18244.00867756206
 30
0.0
 11
-4371.952669672661
 21
-18243.62619583526
 31
0.0
  0
LINE
  5
271919
330
18
100
AcDbEntity
  8
姿図
100
AcDbLine
 10
-4369.896681108026
 20
-18244.15398207786
 30
0.0
 11
-4370.08993519785
 21
-18243.74334586624
 31
0.0
  0
LINE
  5
27191A
330
18
100
AcDbEntity
  8
姿図
100
AcDbLine
 10
-4370.742965326926
 20
-18243.87524729403
 30
0.0
 11
-4370.55011393616
 21
-18244.28502783002
 31
0.0
  0
ELLIPSE
  5
27191B
330
18
100
AcDbEntity
  8
姿図
100
AcDbEllipse
 10
-4387.91507111931
 20
-18014.09099212504
 30
0.0
 11
-4.245289664243891
 21
-430.2218425147502
 31
-2.388327244728626E-14
210
-5.477393773410834E-19
220
-5.550844883974055E-17
230
1.0
 40
0.0509529088182855
 41
1.005428428192962
 42
1.010474847289326
  0
LINE
  5
27191C
330
18
100
AcDbEntity
  8
姿図
100
AcDbLine
 10
-4370.597414941275
 20
-18245.52943257072
 30
0.0
 11
-4371.7145742926
 21
-18244.72972927195
 31
0.0
  0
ELLIPSE
  5
27191D
330
18
100
AcDbEntity
  8
姿図
100
AcDbEllipse
 10
-4388.868508384331
 20
-18207.42005317688
 30
0.0
 11
-18.42743079526639
 21
37.68274844269396
 31
-1.164266083732849E-15
210
-1.219306866792505E-17
220
2.493393378939953E-17
230
1.0
 40
0.0898112888334005
 41
2.866072935780159
 42
2.880426324101852
  0
ELLIPSE
  5
27191E
330
18
100
AcDbEntity
  8
姿図
100
AcDbEllipse
 10
-4372.479001736902
 20
-18244.16983226997
 30
0.0
 11
0.0360838574316287
 21
0.05040796858487104
 31
3.441247287127889E-18
210
-3.231153159914881E-17
220
-4.513815278383448E-17
230
1.0
 40
0.9083744652357191
 41
5.379795226951904
 42
5.813403557372927
  0
ELLIPSE
  5
27191F
330
18
100
AcDbEntity
  8
姿図
100
AcDbEllipse
 10
-4371.825568908769
 20
-18244.03878651781
 30
0.0
 11
0.03608385743162167
 21
0.05040796858487118
 31
0.0
210
0.0
220
0.0
230
1.0
 40
0.9083744652357185
 41
3.808998900156733
 42
5.813403557372704
  0
LINE
  5
271920
330
18
100
AcDbEntity
  8
姿図
100
AcDbLine
 10
-4371.913016539294
 20
-18244.10684945908
 30
0.0
 11
-4371.825568908768
 21
-18244.09866619163
 31
0.0
  0
LINE
  5
271921
330
18
100
AcDbEntity
  8
姿図
100
AcDbLine
 10
-4371.939822357574
 20
-18244.25229121375
 30
0.0
 11
-4371.942580298638
 21
-18244.1178865367
 31
0.0
  0
LINE
  5
271922
330
18
100
AcDbEntity
  8
姿図
100
AcDbLine
 10
-4371.801812949009
 20
-18244.54554068482
 30
0.0
 11
-4371.939822355081
 21
-18244.25229121347
 31
0.0
  0
ELLIPSE
  5
271923
330
18
100
AcDbEntity
  8
姿図
100
AcDbEllipse
 10
-4371.714574292601
 20
-18244.5800300874
 30
0.0
 11
-0.01443979626859925
 21
0.1543058413791304
 31
-8.603118217820338E-18
210
-5.172084878144049E-18
220
5.526967929193048E-17
230
1.0
 40
0.3284334526200731
 41
1.936727186806237
 42
2.86402240480802
  0
ELLIPSE
  5
271924
330
18
100
AcDbEntity
  8
姿図
100
AcDbEllipse
 10
-4371.913016539295
 20
-18244.16672913291
 30
0.0
 11
0.03608385743162927
 21
0.05040796858487177
 31
3.441247287127943E-18
210
-3.231153159914879E-17
220
-4.513815278383454E-17
230
1.0
 40
0.9083744652357183
 41
0.6674062465667715
 42
1.199235524511626
  0
ELLIPSE
  5
271925
330
18
100
AcDbEntity
  8
姿図
100
AcDbEllipse
 10
-4371.749116753193
 20
-18244.58326253854
 30
0.0
 11
0.0815724692990531
 21
-0.1475648180683364
 31
9.359753510724568E-18
210
-2.685589719099227E-17
220
4.858239081278763E-17
230
1.0
 40
0.1762382375576922
 41
4.358020013766092
 42
4.80466361244018
  0
LINE
  5
271926
330
18
100
AcDbEntity
  8
姿図
100
AcDbLine
 10
-4369.896681108026
 20
-18244.7527788161
 30
0.0
 11
-4370.08993519785
 21
-18244.34214260447
 31
0.0
  0
LINE
  5
271927
330
18
100
AcDbEntity
  8
姿図
100
AcDbLine
 10
-4369.896681108026
 20
-18245.95037229257
 30
0.0
 11
-4370.08993519785
 21
-18245.53973608094
 31
0.0
  0
LINE
  5
271928
330
18
100
AcDbEntity
  8
姿図
100
AcDbLine
 10
-4369.896681108026
 20
-18245.35157555433
 30
0.0
 11
-4370.08993519785
 21
-18244.9409393427
 31
0.0
  0
ELLIPSE
  5
271929
330
18
100
AcDbEntity
  8
姿図
100
AcDbEllipse
 10
-4370.037031968202
 20
-18244.91083038695
 30
0.0
 11
0.03608385743162927
 21
0.05040796858487177
 31
3.441247287127943E-18
210
-3.231153159914879E-17
220
-4.513815278383454E-17
230
1.0
 40
0.9083744652357183
 41
0.6674062465671117
 42
2.671810903782999
  0
ELLIPSE
  5
27192A
330
18
100
AcDbEntity
  8
姿図
100
AcDbEllipse
 10
-4370.037031968202
 20
-18245.50962712518
 30
0.0
 11
0.03608385743162927
 21
0.05040796858487177
 31
3.441247287127943E-18
210
-3.231153159914879E-17
220
-4.513815278383454E-17
230
1.0
 40
0.9083744652357183
 41
0.6674062465671138
 42
2.671810903782835
  0
ELLIPSE
  5
27192B
330
18
100
AcDbEntity
  8
姿図
100
AcDbEllipse
 10
-4370.037031968202
 20
-18244.31203364872
 30
0.0
 11
0.03608385743162927
 21
0.05040796858487177
 31
3.441247287127943E-18
210
-3.231153159914879E-17
220
-4.513815278383454E-17
230
1.0
 40
0.9083744652357183
 41
0.6674062465672714
 42
2.671810903782924
  0
LINE
  5
27192C
330
18
100
AcDbEntity
  8
姿図
100
AcDbLine
 10
-4370.730117929701
 20
-18244.50134284147
 30
0.0
 11
-4370.55011393616
 21
-18244.88382456826
 31
0.0
  0
LINE
  5
27192D
330
18
100
AcDbEntity
  8
姿図
100
AcDbLine
 10
-4370.720028555677
 20
-18244.9930335429
 30
0.0
 11
-4370.717270614614
 21
-18245.12743821996
 31
0.0
  0
LINE
  5
27192E
330
18
100
AcDbEntity
  8
姿図
100
AcDbLine
 10
-4370.603017165809
 20
-18244.97381319784
 30
0.0
 11
-4370.690464796335
 21
-18244.98199646529
 31
0.0
  0
LINE
  5
27192F
330
18
100
AcDbEntity
  8
姿図
100
AcDbLine
 10
-4370.732093747802
 20
-18244.40505456641
 30
0.0
 11
-4370.7301179317
 21
-18244.5013428417
 31
0.0
  0
LINE
  5
271930
330
18
100
AcDbEntity
  8
姿図
100
AcDbLine
 10
-4370.603017165809
 20
-18244.37501645961
 30
0.0
 11
-4370.690464796335
 21
-18244.38319972705
 31
0.0
  0
LINE
  5
271931
330
18
100
AcDbEntity
  8
姿図
100
AcDbLine
 10
-4370.71727061212
 20
-18245.12743821967
 30
0.0
 11
-4370.57926120605
 21
-18245.42068769102
 31
0.0
  0
ELLIPSE
  5
271932
330
18
100
AcDbEntity
  8
姿図
100
AcDbEllipse
 10
-4370.690464796336
 20
-18245.04187613911
 30
0.0
 11
0.0360838574316249
 21
0.05040796858487492
 31
3.441247287127944E-18
210
-3.231153159914466E-17
220
-4.513815278383751E-17
230
1.0
 40
0.9083744652357177
 41
0.6674062465669202
 42
1.199235524648299
  0
ELLIPSE
  5
271933
330
18
100
AcDbEntity
  8
姿図
100
AcDbEllipse
 10
-4370.603017165809
 20
-18244.91393352401
 30
0.0
 11
0.03608385743162677
 21
0.05040796858486756
 31
6.882494574255338E-18
210
-6.462306319829805E-17
220
-9.027630556766862E-17
230
1.0
 40
0.9083744652357177
 41
3.808998900156816
 42
5.813403557372785
  0
ELLIPSE
  5
271934
330
18
100
AcDbEntity
  8
姿図
100
AcDbEllipse
 10
-4370.597414941275
 20
-18245.37973338617
 30
0.0
 11
-0.01443979626859925
 21
0.1543058413791304
 31
-8.603118217820338E-18
210
-5.172084878144049E-18
220
5.526967929193048E-17
230
1.0
 40
0.3284334526200731
 41
2.864022404808038
 42
3.791317622809779
  0
ELLIPSE
  5
271935
330
18
100
AcDbEntity
  8
姿図
100
AcDbEllipse
 10
-4370.631957401868
 20
-18245.38296583731
 30
0.0
 11
0.0815724692990531
 21
-0.1475648180683364
 31
9.359753510724568E-18
210
-2.685589719099227E-17
220
4.858239081278763E-17
230
1.0
 40
0.1762382375576922
 41
0.7697837615025532
 42
1.216427360176595
  0
ELLIPSE
  5
271936
330
18
100
AcDbEntity
  8
姿図
100
AcDbEllipse
 10
-4388.868508384331
 20
-18207.42005317688
 30
0.0
 11
-18.42743079526639
 21
37.68274844269396
 31
-1.164266083732849E-15
210
-1.219306866792505E-17
220
2.493393378939953E-17
230
1.0
 40
0.0898112888334005
 41
3.072805797846053
 42
3.087159186167753
  0
ELLIPSE
  5
271937
330
18
100
AcDbEntity
  8
姿図
100
AcDbEllipse
 10
-4370.690464796336
 20
-18244.44307940087
 30
0.0
 11
0.0360838574316249
 21
0.05040796858487492
 31
3.441247287127944E-18
210
-3.231153159914466E-17
220
-4.513815278383751E-17
230
1.0
 40
0.9083744652357177
 41
0.6674062465669227
 42
1.462696070731774
  0
ELLIPSE
  5
271938
330
18
100
AcDbEntity
  8
姿図
100
AcDbEllipse
 10
-4370.603017165809
 20
-18244.31513678578
 30
0.0
 11
0.03608385743162677
 21
0.05040796858486756
 31
6.882494574255338E-18
210
-6.462306319829805E-17
220
-9.027630556766862E-17
230
1.0
 40
0.9083744652357177
 41
3.808998900157097
 42
5.813403557372832
  0
ELLIPSE
  5
271939
330
18
100
AcDbEntity
  8
姿図
100
AcDbEllipse
 10
-4388.869062007244
 20
-18206.82008007226
 30
0.0
 11
-18.41463425244379
 21
37.65658044838827
 31
2.326915167140160E-15
210
2.438613733585006E-17
220
-4.986786757879898E-17
230
1.0
 40
0.0898112888334004
 41
3.072872848347417
 42
3.080408125087992
  0
LINE
  5
27193A
330
18
100
AcDbEntity
  8
姿図
100
AcDbLine
 10
-4370.037031968202
 20
-18244.85095071312
 30
0.0
 11
-4369.949584337674
 21
-18244.84276744568
 31
0.0
  0
LINE
  5
27193B
330
18
100
AcDbEntity
  8
姿図
100
AcDbLine
 10
-4370.037031968202
 20
-18244.25215397489
 30
0.0
 11
-4369.949584337674
 21
-18244.24397070744
 31
0.0
  0
LINE
  5
27193C
330
18
100
AcDbEntity
  8
姿図
100
AcDbLine
 10
-4370.037031968202
 20
-18245.44974745136
 30
0.0
 11
-4369.949584337674
 21
-18245.44156418391
 31
0.0
  0
ELLIPSE
  5
27193D
330
18
100
AcDbEntity
  8
姿図
100
AcDbEllipse
 10
-4369.949584337676
 20
-18244.78288777186
 30
0.0
 11
0.03608385743162167
 21
0.05040796858487118
 31
0.0
210
0.0
220
0.0
230
1.0
 40
0.9083744652357185
 41
3.808998900156633
 42
5.813403557372653
  0
ELLIPSE
  5
27193E
330
18
100
AcDbEntity
  8
姿図
100
AcDbEllipse
 10
-4369.949584337676
 20
-18245.38168451009
 30
0.0
 11
0.03608385743162167
 21
0.05040796858487118
 31
0.0
210
0.0
220
0.0
230
1.0
 40
0.9083744652357185
 41
3.808998900156507
 42
5.813403557372811
  0
ELLIPSE
  5
27193F
330
18
100
AcDbEntity
  8
姿図
100
AcDbEllipse
 10
-4369.949584337676
 20
-18245.98048124832
 30
0.0
 11
0.03608385743162398
 21
0.05040796858487442
 31
-6.882494574255783E-18
210
6.462306319828891E-17
220
9.027630556767529E-17
230
1.0
 40
0.9083744652357181
 41
5.379795226951762
 42
5.813403557372785
  0
ELLIPSE
  5
271940
330
18
100
AcDbEntity
  8
姿図
100
AcDbEllipse
 10
-4369.949584337676
 20
-18244.18409103363
 30
0.0
 11
0.03608385743162167
 21
0.05040796858487118
 31
0.0
210
0.0
220
0.0
230
1.0
 40
0.9083744652357185
 41
3.808998900156414
 42
5.813403557372719
  0
LINE
  5
271941
330
18
100
AcDbEntity
  8
姿図
100
AcDbLine
 10
-4371.772665679119
 20
-18239.81710039442
 30
0.0
 11
-4371.965919768943
 21
-18239.4064641828
 31
0.0
  0
LINE
  5
271942
330
18
100
AcDbEntity
  8
姿図
100
AcDbLine
 10
-4371.772665679119
 20
-18238.02071017973
 30
0.0
 11
-4371.965919768943
 21
-18237.6100739681
 31
0.0
  0
LINE
  5
271943
330
18
100
AcDbEntity
  8
姿図
100
AcDbLine
 10
-4371.772665679119
 20
-18238.61950691796
 30
0.0
 11
-4371.965919768943
 21
-18238.20887070633
 31
0.0
  0
LINE
  5
271944
330
18
100
AcDbEntity
  8
姿図
100
AcDbLine
 10
-4371.772665679119
 20
-18239.21830365619
 30
0.0
 11
-4371.965919768943
 21
-18238.80766744456
 31
0.0
  0
LINE
  5
271945
330
18
100
AcDbEntity
  8
姿図
100
AcDbLine
 10
-4371.772665679119
 20
-18243.40988082382
 30
0.0
 11
-4371.965517069887
 21
-18243.00010028783
 31
0.0
  0
LINE
  5
271946
330
18
100
AcDbEntity
  8
姿図
100
AcDbLine
 10
-4371.772665679119
 20
-18241.61349060912
 30
0.0
 11
-4371.965919768943
 21
-18241.2028543975
 31
0.0
  0
LINE
  5
271947
330
18
100
AcDbEntity
  8
姿図
100
AcDbLine
 10
-4371.772665679119
 20
-18242.21228734736
 30
0.0
 11
-4371.965919768943
 21
-18241.80165113573
 31
0.0
  0
LINE
  5
271948
330
18
100
AcDbEntity
  8
姿図
100
AcDbLine
 10
-4371.772665679119
 20
-18242.81108408559
 30
0.0
 11
-4371.965919768943
 21
-18242.40044787396
 31
0.0
  0
LINE
  5
271949
330
18
100
AcDbEntity
  8
姿図
100
AcDbLine
 10
-4371.772665679119
 20
-18241.01469387089
 30
0.0
 11
-4371.965919768943
 21
-18240.60405765926
 31
0.0
  0
LINE
  5
27194A
330
18
100
AcDbEntity
  8
姿図
100
AcDbLine
 10
-4371.772665679119
 20
-18240.41589713266
 30
0.0
 11
-4371.965919768943
 21
-18240.00526092103
 31
0.0
  0
ELLIPSE
  5
27194B
330
18
100
AcDbEntity
  8
姿図
100
AcDbEllipse
 10
-4371.913016539295
 20
-18242.96913565644
 30
0.0
 11
0.03608385743162927
 21
0.05040796858487177
 31
3.441247287127943E-18
210
-3.231153159914879E-17
220
-4.513815278383454E-17
230
1.0
 40
0.9083744652357183
 41
0.6674062465669873
 42
1.830516517602442
  0
ELLIPSE
  5
27194C
330
18
100
AcDbEntity
  8
姿図
100
AcDbEllipse
 10
-4371.913016539295
 20
-18243.56793239468
 30
0.0
 11
0.03608385743162927
 21
0.05040796858487177
 31
3.441247287127943E-18
210
-3.231153159914879E-17
220
-4.513815278383454E-17
230
1.0
 40
0.9083744652357183
 41
0.6674062465667715
 42
1.46269607064669
  0
ELLIPSE
  5
27194D
330
18
100
AcDbEntity
  8
姿図
100
AcDbEllipse
 10
-4371.913016539295
 20
-18239.37635522705
 30
0.0
 11
0.03608385743162927
 21
0.05040796858487177
 31
3.441247287127943E-18
210
-3.231153159914879E-17
220
-4.513815278383454E-17
230
1.0
 40
0.9083744652357183
 41
0.6674062465669873
 42
2.671810903782851
  0
ELLIPSE
  5
27194E
330
18
100
AcDbEntity
  8
姿図
100
AcDbEllipse
 10
-4371.913016539295
 20
-18241.17274544174
 30
0.0
 11
0.03608385743162927
 21
0.05040796858487177
 31
3.441247287127943E-18
210
-3.231153159914879E-17
220
-4.513815278383454E-17
230
1.0
 40
0.9083744652357183
 41
0.6674062465668904
 42
2.671810903783141
  0
ELLIPSE
  5
27194F
330
18
100
AcDbEntity
  8
姿図
100
AcDbEllipse
 10
-4371.913016539295
 20
-18241.77154217997
 30
0.0
 11
0.03608385743162927
 21
0.05040796858487177
 31
3.441247287127943E-18
210
-3.231153159914879E-17
220
-4.513815278383454E-17
230
1.0
 40
0.9083744652357183
 41
0.6674062465668275
 42
2.671810903782999
  0
ELLIPSE
  5
271950
330
18
100
AcDbEntity
  8
姿図
100
AcDbEllipse
 10
-4371.913016539295
 20
-18242.37033891821
 30
0.0
 11
0.03608385743162927
 21
0.05040796858487177
 31
3.441247287127943E-18
210
-3.231153159914879E-17
220
-4.513815278383454E-17
230
1.0
 40
0.9083744652357183
 41
0.6674062465667715
 42
2.671810903782776
  0
ELLIPSE
  5
271951
330
18
100
AcDbEntity
  8
姿図
100
AcDbEllipse
 10
-4371.913016539295
 20
-18239.97515196528
 30
0.0
 11
0.03608385743162927
 21
0.05040796858487177
 31
3.441247287127943E-18
210
-3.231153159914879E-17
220
-4.513815278383454E-17
230
1.0
 40
0.9083744652357183
 41
0.6674062465671117
 42
2.671810903783074
  0
ELLIPSE
  5
271952
330
18
100
AcDbEntity
  8
姿図
100
AcDbEllipse
 10
-4371.913016539295
 20
-18240.57394870351
 30
0.0
 11
0.03608385743162927
 21
0.05040796858487177
 31
3.441247287127943E-18
210
-3.231153159914879E-17
220
-4.513815278383454E-17
230
1.0
 40
0.9083744652357183
 41
0.6674062465663877
 42
2.671810903782819
  0
ELLIPSE
  5
271953
330
18
100
AcDbEntity
  8
姿図
100
AcDbEllipse
 10
-4371.913016539295
 20
-18237.57996501234
 30
0.0
 11
0.03608385743162927
 21
0.05040796858487177
 31
3.441247287127943E-18
210
-3.231153159914879E-17
220
-4.513815278383454E-17
230
1.0
 40
0.9083744652357183
 41
0.6674062465670556
 42
2.671810903782919
  0
ELLIPSE
  5
271954
330
18
100
AcDbEntity
  8
姿図
100
AcDbEllipse
 10
-4371.913016539295
 20
-18238.17876175058
 30
0.0
 11
0.03608385743162927
 21
0.05040796858487177
 31
3.441247287127943E-18
210
-3.231153159914879E-17
220
-4.513815278383454E-17
230
1.0
 40
0.9083744652357183
 41
0.6674062465668229
 42
2.671810903782974
  0
ELLIPSE
  5
271955
330
18
100
AcDbEntity
  8
姿図
100
AcDbEllipse
 10
-4371.913016539295
 20
-18238.77755848881
 30
0.0
 11
0.03608385743162927
 21
0.05040796858487177
 31
3.441247287127943E-18
210
-3.231153159914879E-17
220
-4.513815278383454E-17
230
1.0
 40
0.9083744652357183
 41
0.6674062465671117
 42
2.671810903783024
  0
LINE
  5
271956
330
18
100
AcDbEntity
  8
姿図
100
AcDbLine
 10
-4371.965517071393
 20
-18243.000100288
 30
0.0
 11
-4371.966536864305
 21
-18242.95040258028
 31
0.0
  0
LINE
  5
271957
330
18
100
AcDbEntity
  8
姿図
100
AcDbLine
 10
-4371.952669674661
 20
-18243.6261958355
 30
0.0
 11
-4371.954645490762
 21
-18243.5299075602
 31
0.0
  0
ELLIPSE
  5
271958
330
18
100
AcDbEntity
  8
姿図
100
AcDbEllipse
 10
-4388.869615630155
 20
-18206.22010696764
 30
0.0
 11
-18.40183770962119
 21
37.63041245408251
 31
-2.325298166814627E-15
210
-2.438613733585013E-17
220
4.986786757879908E-17
230
1.0
 40
0.0898112888334005
 41
2.880054474313594
 42
2.880292129410969
  0
ELLIPSE
  5
271959
330
18
100
AcDbEntity
  8
姿図
100
AcDbEllipse
 10
-4388.869062007244
 20
-18206.82008007226
 30
0.0
 11
-18.41463425244379
 21
37.65658044838827
 31
2.326915167140160E-15
210
2.438613733585006E-17
220
-4.986786757879898E-17
230
1.0
 40
0.0898112888334004
 41
2.872823996859904
 42
2.880359273600474
  0
LINE
  5
27195A
330
18
100
AcDbEntity
  8
姿図
100
AcDbLine
 10
-4371.913016539294
 20
-18239.31647555322
 30
0.0
 11
-4371.825568908768
 21
-18239.30829228577
 31
0.0
  0
LINE
  5
27195B
330
18
100
AcDbEntity
  8
姿図
100
AcDbLine
 10
-4371.913016539294
 20
-18239.91527229145
 30
0.0
 11
-4371.825568908768
 21
-18239.907089024
 31
0.0
  0
LINE
  5
27195C
330
18
100
AcDbEntity
  8
姿図
100
AcDbLine
 10
-4371.913016539294
 20
-18238.11888207675
 30
0.0
 11
-4371.825568908768
 21
-18238.1106988093
 31
0.0
  0
LINE
  5
27195D
330
18
100
AcDbEntity
  8
姿図
100
AcDbLine
 10
-4371.913016539294
 20
-18238.71767881499
 30
0.0
 11
-4371.825568908768
 21
-18238.70949554754
 31
0.0
  0
LINE
  5
27195E
330
18
100
AcDbEntity
  8
姿図
100
AcDbLine
 10
-4371.913016539294
 20
-18242.90925598262
 30
0.0
 11
-4371.825568908768
 21
-18242.90107271517
 31
0.0
  0
LINE
  5
27195F
330
18
100
AcDbEntity
  8
姿図
100
AcDbLine
 10
-4371.913016539294
 20
-18243.50805272085
 30
0.0
 11
-4371.825568908768
 21
-18243.4998694534
 31
0.0
  0
LINE
  5
271960
330
18
100
AcDbEntity
  8
姿図
100
AcDbLine
 10
-4371.913016539294
 20
-18241.11286576792
 30
0.0
 11
-4371.825568908768
 21
-18241.10468250047
 31
0.0
  0
LINE
  5
271961
330
18
100
AcDbEntity
  8
姿図
100
AcDbLine
 10
-4371.913016539294
 20
-18241.71166250615
 30
0.0
 11
-4371.825568908768
 21
-18241.7034792387
 31
0.0
  0
LINE
  5
271962
330
18
100
AcDbEntity
  8
姿図
100
AcDbLine
 10
-4371.913016539294
 20
-18242.31045924439
 30
0.0
 11
-4371.825568908768
 21
-18242.30227597694
 31
0.0
  0
LINE
  5
271963
330
18
100
AcDbEntity
  8
姿図
100
AcDbLine
 10
-4371.852508608576
 20
-18241.70600023061
 30
0.0
 11
-4371.843481800447
 21
-18242.03896588339
 31
0.0
  0
LINE
  5
271964
330
18
100
AcDbEntity
  8
姿図
100
AcDbLine
 10
-4371.913016539294
 20
-18240.51406902969
 30
0.0
 11
-4371.825568908768
 21
-18240.50588576224
 31
0.0
  0
ELLIPSE
  5
271965
330
18
100
AcDbEntity
  8
姿図
100
AcDbEllipse
 10
-4371.825568908769
 20
-18242.84119304135
 30
0.0
 11
0.03608385743162167
 21
0.05040796858487118
 31
0.0
210
0.0
220
0.0
230
1.0
 40
0.9083744652357185
 41
3.808998900156664
 42
5.813403557372635
  0
ELLIPSE
  5
271966
330
18
100
AcDbEntity
  8
姿図
100
AcDbEllipse
 10
-4371.825568908769
 20
-18243.43998977958
 30
0.0
 11
0.03608385743162167
 21
0.05040796858487118
 31
0.0
210
0.0
220
0.0
230
1.0
 40
0.9083744652357185
 41
3.808998900156701
 42
5.813403557372721
  0
ELLIPSE
  5
271967
330
18
100
AcDbEntity
  8
姿図
100
AcDbEllipse
 10
-4371.825568908769
 20
-18239.24841261195
 30
0.0
 11
0.03608385743162289
 21
0.05040796858487284
 31
0.0
210
0.0
220
0.0
230
1.0
 40
0.9083744652357184
 41
3.808998900156944
 42
5.813403557372685
  0
ELLIPSE
  5
271968
330
18
100
AcDbEntity
  8
姿図
100
AcDbEllipse
 10
-4371.825568908769
 20
-18241.04480282665
 30
0.0
 11
0.03608385743162289
 21
0.05040796858487284
 31
0.0
210
0.0
220
0.0
230
1.0
 40
0.9083744652357184
 41
3.808998900156665
 42
5.813403557372685
  0
ELLIPSE
  5
271969
330
18
100
AcDbEntity
  8
姿図
100
AcDbEllipse
 10
-4389.665743078383
 20
-18241.56235473138
 30
0.0
 11
-17.80890179997573
 21
-3.376043869291861E-13
 31
-9.885926410810724E-16
210
-5.551115123125783E-17
220
-1.052328121613185E-30
230
1.0
 40
0.258819045102515
 41
3.173482583937681
 42
3.237425862011138
  0
ELLIPSE
  5
27196A
330
18
100
AcDbEntity
  8
姿図
100
AcDbEllipse
 10
-4389.665743078383
 20
-18242.07133195888
 30
0.0
 11
-17.82270000000001
 21
-3.393499981019237E-13
 31
-9.893585950493393E-16
210
-5.551115123125783E-17
220
-1.056950353479716E-30
230
1.0
 40
0.258819045102515
 41
3.048817195001321
 42
3.090682397459626
  0
ELLIPSE
  5
27196B
330
18
100
AcDbEntity
  8
姿図
100
AcDbEllipse
 10
-4389.665743078383
 20
-18242.07133195888
 30
0.0
 11
-17.82270000000001
 21
-3.393499981019237E-13
 31
-9.893585950493393E-16
210
-5.551115123125783E-17
220
-1.056950353479716E-30
230
1.0
 40
0.258819045102515
 41
3.143468445217585
 42
3.219953961483735
  0
ELLIPSE
  5
27196C
330
18
100
AcDbEntity
  8
姿図
100
AcDbEllipse
 10
-4371.532621599503
 20
-18242.85775955698
 30
0.0
 11
-0.02117202770617328
 21
-0.3093103904500594
 31
1.721035242916622E-17
210
3.790819955422915E-18
220
5.538156367497354E-17
230
1.0
 40
0.163803715364946
 41
3.940366134145706
 42
4.140498290499586
  0
ELLIPSE
  5
27196D
330
18
100
AcDbEntity
  8
姿図
100
AcDbEllipse
 10
-4371.825568908769
 20
-18241.64359956488
 30
0.0
 11
0.03608385743162289
 21
0.05040796858487284
 31
0.0
210
0.0
220
0.0
230
1.0
 40
0.9083744652357184
 41
3.808998900156953
 42
5.813403557372611
  0
ELLIPSE
  5
27196E
330
18
100
AcDbEntity
  8
姿図
100
AcDbEllipse
 10
-4371.825568908769
 20
-18242.24239630311
 30
0.0
 11
0.03608385743162289
 21
0.05040796858487284
 31
0.0
210
0.0
220
0.0
230
1.0
 40
0.9083744652357184
 41
3.808998900157146
 42
5.813403557372803
  0
ELLIPSE
  5
27196F
330
18
100
AcDbEntity
  8
姿図
100
AcDbEllipse
 10
-4371.825568908769
 20
-18239.84720935018
 30
0.0
 11
0.03608385743162289
 21
0.05040796858487284
 31
0.0
210
0.0
220
0.0
230
1.0
 40
0.9083744652357184
 41
3.808998900156944
 42
5.813403557372685
  0
ELLIPSE
  5
271970
330
18
100
AcDbEntity
  8
姿図
100
AcDbEllipse
 10
-4371.825568908769
 20
-18240.44600608841
 30
0.0
 11
0.03608385743162289
 21
0.05040796858487284
 31
0.0
210
0.0
220
0.0
230
1.0
 40
0.9083744652357184
 41
3.808998900157137
 42
5.813403557372877
  0
ELLIPSE
  5
271971
330
18
100
AcDbEntity
  8
姿図
100
AcDbEllipse
 10
-4371.825568908769
 20
-18238.05081913548
 30
0.0
 11
0.03608385743162289
 21
0.05040796858487284
 31
0.0
210
0.0
220
0.0
230
1.0
 40
0.9083744652357184
 41
3.808998900156944
 42
5.813403557372635
  0
ELLIPSE
  5
271972
330
18
100
AcDbEntity
  8
姿図
100
AcDbEllipse
 10
-4371.825568908769
 20
-18238.64961587371
 30
0.0
 11
0.03608385743162289
 21
0.05040796858487284
 31
0.0
210
0.0
220
0.0
230
1.0
 40
0.9083744652357184
 41
3.808998900157069
 42
5.813403557372808
  0
LINE
  5
271973
330
18
100
AcDbEntity
  8
姿図
100
AcDbLine
 10
-4369.896681108026
 20
-18239.363608172
 30
0.0
 11
-4370.08993519785
 21
-18238.95297196037
 31
0.0
  0
LINE
  5
271974
330
18
100
AcDbEntity
  8
姿図
100
AcDbLine
 10
-4369.896681108026
 20
-18239.96240491023
 30
0.0
 11
-4370.08993519785
 21
-18239.55176869861
 31
0.0
  0
LINE
  5
271975
330
18
100
AcDbEntity
  8
姿図
100
AcDbLine
 10
-4369.896681108026
 20
-18238.16601469553
 30
0.0
 11
-4370.08993519785
 21
-18237.75537848391
 31
0.0
  0
LINE
  5
271976
330
18
100
AcDbEntity
  8
姿図
100
AcDbLine
 10
-4369.896681108026
 20
-18238.76481143376
 30
0.0
 11
-4370.08993519785
 21
-18238.35417522214
 31
0.0
  0
LINE
  5
271977
330
18
100
AcDbEntity
  8
姿図
100
AcDbLine
 10
-4369.896681108026
 20
-18242.9563886014
 30
0.0
 11
-4370.08993519785
 21
-18242.54575238977
 31
0.0
  0
LINE
  5
271978
330
18
100
AcDbEntity
  8
姿図
100
AcDbLine
 10
-4369.896681108026
 20
-18243.55518533963
 30
0.0
 11
-4370.08993519785
 21
-18243.144549128
 31
0.0
  0
LINE
  5
271979
330
18
100
AcDbEntity
  8
姿図
100
AcDbLine
 10
-4369.896681108026
 20
-18241.1599983867
 30
0.0
 11
-4370.08993519785
 21
-18240.74936217507
 31
0.0
  0
LINE
  5
27197A
330
18
100
AcDbEntity
  8
姿図
100
AcDbLine
 10
-4369.896681108026
 20
-18241.75879512493
 30
0.0
 11
-4370.08993519785
 21
-18241.3481589133
 31
0.0
  0
LINE
  5
27197B
330
18
100
AcDbEntity
  8
姿図
100
AcDbLine
 10
-4369.896681108026
 20
-18242.35759186316
 30
0.0
 11
-4370.08993519785
 21
-18241.94695565154
 31
0.0
  0
LINE
  5
27197C
330
18
100
AcDbEntity
  8
姿図
100
AcDbLine
 10
-4369.896681108026
 20
-18240.56120164847
 30
0.0
 11
-4370.08993519785
 21
-18240.15056543684
 31
0.0
  0
ELLIPSE
  5
27197D
330
18
100
AcDbEntity
  8
姿図
100
AcDbEllipse
 10
-4370.037031968202
 20
-18243.11444017225
 30
0.0
 11
0.03608385743162927
 21
0.05040796858487177
 31
3.441247287127943E-18
210
-3.231153159914879E-17
220
-4.513815278383454E-17
230
1.0
 40
0.9083744652357183
 41
0.6674062465674321
 42
2.671810903783085
  0
ELLIPSE
  5
27197E
330
18
100
AcDbEntity
  8
姿図
100
AcDbEllipse
 10
-4370.037031968202
 20
-18243.71323691048
 30
0.0
 11
0.03608385743162927
 21
0.05040796858487177
 31
3.441247287127943E-18
210
-3.231153159914879E-17
220
-4.513815278383454E-17
230
1.0
 40
0.9083744652357183
 41
0.6674062465669873
 42
2.671810903782875
  0
ELLIPSE
  5
27197F
330
18
100
AcDbEntity
  8
姿図
100
AcDbEllipse
 10
-4370.037031968202
 20
-18241.31804995755
 30
0.0
 11
0.03608385743162927
 21
0.05040796858487177
 31
3.441247287127943E-18
210
-3.231153159914879E-17
220
-4.513815278383454E-17
230
1.0
 40
0.9083744652357183
 41
0.6674062465671117
 42
2.671810903782999
  0
ELLIPSE
  5
271980
330
18
100
AcDbEntity
  8
姿図
100
AcDbEllipse
 10
-4370.037031968202
 20
-18241.91684669579
 30
0.0
 11
0.03608385743162927
 21
0.05040796858487177
 31
3.441247287127943E-18
210
-3.231153159914879E-17
220
-4.513815278383454E-17
230
1.0
 40
0.9083744652357183
 41
0.6674062465669561
 42
2.671810903782844
  0
ELLIPSE
  5
271981
330
18
100
AcDbEntity
  8
姿図
100
AcDbEllipse
 10
-4370.037031968202
 20
-18242.51564343402
 30
0.0
 11
0.03608385743162927
 21
0.05040796858487177
 31
3.441247287127943E-18
210
-3.231153159914879E-17
220
-4.513815278383454E-17
230
1.0
 40
0.9083744652357183
 41
0.6674062465670799
 42
2.671810903782968
  0
ELLIPSE
  5
271982
330
18
100
AcDbEntity
  8
姿図
100
AcDbEllipse
 10
-4370.037031968202
 20
-18239.52165974285
 30
0.0
 11
0.03608385743162927
 21
0.05040796858487177
 31
3.441247287127943E-18
210
-3.231153159914879E-17
220
-4.513815278383454E-17
230
1.0
 40
0.9083744652357183
 41
0.6674062465670799
 42
2.671810903783017
  0
ELLIPSE
  5
271983
330
18
100
AcDbEntity
  8
姿図
100
AcDbEllipse
 10
-4370.037031968202
 20
-18240.12045648108
 30
0.0
 11
0.03608385743162927
 21
0.05040796858487177
 31
3.441247287127943E-18
210
-3.231153159914879E-17
220
-4.513815278383454E-17
230
1.0
 40
0.9083744652357183
 41
0.667406246567148
 42
2.671810903783085
  0
ELLIPSE
  5
271984
330
18
100
AcDbEntity
  8
姿図
100
AcDbEllipse
 10
-4370.037031968202
 20
-18240.71925321932
 30
0.0
 11
0.03608385743162927
 21
0.05040796858487177
 31
3.441247287127943E-18
210
-3.231153159914879E-17
220
-4.513815278383454E-17
230
1.0
 40
0.9083744652357183
 41
0.6674062465669873
 42
2.671810903782924
  0
ELLIPSE
  5
271985
330
18
100
AcDbEntity
  8
姿図
100
AcDbEllipse
 10
-4370.037031968202
 20
-18237.72526952815
 30
0.0
 11
0.03608385743163949
 21
0.05040796858488614
 31
3.441247287128919E-18
210
-3.231153159914874E-17
220
-4.513815278383452E-17
230
1.0
 40
0.9083744652357185
 41
0.6674062465670405
 42
2.671810903783109
  0
ELLIPSE
  5
271986
330
18
100
AcDbEntity
  8
姿図
100
AcDbEllipse
 10
-4370.037031968202
 20
-18238.32406626638
 30
0.0
 11
0.03608385743162927
 21
0.05040796858487177
 31
3.441247287127943E-18
210
-3.231153159914879E-17
220
-4.513815278383454E-17
230
1.0
 40
0.9083744652357183
 41
0.667406246567148
 42
2.671810903783036
  0
ELLIPSE
  5
271987
330
18
100
AcDbEntity
  8
姿図
100
AcDbEllipse
 10
-4370.037031968202
 20
-18238.92286300462
 30
0.0
 11
0.03608385743162927
 21
0.05040796858487177
 31
3.441247287127943E-18
210
-3.231153159914879E-17
220
-4.513815278383454E-17
230
1.0
 40
0.9083744652357183
 41
0.6674062465670241
 42
2.671810903782961
  0
LINE
  5
271988
330
18
100
AcDbEntity
  8
姿図
100
AcDbLine
 10
-4370.743368025984
 20
-18239.08401771254
 30
0.0
 11
-4370.55011393616
 21
-18239.49465392416
 31
0.0
  0
LINE
  5
271989
330
18
100
AcDbEntity
  8
姿図
100
AcDbLine
 10
-4370.603017165809
 20
-18239.58464255374
 30
0.0
 11
-4370.690464796335
 21
-18239.59282582119
 31
0.0
  0
LINE
  5
27198A
330
18
100
AcDbEntity
  8
姿図
100
AcDbLine
 10
-4370.603017165809
 20
-18238.98584581551
 30
0.0
 11
-4370.690464796335
 21
-18238.99402908295
 31
0.0
  0
LINE
  5
27198B
330
18
100
AcDbEntity
  8
姿図
100
AcDbLine
 10
-4370.743368025984
 20
-18238.4852209743
 30
0.0
 11
-4370.55011393616
 21
-18238.89585718593
 31
0.0
  0
LINE
  5
27198C
330
18
100
AcDbEntity
  8
姿図
100
AcDbLine
 10
-4370.603017165809
 20
-18238.38704907727
 30
0.0
 11
-4370.690464796335
 21
-18238.39523234472
 31
0.0
  0
LINE
  5
27198D
330
18
100
AcDbEntity
  8
姿図
100
AcDbLine
 10
-4370.743368025984
 20
-18237.88642423607
 30
0.0
 11
-4370.55011393616
 21
-18238.29706044769
 31
0.0
  0
LINE
  5
27198E
330
18
100
AcDbEntity
  8
姿図
100
AcDbLine
 10
-4370.603017165809
 20
-18237.78825233904
 30
0.0
 11
-4370.690464796335
 21
-18237.79643560649
 31
0.0
  0
LINE
  5
27198F
330
18
100
AcDbEntity
  8
姿図
100
AcDbLine
 10
-4370.743368025984
 20
-18242.67679814193
 30
0.0
 11
-4370.55011393616
 21
-18243.08743435356
 31
0.0
  0
LINE
  5
271990
330
18
100
AcDbEntity
  8
姿図
100
AcDbLine
 10
-4370.743985121345
 20
-18243.82554958648
 30
0.0
 11
-4370.742965328433
 21
-18243.8752472942
 31
0.0
  0
LINE
  5
271991
330
18
100
AcDbEntity
  8
姿図
100
AcDbLine
 10
-4370.603017165809
 20
-18243.77621972137
 30
0.0
 11
-4370.690464796335
 21
-18243.78440298882
 31
0.0
  0
LINE
  5
271992
330
18
100
AcDbEntity
  8
姿図
100
AcDbLine
 10
-4370.743368025984
 20
-18243.27559488016
 30
0.0
 11
-4370.55011393616
 21
-18243.68623109179
 31
0.0
  0
LINE
  5
271993
330
18
100
AcDbEntity
  8
姿図
100
AcDbLine
 10
-4370.603017165809
 20
-18243.17742298314
 30
0.0
 11
-4370.690464796335
 21
-18243.18560625059
 31
0.0
  0
LINE
  5
271994
330
18
100
AcDbEntity
  8
姿図
100
AcDbLine
 10
-4370.743368025984
 20
-18240.88040792723
 30
0.0
 11
-4370.55011393616
 21
-18241.29104413886
 31
0.0
  0
LINE
  5
271995
330
18
100
AcDbEntity
  8
姿図
100
AcDbLine
 10
-4370.603017165809
 20
-18242.5786262449
 30
0.0
 11
-4370.690464796335
 21
-18242.58680951235
 31
0.0
  0
LINE
  5
271996
330
18
100
AcDbEntity
  8
姿図
100
AcDbLine
 10
-4370.743368025984
 20
-18242.0780014037
 30
0.0
 11
-4370.55011393616
 21
-18242.48863761532
 31
0.0
  0
LINE
  5
271997
330
18
100
AcDbEntity
  8
姿図
100
AcDbLine
 10
-4370.603017165809
 20
-18241.97982950667
 30
0.0
 11
-4370.690464796335
 21
-18241.98801277412
 31
0.0
  0
LINE
  5
271998
330
18
100
AcDbEntity
  8
姿図
100
AcDbLine
 10
-4370.743368025984
 20
-18241.47920466547
 30
0.0
 11
-4370.55011393616
 21
-18241.88984087709
 31
0.0
  0
LINE
  5
271999
330
18
100
AcDbEntity
  8
姿図
100
AcDbLine
 10
-4370.603017165809
 20
-18241.38103276844
 30
0.0
 11
-4370.690464796335
 21
-18241.38921603589
 31
0.0
  0
LINE
  5
27199A
330
18
100
AcDbEntity
  8
姿図
100
AcDbLine
 10
-4370.603017165809
 20
-18240.78223603021
 30
0.0
 11
-4370.690464796335
 21
-18240.79041929765
 31
0.0
  0
LINE
  5
27199B
330
18
100
AcDbEntity
  8
姿図
100
AcDbLine
 10
-4370.743368025984
 20
-18240.281611189
 30
0.0
 11
-4370.55011393616
 21
-18240.69224740063
 31
0.0
  0
LINE
  5
27199C
330
18
100
AcDbEntity
  8
姿図
100
AcDbLine
 10
-4370.603017165809
 20
-18240.18343929197
 30
0.0
 11
-4370.690464796335
 21
-18240.19162255942
 31
0.0
  0
LINE
  5
27199D
330
18
100
AcDbEntity
  8
姿図
100
AcDbLine
 10
-4370.743368025984
 20
-18239.68281445077
 30
0.0
 11
-4370.55011393616
 21
-18240.09345066239
 31
0.0
  0
ELLIPSE
  5
27199E
330
18
100
AcDbEntity
  8
姿図
100
AcDbEllipse
 10
-4370.690464796336
 20
-18243.84428266264
 30
0.0
 11
0.0360838574316249
 21
0.05040796858487492
 31
3.441247287127944E-18
210
-3.231153159914466E-17
220
-4.513815278383751E-17
230
1.0
 40
0.9083744652357177
 41
0.6674062465666386
 42
1.830516517601721
  0
ELLIPSE
  5
27199F
330
18
100
AcDbEntity
  8
姿図
100
AcDbEllipse
 10
-4370.603017165809
 20
-18243.71634004755
 30
0.0
 11
0.03608385743162677
 21
0.05040796858486756
 31
6.882494574255338E-18
210
-6.462306319829805E-17
220
-9.027630556766862E-17
230
1.0
 40
0.9083744652357177
 41
3.808998900156779
 42
5.813403557372749
  0
ELLIPSE
  5
2719A0
330
18
100
AcDbEntity
  8
姿図
100
AcDbEllipse
 10
-4370.690464796336
 20
-18243.24548592441
 30
0.0
 11
0.0360838574316249
 21
0.05040796858487492
 31
3.441247287127944E-18
210
-3.231153159914466E-17
220
-4.513815278383751E-17
230
1.0
 40
0.9083744652357177
 41
0.6674062465669787
 42
2.671810903782915
  0
ELLIPSE
  5
2719A1
330
18
100
AcDbEntity
  8
姿図
100
AcDbEllipse
 10
-4370.603017165809
 20
-18243.11754330931
 30
0.0
 11
0.0360838574316279
 21
0.05040796858486921
 31
-3.441247287127782E-18
210
3.231153159914908E-17
220
4.513815278383431E-17
230
1.0
 40
0.9083744652357175
 41
3.80899890015719
 42
5.813403557373379
  0
ELLIPSE
  5
2719A2
330
18
100
AcDbEntity
  8
姿図
100
AcDbEllipse
 10
-4388.869615630155
 20
-18206.22010696764
 30
0.0
 11
-18.40183770962119
 21
37.63041245408251
 31
-2.325298166814627E-15
210
-2.438613733585013E-17
220
4.986786757879908E-17
230
1.0
 40
0.0898112888334005
 41
3.072939992536941
 42
3.073177647634316
  0
ELLIPSE
  5
2719A3
330
18
100
AcDbEntity
  8
姿図
100
AcDbEllipse
 10
-4370.690464796336
 20
-18242.64668918618
 30
0.0
 11
0.0360838574316249
 21
0.05040796858487492
 31
3.441247287127944E-18
210
-3.231153159914466E-17
220
-4.513815278383751E-17
230
1.0
 40
0.9083744652357177
 41
0.6674062465666698
 42
2.671810903782841
  0
ELLIPSE
  5
2719A4
330
18
100
AcDbEntity
  8
姿図
100
AcDbEllipse
 10
-4370.603017165809
 20
-18242.51874657108
 30
0.0
 11
0.0360838574316279
 21
0.05040796858486921
 31
-3.441247287127782E-18
210
3.231153159914908E-17
220
4.513815278383431E-17
230
1.0
 40
0.9083744652357175
 41
3.808998900156782
 42
5.813403557372797
  0
ELLIPSE
  5
2719A5
330
18
100
AcDbEntity
  8
姿図
100
AcDbEllipse
 10
-4370.690464796336
 20
-18242.04789244795
 30
0.0
 11
0.0360838574316249
 21
0.05040796858487492
 31
3.441247287127944E-18
210
-3.231153159914466E-17
220
-4.513815278383751E-17
230
1.0
 40
0.9083744652357177
 41
0.6674062465669538
 42
2.671810903782891
  0
ELLIPSE
  5
2719A6
330
18
100
AcDbEntity
  8
姿図
100
AcDbEllipse
 10
-4370.603017165809
 20
-18241.91994983285
 30
0.0
 11
0.0360838574316279
 21
0.05040796858486921
 31
-3.441247287127782E-18
210
3.231153159914908E-17
220
4.513815278383431E-17
230
1.0
 40
0.9083744652357175
 41
3.808998900157067
 42
5.813403557373014
  0
ELLIPSE
  5
2719A7
330
18
100
AcDbEntity
  8
姿図
100
AcDbEllipse
 10
-4370.690464796336
 20
-18241.44909570971
 30
0.0
 11
0.0360838574316249
 21
0.05040796858487492
 31
3.441247287127944E-18
210
-3.231153159914466E-17
220
-4.513815278383751E-17
230
1.0
 40
0.9083744652357177
 41
0.6674062465669787
 42
2.671810903782915
  0
ELLIPSE
  5
2719A8
330
18
100
AcDbEntity
  8
姿図
100
AcDbEllipse
 10
-4370.603017165809
 20
-18241.32115309461
 30
0.0
 11
0.0360838574316279
 21
0.05040796858486921
 31
-3.441247287127782E-18
210
3.231153159914908E-17
220
4.513815278383431E-17
230
1.0
 40
0.9083744652357175
 41
3.808998900156782
 42
5.813403557372797
  0
ELLIPSE
  5
2719A9
330
18
100
AcDbEntity
  8
姿図
100
AcDbEllipse
 10
-4370.690464796336
 20
-18240.85029897148
 30
0.0
 11
0.0360838574316249
 21
0.05040796858487492
 31
3.441247287127944E-18
210
-3.231153159914466E-17
220
-4.513815278383751E-17
230
1.0
 40
0.9083744652357177
 41
0.6674062465668864
 42
2.671810903783139
  0
ELLIPSE
  5
2719AA
330
18
100
AcDbEntity
  8
姿図
100
AcDbEllipse
 10
-4370.603017165809
 20
-18240.72235635638
 30
0.0
 11
0.0360838574316279
 21
0.05040796858486921
 31
-3.441247287127782E-18
210
3.231153159914908E-17
220
4.513815278383431E-17
230
1.0
 40
0.9083744652357175
 41
3.808998900157258
 42
5.81340355737299
  0
ELLIPSE
  5
2719AB
330
18
100
AcDbEntity
  8
姿図
100
AcDbEllipse
 10
-4370.690464796336
 20
-18240.25150223324
 30
0.0
 11
0.0360838574316249
 21
0.05040796858487492
 31
3.441247287127944E-18
210
-3.231153159914466E-17
220
-4.513815278383751E-17
230
1.0
 40
0.9083744652357177
 41
0.6674062465670783
 42
2.671810903783331
  0
ELLIPSE
  5
2719AC
330
18
100
AcDbEntity
  8
姿図
100
AcDbEllipse
 10
-4370.603017165809
 20
-18240.12355961815
 30
0.0
 11
0.0360838574316279
 21
0.05040796858486921
 31
-3.441247287127782E-18
210
3.231153159914908E-17
220
4.513815278383431E-17
230
1.0
 40
0.9083744652357175
 41
3.808998900157067
 42
5.813403557372797
  0
ELLIPSE
  5
2719AD
330
18
100
AcDbEntity
  8
姿図
100
AcDbEllipse
 10
-4370.690464796336
 20
-18239.65270549501
 30
0.0
 11
0.0360838574316249
 21
0.05040796858487492
 31
3.441247287127944E-18
210
-3.231153159914466E-17
220
-4.513815278383751E-17
230
1.0
 40
0.9083744652357177
 41
0.6674062465670099
 42
2.671810903783262
  0
ELLIPSE
  5
2719AE
330
18
100
AcDbEntity
  8
姿図
100
AcDbEllipse
 10
-4370.603017165809
 20
-18239.52476287992
 30
0.0
 11
0.0360838574316279
 21
0.05040796858486921
 31
-3.441247287127782E-18
210
3.231153159914908E-17
220
4.513815278383431E-17
230
1.0
 40
0.9083744652357175
 41
3.808998900156622
 42
5.81340355737292
  0
ELLIPSE
  5
2719AF
330
18
100
AcDbEntity
  8
姿図
100
AcDbEllipse
 10
-4370.690464796336
 20
-18239.05390875678
 30
0.0
 11
0.0360838574316249
 21
0.05040796858487492
 31
3.441247287127944E-18
210
-3.231153159914466E-17
220
-4.513815278383751E-17
230
1.0
 40
0.9083744652357177
 41
0.6674062465666947
 42
2.671810903783231
  0
ELLIPSE
  5
2719B0
330
18
100
AcDbEntity
  8
姿図
100
AcDbEllipse
 10
-4370.603017165809
 20
-18238.92596614168
 30
0.0
 11
0.0360838574316279
 21
0.05040796858486921
 31
-3.441247287127782E-18
210
3.231153159914908E-17
220
4.513815278383431E-17
230
1.0
 40
0.9083744652357175
 41
3.808998900156782
 42
5.813403557372797
  0
ELLIPSE
  5
2719B1
330
18
100
AcDbEntity
  8
姿図
100
AcDbEllipse
 10
-4370.690464796336
 20
-18238.45511201855
 30
0.0
 11
0.0360838574316249
 21
0.05040796858487492
 31
3.441247287127944E-18
210
-3.231153159914466E-17
220
-4.513815278383751E-17
230
1.0
 40
0.9083744652357177
 41
0.6674062465668553
 42
2.671810903783083
  0
ELLIPSE
  5
2719B2
330
18
100
AcDbEntity
  8
姿図
100
AcDbEllipse
 10
-4370.603017165809
 20
-18238.32716940345
 30
0.0
 11
0.0360838574316279
 21
0.05040796858486921
 31
-3.441247287127782E-18
210
3.231153159914908E-17
220
4.513815278383431E-17
230
1.0
 40
0.9083744652357175
 41
3.808998900156777
 42
5.813403557372797
  0
ELLIPSE
  5
2719B3
330
18
100
AcDbEntity
  8
姿図
100
AcDbEllipse
 10
-4370.690464796336
 20
-18237.85631528031
 30
0.0
 11
0.0360838574316249
 21
0.05040796858487492
 31
3.441247287127944E-18
210
-3.231153159914466E-17
220
-4.513815278383751E-17
230
1.0
 40
0.9083744652357177
 41
0.6674062465666901
 42
2.671810903782891
  0
ELLIPSE
  5
2719B4
330
18
100
AcDbEntity
  8
姿図
100
AcDbEllipse
 10
-4370.603017165809
 20
-18237.72837266522
 30
0.0
 11
0.03608385743162907
 21
0.05040796858487078
 31
3.441247287127869E-18
210
-3.231153159914888E-17
220
-4.513815278383401E-17
230
1.0
 40
0.908374465235718
 41
3.808998900156912
 42
5.813403557372872
  0
LINE
  5
2719B5
330
18
100
AcDbEntity
  8
姿図
100
AcDbLine
 10
-4370.037031968202
 20
-18239.46178006903
 30
0.0
 11
-4369.949584337674
 21
-18239.45359680158
 31
0.0
  0
LINE
  5
2719B6
330
18
100
AcDbEntity
  8
姿図
100
AcDbLine
 10
-4370.037031968202
 20
-18237.66538985433
 30
0.0
 11
-4369.949584337674
 21
-18237.65720658688
 31
0.0
  0
LINE
  5
2719B7
330
18
100
AcDbEntity
  8
姿図
100
AcDbLine
 10
-4370.037031968202
 20
-18238.26418659256
 30
0.0
 11
-4369.949584337674
 21
-18238.25600332511
 31
0.0
  0
LINE
  5
2719B8
330
18
100
AcDbEntity
  8
姿図
100
AcDbLine
 10
-4370.037031968202
 20
-18238.86298333079
 30
0.0
 11
-4369.949584337674
 21
-18238.85480006335
 31
0.0
  0
LINE
  5
2719B9
330
18
100
AcDbEntity
  8
姿図
100
AcDbLine
 10
-4370.037031968202
 20
-18243.05456049843
 30
0.0
 11
-4369.949584337674
 21
-18243.04637723098
 31
0.0
  0
LINE
  5
2719BA
330
18
100
AcDbEntity
  8
姿図
100
AcDbLine
 10
-4370.037031968202
 20
-18243.65335723666
 30
0.0
 11
-4369.949584337674
 21
-18243.64517396921
 31
0.0
  0
LINE
  5
2719BB
330
18
100
AcDbEntity
  8
姿図
100
AcDbLine
 10
-4370.037031968202
 20
-18241.25817028373
 30
0.0
 11
-4369.949584337674
 21
-18241.24998701628
 31
0.0
  0
LINE
  5
2719BC
330
18
100
AcDbEntity
  8
姿図
100
AcDbLine
 10
-4370.037031968202
 20
-18241.85696702196
 30
0.0
 11
-4369.949584337674
 21
-18241.84878375451
 31
0.0
  0
LINE
  5
2719BD
330
18
100
AcDbEntity
  8
姿図
100
AcDbLine
 10
-4370.037031968202
 20
-18242.45576376019
 30
0.0
 11
-4369.949584337674
 21
-18242.44758049274
 31
0.0
  0
LINE
  5
2719BE
330
18
100
AcDbEntity
  8
姿図
100
AcDbLine
 10
-4370.037031968202
 20
-18240.06057680726
 30
0.0
 11
-4369.949584337674
 21
-18240.05239353981
 31
0.0
  0
LINE
  5
2719BF
330
18
100
AcDbEntity
  8
姿図
100
AcDbLine
 10
-4370.037031968202
 20
-18240.6593735455
 30
0.0
 11
-4369.949584337674
 21
-18240.65119027805
 31
0.0
  0
ELLIPSE
  5
2719C0
330
18
100
AcDbEntity
  8
姿図
100
AcDbEllipse
 10
-4369.949584337676
 20
-18242.98649755715
 30
0.0
 11
0.03608385743162289
 21
0.05040796858487284
 31
0.0
210
0.0
220
0.0
230
1.0
 40
0.9083744652357184
 41
3.808998900157078
 42
5.8134035573731
  0
ELLIPSE
  5
2719C1
330
18
100
AcDbEntity
  8
姿図
100
AcDbEllipse
 10
-4369.949584337676
 20
-18243.58529429539
 30
0.0
 11
0.03608385743162289
 21
0.05040796858487284
 31
0.0
210
0.0
220
0.0
230
1.0
 40
0.9083744652357184
 41
3.808998900156706
 42
5.813403557372963
  0
ELLIPSE
  5
2719C2
330
18
100
AcDbEntity
  8
姿図
100
AcDbEllipse
 10
-4369.949584337676
 20
-18241.19010734245
 30
0.0
 11
0.03608385743162289
 21
0.05040796858487284
 31
0.0
210
0.0
220
0.0
230
1.0
 40
0.9083744652357184
 41
3.808998900156737
 42
5.813403557372994
  0
ELLIPSE
  5
2719C3
330
18
100
AcDbEntity
  8
姿図
100
AcDbEllipse
 10
-4369.949584337676
 20
-18241.78890408068
 30
0.0
 11
0.03608385743162289
 21
0.05040796858487284
 31
0.0
210
0.0
220
0.0
230
1.0
 40
0.9083744652357184
 41
3.808998900157022
 42
5.813403557372752
  0
ELLIPSE
  5
2719C4
330
18
100
AcDbEntity
  8
姿図
100
AcDbEllipse
 10
-4369.949584337676
 20
-18242.38770081892
 30
0.0
 11
0.03608385743162289
 21
0.05040796858487284
 31
0.0
210
0.0
220
0.0
230
1.0
 40
0.9083744652357184
 41
3.808998900156638
 42
5.813403557372579
  0
ELLIPSE
  5
2719C5
330
18
100
AcDbEntity
  8
姿図
100
AcDbEllipse
 10
-4369.949584337676
 20
-18239.39371712776
 30
0.0
 11
0.03608385743162289
 21
0.05040796858487284
 31
0.0
210
0.0
220
0.0
230
1.0
 40
0.9083744652357184
 41
3.808998900156422
 42
5.813403557372648
  0
ELLIPSE
  5
2719C6
330
18
100
AcDbEntity
  8
姿図
100
AcDbEllipse
 10
-4369.949584337676
 20
-18239.99251386599
 30
0.0
 11
0.03608385743162289
 21
0.05040796858487284
 31
0.0
210
0.0
220
0.0
230
1.0
 40
0.9083744652357184
 41
3.808998900156578
 42
5.813403557372803
  0
ELLIPSE
  5
2719C7
330
18
100
AcDbEntity
  8
姿図
100
AcDbEllipse
 10
-4369.949584337676
 20
-18240.59131060422
 30
0.0
 11
0.03608385743162289
 21
0.05040796858487284
 31
0.0
210
0.0
220
0.0
230
1.0
 40
0.9083744652357184
 41
3.808998900157022
 42
5.813403557373044
  0
ELLIPSE
  5
2719C8
330
18
100
AcDbEntity
  8
姿図
100
AcDbEllipse
 10
-4369.949584337676
 20
-18237.59732691306
 30
0.0
 11
0.03608385743162398
 21
0.05040796858487442
 31
-6.882494574255783E-18
210
6.462306319828891E-17
220
9.027630556767529E-17
230
1.0
 40
0.9083744652357181
 41
3.808998900156864
 42
5.813403557372728
  0
ELLIPSE
  5
2719C9
330
18
100
AcDbEntity
  8
姿図
100
AcDbEllipse
 10
-4369.949584337676
 20
-18238.19612365129
 30
0.0
 11
0.03608385743162398
 21
0.05040796858487442
 31
-6.882494574255783E-18
210
6.462306319828891E-17
220
9.027630556767529E-17
230
1.0
 40
0.9083744652357181
 41
3.808998900156512
 42
5.813403557373049
  0
ELLIPSE
  5
2719CA
330
18
100
AcDbEntity
  8
姿図
100
AcDbEllipse
 10
-4369.949584337676
 20
-18238.79492038952
 30
0.0
 11
0.03608385743162289
 21
0.05040796858487284
 31
0.0
210
0.0
220
0.0
230
1.0
 40
0.9083744652357184
 41
3.808998900156478
 42
5.813403557372704
  0
LINE
  5
2719CB
330
18
100
AcDbEntity
  8
姿図
100
AcDbLine
 10
-4373.78179447721
 20
-18240.63171286508
 30
0.0
 11
-4374.236256191396
 21
-18240.67424096711
 31
0.0
  0
ELLIPSE
  5
2719CC
330
18
100
AcDbEntity
  8
姿図
100
AcDbEllipse
 10
-4389.927476782195
 20
-18235.1231092873
 30
0.0
 11
10.71963824740441
 21
30.30595753130159
 31
0.0
210
0.0
220
0.0
230
1.0
 40
0.5306663220532382
 41
4.635006625735985
 42
4.718323401449883
  0
ELLIPSE
  5
2719CD
330
18
100
AcDbEntity
  8
姿図
100
AcDbEllipse
 10
-4389.382523489891
 20
-18232.57181369275
 30
0.0
 11
10.70555958841341
 21
30.27069213220318
 31
3.564704336882287E-15
210
-3.701743464227723E-17
220
-1.046692943349817E-16
230
1.0
 40
0.5306015190202691
 41
4.552834753258026
 42
4.631677754451532
  0
LINE
  5
2719CE
330
18
100
AcDbEntity
  8
姿図
100
AcDbLine
 10
-4372.479001736902
 20
-18239.43933803793
 30
0.0
 11
-4372.566449367429
 21
-18239.44752130538
 31
0.0
  0
LINE
  5
2719CF
330
18
100
AcDbEntity
  8
姿図
100
AcDbLine
 10
-4372.479001736902
 20
-18238.84054129969
 30
0.0
 11
-4372.566449367429
 21
-18238.84872456715
 31
0.0
  0
LINE
  5
2719D0
330
18
100
AcDbEntity
  8
姿図
100
AcDbLine
 10
-4372.479001736902
 20
-18238.24174456146
 30
0.0
 11
-4372.566449367429
 21
-18238.24992782891
 31
0.0
  0
LINE
  5
2719D1
330
18
100
AcDbEntity
  8
姿図
100
AcDbLine
 10
-4372.479001736902
 20
-18237.64294782323
 30
0.0
 11
-4372.566449367429
 21
-18237.65113109068
 31
0.0
  0
LINE
  5
2719D2
330
18
100
AcDbEntity
  8
姿図
100
AcDbLine
 10
-4372.479001736902
 20
-18243.63091520556
 30
0.0
 11
-4372.566449367429
 21
-18243.63909847301
 31
0.0
  0
LINE
  5
2719D3
330
18
100
AcDbEntity
  8
姿図
100
AcDbLine
 10
-4372.479001736902
 20
-18243.03211846733
 30
0.0
 11
-4372.566449367429
 21
-18243.04030173478
 31
0.0
  0
LINE
  5
2719D4
330
18
100
AcDbEntity
  8
姿図
100
AcDbLine
 10
-4372.479001736902
 20
-18242.4333217291
 30
0.0
 11
-4372.566449367429
 21
-18242.44150499655
 31
0.0
  0
LINE
  5
2719D5
330
18
100
AcDbEntity
  8
姿図
100
AcDbLine
 10
-4372.479001736902
 20
-18241.83452499086
 30
0.0
 11
-4372.566449367429
 21
-18241.84270825831
 31
0.0
  0
LINE
  5
2719D6
330
18
100
AcDbEntity
  8
姿図
100
AcDbLine
 10
-4372.479001736902
 20
-18241.23572825263
 30
0.0
 11
-4372.566449367429
 21
-18241.24391152008
 31
0.0
  0
LINE
  5
2719D7
330
18
100
AcDbEntity
  8
姿図
100
AcDbLine
 10
-4372.479001736902
 20
-18240.6369315144
 30
0.0
 11
-4372.566449367429
 21
-18240.64511478184
 31
0.0
  0
LINE
  5
2719D8
330
18
100
AcDbEntity
  8
姿図
100
AcDbLine
 10
-4372.479001736902
 20
-18240.03813477616
 30
0.0
 11
-4372.566449367429
 21
-18240.04631804361
 31
0.0
  0
ELLIPSE
  5
2719D9
330
18
100
AcDbEntity
  8
姿図
100
AcDbEllipse
 10
-4372.56644936743
 20
-18243.69897814684
 30
0.0
 11
0.0360838574316245
 21
0.05040796858487516
 31
-3.441247287127940E-18
210
3.231153159914451E-17
220
4.513815278383757E-17
230
1.0
 40
0.9083744652357189
 41
0.6674062465669471
 42
2.671810903782884
  0
ELLIPSE
  5
2719DA
330
18
100
AcDbEntity
  8
姿図
100
AcDbEllipse
 10
-4372.56644936743
 20
-18243.1001814086
 30
0.0
 11
0.0360838574316245
 21
0.05040796858487516
 31
-3.441247287127940E-18
210
3.231153159914451E-17
220
4.513815278383757E-17
230
1.0
 40
0.9083744652357189
 41
0.6674062465665955
 42
2.671810903782768
  0
ELLIPSE
  5
2719DB
330
18
100
AcDbEntity
  8
姿図
100
AcDbEllipse
 10
-4372.56644936743
 20
-18242.50138467037
 30
0.0
 11
0.0360838574316245
 21
0.05040796858487516
 31
-3.441247287127940E-18
210
3.231153159914451E-17
220
4.513815278383757E-17
230
1.0
 40
0.9083744652357189
 41
0.6674062465671594
 42
2.671810903782743
  0
ELLIPSE
  5
2719DC
330
18
100
AcDbEntity
  8
姿図
100
AcDbEllipse
 10
-4372.56644936743
 20
-18241.90258793213
 30
0.0
 11
0.0360838574316245
 21
0.05040796858487516
 31
-3.441247287127940E-18
210
3.231153159914451E-17
220
4.513815278383757E-17
230
1.0
 40
0.9083744652357189
 41
0.6674062465669471
 42
2.67181090378281
  0
ELLIPSE
  5
2719DD
330
18
100
AcDbEntity
  8
姿図
100
AcDbEllipse
 10
-4372.56644936743
 20
-18241.3037911939
 30
0.0
 11
0.0360838574316245
 21
0.05040796858487516
 31
-3.441247287127940E-18
210
3.231153159914451E-17
220
4.513815278383757E-17
230
1.0
 40
0.9083744652357189
 41
0.6674062465673514
 42
2.671810903782983
  0
ELLIPSE
  5
2719DE
330
18
100
AcDbEntity
  8
姿図
100
AcDbEllipse
 10
-4372.56644936743
 20
-18240.70499445567
 30
0.0
 11
0.0360838574316245
 21
0.05040796858487516
 31
-3.441247287127940E-18
210
3.231153159914451E-17
220
4.513815278383757E-17
230
1.0
 40
0.9083744652357189
 41
0.6674062465669721
 42
2.671810903782982
  0
ELLIPSE
  5
2719DF
330
18
100
AcDbEntity
  8
姿図
100
AcDbEllipse
 10
-4372.56644936743
 20
-18240.10619771744
 30
0.0
 11
0.0360838574316245
 21
0.05040796858487516
 31
-3.441247287127940E-18
210
3.231153159914451E-17
220
4.513815278383757E-17
230
1.0
 40
0.9083744652357189
 41
0.667406246567283
 42
2.671810903782915
  0
ELLIPSE
  5
2719E0
330
18
100
AcDbEntity
  8
姿図
100
AcDbEllipse
 10
-4372.56644936743
 20
-18239.5074009792
 30
0.0
 11
0.0360838574316245
 21
0.05040796858487516
 31
-3.441247287127940E-18
210
3.231153159914451E-17
220
4.513815278383757E-17
230
1.0
 40
0.9083744652357189
 41
0.6674062465668796
 42
2.671810903782743
  0
ELLIPSE
  5
2719E1
330
18
100
AcDbEntity
  8
姿図
100
AcDbEllipse
 10
-4372.56644936743
 20
-18238.90860424097
 30
0.0
 11
0.0360838574316245
 21
0.05040796858487516
 31
-3.441247287127940E-18
210
3.231153159914451E-17
220
4.513815278383757E-17
230
1.0
 40
0.9083744652357189
 41
0.6674062465670032
 42
2.671810903782915
  0
ELLIPSE
  5
2719E2
330
18
100
AcDbEntity
  8
姿図
100
AcDbEllipse
 10
-4372.56644936743
 20
-18238.30980750274
 30
0.0
 11
0.0360838574316245
 21
0.05040796858487516
 31
-3.441247287127940E-18
210
3.231153159914451E-17
220
4.513815278383757E-17
230
1.0
 40
0.9083744652357189
 41
0.6674062465670032
 42
2.671810903782866
  0
ELLIPSE
  5
2719E3
330
18
100
AcDbEntity
  8
姿図
100
AcDbEllipse
 10
-4372.56644936743
 20
-18237.71101076451
 30
0.0
 11
0.0360838574316245
 21
0.05040796858487516
 31
-3.441247287127940E-18
210
3.231153159914451E-17
220
4.513815278383757E-17
230
1.0
 40
0.9083744652357189
 41
0.6674062465668796
 42
2.671810903783108
  0
ELLIPSE
  5
2719E4
330
18
100
AcDbEntity
  8
姿図
100
AcDbEllipse
 10
-4389.665743078382
 20
-18243.56832380447
 30
0.0
 11
-19.52014158921408
 21
-5.602137199480597E-13
 31
1.083585531814428E-15
210
5.551115123125783E-17
220
1.593129249997122E-30
230
1.0
 40
0.2588190451025203
 41
3.729026483883834
 42
3.761863642495804
  0
LINE
  5
2719E5
330
18
100
AcDbEntity
  8
姿図
100
AcDbLine
 10
-4372.619352597078
 20
-18243.72908710259
 30
0.0
 11
-4372.426098507253
 21
-18244.13972331422
 31
0.0
  0
LINE
  5
2719E6
330
18
100
AcDbEntity
  8
姿図
100
AcDbLine
 10
-4372.619352597078
 20
-18238.93871319672
 30
0.0
 11
-4372.426098507253
 21
-18239.34934940835
 31
0.0
  0
LINE
  5
2719E7
330
18
100
AcDbEntity
  8
姿図
100
AcDbLine
 10
-4372.619352597078
 20
-18239.53750993495
 30
0.0
 11
-4372.426098507253
 21
-18239.94814614658
 31
0.0
  0
LINE
  5
2719E8
330
18
100
AcDbEntity
  8
姿図
100
AcDbLine
 10
-4372.619352597078
 20
-18238.33991645849
 30
0.0
 11
-4372.426098507253
 21
-18238.75055267012
 31
0.0
  0
LINE
  5
2719E9
330
18
100
AcDbEntity
  8
姿図
100
AcDbLine
 10
-4372.619352597078
 20
-18237.74111972026
 30
0.0
 11
-4372.426098507253
 21
-18238.15175593189
 31
0.0
  0
LINE
  5
2719EA
330
18
100
AcDbEntity
  8
姿図
100
AcDbLine
 10
-4372.619352597078
 20
-18242.53149362612
 30
0.0
 11
-4372.426098507253
 21
-18242.94212983775
 31
0.0
  0
LINE
  5
2719EB
330
18
100
AcDbEntity
  8
姿図
100
AcDbLine
 10
-4372.619352597078
 20
-18243.13029036436
 30
0.0
 11
-4372.426098507253
 21
-18243.54092657598
 31
0.0
  0
LINE
  5
2719EC
330
18
100
AcDbEntity
  8
姿図
100
AcDbLine
 10
-4372.619352597078
 20
-18240.73510341143
 30
0.0
 11
-4372.426098507253
 21
-18241.14573962305
 31
0.0
  0
LINE
  5
2719ED
330
18
100
AcDbEntity
  8
姿図
100
AcDbLine
 10
-4372.619352597078
 20
-18241.93269688789
 30
0.0
 11
-4372.426098507253
 21
-18242.34333309952
 31
0.0
  0
LINE
  5
2719EE
330
18
100
AcDbEntity
  8
姿図
100
AcDbLine
 10
-4372.619352597078
 20
-18241.33390014966
 30
0.0
 11
-4372.426098507253
 21
-18241.74453636129
 31
0.0
  0
LINE
  5
2719EF
330
18
100
AcDbEntity
  8
姿図
100
AcDbLine
 10
-4372.619352597078
 20
-18240.13630667319
 30
0.0
 11
-4372.426098507253
 21
-18240.54694288482
 31
0.0
  0
ELLIPSE
  5
2719F0
330
18
100
AcDbEntity
  8
姿図
100
AcDbEllipse
 10
-4372.479001736902
 20
-18243.57103553174
 30
0.0
 11
0.03608385743162643
 21
0.05040796858486774
 31
3.441247287127649E-18
210
-3.231153159914861E-17
220
-4.513815278383428E-17
230
1.0
 40
0.9083744652357185
 41
3.808998900156581
 42
5.813403557372885
  0
ELLIPSE
  5
2719F1
330
18
100
AcDbEntity
  8
姿図
100
AcDbEllipse
 10
-4372.479001736902
 20
-18242.97223879351
 30
0.0
 11
0.03608385743162643
 21
0.05040796858486774
 31
3.441247287127649E-18
210
-3.231153159914861E-17
220
-4.513815278383428E-17
230
1.0
 40
0.9083744652357185
 41
3.808998900156897
 42
5.813403557372916
  0
ELLIPSE
  5
2719F2
330
18
100
AcDbEntity
  8
姿図
100
AcDbEllipse
 10
-4372.479001736902
 20
-18242.37344205527
 30
0.0
 11
0.03608385743162643
 21
0.05040796858486774
 31
3.441247287127649E-18
210
-3.231153159914861E-17
220
-4.513815278383428E-17
230
1.0
 40
0.9083744652357185
 41
3.808998900156773
 42
5.813403557372792
  0
ELLIPSE
  5
2719F3
330
18
100
AcDbEntity
  8
姿図
100
AcDbEllipse
 10
-4372.479001736902
 20
-18241.77464531704
 30
0.0
 11
0.0360838574316276
 21
0.05040796858486941
 31
3.441247287127780E-18
210
-3.231153159914860E-17
220
-4.513815278383461E-17
230
1.0
 40
0.9083744652357183
 41
3.808998900156934
 42
5.813403557373269
  0
ELLIPSE
  5
2719F4
330
18
100
AcDbEntity
  8
姿図
100
AcDbEllipse
 10
-4372.479001736902
 20
-18241.17584857881
 30
0.0
 11
0.0360838574316276
 21
0.05040796858486941
 31
3.441247287127780E-18
210
-3.231153159914860E-17
220
-4.513815278383461E-17
230
1.0
 40
0.9083744652357183
 41
3.808998900156452
 42
5.81340355737276
  0
ELLIPSE
  5
2719F5
330
18
100
AcDbEntity
  8
姿図
100
AcDbEllipse
 10
-4372.479001736902
 20
-18240.57705184057
 30
0.0
 11
0.0360838574316276
 21
0.05040796858486941
 31
3.441247287127780E-18
210
-3.231153159914860E-17
220
-4.513815278383461E-17
230
1.0
 40
0.9083744652357183
 41
3.808998900156965
 42
5.813403557372935
  0
ELLIPSE
  5
2719F6
330
18
100
AcDbEntity
  8
姿図
100
AcDbEllipse
 10
-4372.479001736902
 20
-18239.97825510234
 30
0.0
 11
0.0360838574316276
 21
0.05040796858486941
 31
3.441247287127780E-18
210
-3.231153159914860E-17
220
-4.513815278383461E-17
230
1.0
 40
0.9083744652357183
 41
3.808998900157052
 42
5.813403557372792
  0
ELLIPSE
  5
2719F7
330
18
100
AcDbEntity
  8
姿図
100
AcDbEllipse
 10
-4372.479001736902
 20
-18239.37945836411
 30
0.0
 11
0.0360838574316276
 21
0.05040796858486941
 31
3.441247287127780E-18
210
-3.231153159914860E-17
220
-4.513815278383461E-17
230
1.0
 40
0.9083744652357183
 41
3.808998900156897
 42
5.813403557372867
  0
ELLIPSE
  5
2719F8
330
18
100
AcDbEntity
  8
姿図
100
AcDbEllipse
 10
-4372.479001736902
 20
-18238.78066162587
 30
0.0
 11
0.0360838574316276
 21
0.05040796858486941
 31
3.441247287127780E-18
210
-3.231153159914860E-17
220
-4.513815278383461E-17
230
1.0
 40
0.9083744652357183
 41
3.808998900157176
 42
5.813403557372916
  0
ELLIPSE
  5
2719F9
330
18
100
AcDbEntity
  8
姿図
100
AcDbEllipse
 10
-4372.479001736902
 20
-18238.18186488764
 30
0.0
 11
0.0360838574316276
 21
0.05040796858486941
 31
3.441247287127780E-18
210
-3.231153159914860E-17
220
-4.513815278383461E-17
230
1.0
 40
0.9083744652357183
 41
3.808998900156742
 42
5.813403557372712
  0
ELLIPSE
  5
2719FA
330
18
100
AcDbEntity
  8
姿図
100
AcDbEllipse
 10
-4372.479001736902
 20
-18237.58306814941
 30
0.0
 11
0.0360838574316276
 21
0.05040796858486941
 31
3.441247287127780E-18
210
-3.231153159914860E-17
220
-4.513815278383461E-17
230
1.0
 40
0.9083744652357183
 41
3.808998900156483
 42
5.813403557372792
  0
ELLIPSE
  5
2719FB
330
18
100
AcDbEntity
  8
姿図
100
AcDbEllipse
 10
-4371.825568908769
 20
-18237.45202239725
 30
0.0
 11
0.03608385743162289
 21
0.05040796858487284
 31
0.0
210
0.0
220
0.0
230
1.0
 40
0.9083744652357184
 41
3.808998900156913
 42
5.813403557372654
  0
ELLIPSE
  5
2719FC
330
18
100
AcDbEntity
  8
姿図
100
AcDbEllipse
 10
-4370.037031968202
 20
-18237.12647278992
 30
0.0
 11
0.03608385743163949
 21
0.05040796858488614
 31
3.441247287128919E-18
210
-3.231153159914874E-17
220
-4.513815278383452E-17
230
1.0
 40
0.9083744652357185
 41
0.6674062465672639
 42
2.671810903783432
  0
LINE
  5
2719FD
330
18
100
AcDbEntity
  8
姿図
100
AcDbLine
 10
-4370.603017165809
 20
-18237.1894556008
 30
0.0
 11
-4370.690464796335
 21
-18237.19763886825
 31
0.0
  0
ELLIPSE
  5
2719FE
330
18
100
AcDbEntity
  8
姿図
100
AcDbEllipse
 10
-4370.690464796336
 20
-18237.25751854208
 30
0.0
 11
0.0360838574316351
 21
0.05040796858488925
 31
3.441247287128919E-18
210
-3.231153159914480E-17
220
-4.513815278383737E-17
230
1.0
 40
0.908374465235718
 41
0.6674062465670622
 42
2.671810903783181
  0
ELLIPSE
  5
2719FF
330
18
100
AcDbEntity
  8
姿図
100
AcDbEllipse
 10
-4370.603017165809
 20
-18237.12957592699
 30
0.0
 11
0.03608385743162907
 21
0.05040796858487078
 31
3.441247287127869E-18
210
-3.231153159914888E-17
220
-4.513815278383401E-17
230
1.0
 40
0.908374465235718
 41
3.80899890015716
 42
5.813403557372792
  0
LINE
  5
271A00
330
18
100
AcDbEntity
  8
姿図
100
AcDbLine
 10
-4370.037031968202
 20
-18237.06659311609
 30
0.0
 11
-4369.949584337674
 21
-18237.05840984864
 31
0.0
  0
LINE
  5
271A01
330
18
100
AcDbEntity
  8
姿図
100
AcDbLine
 10
-4372.479001736902
 20
-18237.044151085
 30
0.0
 11
-4372.566449367429
 21
-18237.05233435245
 31
0.0
  0
ELLIPSE
  5
271A02
330
18
100
AcDbEntity
  8
姿図
100
AcDbEllipse
 10
-4372.56644936743
 20
-18237.11221402627
 30
0.0
 11
0.0360838574316245
 21
0.05040796858487516
 31
-3.441247287127940E-18
210
3.231153159914451E-17
220
4.513815278383757E-17
230
1.0
 40
0.9083744652357189
 41
0.6674062465669471
 42
2.671810903782859
  0
ELLIPSE
  5
271A03
330
18
100
AcDbEntity
  8
姿図
100
AcDbEllipse
 10
-4377.379334380198
 20
-18244.13621502009
 30
0.0
 11
-0.1182994278034044
 21
0.3851912980395416
 31
2.236810736633289E-17
210
1.629723296148895E-17
220
-5.306494237082089E-17
230
1.0
 40
0.7386189460394769
 41
4.318335530375434
 42
5.623669093019634
  0
ELLIPSE
  5
271A04
330
18
100
AcDbEntity
  8
姿図
100
AcDbEllipse
 10
-4377.379334380198
 20
-18244.13621502009
 30
0.0
 11
-0.1182994278034044
 21
0.3851912980395416
 31
2.236810736633289E-17
210
1.629723296148895E-17
220
-5.306494237082089E-17
230
1.0
 40
0.7386189460394769
 41
3.822881783457571
 42
4.318335530375473
  0
LINE
  5
271A05
330
18
100
AcDbEntity
  8
姿図
100
AcDbLine
 10
-4371.568713916858
 20
-18244.83414143437
 30
0.0
 11
-4371.506245192019
 21
-18235.41770894592
 31
0.0
  0
LINE
  5
271A06
330
18
100
AcDbEntity
  8
姿図
100
AcDbLine
 10
-4373.425344769475
 20
-18240.57389585878
 30
0.0
 11
-4373.382229763113
 21
-18234.07481095365
 31
0.0
  0
LINE
  5
271A07
330
18
100
AcDbEntity
  8
姿図
100
AcDbLine
 10
-4371.772665679119
 20
-18237.42191344149
 30
0.0
 11
-4371.965919768943
 21
-18237.01127722987
 31
0.0
  0
ELLIPSE
  5
271A08
330
18
100
AcDbEntity
  8
姿図
100
AcDbEllipse
 10
-4369.949584337676
 20
-18236.99853017482
 30
0.0
 11
0.03608385743162398
 21
0.05040796858487442
 31
-6.882494574255783E-18
210
6.462306319828891E-17
220
9.027630556767529E-17
230
1.0
 40
0.9083744652357181
 41
3.808998900156461
 42
5.813403557372752
  0
LINE
  5
271A09
330
18
100
AcDbEntity
  8
姿図
100
AcDbLine
 10
-4370.743368025984
 20
-18236.6888307596
 30
0.0
 11
-4370.55011393616
 21
-18237.09946697123
 31
0.0
  0
ELLIPSE
  5
271A0A
330
18
100
AcDbEntity
  8
姿図
100
AcDbEllipse
 10
-4372.479001736902
 20
-18236.98427141117
 30
0.0
 11
0.0360838574316276
 21
0.05040796858486941
 31
3.441247287127780E-18
210
-3.231153159914860E-17
220
-4.513815278383461E-17
230
1.0
 40
0.9083744652357183
 41
3.808998900156551
 42
5.81340355737281
  0
LINE
  5
271A0B
330
18
100
AcDbEntity
  8
姿図
100
AcDbLine
 10
-4397.932480782416
 20
-18236.46245081901
 30
0.0
 11
-4397.768248273635
 21
-18236.58001442252
 31
0.0
  0
ELLIPSE
  5
271A0C
330
18
100
AcDbEntity
  8
姿図
100
AcDbEllipse
 10
-4389.665743078382
 20
-18241.02343766697
 30
0.0
 11
-19.46495332954688
 21
-3.727800789551191E-14
 31
2.161043935971704E-15
210
1.110223024625157E-16
220
2.126226658603509E-31
230
1.0
 40
0.2588190451025204
 41
5.151017883384803
 42
5.195965363531555
  0
LINE
  5
271A0D
330
18
100
AcDbEntity
  8
姿図
100
AcDbLine
 10
-4393.417808832573
 20
-18236.23756174415
 30
0.0
 11
-4393.539847413132
 21
-18236.15020208921
 31
0.0
  0
ELLIPSE
  5
271A0E
330
18
100
AcDbEntity
  8
姿図
100
AcDbEllipse
 10
-4389.665743078382
 20
-18241.02343766697
 30
0.0
 11
-19.46495332954688
 21
-3.727800789551191E-14
 31
2.161043935971704E-15
210
1.110223024625157E-16
220
2.126226658603509E-31
230
1.0
 40
0.2588190451025204
 41
4.922687502237706
 42
4.96763498238446
  0
ELLIPSE
  5
271A0F
330
18
100
AcDbEntity
  8
姿図
100
AcDbEllipse
 10
-4393.59634961696
 20
-18236.49094628769
 30
0.0
 11
-0.1688503498614174
 21
-0.2599946497138507
 31
-5.162742770270530E-17
210
-9.070358557838995E-17
220
-1.396647799640267E-16
230
1.0
 40
0.913939136448976
 41
3.038071040901397
 42
3.100190541308247
  0
LINE
  5
271A10
330
18
100
AcDbEntity
  8
姿図
100
AcDbLine
 10
-4408.344391229163
 20
-18236.93972295073
 30
0.0
 11
-4409.09022238442
 21
-18237.00951713245
 31
0.0
  0
ELLIPSE
  5
271A11
330
18
100
AcDbEntity
  8
姿図
100
AcDbEllipse
 10
-4389.665743078382
 20
-18243.11922625079
 30
0.0
 11
-19.51040248456692
 21
-5.593926923496595E-13
 31
1.083044902903503E-15
210
5.551115123125783E-17
220
1.591588506041613E-30
230
1.0
 40
0.2588190451025204
 41
4.96784917457373
 42
5.150803691193217
  0
ELLIPSE
  5
271A12
330
18
100
AcDbEntity
  8
姿図
100
AcDbEllipse
 10
-4396.136573037625
 20
-18243.27754470454
 30
0.0
 11
0.2195054548198
 21
0.337993044628034
 31
4.474377067567787E-17
210
-6.046905705224806E-17
220
-9.310985330935856E-17
230
1.0
 40
0.9139391364489743
 41
0.6260041342852541
 42
2.752838026093648
  0
ELLIPSE
  5
271A13
330
18
100
AcDbEntity
  8
姿図
100
AcDbEllipse
 10
-4389.665743078383
 20
-18242.07133195888
 30
0.0
 11
-17.82270000000001
 21
-3.393499981019237E-13
 31
-9.893585950493393E-16
210
-5.551115123125783E-17
220
-1.056950353479716E-30
230
1.0
 40
0.258819045102515
 41
4.992404269734823
 42
5.183640316118966
  0
ELLIPSE
  5
271A14
330
18
100
AcDbEntity
  8
姿図
100
AcDbEllipse
 10
-4396.136573037625
 20
-18243.27754470454
 30
0.0
 11
0.2195054548198
 21
0.337993044628034
 31
4.474377067567787E-17
210
-6.046905705224806E-17
220
-9.310985330935856E-17
230
1.0
 40
0.9139391364489743
 41
0.2886548266583326
 42
0.6260041342852678
  0
ELLIPSE
  5
271A15
330
18
100
AcDbEntity
  8
姿図
100
AcDbEllipse
 10
-4389.665743078383
 20
-18241.56235473138
 30
0.0
 11
-17.80890179997573
 21
-3.376043869291861E-13
 31
-9.885926410810724E-16
210
-5.551115123125783E-17
220
-1.052328121613185E-30
230
1.0
 40
0.258819045102515
 41
4.992407196796089
 42
5.184287718027582
  0
LINE
  5
271A16
330
18
100
AcDbEntity
  8
姿図
100
AcDbLine
 10
-4408.478673792878
 20
-18237.35910334992
 30
0.0
 11
-4408.428174314218
 21
-18244.96186003447
 31
0.0
  0
ELLIPSE
  5
271A17
330
18
100
AcDbEntity
  8
姿図
100
AcDbEllipse
 10
-4408.014947269686
 20
-18237.69105566262
 30
0.0
 11
0.0558345787801031
 21
-0.5551391896356208
 31
0.0
210
0.0
220
0.0
230
1.0
 40
0.3266547503873695
 41
1.290961286430747
 42
2.861757613225721
  0
LINE
  5
271A18
330
18
100
AcDbEntity
  8
姿図
100
AcDbLine
 10
-4409.232210327858
 20
-18237.5538147226
 30
0.0
 11
-4409.231385897455
 21
-18237.42954144444
 31
0.0
  0
LINE
  5
271A19
330
18
100
AcDbEntity
  8
姿図
100
AcDbLine
 10
-4407.558820477644
 20
-18244.15548753364
 30
0.0
 11
-4407.36556638782
 21
-18243.70868224818
 31
0.0
  0
LINE
  5
271A1A
330
18
100
AcDbEntity
  8
姿図
100
AcDbLine
 10
-4407.418469617469
 20
-18244.22739162631
 30
0.0
 11
-4407.505917247995
 21
-18244.23557489376
 31
0.0
  0
LINE
  5
271A1B
330
18
100
AcDbEntity
  8
姿図
100
AcDbLine
 10
-4407.542001105427
 20
-18244.22610318852
 30
0.0
 11
-4407.450416366342
 21
-18244.29166287602
 31
0.0
  0
LINE
  5
271A1C
330
18
100
AcDbEntity
  8
姿図
100
AcDbLine
 10
-4407.558820477644
 20
-18239.36511362778
 30
0.0
 11
-4407.356225756763
 21
-18238.89671271487
 31
0.0
  0
LINE
  5
271A1D
330
18
100
AcDbEntity
  8
姿図
100
AcDbLine
 10
-4407.418469617469
 20
-18239.43701772044
 30
0.0
 11
-4407.505917247995
 21
-18239.44520098789
 31
0.0
  0
LINE
  5
271A1E
330
18
100
AcDbEntity
  8
姿図
100
AcDbLine
 10
-4407.558820477644
 20
-18239.96391036602
 30
0.0
 11
-4407.36556638782
 21
-18239.51710508055
 31
0.0
  0
LINE
  5
271A1F
330
18
100
AcDbEntity
  8
姿図
100
AcDbLine
 10
-4407.542001105427
 20
-18239.43572928265
 30
0.0
 11
-4407.380402873187
 21
-18239.5514071752
 31
0.0
  0
LINE
  5
271A20
330
18
100
AcDbEntity
  8
姿図
100
AcDbLine
 10
-4407.558820477644
 20
-18242.95789405718
 30
0.0
 11
-4407.387454719168
 21
-18242.56169480104
 31
0.0
  0
LINE
  5
271A21
330
18
100
AcDbEntity
  8
姿図
100
AcDbLine
 10
-4407.418469617469
 20
-18243.02979814984
 30
0.0
 11
-4407.505917247995
 21
-18243.03798141729
 31
0.0
  0
LINE
  5
271A22
330
18
100
AcDbEntity
  8
姿図
100
AcDbLine
 10
-4407.558820477644
 20
-18243.55669079541
 30
0.0
 11
-4407.36556638782
 21
-18243.10988550995
 31
0.0
  0
LINE
  5
271A23
330
18
100
AcDbEntity
  8
姿図
100
AcDbLine
 10
-4407.418469617469
 20
-18243.62859488807
 30
0.0
 11
-4407.505917247995
 21
-18243.63677815552
 31
0.0
  0
LINE
  5
271A24
330
18
100
AcDbEntity
  8
姿図
100
AcDbLine
 10
-4407.542001105427
 20
-18243.02850971205
 30
0.0
 11
-4407.380402873187
 21
-18243.14418760459
 31
0.0
  0
LINE
  5
271A25
330
18
100
AcDbEntity
  8
姿図
100
AcDbLine
 10
-4407.542001105427
 20
-18243.62730645028
 30
0.0
 11
-4407.380402873187
 21
-18243.74298434283
 31
0.0
  0
LINE
  5
271A26
330
18
100
AcDbEntity
  8
姿図
100
AcDbLine
 10
-4407.558820477644
 20
-18241.16150384248
 30
0.0
 11
-4407.36556638782
 21
-18240.71469855702
 31
0.0
  0
LINE
  5
271A27
330
18
100
AcDbEntity
  8
姿図
100
AcDbLine
 10
-4407.429520915161
 20
-18241.23444210524
 30
0.0
 11
-4407.505917247995
 21
-18241.24159120259
 31
0.0
  0
LINE
  5
271A28
330
18
100
AcDbEntity
  8
姿図
100
AcDbLine
 10
-4407.558820477644
 20
-18241.76030058071
 30
0.0
 11
-4407.475208932406
 21
-18241.56698989646
 31
0.0
  0
LINE
  5
271A29
330
18
100
AcDbEntity
  8
姿図
100
AcDbLine
 10
-4407.433750977024
 20
-18242.43243142694
 30
0.0
 11
-4407.505917247995
 21
-18242.43918467905
 31
0.0
  0
LINE
  5
271A2A
330
18
100
AcDbEntity
  8
姿図
100
AcDbLine
 10
-4407.474206495948
 20
-18241.53001371346
 30
0.0
 11
-4407.488004356317
 21
-18242.03896588339
 31
0.0
  0
LINE
  5
271A2B
330
18
100
AcDbEntity
  8
姿図
100
AcDbLine
 10
-4407.542001105427
 20
-18241.23211949735
 30
0.0
 11
-4407.445963851492
 21
-18241.30086645694
 31
0.0
  0
LINE
  5
271A2C
330
18
100
AcDbEntity
  8
姿図
100
AcDbLine
 10
-4407.542001105427
 20
-18242.42971297382
 30
0.0
 11
-4407.399435818082
 21
-18242.53176639211
 31
0.0
  0
LINE
  5
271A2D
330
18
100
AcDbEntity
  8
姿図
100
AcDbLine
 10
-4407.558820477644
 20
-18240.56270710425
 30
0.0
 11
-4407.36556638782
 21
-18240.11590181878
 31
0.0
  0
LINE
  5
271A2E
330
18
100
AcDbEntity
  8
姿図
100
AcDbLine
 10
-4407.418469617469
 20
-18240.63461119691
 30
0.0
 11
-4407.505917247995
 21
-18240.64279446436
 31
0.0
  0
LINE
  5
271A2F
330
18
100
AcDbEntity
  8
姿図
100
AcDbLine
 10
-4407.542001105427
 20
-18240.63332275912
 30
0.0
 11
-4407.380402873187
 21
-18240.74900065166
 31
0.0
  0
LINE
  5
271A30
330
18
100
AcDbEntity
  8
姿図
100
AcDbLine
 10
-4407.418469617469
 20
-18240.03581445867
 30
0.0
 11
-4407.505917247995
 21
-18240.04399772613
 31
0.0
  0
LINE
  5
271A31
330
18
100
AcDbEntity
  8
姿図
100
AcDbLine
 10
-4407.542001105427
 20
-18240.03452602089
 30
0.0
 11
-4407.380402873187
 21
-18240.15020391343
 31
0.0
  0
LINE
  5
271A32
330
18
100
AcDbEntity
  8
姿図
100
AcDbLine
 10
-4407.780994710446
 20
-18244.48818064211
 30
0.0
 11
-4407.825240964744
 21
-18237.826854336
 31
0.0
  0
ELLIPSE
  5
271A33
330
18
100
AcDbEntity
  8
姿図
100
AcDbEllipse
 10
-4389.382523489891
 20
-18232.57181369275
 30
0.0
 11
10.70555958841341
 21
30.27069213220318
 31
3.564704336882287E-15
210
-3.701743464227723E-17
220
-1.046692943349817E-16
230
1.0
 40
0.5306015190202691
 41
2.132850903174913
 42
2.178852095897546
  0
LINE
  5
271A34
330
18
100
AcDbEntity
  8
姿図
100
AcDbLine
 10
-4408.678571280941
 20
-18243.89732058916
 30
0.0
 11
-4409.133032995127
 21
-18243.93984869118
 31
0.0
  0
LINE
  5
271A35
330
18
100
AcDbEntity
  8
姿図
100
AcDbLine
 10
-4409.434805048738
 20
-18244.01018301784
 30
0.0
 11
-4409.241550958914
 21
-18243.56337773237
 31
0.0
  0
ELLIPSE
  5
271A36
330
18
100
AcDbEntity
  8
姿図
100
AcDbEllipse
 10
-4389.665743078382
 20
-18243.56832380447
 30
0.0
 11
-19.05527350427758
 21
-3.860897617758608E-14
 31
-1.057780169248933E-15
210
-5.551115123125783E-17
220
-1.124743087522146E-31
230
1.0
 40
0.2588190451025201
 41
0.0667579305343701
 42
0.1004537543484347
  0
LINE
  5
271A37
330
18
100
AcDbEntity
  8
姿図
100
AcDbLine
 10
-4409.41798567652
 20
-18244.67959541094
 30
0.0
 11
-4409.256387444281
 21
-18244.79527330348
 31
0.0
  0
LINE
  5
271A38
330
18
100
AcDbEntity
  8
姿図
100
AcDbLine
 10
-4409.434805048738
 20
-18245.2077764943
 30
0.0
 11
-4409.241550958914
 21
-18244.76097120884
 31
0.0
  0
LINE
  5
271A39
330
18
100
AcDbEntity
  8
姿図
100
AcDbLine
 10
-4409.294454188563
 20
-18245.27968058697
 30
0.0
 11
-4409.381901819089
 21
-18245.28786385441
 31
0.0
  0
LINE
  5
271A3A
330
18
100
AcDbEntity
  8
姿図
100
AcDbLine
 10
-4409.294454188563
 20
-18244.0820871105
 30
0.0
 11
-4409.381901819089
 21
-18244.09027037795
 31
0.0
  0
LINE
  5
271A3B
330
18
100
AcDbEntity
  8
姿図
100
AcDbLine
 10
-4409.434805048738
 20
-18244.60897975607
 30
0.0
 11
-4409.241550958914
 21
-18244.16217447061
 31
0.0
  0
LINE
  5
271A3C
330
18
100
AcDbEntity
  8
姿図
100
AcDbLine
 10
-4409.294454188563
 20
-18244.68088384873
 30
0.0
 11
-4409.381901819089
 21
-18244.68906711618
 31
0.0
  0
LINE
  5
271A3D
330
18
100
AcDbEntity
  8
姿図
100
AcDbLine
 10
-4409.41798567652
 20
-18244.08079867271
 30
0.0
 11
-4409.256387444281
 21
-18244.19647656525
 31
0.0
  0
LINE
  5
271A3E
330
18
100
AcDbEntity
  8
姿図
100
AcDbLine
 10
-4409.434805048738
 20
-18245.80657323253
 30
0.0
 11
-4409.241550958914
 21
-18245.35976794707
 31
0.0
  0
LINE
  5
271A3F
330
18
100
AcDbEntity
  8
姿図
100
AcDbLine
 10
-4409.294454188563
 20
-18245.8784773252
 30
0.0
 11
-4409.381901819089
 21
-18245.88666059265
 31
0.0
  0
LINE
  5
271A40
330
18
100
AcDbEntity
  8
姿図
100
AcDbLine
 10
-4409.41798567652
 20
-18245.87718888741
 30
0.0
 11
-4409.256387444281
 21
-18245.99286677995
 31
0.0
  0
LINE
  5
271A41
330
18
100
AcDbEntity
  8
姿図
100
AcDbLine
 10
-4409.41798567652
 20
-18245.27839214917
 30
0.0
 11
-4409.256387444281
 21
-18245.39407004172
 31
0.0
  0
LINE
  5
271A42
330
18
100
AcDbEntity
  8
姿図
100
AcDbLine
 10
-4409.294454188563
 20
-18246.47727406343
 30
0.0
 11
-4409.381901819089
 21
-18246.48545733088
 31
0.0
  0
LINE
  5
271A43
330
18
100
AcDbEntity
  8
姿図
100
AcDbLine
 10
-4409.434805048738
 20
-18246.40536997077
 30
0.0
 11
-4409.241550958914
 21
-18245.95856468531
 31
0.0
  0
ELLIPSE
  5
271A44
330
18
100
AcDbEntity
  8
姿図
100
AcDbEllipse
 10
-4409.38190181909
 20
-18244.03039070412
 30
0.0
 11
0.03608385743162816
 21
0.05040796858486903
 31
0.0
210
0.0
220
0.0
230
1.0
 40
0.9083744652357209
 41
1.804594242940603
 42
3.808998900156939
  0
ELLIPSE
  5
271A45
330
18
100
AcDbEntity
  8
姿図
100
AcDbEllipse
 10
-4409.38190181909
 20
-18244.62918744236
 30
0.0
 11
0.03608385743162816
 21
0.05040796858486903
 31
0.0
210
0.0
220
0.0
230
1.0
 40
0.9083744652357209
 41
1.804594242940676
 42
3.80899890015725
  0
ELLIPSE
  5
271A46
330
18
100
AcDbEntity
  8
姿図
100
AcDbEllipse
 10
-4409.38190181909
 20
-18245.22798418059
 30
0.0
 11
0.03608385743162816
 21
0.05040796858486903
 31
0.0
210
0.0
220
0.0
230
1.0
 40
0.9083744652357209
 41
1.804594242940915
 42
3.808998900157249
  0
ELLIPSE
  5
271A47
330
18
100
AcDbEntity
  8
姿図
100
AcDbEllipse
 10
-4409.38190181909
 20
-18245.82678091883
 30
0.0
 11
0.03608385743162698
 21
0.05040796858486737
 31
0.0
210
0.0
220
0.0
230
1.0
 40
0.9083744652357209
 41
1.804594242940485
 42
3.808998900156777
  0
ELLIPSE
  5
271A48
330
18
100
AcDbEntity
  8
姿図
100
AcDbEllipse
 10
-4409.38190181909
 20
-18246.42557765706
 30
0.0
 11
0.03608385743162698
 21
0.05040796858486737
 31
0.0
210
0.0
220
0.0
230
1.0
 40
0.9083744652357209
 41
1.804594242940884
 42
3.808998900157218
  0
ELLIPSE
  5
271A49
330
18
100
AcDbEntity
  8
姿図
100
AcDbEllipse
 10
-4407.505917247995
 20
-18244.17569521994
 30
0.0
 11
0.0360838574316279
 21
0.05040796858486921
 31
-3.441247287127782E-18
210
3.231153159914908E-17
220
4.513815278383431E-17
230
1.0
 40
0.9083744652357175
 41
1.804594242940764
 42
3.808998900157057
  0
ELLIPSE
  5
271A4A
330
18
100
AcDbEntity
  8
姿図
100
AcDbEllipse
 10
-4409.294454188562
 20
-18244.74076352255
 30
0.0
 11
0.03608385743162511
 21
0.05040796858487479
 31
3.441247287127942E-18
210
-3.231153159914506E-17
220
-4.513815278383715E-17
230
1.0
 40
0.9083744652357207
 41
4.946186896530127
 42
6.950591553746752
  0
ELLIPSE
  5
271A4B
330
18
100
AcDbEntity
  8
姿図
100
AcDbEllipse
 10
-4409.294454188562
 20
-18245.33956026079
 30
0.0
 11
0.03608385743162511
 21
0.05040796858487479
 31
3.441247287127942E-18
210
-3.231153159914506E-17
220
-4.513815278383715E-17
230
1.0
 40
0.9083744652357207
 41
4.946186896530643
 42
6.950591553746944
  0
ELLIPSE
  5
271A4C
330
18
100
AcDbEntity
  8
姿図
100
AcDbEllipse
 10
-4409.294454188562
 20
-18245.93835699902
 30
0.0
 11
0.03608385743162511
 21
0.05040796858487479
 31
3.441247287127942E-18
210
-3.231153159914506E-17
220
-4.513815278383715E-17
230
1.0
 40
0.9083744652357207
 41
4.946186896530488
 42
6.950591553746789
  0
ELLIPSE
  5
271A4D
330
18
100
AcDbEntity
  8
姿図
100
AcDbEllipse
 10
-4409.294454188562
 20
-18244.14196678432
 30
0.0
 11
0.03608385743162511
 21
0.05040796858487479
 31
3.441247287127942E-18
210
-3.231153159914506E-17
220
-4.513815278383715E-17
230
1.0
 40
0.9083744652357207
 41
4.946186896530451
 42
6.950591553746752
  0
ELLIPSE
  5
271A4E
330
18
100
AcDbEntity
  8
姿図
100
AcDbEllipse
 10
-4409.294454188562
 20
-18246.53715373726
 30
0.0
 11
0.03608385743162511
 21
0.05040796858487479
 31
3.441247287127942E-18
210
-3.231153159914506E-17
220
-4.513815278383715E-17
230
1.0
 40
0.9083744652357207
 41
6.074134062573671
 42
6.95059155374682
  0
ELLIPSE
  5
271A4F
330
18
100
AcDbEntity
  8
姿図
100
AcDbEllipse
 10
-4389.927476782195
 20
-18235.1231092873
 30
0.0
 11
10.71963824740441
 21
30.30595753130159
 31
0.0
210
0.0
220
0.0
230
1.0
 40
0.5306663220532382
 41
2.04631906000344
 42
2.129635835717337
  0
LINE
  5
271A50
330
18
100
AcDbEntity
  8
姿図
100
AcDbLine
 10
-4409.41798567652
 20
-18239.29042476684
 30
0.0
 11
-4409.256387444281
 21
-18239.40610265938
 31
0.0
  0
LINE
  5
271A51
330
18
100
AcDbEntity
  8
姿図
100
AcDbLine
 10
-4409.434805048738
 20
-18239.8186058502
 30
0.0
 11
-4409.241550958914
 21
-18239.37180056474
 31
0.0
  0
LINE
  5
271A52
330
18
100
AcDbEntity
  8
姿図
100
AcDbLine
 10
-4409.294454188563
 20
-18239.89050994287
 30
0.0
 11
-4409.381901819089
 21
-18239.89869321031
 31
0.0
  0
LINE
  5
271A53
330
18
100
AcDbEntity
  8
姿図
100
AcDbLine
 10
-4409.41798567652
 20
-18239.88922150508
 30
0.0
 11
-4409.256387444281
 21
-18240.00489939762
 31
0.0
  0
LINE
  5
271A54
330
18
100
AcDbEntity
  8
姿図
100
AcDbLine
 10
-4409.434805048738
 20
-18238.02221563551
 30
0.0
 11
-4409.232210327858
 21
-18237.5538147226
 31
0.0
  0
LINE
  5
271A55
330
18
100
AcDbEntity
  8
姿図
100
AcDbLine
 10
-4409.294454188563
 20
-18238.09411972816
 30
0.0
 11
-4409.381901819089
 21
-18238.10230299562
 31
0.0
  0
LINE
  5
271A56
330
18
100
AcDbEntity
  8
姿図
100
AcDbLine
 10
-4409.434805048738
 20
-18238.62101237374
 30
0.0
 11
-4409.241550958914
 21
-18238.17420708828
 31
0.0
  0
LINE
  5
271A57
330
18
100
AcDbEntity
  8
姿図
100
AcDbLine
 10
-4409.294454188563
 20
-18238.6929164664
 30
0.0
 11
-4409.381901819089
 21
-18238.70109973385
 31
0.0
  0
LINE
  5
271A58
330
18
100
AcDbEntity
  8
姿図
100
AcDbLine
 10
-4409.434805048738
 20
-18239.21980911197
 30
0.0
 11
-4409.241550958914
 21
-18238.77300382651
 31
0.0
  0
LINE
  5
271A59
330
18
100
AcDbEntity
  8
姿図
100
AcDbLine
 10
-4409.294454188563
 20
-18239.29171320464
 30
0.0
 11
-4409.381901819089
 21
-18239.29989647208
 31
0.0
  0
LINE
  5
271A5A
330
18
100
AcDbEntity
  8
姿図
100
AcDbLine
 10
-4409.41798567652
 20
-18238.09283129038
 30
0.0
 11
-4409.256387444281
 21
-18238.20850918292
 31
0.0
  0
LINE
  5
271A5B
330
18
100
AcDbEntity
  8
姿図
100
AcDbLine
 10
-4409.41798567652
 20
-18238.69162802861
 30
0.0
 11
-4409.256387444281
 21
-18238.80730592115
 31
0.0
  0
LINE
  5
271A5C
330
18
100
AcDbEntity
  8
姿図
100
AcDbLine
 10
-4409.41798567652
 20
-18242.88320519624
 30
0.0
 11
-4409.256387444281
 21
-18242.99888308879
 31
0.0
  0
LINE
  5
271A5D
330
18
100
AcDbEntity
  8
姿図
100
AcDbLine
 10
-4409.434805048738
 20
-18243.4113862796
 30
0.0
 11
-4409.241550958914
 21
-18242.96458099414
 31
0.0
  0
LINE
  5
271A5E
330
18
100
AcDbEntity
  8
姿図
100
AcDbLine
 10
-4409.294454188563
 20
-18243.48329037226
 30
0.0
 11
-4409.381901819089
 21
-18243.49147363971
 31
0.0
  0
LINE
  5
271A5F
330
18
100
AcDbEntity
  8
姿図
100
AcDbLine
 10
-4409.41798567652
 20
-18243.48200193448
 30
0.0
 11
-4409.256387444281
 21
-18243.59767982702
 31
0.0
  0
LINE
  5
271A60
330
18
100
AcDbEntity
  8
姿図
100
AcDbLine
 10
-4409.41798567652
 20
-18241.08681498154
 30
0.0
 11
-4409.256387444281
 21
-18241.20249287409
 31
0.0
  0
LINE
  5
271A61
330
18
100
AcDbEntity
  8
姿図
100
AcDbLine
 10
-4409.434805048738
 20
-18241.61499606491
 30
0.0
 11
-4409.241550958914
 21
-18241.16819077944
 31
0.0
  0
LINE
  5
271A62
330
18
100
AcDbEntity
  8
姿図
100
AcDbLine
 10
-4409.294454188563
 20
-18241.68690015756
 30
0.0
 11
-4409.381901819089
 21
-18241.69508342502
 31
0.0
  0
LINE
  5
271A63
330
18
100
AcDbEntity
  8
姿図
100
AcDbLine
 10
-4409.434805048738
 20
-18242.21379280314
 30
0.0
 11
-4409.241550958914
 21
-18241.76698751767
 31
0.0
  0
LINE
  5
271A64
330
18
100
AcDbEntity
  8
姿図
100
AcDbLine
 10
-4409.294454188563
 20
-18242.2856968958
 30
0.0
 11
-4409.381901819089
 21
-18242.29388016325
 31
0.0
  0
LINE
  5
271A65
330
18
100
AcDbEntity
  8
姿図
100
AcDbLine
 10
-4409.434805048738
 20
-18242.81258954137
 30
0.0
 11
-4409.241550958914
 21
-18242.36578425591
 31
0.0
  0
LINE
  5
271A66
330
18
100
AcDbEntity
  8
姿図
100
AcDbLine
 10
-4409.294454188563
 20
-18242.88449363403
 30
0.0
 11
-4409.381901819089
 21
-18242.89267690148
 31
0.0
  0
LINE
  5
271A67
330
18
100
AcDbEntity
  8
姿図
100
AcDbLine
 10
-4409.41798567652
 20
-18241.68561171977
 30
0.0
 11
-4409.256387444281
 21
-18241.80128961232
 31
0.0
  0
LINE
  5
271A68
330
18
100
AcDbEntity
  8
姿図
100
AcDbLine
 10
-4409.41798567652
 20
-18242.28440845801
 30
0.0
 11
-4409.256387444281
 21
-18242.40008635055
 31
0.0
  0
LINE
  5
271A69
330
18
100
AcDbEntity
  8
姿図
100
AcDbLine
 10
-4409.294454188563
 20
-18240.4893066811
 30
0.0
 11
-4409.381901819089
 21
-18240.49748994855
 31
0.0
  0
LINE
  5
271A6A
330
18
100
AcDbEntity
  8
姿図
100
AcDbLine
 10
-4409.434805048738
 20
-18241.01619932667
 30
0.0
 11
-4409.241550958914
 21
-18240.56939404121
 31
0.0
  0
LINE
  5
271A6B
330
18
100
AcDbEntity
  8
姿図
100
AcDbLine
 10
-4409.294454188563
 20
-18241.08810341933
 30
0.0
 11
-4409.381901819089
 21
-18241.09628668678
 31
0.0
  0
LINE
  5
271A6C
330
18
100
AcDbEntity
  8
姿図
100
AcDbLine
 10
-4409.41798567652
 20
-18240.48801824331
 30
0.0
 11
-4409.256387444281
 21
-18240.60369613585
 31
0.0
  0
LINE
  5
271A6D
330
18
100
AcDbEntity
  8
姿図
100
AcDbLine
 10
-4409.434805048738
 20
-18240.41740258844
 30
0.0
 11
-4409.241550958914
 21
-18239.97059730297
 31
0.0
  0
ELLIPSE
  5
271A6E
330
18
100
AcDbEntity
  8
姿図
100
AcDbEllipse
 10
-4409.38190181909
 20
-18242.83279722766
 30
0.0
 11
0.03608385743162816
 21
0.05040796858486903
 31
0.0
210
0.0
220
0.0
230
1.0
 40
0.9083744652357209
 41
1.804594242940693
 42
3.808998900156747
  0
ELLIPSE
  5
271A6F
330
18
100
AcDbEntity
  8
姿図
100
AcDbEllipse
 10
-4409.38190181909
 20
-18243.43159396589
 30
0.0
 11
0.03608385743162816
 21
0.05040796858486903
 31
0.0
210
0.0
220
0.0
230
1.0
 40
0.9083744652357209
 41
1.804594242940521
 42
3.808998900156814
  0
ELLIPSE
  5
271A70
330
18
100
AcDbEntity
  8
姿図
100
AcDbEllipse
 10
-4409.38190181909
 20
-18239.24001679826
 30
0.0
 11
0.03608385743162933
 21
0.05040796858487062
 31
3.441247287127891E-18
210
-3.231153159914929E-17
220
-4.513815278383413E-17
230
1.0
 40
0.9083744652357209
 41
1.804594242940522
 42
3.808998900156824
  0
ELLIPSE
  5
271A71
330
18
100
AcDbEntity
  8
姿図
100
AcDbEllipse
 10
-4409.38190181909
 20
-18241.03640701296
 30
0.0
 11
0.03608385743162816
 21
0.05040796858486903
 31
0.0
210
0.0
220
0.0
230
1.0
 40
0.9083744652357209
 41
1.804594242940334
 42
3.80899890015687
  0
ELLIPSE
  5
271A72
330
18
100
AcDbEntity
  8
姿図
100
AcDbEllipse
 10
-4409.38190181909
 20
-18241.63520375119
 30
0.0
 11
0.03608385743162816
 21
0.05040796858486903
 31
0.0
210
0.0
220
0.0
230
1.0
 40
0.9083744652357209
 41
1.804594242940608
 42
3.808998900156902
  0
ELLIPSE
  5
271A73
330
18
100
AcDbEntity
  8
姿図
100
AcDbEllipse
 10
-4409.38190181909
 20
-18242.23400048943
 30
0.0
 11
0.03608385743162816
 21
0.05040796858486903
 31
0.0
210
0.0
220
0.0
230
1.0
 40
0.9083744652357209
 41
1.804594242940608
 42
3.808998900156902
  0
ELLIPSE
  5
271A74
330
18
100
AcDbEntity
  8
姿図
100
AcDbEllipse
 10
-4409.38190181909
 20
-18239.83881353649
 30
0.0
 11
0.03608385743162933
 21
0.05040796858487062
 31
3.441247287127891E-18
210
-3.231153159914929E-17
220
-4.513815278383413E-17
230
1.0
 40
0.9083744652357209
 41
1.804594242940522
 42
3.808998900156824
  0
ELLIPSE
  5
271A75
330
18
100
AcDbEntity
  8
姿図
100
AcDbEllipse
 10
-4409.38190181909
 20
-18240.43761027473
 30
0.0
 11
0.03608385743162816
 21
0.05040796858486903
 31
0.0
210
0.0
220
0.0
230
1.0
 40
0.9083744652357209
 41
1.804594242940453
 42
3.808998900157027
  0
ELLIPSE
  5
271A76
330
18
100
AcDbEntity
  8
姿図
100
AcDbEllipse
 10
-4409.38190181909
 20
-18238.04242332179
 30
0.0
 11
0.03608385743162933
 21
0.05040796858487062
 31
3.441247287127891E-18
210
-3.231153159914929E-17
220
-4.513815278383413E-17
230
1.0
 40
0.9083744652357209
 41
1.804594242940792
 42
3.808998900157135
  0
ELLIPSE
  5
271A77
330
18
100
AcDbEntity
  8
姿図
100
AcDbEllipse
 10
-4409.38190181909
 20
-18238.64122006003
 30
0.0
 11
0.03608385743162933
 21
0.05040796858487062
 31
3.441247287127891E-18
210
-3.231153159914929E-17
220
-4.513815278383413E-17
230
1.0
 40
0.9083744652357209
 41
1.804594242940609
 42
3.808998900156911
  0
LINE
  5
271A78
330
18
100
AcDbEntity
  8
姿図
100
AcDbLine
 10
-4407.482561590771
 20
-18241.83820234027
 30
0.0
 11
-4407.505917247995
 21
-18241.84038794082
 31
0.0
  0
LINE
  5
271A79
330
18
100
AcDbEntity
  8
姿図
100
AcDbLine
 10
-4407.558820477644
 20
-18242.35909731895
 30
0.0
 11
-4407.483118976668
 21
-18242.18407473192
 31
0.0
  0
LINE
  5
271A7A
330
18
100
AcDbEntity
  8
姿図
100
AcDbLine
 10
-4407.542001105427
 20
-18241.83091623558
 30
0.0
 11
-4407.483499379284
 21
-18241.87279389908
 31
0.0
  0
ELLIPSE
  5
271A7B
330
18
100
AcDbEntity
  8
姿図
100
AcDbEllipse
 10
-4407.505917247995
 20
-18242.97810174347
 30
0.0
 11
0.0360838574316279
 21
0.05040796858486921
 31
-3.441247287127782E-18
210
3.231153159914908E-17
220
4.513815278383431E-17
230
1.0
 40
0.9083744652357175
 41
1.804594242940832
 42
3.808998900156845
  0
ELLIPSE
  5
271A7C
330
18
100
AcDbEntity
  8
姿図
100
AcDbEllipse
 10
-4407.505917247995
 20
-18243.5768984817
 30
0.0
 11
0.0360838574316279
 21
0.05040796858486921
 31
-3.441247287127782E-18
210
3.231153159914908E-17
220
4.513815278383431E-17
230
1.0
 40
0.9083744652357175
 41
1.804594242940847
 42
3.8089989001569
  0
ELLIPSE
  5
271A7D
330
18
100
AcDbEntity
  8
姿図
100
AcDbEllipse
 10
-4407.505917247995
 20
-18241.18171152876
 30
0.0
 11
0.03608385743162907
 21
0.05040796858487078
 31
3.441247287127869E-18
210
-3.231153159914888E-17
220
-4.513815278383401E-17
230
1.0
 40
0.908374465235718
 41
1.804594242940848
 42
3.808998900156912
  0
ELLIPSE
  5
271A7E
330
18
100
AcDbEntity
  8
姿図
100
AcDbEllipse
 10
-4407.505917247995
 20
-18241.780508267
 30
0.0
 11
0.0360838574316279
 21
0.05040796858486921
 31
-3.441247287127782E-18
210
3.231153159914908E-17
220
4.513815278383431E-17
230
1.0
 40
0.9083744652357175
 41
1.804594242940723
 42
3.808998900156777
  0
ELLIPSE
  5
271A7F
330
18
100
AcDbEntity
  8
姿図
100
AcDbEllipse
 10
-4407.505917247995
 20
-18242.37930500523
 30
0.0
 11
0.0360838574316279
 21
0.05040796858486921
 31
-3.441247287127782E-18
210
3.231153159914908E-17
220
4.513815278383431E-17
230
1.0
 40
0.9083744652357175
 41
1.804594242940692
 42
3.808998900156467
  0
ELLIPSE
  5
271A80
330
18
100
AcDbEntity
  8
姿図
100
AcDbEllipse
 10
-4407.505917247995
 20
-18239.38532131407
 30
0.0
 11
0.03608385743162907
 21
0.05040796858487078
 31
3.441247287127869E-18
210
-3.231153159914888E-17
220
-4.513815278383401E-17
230
1.0
 40
0.908374465235718
 41
1.804594242940803
 42
3.808998900156824
  0
ELLIPSE
  5
271A81
330
18
100
AcDbEntity
  8
姿図
100
AcDbEllipse
 10
-4407.505917247995
 20
-18239.9841180523
 30
0.0
 11
0.03608385743162907
 21
0.05040796858487078
 31
3.441247287127869E-18
210
-3.231153159914888E-17
220
-4.513815278383401E-17
230
1.0
 40
0.908374465235718
 41
1.804594242940766
 42
3.808998900156787
  0
ELLIPSE
  5
271A82
330
18
100
AcDbEntity
  8
姿図
100
AcDbEllipse
 10
-4407.505917247995
 20
-18240.58291479053
 30
0.0
 11
0.03608385743162907
 21
0.05040796858487078
 31
3.441247287127869E-18
210
-3.231153159914888E-17
220
-4.513815278383401E-17
230
1.0
 40
0.908374465235718
 41
1.804594242940876
 42
3.808998900156855
  0
ELLIPSE
  5
271A83
330
18
100
AcDbEntity
  8
姿図
100
AcDbEllipse
 10
-4409.294454188562
 20
-18242.94437330786
 30
0.0
 11
0.03608385743162511
 21
0.05040796858487479
 31
3.441247287127942E-18
210
-3.231153159914506E-17
220
-4.513815278383715E-17
230
1.0
 40
0.9083744652357207
 41
4.946186896530419
 42
6.950591553746441
  0
ELLIPSE
  5
271A84
330
18
100
AcDbEntity
  8
姿図
100
AcDbEllipse
 10
-4409.294454188562
 20
-18243.54317004609
 30
0.0
 11
0.03608385743162511
 21
0.05040796858487479
 31
3.441247287127942E-18
210
-3.231153159914506E-17
220
-4.513815278383715E-17
230
1.0
 40
0.9083744652357207
 41
4.946186896530518
 42
6.95059155374682
  0
ELLIPSE
  5
271A85
330
18
100
AcDbEntity
  8
姿図
100
AcDbEllipse
 10
-4409.294454188562
 20
-18239.35159287845
 30
0.0
 11
0.03608385743163537
 21
0.05040796858488904
 31
3.441247287128897E-18
210
-3.231153159914491E-17
220
-4.513815278383689E-17
230
1.0
 40
0.9083744652357205
 41
4.946186896530406
 42
6.950591553746625
  0
ELLIPSE
  5
271A86
330
18
100
AcDbEntity
  8
姿図
100
AcDbEllipse
 10
-4409.294454188562
 20
-18241.14798309316
 30
0.0
 11
0.03608385743162511
 21
0.05040796858487479
 31
3.441247287127942E-18
210
-3.231153159914506E-17
220
-4.513815278383715E-17
230
1.0
 40
0.9083744652357207
 41
4.946186896530169
 42
6.950591553746752
  0
ELLIPSE
  5
271A87
330
18
100
AcDbEntity
  8
姿図
100
AcDbEllipse
 10
-4409.294454188562
 20
-18241.74677983139
 30
0.0
 11
0.03608385743162511
 21
0.05040796858487479
 31
3.441247287127942E-18
210
-3.231153159914506E-17
220
-4.513815278383715E-17
230
1.0
 40
0.9083744652357207
 41
4.946186896530518
 42
6.95059155374654
  0
ELLIPSE
  5
271A88
330
18
100
AcDbEntity
  8
姿図
100
AcDbEllipse
 10
-4409.294454188562
 20
-18242.34557656962
 30
0.0
 11
0.03608385743162511
 21
0.05040796858487479
 31
3.441247287127942E-18
210
-3.231153159914506E-17
220
-4.513815278383715E-17
230
1.0
 40
0.9083744652357207
 41
4.946186896530611
 42
6.950591553746913
  0
ELLIPSE
  5
271A89
330
18
100
AcDbEntity
  8
姿図
100
AcDbEllipse
 10
-4409.294454188562
 20
-18239.95038961669
 30
0.0
 11
0.03608385743162511
 21
0.05040796858487479
 31
3.441247287127942E-18
210
-3.231153159914506E-17
220
-4.513815278383715E-17
230
1.0
 40
0.9083744652357207
 41
4.946186896530611
 42
6.950591553747201
  0
ELLIPSE
  5
271A8A
330
18
100
AcDbEntity
  8
姿図
100
AcDbEllipse
 10
-4409.294454188562
 20
-18240.54918635492
 30
0.0
 11
0.03608385743162511
 21
0.05040796858487479
 31
3.441247287127942E-18
210
-3.231153159914506E-17
220
-4.513815278383715E-17
230
1.0
 40
0.9083744652357207
 41
4.946186896530643
 42
6.950591553746944
  0
ELLIPSE
  5
271A8B
330
18
100
AcDbEntity
  8
姿図
100
AcDbEllipse
 10
-4409.294454188562
 20
-18238.15399940199
 30
0.0
 11
0.03608385743163537
 21
0.05040796858488904
 31
3.441247287128897E-18
210
-3.231153159914491E-17
220
-4.513815278383689E-17
230
1.0
 40
0.9083744652357205
 41
4.946186896530376
 42
6.950591553746025
  0
ELLIPSE
  5
271A8C
330
18
100
AcDbEntity
  8
姿図
100
AcDbEllipse
 10
-4409.294454188562
 20
-18238.75279614022
 30
0.0
 11
0.03608385743163537
 21
0.05040796858488904
 31
3.441247287128897E-18
210
-3.231153159914491E-17
220
-4.513815278383689E-17
230
1.0
 40
0.9083744652357205
 41
4.946186896530474
 42
6.950591553746981
  0
ELLIPSE
  5
271A8D
330
18
100
AcDbEntity
  8
姿図
100
AcDbEllipse
 10
-4407.41846961747
 20
-18244.28727130013
 30
0.0
 11
0.0360838574316249
 21
0.05040796858487492
 31
3.441247287127944E-18
210
-3.231153159914466E-17
220
-4.513815278383751E-17
230
1.0
 40
0.9083744652357177
 41
6.006282980254767
 42
6.950591553746565
  0
ELLIPSE
  5
271A8E
330
18
100
AcDbEntity
  8
姿図
100
AcDbEllipse
 10
-4407.165695021419
 20
-18238.90823811009
 30
0.0
 11
0.04812166340264891
 21
-0.5558609181685003
 31
-1.238875691076331E-16
210
1.915108353182199E-17
220
-2.212171841785135E-16
230
1.0
 40
0.3301839125655835
 41
3.143887870131871
 42
4.437113948144754
  0
LINE
  5
271A8F
330
18
100
AcDbEntity
  8
姿図
100
AcDbLine
 10
-4407.356225756763
 20
-18238.89671271487
 30
0.0
 11
-4407.355401326362
 21
-18238.77243943671
 31
0.0
  0
ELLIPSE
  5
271A90
330
18
100
AcDbEntity
  8
姿図
100
AcDbEllipse
 10
-4407.41846961747
 20
-18243.08967782366
 30
0.0
 11
0.0360838574316249
 21
0.05040796858487492
 31
3.441247287127944E-18
210
-3.231153159914466E-17
220
-4.513815278383751E-17
230
1.0
 40
0.9083744652357177
 41
4.946186896530421
 42
6.950591553746442
  0
ELLIPSE
  5
271A91
330
18
100
AcDbEntity
  8
姿図
100
AcDbEllipse
 10
-4407.41846961747
 20
-18243.6884745619
 30
0.0
 11
0.0360838574316249
 21
0.05040796858487492
 31
3.441247287127944E-18
210
-3.231153159914466E-17
220
-4.513815278383751E-17
230
1.0
 40
0.9083744652357177
 41
4.946186896530445
 42
6.950591553746509
  0
ELLIPSE
  5
271A92
330
18
100
AcDbEntity
  8
姿図
100
AcDbEllipse
 10
-4407.41846961747
 20
-18239.49689739427
 30
0.0
 11
0.0360838574316351
 21
0.05040796858488925
 31
3.441247287128919E-18
210
-3.231153159914480E-17
220
-4.513815278383737E-17
230
1.0
 40
0.908374465235718
 41
4.946186896530444
 42
6.950591553746381
  0
ELLIPSE
  5
271A93
330
18
100
AcDbEntity
  8
姿図
100
AcDbEllipse
 10
-4407.41846961747
 20
-18240.0956941325
 30
0.0
 11
0.0360838574316351
 21
0.05040796858488925
 31
3.441247287128919E-18
210
-3.231153159914480E-17
220
-4.513815278383737E-17
230
1.0
 40
0.908374465235718
 41
4.946186896530483
 42
6.950591553746505
  0
ELLIPSE
  5
271A94
330
18
100
AcDbEntity
  8
姿図
100
AcDbEllipse
 10
-4407.41846961747
 20
-18240.69449087073
 30
0.0
 11
0.0360838574316351
 21
0.05040796858488925
 31
3.441247287128919E-18
210
-3.231153159914480E-17
220
-4.513815278383737E-17
230
1.0
 40
0.908374465235718
 41
4.946186896530291
 42
6.950591553746593
  0
LINE
  5
271A95
330
18
100
AcDbEntity
  8
姿図
100
AcDbLine
 10
-4405.946891593216
 20
-18239.52577585146
 30
0.0
 11
-4405.94925639365
 21
-18239.16975232827
 31
0.0
  0
LINE
  5
271A96
330
18
100
AcDbEntity
  8
姿図
100
AcDbLine
 10
-4406.468406658069
 20
-18238.28262094301
 30
0.0
 11
-4407.214237813327
 21
-18238.35241512472
 31
0.0
  0
LINE
  5
271A97
330
18
100
AcDbEntity
  8
姿図
100
AcDbLine
 10
-4406.416560319909
 20
-18238.29921772119
 30
0.0
 11
-4406.14254010166
 21
-18238.49537136051
 31
0.0
  0
LINE
  5
271A98
330
18
100
AcDbEntity
  8
姿図
100
AcDbLine
 10
-4406.602689221784
 20
-18238.70200134219
 30
0.0
 11
-4406.593352810015
 21
-18240.10760925876
 31
0.0
  0
LINE
  5
271A99
330
18
100
AcDbEntity
  8
姿図
100
AcDbLine
 10
-4406.267662643419
 20
-18239.79709336239
 30
0.0
 11
-4406.85261376003
 21
-18240.35479095027
 31
0.0
  0
ELLIPSE
  5
271A9A
330
18
100
AcDbEntity
  8
姿図
100
AcDbEllipse
 10
-4406.412982916843
 20
-18238.83780001557
 30
0.0
 11
0.0558345787801031
 21
-0.5551391896356208
 31
0.0
210
0.0
220
0.0
230
1.0
 40
0.3266547503873695
 41
2.861757613225559
 42
4.432553940020501
  0
ELLIPSE
  5
271A9B
330
18
100
AcDbEntity
  8
姿図
100
AcDbEllipse
 10
-4406.138962698592
 20
-18239.03395365489
 30
0.0
 11
0.0558345787801031
 21
-0.5551391896356208
 31
0.0
210
0.0
220
0.0
230
1.0
 40
0.3266547503873695
 41
1.290961286430781
 42
2.861757613225615
  0
ELLIPSE
  5
271A9C
330
18
100
AcDbEntity
  8
姿図
100
AcDbEllipse
 10
-4389.665743078383
 20
-18240.96355799315
 30
0.0
 11
-17.20278000000001
 21
-3.270690468459849E-13
 31
-1.909892244356116E-15
210
-1.110223024625157E-16
220
-2.110819219048410E-30
230
1.0
 40
0.2588190451025152
 41
5.28687662288746
 42
6.018106658722737
  0
ELLIPSE
  5
271A9D
330
18
100
AcDbEntity
  8
姿図
100
AcDbEllipse
 10
-4389.665743078382
 20
-18246.41260831107
 30
0.0
 11
-19.58182258531273
 21
-7.293833845092769E-13
 31
0.0
210
0.0
220
0.0
230
1.0
 40
0.2588190451024983
 41
5.241510706344444
 42
6.274432771330732
  0
ELLIPSE
  5
271A9E
330
18
100
AcDbEntity
  8
姿図
100
AcDbEllipse
 10
-4389.665743078383
 20
-18242.07133195888
 30
0.0
 11
-17.82270000000001
 21
-3.393499981019237E-13
 31
-9.893585950493393E-16
210
-5.551115123125783E-17
220
-1.056950353479716E-30
230
1.0
 40
0.258819045102515
 41
5.268090580583092
 42
6.550261017675986
  0
ELLIPSE
  5
271A9F
330
18
100
AcDbEntity
  8
姿図
100
AcDbEllipse
 10
-4389.665743078383
 20
-18241.56235473138
 30
0.0
 11
-17.80890179997573
 21
-3.376043869291861E-13
 31
-9.885926410810724E-16
210
-5.551115123125783E-17
220
-1.052328121613185E-30
230
1.0
 40
0.258819045102515
 41
5.266606351960423
 42
6.276168753067862
  0
ELLIPSE
  5
271AA0
330
18
100
AcDbEntity
  8
姿図
100
AcDbEllipse
 10
-4397.252542738573
 20
-18330.80271739372
 30
0.0
 11
-20.04006102018287
 21
-373.9277629498387
 31
2.078694912994643E-14
210
2.970768119157229E-18
220
5.543160152658209E-17
230
1.0
 40
0.0186593157869327
 41
4.459498662982783
 42
4.472829220484885
  0
LINE
  5
271AA1
330
18
100
AcDbEntity
  8
姿図
100
AcDbLine
 10
-4397.947999410857
 20
-18238.54713060411
 30
0.0
 11
-4397.932480782417
 21
-18236.46245081901
 31
0.0
  0
LINE
  5
271AA2
330
18
100
AcDbEntity
  8
姿図
100
AcDbLine
 10
-4394.580321612234
 20
-18236.14875890012
 30
0.0
 11
-4394.595840240675
 21
-18238.23343868523
 31
0.0
  0
ELLIPSE
  5
271AA3
330
18
100
AcDbEntity
  8
姿図
100
AcDbEllipse
 10
-4399.033719519767
 20
-18017.50573630648
 30
0.0
 11
-23.03602790392042
 21
421.8956148611038
 31
0.0
210
0.0
220
0.0
230
1.0
 40
0.0171889472793754
 41
2.115486356435118
 42
2.128957736158343
  0
ELLIPSE
  5
271AA4
330
18
100
AcDbEntity
  8
姿図
100
AcDbEllipse
 10
-4382.078943418192
 20
-18329.38278616565
 30
0.0
 11
-20.21392348571879
 21
370.1621647154587
 31
-2.057874303046787E-14
210
-3.026859354980777E-18
220
5.542856694399324E-17
230
1.0
 40
0.0174416807856973
 41
1.315822296819269
 42
1.32915285432137
  0
LINE
  5
271AA5
330
18
100
AcDbEntity
  8
姿図
100
AcDbLine
 10
-4397.768248273635
 20
-18236.58001442252
 30
0.0
 11
-4397.752809121671
 21
-18238.52378373525
 31
0.0
  0
ELLIPSE
  5
271AA6
330
18
100
AcDbEntity
  8
姿図
100
AcDbEllipse
 10
-4409.041679592515
 20
-18237.56534011781
 30
0.0
 11
0.04812166340264891
 21
-0.5558609181685003
 31
-1.238875691076331E-16
210
1.915108353182199E-17
220
-2.212171841785135E-16
230
1.0
 40
0.3301839125655835
 41
3.143887870131944
 42
4.437113948144803
  0
ELLIPSE
  5
271AA7
330
18
100
AcDbEntity
  8
姿図
100
AcDbEllipse
 10
-4408.288967487936
 20
-18237.4949020233
 30
0.0
 11
0.0558345787801031
 21
-0.5551391896356208
 31
0.0
210
0.0
220
0.0
230
1.0
 40
0.3266547503873695
 41
2.861757613225725
 42
4.43255394002059
  0
LINE
  5
271AA8
330
18
100
AcDbEntity
  8
姿図
100
AcDbLine
 10
-4408.292544891004
 20
-18236.95631972892
 30
0.0
 11
-4408.018524672753
 21
-18237.15247336824
 31
0.0
  0
ELLIPSE
  5
271AA9
330
18
100
AcDbEntity
  8
姿図
100
AcDbEllipse
 10
-4389.665743078383
 20
-18240.96355799315
 30
0.0
 11
-17.20278000000001
 21
-3.270690468459849E-13
 31
-1.909892244356116E-15
210
-1.110223024625157E-16
220
-2.110819219048410E-30
230
1.0
 40
0.2588190451025152
 41
5.002357841538155
 42
5.202574393620892
  0
ELLIPSE
  5
271AAA
330
18
100
AcDbEntity
  8
姿図
100
AcDbEllipse
 10
-4389.665743078383
 20
-18241.56235473138
 30
0.0
 11
-17.80890179997573
 21
-3.376043869291861E-13
 31
-9.885926410810724E-16
210
-5.551115123125783E-17
220
-1.052328121613185E-30
230
1.0
 40
0.258819045102515
 41
3.563618606471713
 42
4.915675910959883
  0
ELLIPSE
  5
271AAB
330
18
100
AcDbEntity
  8
姿図
100
AcDbEllipse
 10
-4389.665743078383
 20
-18242.07133195888
 30
0.0
 11
-17.82270000000001
 21
-3.393499981019237E-13
 31
-9.893585950493393E-16
210
-5.551115123125783E-17
220
-1.056950353479716E-30
230
1.0
 40
0.258819045102515
 41
3.565790486621951
 42
4.913638423115042
  0
ELLIPSE
  5
271AAC
330
18
100
AcDbEntity
  8
姿図
100
AcDbEllipse
 10
-4389.665743078383
 20
-18240.96355799315
 30
0.0
 11
-17.20278000000001
 21
-3.270690468459849E-13
 31
-1.909892244356116E-15
210
-1.110223024625157E-16
220
-2.110819219048410E-30
230
1.0
 40
0.2588190451025152
 41
3.476409367365063
 42
4.924634818196502
  0
ELLIPSE
  5
271AAD
330
18
100
AcDbEntity
  8
姿図
100
AcDbEllipse
 10
-4389.665743078382
 20
-18246.41260831107
 30
0.0
 11
-19.58182258531273
 21
-3.358859401093392E-13
 31
-2.174019029833910E-15
210
-1.110223024625157E-16
220
-1.904359529010099E-30
230
1.0
 40
0.2588190451025165
 41
3.844220094436217
 42
4.877142159422503
  0
LINE
  5
271AAF
330
18
100
AcDbEntity
  8
姿図
100
AcDbLine
 10
-4367.376539893161
 20
-18251.20298221694
 30
0.0
 11
-4367.376539893161
 21
-18251.5601787475
 31
0.0
  0
ELLIPSE
  5
271AB0
330
18
100
AcDbEntity
  8
姿図
100
AcDbEllipse
 10
-4389.665743078383
 20
-18247.0114050493
 30
0.0
 11
-3.920994
 21
-7.476582902787854E-14
 31
2.176588909108546E-16
210
5.551115123125783E-17
220
1.058491097435225E-30
230
1.0
 40
0.2588190451025151
 41
2.609952476343572
 42
2.763896782061741
  0
ELLIPSE
  5
271AB1
330
18
100
AcDbEntity
  8
姿図
100
AcDbEllipse
 10
-4389.665743078383
 20
-18246.97379967319
 30
0.0
 11
-3.8745
 21
-1.044203473687944E-13
 31
2.150779554455085E-16
210
5.551115123125783E-17
220
1.496062380800005E-30
230
1.0
 40
0.2588190451025197
 41
2.630724706616837
 42
2.755517186223148
  0
ELLIPSE
  5
271AB2
330
18
100
AcDbEntity
  8
姿図
100
AcDbEllipse
 10
-4389.665743078383
 20
-18247.75990097209
 30
0.0
 11
3.920994
 21
3.014575639115336E-14
 31
4.353177818217091E-16
210
1.110223024625157E-16
220
8.535721513524229E-31
230
-1.0
 40
0.2588190451025151
 41
5.734445639860233
 42
6.814825484425799
  0
ELLIPSE
  5
271AB3
330
18
100
AcDbEntity
  8
姿図
100
AcDbEllipse
 10
-4389.665743078383
 20
-18247.79399194958
 30
0.0
 11
14.73227173730388
 21
0.0
 31
0.0
210
0.0
220
0.0
230
1.0
 40
0.2673555525296201
 41
5.28076332886401
 42
5.96194421627353
  0
ELLIPSE
  5
271AB4
330
18
100
AcDbEntity
  8
姿図
100
AcDbEllipse
 10
-4389.665743078383
 20
-18247.0114050493
 30
0.0
 11
-3.920994
 21
-7.476582902787854E-14
 31
2.176588909108546E-16
210
5.551115123125783E-17
220
1.058491097435225E-30
230
1.0
 40
0.2588190451025151
 41
0.3776958715257318
 42
0.5203662585641006
  0
ELLIPSE
  5
271AB5
330
18
100
AcDbEntity
  8
姿図
100
AcDbEllipse
 10
-4389.665743078383
 20
-18246.97379967319
 30
0.0
 11
-3.8745
 21
-1.044203473687944E-13
 31
2.150779554455085E-16
210
5.551115123125783E-17
220
1.496062380800005E-30
230
1.0
 40
0.2588190451025197
 41
0.3860754673643187
 42
0.4990266802193034
  0
LINE
  5
271AB6
330
18
100
AcDbEntity
  8
姿図
100
AcDbLine
 10
-4393.067743078382
 20
-18248.9110957635
 30
0.0
 11
-4393.067743078382
 21
-18248.05929934121
 31
0.0
  0
LINE
  5
271AB7
330
18
100
AcDbEntity
  8
姿図
100
AcDbLine
 10
-4393.067743078382
 20
-18248.9110957635
 30
0.0
 11
-4393.067743078382
 21
-18247.23356110526
 31
0.0
  0
ELLIPSE
  5
271AB8
330
18
100
AcDbEntity
  8
姿図
100
AcDbEllipse
 10
-4389.665743078383
 20
-18247.75990097209
 30
0.0
 11
-3.920994
 21
3.014575639115336E-14
 31
4.353177818217091E-16
210
1.110223024625157E-16
220
-8.535721513524229E-31
230
1.0
 40
0.2588190451025151
 41
5.734445639859379
 42
6.80355156574371
  0
LINE
  5
271AB9
330
18
100
AcDbEntity
  8
姿図
100
AcDbLine
 10
-4390.299910651286
 20
-18252.15231398969
 30
0.0
 11
-4389.24858926462
 21
-18251.03949258298
 31
0.0
  0
LINE
  5
271ABA
330
18
100
AcDbEntity
  8
姿図
100
AcDbLine
 10
-4390.584145517337
 20
-18252.12553876489
 30
0.0
 11
-4389.540966394151
 21
-18251.0213359264
 31
0.0
  0
LINE
  5
271ABB
330
18
100
AcDbEntity
  8
姿図
100
AcDbLine
 10
-4390.840848615407
 20
-18252.06962122342
 30
0.0
 11
-4389.845546442994
 21
-18251.01609603344
 31
0.0
  0
LINE
  5
271ABC
330
18
100
AcDbEntity
  8
姿図
100
AcDbLine
 10
-4391.067971823094
 20
-18251.98239343215
 30
0.0
 11
-4390.163751269177
 21
-18251.02527793774
 31
0.0
  0
LINE
  5
271ABD
330
18
100
AcDbEntity
  8
姿図
100
AcDbLine
 10
-4389.209449549365
 20
-18251.98097492072
 30
0.0
 11
-4388.638976131816
 21
-18251.37713004601
 31
0.0
  0
LINE
  5
271ABE
330
18
100
AcDbEntity
  8
姿図
100
AcDbLine
 10
-4389.633054113177
 20
-18252.10172221861
 30
0.0
 11
-4388.754877454367
 21
-18251.17217413065
 31
0.0
  0
LINE
  5
271ABF
330
18
100
AcDbEntity
  8
姿図
100
AcDbLine
 10
-4389.985858179078
 20
-18252.14752734307
 30
0.0
 11
-4388.967563104855
 21
-18251.06966421642
 31
0.0
  0
ELLIPSE
  5
271AC0
330
18
100
AcDbEntity
  8
姿図
100
AcDbEllipse
 10
-4390.010156380228
 20
-18251.50955330562
 30
0.0
 11
-1.374390620266722
 21
-0.1061948148059822
 31
0.0
210
0.0
220
0.0
230
1.0
 40
0.4628655777425251
 41
5.477092832877411
 42
9.981255930046515
  0
LINE
  5
271AC1
330
18
100
AcDbEntity
  8
姿図
100
AcDbLine
 10
-4391.257086436055
 20
-18251.85493362584
 30
0.0
 11
-4390.497898364672
 21
-18251.05133469951
 31
0.0
  0
LINE
  5
271AC2
330
18
100
AcDbEntity
  8
姿図
100
AcDbLine
 10
-4391.378644315673
 20
-18251.65596516387
 30
0.0
 11
-4390.851912220066
 21
-18251.09842038353
 31
0.0
  0
LINE
  5
271AC3
330
18
100
AcDbEntity
  8
姿図
100
AcDbLine
 10
-4409.434805048738
 20
-18247.60296344724
 30
0.0
 11
-4409.265183875327
 21
-18247.21079768828
 31
0.0
  0
LINE
  5
271AC4
330
18
100
AcDbEntity
  8
姿図
100
AcDbLine
 10
-4409.294454188563
 20
-18247.07607080166
 30
0.0
 11
-4409.381901819089
 21
-18247.08425406911
 31
0.0
  0
LINE
  5
271AC5
330
18
100
AcDbEntity
  8
姿図
100
AcDbLine
 10
-4409.434805048738
 20
-18247.004166709
 30
0.0
 11
-4409.251512742367
 21
-18246.5803931612
 31
0.0
  0
LINE
  5
271AC6
330
18
100
AcDbEntity
  8
姿図
100
AcDbLine
 10
-4409.41798567652
 20
-18247.07478236387
 30
0.0
 11
-4409.264615107101
 21
-18247.1845705961
 31
0.0
  0
LINE
  5
271AC7
330
18
100
AcDbEntity
  8
姿図
100
AcDbLine
 10
-4409.44020023944
 20
-18248.57182207276
 30
0.0
 11
-4409.44020023944
 21
-18247.62862664516
 31
0.0
  0
ELLIPSE
  5
271AC8
330
18
100
AcDbEntity
  8
姿図
100
AcDbEllipse
 10
-4409.38190181909
 20
-18247.62317113352
 30
0.0
 11
0.03608385743162933
 21
0.05040796858487062
 31
3.441247287127891E-18
210
-3.231153159914929E-17
220
-4.513815278383413E-17
230
1.0
 40
0.9083744652357209
 41
1.804594242940401
 42
2.238202573361832
  0
ELLIPSE
  5
271AC9
330
18
100
AcDbEntity
  8
姿図
100
AcDbEllipse
 10
-4409.38190181909
 20
-18247.02437439529
 30
0.0
 11
0.03608385743162698
 21
0.05040796858486737
 31
0.0
210
0.0
220
0.0
230
1.0
 40
0.9083744652357209
 41
1.804594242940566
 42
3.808998900156902
  0
ELLIPSE
  5
271ACA
330
18
100
AcDbEntity
  8
姿図
100
AcDbEllipse
 10
-4409.294454188562
 20
-18247.13595047549
 30
0.0
 11
0.03608385743162511
 21
0.05040796858487479
 31
3.441247287127942E-18
210
-3.231153159914506E-17
220
-4.513815278383715E-17
230
1.0
 40
0.9083744652357207
 41
0.0854693314817033
 42
0.6674062465672337
  0
LINE
  5
271ACB
330
18
100
AcDbEntity
  8
姿図
100
AcDbLine
 10
-4411.954946263603
 20
-18251.20298221694
 30
0.0
 11
-4411.954946263603
 21
-18251.5601787475
 31
0.0
  0
ELLIPSE
  5
271ACC
330
18
100
AcDbEntity
  8
姿図
100
AcDbEllipse
 10
-4389.665743078383
 20
-18247.79399194958
 30
0.0
 11
14.73227173730388
 21
0.0
 31
0.0
210
0.0
220
0.0
230
1.0
 40
0.2673555525296201
 41
3.462833744495849
 42
4.171550364110386
  0
ELLIPSE
  5
271ACD
330
18
100
AcDbEntity
  8
姿図
100
AcDbEllipse
 10
-4389.665743078383
 20
-18251.79089516372
 30
0.0
 11
18.41533967162984
 21
0.0
 31
0.0
210
0.0
220
0.0
230
1.0
 40
0.2673555525296201
 41
5.193154299005187
 42
10.52083557582906
  0
ELLIPSE
  5
271ACE
330
18
100
AcDbEntity
  8
姿図
100
AcDbEllipse
 10
-4389.665743078383
 20
-18251.77732719271
 30
0.0
 11
17.33237037622063
 21
0.0
 31
0.0
210
0.0
220
0.0
230
1.0
 40
0.26735555252962
 41
5.223479738308696
 42
10.49209545645434
  0
ELLIPSE
  5
271ACF
330
18
100
AcDbEntity
  8
姿図
100
AcDbEllipse
 10
-4389.665743078383
 20
-18251.79089516372
 30
0.0
 11
18.41533967162984
 21
0.0
 31
0.0
210
0.0
220
0.0
230
1.0
 40
0.2673555525296201
 41
4.426433418193852
 42
4.986873073761454
  0
ELLIPSE
  5
271AD0
330
18
100
AcDbEntity
  8
姿図
100
AcDbEllipse
 10
-4389.665743078383
 20
-18251.5601787475
 30
0.0
 11
22.2892031852213
 21
0.0
 31
0.0
210
0.0
220
0.0
230
1.0
 40
0.2673555525296202
 41
4.468980934068693
 42
4.945114394893197
  0
ELLIPSE
  5
271AD1
330
18
100
AcDbEntity
  8
姿図
100
AcDbEllipse
 10
-4389.665743078383
 20
-18251.77732719271
 30
0.0
 11
17.33237037622063
 21
0.0
 31
0.0
210
0.0
220
0.0
230
1.0
 40
0.26735555252962
 41
4.412029506499566
 42
5.00114127217063
  0
ELLIPSE
  5
271AD8
330
18
100
AcDbEntity
  8
姿図
100
AcDbEllipse
 10
-4389.665743078383
 20
-18251.5601787475
 30
0.0
 11
22.2892031852213
 21
0.0
 31
0.0
210
0.0
220
0.0
230
1.0
 40
0.2673555525296202
 41
5.109424903215451
 42
10.60113840220053
  0
ELLIPSE
  5
271AD9
330
18
100
AcDbEntity
  8
姿図
100
AcDbEllipse
 10
-4389.665743078383
 20
-18251.20298221694
 30
0.0
 11
22.2892031852213
 21
0.0
 31
0.0
210
0.0
220
0.0
230
1.0
 40
0.2673555525296202
 41
6.253210353381123
 42
9.42477796076938
  0
LINE
  5
271ADA
330
18
100
AcDbEntity
  8
姿図
100
AcDbLine
 10
-4409.41798567652
 20
-18246.47598562564
 30
0.0
 11
-4409.256387444281
 21
-18246.59166351819
 31
0.0
  0
LINE
  5
271ADB
330
18
100
AcDbEntity
  8
姿図
100
AcDbLine
 10
-4409.244930147116
 20
-18246.27685593003
 30
0.0
 11
-4409.293028007139
 21
-18248.49474882807
 31
0.0
  0
LINE
  5
271ADC
330
18
100
AcDbEntity
  8
姿図
100
AcDbLine
 10
-4372.420703316551
 20
-18244.16437675834
 30
0.0
 11
-4372.420703316551
 21
-18247.52763571417
 31
0.0
  0
LINE
  5
271ADD
330
18
100
AcDbEntity
  8
姿図
100
AcDbLine
 10
-4369.891285917323
 20
-18248.57182207276
 30
0.0
 11
-4369.891285917323
 21
-18245.97502573669
 31
0.0
  0
SPLINE
  5
271AE2
330
18
100
AcDbEntity
  8
姿図
100
AcDbSpline
210
0.0
220
0.0
230
1.0
 70
     8
 71
     3
 72
    26
 73
    22
 74
     0
 42
0.000000001
 43
0.0000000001
 40
5.061336783911485
 40
5.061336783911485
 40
5.061336783911485
 40
5.061336783911485
 40
5.424423750909746
 40
5.424423750909746
 40
5.597379662847512
 40
5.597379662847512
 40
5.659540508070473
 40
5.659540508070473
 40
5.681680215509581
 40
5.681680215509581
 40
5.695637545270647
 40
5.695637545270647
 40
5.707793438358563
 40
5.707793438358563
 40
5.722098011649362
 40
5.722098011649362
 40
5.746604578651288
 40
5.746604578651288
 40
5.804790417739905
 40
5.804790417739905
 40
5.95015367802265
 40
5.95015367802265
 40
5.95015367802265
 40
5.95015367802265
 10
-4371.954645490261
 20
-18243.52990756015
 30
0.0000000000000154
 10
-4371.978402113258
 20
-18243.52172083681
 30
-0.0000000000000022
 10
-4371.996929176909
 20
-18243.51734040488
 30
0.0000000000000066
 10
-4372.016744089357
 20
-18243.51570887676
 30
0.000000000000033
 10
-4372.024327327416
 20
-18243.5157335043
 30
-0.0000000000000022
 10
-4372.031630628065
 20
-18243.51883297663
 30
0.0000000000000066
 10
-4372.033644212091
 20
-18243.52009699244
 30
-0.0000000000000022
 10
-4372.035457803852
 20
-18243.52285425665
 30
0.0000000000000066
 10
-4372.035907121427
 20
-18243.52376592314
 30
0.0000000000000154
 10
-4372.036379718455
 20
-18243.52562115627
 30
0.0000000000000066
 10
-4372.036499067143
 20
-18243.52642780413
 30
0.0000000000000242
 10
-4372.036544682803
 20
-18243.52812562754
 30
0.0000000000000066
 10
-4372.036492528307
 20
-18243.52894177166
 30
0.0000000000000066
 10
-4372.036235270704
 20
-18243.53076390985
 30
0.0000000000000066
 10
-4372.036011660898
 20
-18243.53172890028
 30
0.0000000000000154
 10
-4372.035288569307
 20
-18243.53420886897
 30
0.0000000000000066
 10
-4372.034682888959
 20
-18243.53570369651
 30
-0.0000000000000022
 10
-4372.032638324858
 20
-18243.54012248947
 30
0.0000000000000066
 10
-4372.030748105612
 20
-18243.54316235405
 30
0.0000000000000066
 10
-4372.024299050888
 20
-18243.55245405525
 30
0.0000000000000154
 10
-4372.018392225692
 20
-18243.55897030064
 30
-0.0000000000000022
 10
-4372.013606632757
 20
-18243.56390535877
 30
-0.0000000000000022
  0
SPLINE
  5
271AE3
330
18
100
AcDbEntity
  8
姿図
100
AcDbSpline
210
0.0
220
0.0
230
1.0
 70
     8
 71
     3
 72
    10
 73
     6
 74
     0
 42
0.000000001
 43
0.0000000001
 40
1.049331515521564
 40
1.049331515521564
 40
1.049331515521564
 40
1.049331515521564
 40
1.060416395005242
 40
1.060416395005242
 40
1.145877108045186
 40
1.145877108045186
 40
1.145877108045186
 40
1.145877108045186
 10
-4370.555283330395
 20
-18245.47892086607
 30
0.0000000000000154
 10
-4370.555009390721
 20
-18245.47973355079
 30
0.0000000000000154
 10
-4370.554768732502
 20
-18245.48055193361
 30
0.0000000000000154
 10
-4370.552962811032
 20
-18245.48770544435
 30
-0.000000000000011
 10
-4370.553456602834
 20
-18245.49419672832
 30
0.0000000000000066
 10
-4370.555257984622
 20
-18245.49973037987
 30
-0.0000000000000022
  0
SPLINE
  5
271AE4
330
18
100
AcDbEntity
  8
姿図
100
AcDbSpline
210
0.0
220
0.0
230
1.0
 70
    11
 71
     3
 72
    38
 73
    34
 74
     0
 42
0.000000001
 43
0.0000000001
 40
0.0
 40
0.0
 40
0.0
 40
0.0
 40
0.4899871145494815
 40
0.4899871145494815
 40
0.979974229098963
 40
0.979974229098963
 40
1.469880324151053
 40
1.469880324151053
 40
1.959786419203144
 40
1.959786419203144
 40
2.449692514255234
 40
2.449692514255234
 40
2.939598609307323
 40
2.939598609307323
 40
3.429585723856796
 40
3.429585723856796
 40
3.919572838406268
 40
3.919572838406268
 40
4.409171093943909
 40
4.409171093943909
 40
4.898769349481551
 40
4.898769349481551
 40
5.388322667025809
 40
5.388322667025809
 40
5.877875984570069
 40
5.877875984570069
 40
6.367429302114321
 40
6.367429302114321
 40
6.856982619658574
 40
6.856982619658574
 40
7.346580875196199
 40
7.346580875196199
 40
7.836179130733825
 40
7.836179130733825
 40
7.836179130733825
 40
7.836179130733825
 10
-4376.72051720265
 20
-18244.09554973783
 30
-0.0000000000000022
 10
-4376.719817468414
 20
-18244.14423330725
 30
0.0000000000000066
 10
-4376.726669361015
 20
-18244.19442993492
 30
0.0000000000000066
 10
-4376.756254880587
 20
-18244.28293972021
 30
-0.0000000000000022
 10
-4376.778995591129
 20
-18244.32125550165
 30
0.0000000000000066
 10
-4376.832072946948
 20
-18244.37796222237
 30
0.0000000000000066
 10
-4376.865947481704
 20
-18244.40013567969
 30
0.0000000000000066
 10
-4376.940820567576
 20
-18244.42299379919
 30
0.0000000000000066
 10
-4376.981826568119
 20
-18244.42368034364
 30
0.0000000000000154
 10
-4377.059237786181
 20
-18244.40679576661
 30
-0.0000000000000022
 10
-4377.100795373481
 20
-18244.38810083407
 30
0.0000000000000154
 10
-4377.177785456818
 20
-18244.33211902215
 30
0.0000000000000066
 10
-4377.213210971632
 20
-18244.29483015837
 30
-0.0000000000000022
 10
-4377.269560676005
 20
-18244.21425571316
 30
0.0000000000000154
 10
-4377.294238543248
 20
-18244.16559721074
 30
0.0000000000000242
 10
-4377.32751133993
 20
-18244.06337706009
 30
-0.0000000000000022
 10
-4377.336098924136
 20
-18244.00981284511
 30
0.0000000000000154
 10
-4377.337431243038
 20
-18243.91249886731
 30
0.0000000000000066
 10
-4377.330276664176
 20
-18243.8622601762
 30
-0.0000000000000022
 10
-4377.29965304021
 20
-18243.77352041497
 30
0.0000000000000066
 10
-4377.276191090227
 20
-18243.73502178121
 30
0.0000000000000154
 10
-4377.221774339568
 20
-18243.67796417755
 30
0.0000000000000154
 10
-4377.187194194646
 20
-18243.65560025937
 30
0.0000000000000066
 10
-4377.111347607938
 20
-18243.63247060042
 30
0.0000000000000154
 10
-4377.07008838513
 20
-18243.63170706722
 30
0.0000000000000154
 10
-4376.992732910275
 20
-18243.64857948579
 30
0.0000000000000242
 10
-4376.951479077105
 20
-18243.66734038531
 30
0.0000000000000154
 10
-4376.87552872506
 20
-18243.72357929081
 30
0.0000000000000154
 10
-4376.840825004771
 20
-18243.76105508538
 30
0.0000000000000066
 10
-4376.785817073015
 20
-18243.84197989491
 30
0.0000000000000066
 10
-4376.76184565619
 20
-18243.89082447536
 30
0.0000000000000154
 10
-4376.729548968383
 20
-18243.99328812413
 30
0.0000000000000242
 10
-4376.721216381568
 20
-18244.04690480421
 30
0.0000000000000066
 10
-4376.72051720265
 20
-18244.09554973783
 30
-0.0000000000000022
  0
SPLINE
  5
271AE5
330
18
100
AcDbEntity
  8
姿図
100
AcDbSpline
210
0.0
220
0.0
230
1.0
 70
     8
 71
     3
 72
    24
 73
    20
 74
     0
 42
0.000000001
 43
0.0000000001
 40
9.158211213992672
 40
9.158211213992672
 40
9.158211213992672
 40
9.158211213992672
 40
9.170191443583112
 40
9.170191443583112
 40
9.737477062085201
 40
9.737477062085201
 40
10.30476268058729
 40
10.30476268058729
 40
10.87204829908938
 40
10.87204829908938
 40
11.43933391759147
 40
11.43933391759147
 40
12.01567227050256
 40
12.01567227050256
 40
12.59201062341365
 40
12.59201062341365
 40
13.16834897632474
 40
13.16834897632474
 40
13.72927459805347
 40
13.72927459805347
 40
13.72927459805347
 40
13.72927459805347
 10
-4372.928350740661
 20
-18240.08018443553
 30
0.0000000000000242
 10
-4372.928325871827
 20
-18240.08137914815
 30
0.0000000000000154
 10
-4372.928302315299
 20
-18240.08257247163
 30
0.0000000000000154
 10
-4372.927226524821
 20
-18240.14020374191
 30
0.000000000000033
 10
-4372.929078042474
 20
-18240.19725333991
 30
0.0000000000000154
 10
-4372.939311639227
 20
-18240.30778227639
 30
0.0000000000000154
 10
-4372.947691600198
 20
-18240.3612637636
 30
-0.0000000000000022
 10
-4372.970701894038
 20
-18240.46072710984
 30
0.0000000000000066
 10
-4372.985353380746
 20
-18240.50679267406
 30
0.0000000000000066
 10
-4373.019797085957
 20
-18240.58875329741
 30
0.000000000000033
 10
-4373.03959404475
 20
-18240.6246453399
 30
-0.0000000000000022
 10
-4373.082581776908
 20
-18240.68540770194
 30
-0.0000000000000022
 10
-4373.107292673872
 20
-18240.7121790522
 30
0.0000000000000154
 10
-4373.161688896605
 20
-18240.75476713567
 30
0.0000000000000154
 10
-4373.191374767278
 20
-18240.77058986133
 30
0.0000000000000154
 10
-4373.253917271424
 20
-18240.78993071
 30
0.0000000000000066
 10
-4373.28682415041
 20
-18240.79346534209
 30
0.0000000000000066
 10
-4373.352711575818
 20
-18240.7887312001
 30
-0.0000000000000022
 10
-4373.385667173202
 20
-18240.78077627172
 30
0.0000000000000154
 10
-4373.417847572997
 20
-18240.76826751197
 30
0.0000000000000066
  0
SPLINE
  5
271AE6
330
18
100
AcDbEntity
  8
姿図
100
AcDbSpline
210
0.0
220
0.0
230
1.0
 70
     8
 71
     3
 72
    10
 73
     6
 74
     0
 42
0.000000001
 43
0.0000000001
 40
0.0588189760599532
 40
0.0588189760599532
 40
0.0588189760599532
 40
0.0588189760599532
 40
0.3767108973350863
 40
0.3767108973350863
 40
0.456659258613309
 40
0.456659258613309
 40
0.456659258613309
 40
0.456659258613309
 10
-4392.984521187152
 20
-18241.28914490852
 30
0.0000000000000154
 10
-4392.982406036953
 20
-18241.32150041495
 30
-0.0000000000000022
 10
-4392.974573614739
 20
-18241.35471055013
 30
0.0000000000000066
 10
-4392.957813184869
 20
-18241.39305883312
 30
0.0000000000000242
 10
-4392.954087698273
 20
-18241.40060221267
 30
-0.000000000000011
 10
-4392.950079744634
 20
-18241.40796630192
 30
-0.0000000000000022
  0
SPLINE
  5
271AE7
330
18
100
AcDbEntity
  8
姿図
100
AcDbSpline
210
0.0
220
0.0
230
1.0
 70
    11
 71
     3
 72
    38
 73
    34
 74
     0
 42
0.000000001
 43
0.0000000001
 40
0.0
 40
0.0
 40
0.0
 40
0.0
 40
0.4899871145494814
 40
0.4899871145494814
 40
0.9799742290989628
 40
0.9799742290989628
 40
1.469880324151052
 40
1.469880324151052
 40
1.959786419203141
 40
1.959786419203141
 40
2.44969251425523
 40
2.44969251425523
 40
2.939598609307319
 40
2.939598609307319
 40
3.429585723856792
 40
3.429585723856792
 40
3.919572838406264
 40
3.919572838406264
 40
4.409171093943907
 40
4.409171093943907
 40
4.898769349481549
 40
4.898769349481549
 40
5.388322667025805
 40
5.388322667025805
 40
5.877875984570061
 40
5.877875984570061
 40
6.367429302114317
 40
6.367429302114317
 40
6.856982619658573
 40
6.856982619658573
 40
7.346580875196197
 40
7.346580875196197
 40
7.836179130733821
 40
7.836179130733821
 40
7.836179130733821
 40
7.836179130733821
 10
-4395.954631139296
 20
-18243.10089820129
 30
0.0000000000000242
 10
-4395.95497107545
 20
-18243.14952800636
 30
0.0000000000000066
 10
-4395.964922937314
 20
-18243.20223560638
 30
0.0000000000000066
 10
-4396.004548180282
 20
-18243.30108750369
 30
0.0000000000000066
 10
-4396.034217593886
 20
-18243.34723489043
 30
0.0000000000000066
 10
-4396.102369149651
 20
-18243.42205675592
 30
0.0000000000000066
 10
-4396.145391908689
 20
-18243.45572091782
 30
0.0000000000000066
 10
-4396.239333223712
 20
-18243.50380484585
 30
0.0000000000000154
 10
-4396.290248260516
 20
-18243.51822708153
 30
0.0000000000000066
 10
-4396.385450765388
 20
-18243.52713604287
 30
0.0000000000000154
 10
-4396.436074763505
 20
-18243.52221573508
 30
0.0000000000000066
 10
-4396.528899068103
 20
-18243.49160915899
 30
0.0000000000000066
 10
-4396.571103469575
 20
-18243.46592047503
 30
0.0000000000000242
 10
-4396.637528406621
 20
-18243.40369215183
 30
0.0000000000000066
 10
-4396.666175700801
 20
-18243.36300198804
 30
0.0000000000000242
 10
-4396.703855392559
 20
-18243.2713842142
 30
0.0000000000000242
 10
-4396.712891435844
 20
-18243.22045348458
 30
0.0000000000000154
 10
-4396.712129933821
 20
-18243.1232248035
 30
0.0000000000000154
 10
-4396.702295875218
 20
-18243.07044751313
 30
-0.000000000000011
 10
-4396.663163899067
 20
-18242.9712842252
 30
-0.0000000000000022
 10
-4396.633862043909
 20
-18242.92490113586
 30
0.0000000000000066
 10
-4396.566419294527
 20
-18242.84963415907
 30
0.0000000000000154
 10
-4396.523783064674
 20
-18242.81573185628
 30
0.0000000000000154
 10
-4396.430413605588
 20
-18242.7673163713
 30
0.0000000000000154
 10
-4396.379676582778
 20
-18242.75280590855
 30
0.0000000000000066
 10
-4396.284542632478
 20
-18242.74390336248
 30
0.0000000000000066
 10
-4396.233802765883
 20
-18242.74891771287
 30
-0.0000000000000022
 10
-4396.140488057436
 20
-18242.77986346811
 30
0.0000000000000154
 10
-4396.097917030765
 20
-18242.80579215555
 30
-0.0000000000000022
 10
-4396.030786211587
 20
-18242.8684658637
 30
-0.0000000000000022
 10
-4396.001753171005
 20
-18242.90939002809
 30
0.0000000000000154
 10
-4395.963503968586
 20
-18243.00131205772
 30
0.0000000000000242
 10
-4395.954291472922
 20
-18243.05230698936
 30
0.0000000000000066
 10
-4395.954631139296
 20
-18243.10089820129
 30
0.0000000000000242
  0
SPLINE
  5
271AE8
330
18
100
AcDbEntity
  8
姿図
100
AcDbSpline
210
0.0
220
0.0
230
1.0
 70
     8
 71
     3
 72
    14
 73
    10
 74
     0
 42
0.000000001
 43
0.0000000001
 40
1.516995086374685
 40
1.516995086374685
 40
1.516995086374685
 40
1.516995086374685
 40
1.894466177168912
 40
1.894466177168912
 40
2.274814964391462
 40
2.274814964391462
 40
2.651000233863917
 40
2.651000233863917
 40
2.975314369919599
 40
2.975314369919599
 40
2.975314369919599
 40
2.975314369919599
 10
-4398.71594294423
 20
-18236.56319403261
 30
0.0000000000000066
 10
-4398.750506424196
 20
-18236.56789199473
 30
0.0000000000000066
 10
-4398.787371244208
 20
-18236.58030363849
 30
0.0000000000000066
 10
-4398.855637165309
 20
-18236.61985506536
 30
0.0000000000000242
 10
-4398.886996830765
 20
-18236.64711324321
 30
0.0000000000000066
 10
-4398.936416317833
 20
-18236.70679645921
 30
0.0000000000000242
 10
-4398.957861656851
 20
-18236.74309420538
 30
-0.0000000000000022
 10
-4398.98462828464
 20
-18236.81486419898
 30
0.0000000000000066
 10
-4398.991841507329
 20
-18236.8497660275
 30
0.0000000000000154
 10
-4398.993764956625
 20
-18236.88268461217
 30
-0.0000000000000022
  0
SPLINE
  5
271AE9
330
18
100
AcDbEntity
  8
姿図
100
AcDbSpline
210
6.199789767861157E-9
220
1.399420984518079E-10
230
1.0
 70
    12
 71
     2
 72
     6
 73
     3
 74
     0
 42
0.000000001
 43
0.0000000001
 40
18.67224162152367
 40
18.67224162152367
 40
18.67224162152367
 40
24.03177626439027
 40
24.03177626439027
 40
24.03177626439027
 10
-4408.489681599501
 20
-18245.01625343364
 30
-0.000000000000011
 41
1.000007196260523
 10
-4408.507778535428
 20
-18244.21463919285
 30
0.0000000000000066
 41
1.000006449331705
 10
-4408.525911386781
 20
-18243.41137085592
 30
0.0000000000000154
 41
1.000004680735829
  0
SPLINE
  5
271AEA
330
18
100
AcDbEntity
  8
姿図
100
AcDbSpline
210
0.0
220
0.0
230
1.0
 70
     8
 71
     3
 72
    24
 73
    20
 74
     0
 42
0.000000001
 43
0.0000000001
 40
0.0132670700154636
 40
0.0132670700154636
 40
0.0132670700154636
 40
0.0132670700154636
 40
0.5643354427835523
 40
0.5643354427835523
 40
1.128670885567105
 40
1.128670885567105
 40
1.693006328350657
 40
1.693006328350657
 40
2.257341771134209
 40
2.257341771134209
 40
2.838611106649443
 40
2.838611106649443
 40
3.419880442164678
 40
3.419880442164678
 40
4.001149777679912
 40
4.001149777679912
 40
4.582419113195146
 40
4.582419113195146
 40
4.599511058232551
 40
4.599511058232551
 40
4.599511058232551
 40
4.599511058232551
 10
-4408.525911386782
 20
-18243.41137085592
 30
0.0000000000000154
 10
-4408.52467091913
 20
-18243.46632241134
 30
0.0000000000000066
 10
-4408.524208467316
 20
-18243.52163122308
 30
-0.0000000000000022
 10
-4408.525069725111
 20
-18243.62982676715
 30
0.0000000000000242
 10
-4408.526436147559
 20
-18243.68262428324
 30
0.0000000000000242
 10
-4408.5308949361
 20
-18243.78046894009
 30
0.0000000000000066
 10
-4408.533988909368
 20
-18243.82559580874
 30
-0.0000000000000022
 10
-4408.541471253805
 20
-18243.90552040509
 30
0.0000000000000066
 10
-4408.545857151533
 20
-18243.94031465243
 30
0.0000000000000154
 10
-4408.555396604682
 20
-18243.99923761351
 30
-0.0000000000000022
 10
-4408.560907241394
 20
-18244.02509268526
 30
0.0000000000000066
 10
-4408.572801904168
 20
-18244.06545272432
 30
-0.0000000000000022
 10
-4408.579182490907
 20
-18244.07996334656
 30
0.0000000000000242
 10
-4408.592229149057
 20
-18244.09631674008
 30
-0.0000000000000022
 10
-4408.598903170446
 20
-18244.09817301904
 30
0.0000000000000066
 10
-4408.611983941309
 20
-18244.08972742634
 30
0.0000000000000154
 10
-4408.618390136832
 20
-18244.07942137108
 30
0.000000000000033
 10
-4408.624599560478
 20
-18244.06382193683
 30
0.0000000000000154
 10
-4408.624776976744
 20
-18244.06337130891
 30
0.0000000000000242
 10
-4408.624954432834
 20
-18244.06291563234
 30
0.0000000000000066
  0
SPLINE
  5
271AEB
330
18
100
AcDbEntity
  8
姿図
100
AcDbSpline
210
0.0
220
0.0
230
1.0
 70
    11
 71
     3
 72
    38
 73
    34
 74
     0
 42
0.000000001
 43
0.0000000001
 40
0.0
 40
0.0
 40
0.0
 40
0.0
 40
0.4899871145494816
 40
0.4899871145494816
 40
0.9799742290989633
 40
0.9799742290989633
 40
1.469880324151052
 40
1.469880324151052
 40
1.959786419203141
 40
1.959786419203141
 40
2.44969251425523
 40
2.44969251425523
 40
2.939598609307319
 40
2.939598609307319
 40
3.429585723856792
 40
3.429585723856792
 40
3.919572838406264
 40
3.919572838406264
 40
4.409171093943907
 40
4.409171093943907
 40
4.898769349481552
 40
4.898769349481552
 40
5.388322667025808
 40
5.388322667025808
 40
5.877875984570063
 40
5.877875984570063
 40
6.367429302114317
 40
6.367429302114317
 40
6.856982619658572
 40
6.856982619658572
 40
7.346580875196196
 40
7.346580875196196
 40
7.83617913073382
 40
7.83617913073382
 40
7.83617913073382
 40
7.83617913073382
 10
-4408.899857015031
 20
-18246.91478112914
 30
0.0000000000000154
 10
-4408.900896685417
 20
-18246.96361708777
 30
0.0000000000000066
 10
-4408.903996654682
 20
-18247.01827501307
 30
0.0000000000000066
 10
-4408.914036378076
 20
-18247.12454830882
 30
0.0000000000000154
 10
-4408.920965081138
 20
-18247.17616452452
 30
0.0000000000000154
 10
-4408.936039281086
 20
-18247.26342275188
 30
0.0000000000000066
 10
-4408.945187505368
 20
-18247.30488278445
 30
-0.0000000000000022
 10
-4408.964255734518
 20
-18247.36985364339
 30
0.0000000000000066
 10
-4408.974164770777
 20
-18247.39336477441
 30
-0.000000000000011
 10
-4408.991956057588
 20
-18247.41915831277
 30
0.0000000000000066
 10
-4409.001022468407
 20
-18247.42315749773
 30
0.0000000000000154
 10
-4409.016856689667
 20
-18247.40878768317
 30
0.0000000000000066
 10
-4409.023635576325
 20
-18247.39041853499
 30
0.0000000000000066
 10
-4409.033710808998
 20
-18247.33962157441
 30
-0.0000000000000022
 10
-4409.037680235932
 20
-18247.30380530265
 30
0.0000000000000154
 10
-4409.042087131012
 20
-18247.21847649572
 30
0.0000000000000242
 10
-4409.04253559009
 20
-18247.16896302813
 30
0.0000000000000154
 10
-4409.040441769163
 20
-18247.0713076783
 30
0.0000000000000242
 10
-4409.037762289424
 20
-18247.01666049934
 30
0.0000000000000154
 10
-4409.029253937238
 20
-18246.9103783531
 30
0.0000000000000154
 10
-4409.023414032064
 20
-18246.85874405703
 30
0.0000000000000066
 10
-4409.010388033344
 20
-18246.77145269593
 30
0.0000000000000154
 10
-4409.002331948411
 20
-18246.7299754788
 30
0.0000000000000154
 10
-4408.984809076034
 20
-18246.66498943641
 30
-0.0000000000000022
 10
-4408.975331276032
 20
-18246.64148111812
 30
0.0000000000000154
 10
-4408.957552800585
 20
-18246.61570615349
 30
-0.0000000000000022
 10
-4408.948066767161
 20
-18246.61172099309
 30
0.0000000000000154
 10
-4408.930702410759
 20
-18246.62612805919
 30
0.0000000000000066
 10
-4408.922835104377
 20
-18246.64451978459
 30
-0.0000000000000022
 10
-4408.910712216956
 20
-18246.69535067117
 30
0.0000000000000154
 10
-4408.905650593198
 20
-18246.73118009559
 30
-0.0000000000000022
 10
-4408.899698078585
 20
-18246.816497096
 30
0.0000000000000066
 10
-4408.898818169734
 20
-18246.86598392726
 30
0.0000000000000242
 10
-4408.899857015031
 20
-18246.91478112914
 30
0.0000000000000154
  0
ELLIPSE
  5
271D4B
330
18
100
AcDbEntity
  8
姿図
100
AcDbEllipse
 10
-4389.665743078383
 20
-18247.75990097209
 30
0.0
 11
-3.920994
 21
3.014575639115336E-14
 31
4.353177818217091E-16
210
1.110223024625157E-16
220
-8.535721513524229E-31
230
1.0
 40
0.2588190451025151
 41
7.05809798368468
 42
7.062404494700122
  0
LINE
  5
271D4C
330
18
100
AcDbEntity
  8
姿図
100
AcDbLine
 10
-4386.285937428984
 20
-18248.50376500536
 30
-0.0000000000000046
 11
-4386.285937428984
 21
-18247.24543617183
 31
-0.0000000000000046
  0
TEXT
  5
27253B
330
18
100
AcDbEntity
  8
文字
100
AcDbText
 10
-4423.343443881158
 20
-18324.91641586658
 30
0.0
 40
6.0
  1
SX-503/80DF
  7
EXTFONT
100
AcDbText
  0
ENDSEC
  0
SECTION
  2
OBJECTS
  0
DICTIONARY
  5
C
330
0
100
AcDbDictionary
281
     1
  3
ACAD_GROUP
350
D
  3
ACAD_IMAGE_VARS
350
272792
  3
ACAD_LAYOUT
350
353
  3
ACAD_MLINESTYLE
350
E
  3
ACAD_PLOTSETTINGS
350
354
  3
ACAD_PLOTSTYLENAME
350
351
  3
ACAD_SCALELIST
350
26A85C
  3
AcadDim
350
A3ACF
  3
AcDbVariableDictionary
350
1C63
  3
APPDATA
350
272791
  3
DWGPROPS
350
2727B6
  0
DICTIONARY
  5
1339DB
330
2
100
AcDbDictionary
280
     1
281
     1
  3
ACAD_LAYERFILTERS
360
146A70
  3
ACAD_LAYERSTATES
360
1339DC
  0
DICTIONARY
  5
26A939
330
F
100
AcDbDictionary
280
     1
281
     1
  3
ADSK_XREC_LAYER_RECONCILED
360
26A93A
  0
DICTIONARY
  5
26A93D
330
34
100
AcDbDictionary
280
     1
281
     1
  3
ADSK_XREC_LAYER_RECONCILED
360
26A93E
  0
DICTIONARY
  5
26A945
330
2F4
100
AcDbDictionary
280
     1
281
     1
  3
ADSK_XREC_LAYER_RECONCILED
360
26A946
  0
DICTIONARY
  5
26A949
330
305
100
AcDbDictionary
280
     1
281
     1
  3
ADSK_XREC_LAYER_RECONCILED
360
26A94A
  0
DICTIONARY
  5
26A94B
330
1ACBD9
100
AcDbDictionary
280
     1
281
     1
  3
ADSK_XREC_LAYER_RECONCILED
360
26A94C
  0
DICTIONARY
  5
26A94D
330
1ACBDC
100
AcDbDictionary
280
     1
281
     1
  3
ADSK_XREC_LAYER_RECONCILED
360
26A94E
  0
DICTIONARY
  5
26A92E
330
18
100
AcDbDictionary
280
     1
281
     1
  3
ACAD_SORTENTS
360
26A92F
  0
DICTIONARY
  5
D
102
{ACAD_REACTORS
330
C
102
}
330
C
100
AcDbDictionary
281
     1
  0
RASTERVARIABLES
  5
272792
102
{ACAD_REACTORS
330
C
102
}
330
C
100
AcDbRasterVariables
 90
        0
 70
     1
 71
     1
 72
     0
  0
DICTIONARY
  5
353
102
{ACAD_REACTORS
330
C
102
}
330
C
100
AcDbDictionary
281
     1
  3
Model
350
355
  3
ﾚｲｱｳﾄ1
350
356
  0
DICTIONARY
  5
E
102
{ACAD_REACTORS
330
C
102
}
330
C
100
AcDbDictionary
281
     1
  3
STANDARD
350
1B
  0
DICTIONARY
  5
354
102
{ACAD_REACTORS
330
C
102
}
330
C
100
AcDbDictionary
281
     1
  0
ACDBDICTIONARYWDFLT
  5
351
102
{ACAD_REACTORS
330
C
102
}
330
C
100
AcDbDictionary
281
     1
  3
Normal
350
352
100
AcDbDictionaryWithDefault
340
352
  0
DICTIONARY
  5
26A85C
102
{ACAD_REACTORS
330
C
102
}
330
C
100
AcDbDictionary
281
     1
  3
A0
350
26A85D
  3
A1
350
26A85E
  3
A2
350
26A85F
  3
A3
350
26A860
  3
A4
350
26A861
  3
A5
350
26A862
  3
A6
350
26A863
  3
A7
350
26A864
  3
A8
350
26A865
  3
A9
350
26A866
  3
B0
350
26A867
  3
B1
350
26A868
  3
B2
350
26A869
  3
B3
350
26A86A
  3
B4
350
26A86B
  3
B5
350
26A86C
  3
B6
350
26A86D
  3
B7
350
26A86E
  3
B8
350
26A86F
  3
B9
350
26A870
  3
C0
350
26A871
  3
C1
350
26A872
  3
C2
350
26A873
  3
C3
350
26A874
  3
C4
350
26A875
  3
C5
350
26A876
  3
C6
350
26A877
  3
C7
350
26A878
  3
C8
350
26A879
  3
C9
350
26A87A
  3
D0
350
26A87B
  3
D1
350
26A87C
  3
D2
350
26A87D
  0
XRECORD
  5
A3ACF
102
{ACAD_REACTORS
330
C
102
}
330
C
100
AcDbXrecord
280
     1
 90
   990106
  3

 60
     0
 61
     0
 62
     4
 63
     4
 64
     1
 65
     0
 66
     0
 67
     3
 68
     1
 69
     0
 70
     0
 71
     0
 72
     0
 40
0.0
170
     2
340
1CADE4
  0
DICTIONARY
  5
1C63
102
{ACAD_REACTORS
330
C
102
}
330
C
100
AcDbDictionary
281
     1
  3
DIMASSOC
350
272F6
  3
INDEXCTL
350
26A984
  3
PROJECTNAME
350
273B1
  3
SORTENTS
350
1C64
  0
DICTIONARY
  5
272791
102
{ACAD_REACTORS
330
C
102
}
330
C
100
AcDbDictionary
281
     1
  0
XRECORD
  5
2727B6
102
{ACAD_REACTORS
330
C
102
}
330
C
100
AcDbXrecord
280
     1
  1
DWGPROPS COOKIE
  2

  3

  4

  6

  7

  8
SPAX
  9

300
=
301
=
302
=
303
=
304
=
305
=
306
=
307
=
308
=
309
=
 40
0.0
 41
2448636.244629629
 42
2456821.230282326
  1

 90
        0
  0
DICTIONARY
  5
146A70
102
{ACAD_REACTORS
330
1339DB
102
}
330
1339DB
100
AcDbDictionary
281
     1
  0
DICTIONARY
  5
1339DC
102
{ACAD_REACTORS
330
1339DB
102
}
330
1339DB
100
AcDbDictionary
281
     1
  0
XRECORD
  5
26A93A
102
{ACAD_REACTORS
330
26A939
102
}
330
26A939
100
AcDbXrecord
280
     1
290
     1
  0
XRECORD
  5
26A93E
102
{ACAD_REACTORS
330
26A93D
102
}
330
26A93D
100
AcDbXrecord
280
     1
290
     1
  0
XRECORD
  5
26A946
102
{ACAD_REACTORS
330
26A945
102
}
330
26A945
100
AcDbXrecord
280
     1
290
     1
  0
XRECORD
  5
26A94A
102
{ACAD_REACTORS
330
26A949
102
}
330
26A949
100
AcDbXrecord
280
     1
290
     1
  0
XRECORD
  5
26A94C
102
{ACAD_REACTORS
330
26A94B
102
}
330
26A94B
100
AcDbXrecord
280
     1
290
     1
  0
XRECORD
  5
26A94E
102
{ACAD_REACTORS
330
26A94D
102
}
330
26A94D
100
AcDbXrecord
280
     1
290
     1
  0
SORTENTSTABLE
  5
26A92F
102
{ACAD_REACTORS
330
26A92E
102
}
330
26A92E
100
AcDbSortentsTable
330
18
331
0
  5
2242A1
331
1CADCE
  5
1CADCE
331
1CADD6
  5
1CADD6
331
1CADDC
  5
1CADDC
331
1CADE4
  5
1CADE4
  0
LAYOUT
  5
355
102
{ACAD_REACTORS
330
353
102
}
330
353
100
AcDbPlotSettings
  1

  2
JUST PDF 2
  4
A4
  6

 40
3.174999952316284
 41
3.174999952316284
 42
3.175003051757812
 43
3.17498779296875
 44
209.8886566162109
 45
297.0530090332031
 46
14.27171755861536
 47
9.855173074625782
 48
-4431.732790444863
 49
-18729.29509357326
140
-4081.742353455051
141
-18187.30974329593
142
1.0
143
2.0
 70
 11956
 72
     1
 73
     0
 74
     4
  7
spax form.ctb
 75
    17
147
0.5
148
4431.732790444863
149
18729.29509357326
100
AcDbLayout
  1
Model
 70
     1
 71
     0
 10
0.0
 20
0.0
 11
12.0
 21
9.0
 12
0.0
 22
0.0
 32
0.0
 14
-4423.343443881158
 24
-18324.91641586658
 34
-0.0000000000000128
 15
-4361.343443881158
 25
-18233.58499245995
 35
0.0000000000000242
146
0.0
 13
0.0
 23
0.0
 33
0.0
 16
1.0
 26
0.0
 36
0.0
 17
0.0
 27
1.0
 37
0.0
 76
     0
330
18
331
2717C1
1001
ACAD_PSEXT
1000
JUST PDF 2
1000
JUST PDF 2
1000
JUST PDF 2 Port:
1000

1070
     0
  0
LAYOUT
  5
356
102
{ACAD_REACTORS
330
353
102
}
330
353
100
AcDbPlotSettings
  1

  2
Canon LASER SHOT LBP-750
  4

  6

 40
0.0
 41
0.0
 42
0.0
 43
0.0
 44
0.0
 45
0.0
 46
0.0
 47
0.0
 48
0.0
 49
0.0
140
0.0
141
0.0
142
1.0
143
1.0
 70
   688
 72
     0
 73
     0
 74
     5
  7
spax form.ctb
 75
    16
147
1.0
148
0.0
149
0.0
100
AcDbLayout
  1
ﾚｲｱｳﾄ1
 70
     0
 71
     1
 10
0.0
 20
0.0
 11
12.0
 21
9.0
 12
0.0
 22
0.0
 32
0.0
 14
1.000000000000000E+20
 24
1.000000000000000E+20
 34
1.000000000000000E+20
 15
-1.000000000000000E+20
 25
-1.000000000000000E+20
 35
-1.000000000000000E+20
146
0.0
 13
0.0
 23
0.0
 33
0.0
 16
1.0
 26
0.0
 36
0.0
 17
0.0
 27
1.0
 37
0.0
 76
     0
330
15
  0
MLINESTYLE
  5
1B
102
{ACAD_REACTORS
330
E
102
}
330
E
100
AcDbMlineStyle
  2
STANDARD
 70
     0
  3

 62
     0
 51
90.0
 52
90.0
 71
     2
 49
0.5
 62
   256
  6
BYLAYER
 49
-0.5
 62
   256
  6
BYLAYER
  0
ACDBPLACEHOLDER
  5
352
102
{ACAD_REACTORS
330
351
102
}
330
351
  0
SCALE
  5
26A85D
102
{ACAD_REACTORS
330
26A85C
102
}
330
26A85C
100
AcDbScale
 70
     0
300
1:1
140
1.0
141
1.0
290
     1
  0
SCALE
  5
26A85E
102
{ACAD_REACTORS
330
26A85C
102
}
330
26A85C
100
AcDbScale
 70
     0
300
1:2
140
1.0
141
2.0
290
     0
  0
SCALE
  5
26A85F
102
{ACAD_REACTORS
330
26A85C
102
}
330
26A85C
100
AcDbScale
 70
     0
300
1:4
140
1.0
141
4.0
290
     0
  0
SCALE
  5
26A860
102
{ACAD_REACTORS
330
26A85C
102
}
330
26A85C
100
AcDbScale
 70
     0
300
1:5
140
1.0
141
5.0
290
     0
  0
SCALE
  5
26A861
102
{ACAD_REACTORS
330
26A85C
102
}
330
26A85C
100
AcDbScale
 70
     0
300
1:8
140
1.0
141
8.0
290
     0
  0
SCALE
  5
26A862
102
{ACAD_REACTORS
330
26A85C
102
}
330
26A85C
100
AcDbScale
 70
     0
300
1:10
140
1.0
141
10.0
290
     0
  0
SCALE
  5
26A863
102
{ACAD_REACTORS
330
26A85C
102
}
330
26A85C
100
AcDbScale
 70
     0
300
1:16
140
1.0
141
16.0
290
     0
  0
SCALE
  5
26A864
102
{ACAD_REACTORS
330
26A85C
102
}
330
26A85C
100
AcDbScale
 70
     0
300
1:20
140
1.0
141
20.0
290
     0
  0
SCALE
  5
26A865
102
{ACAD_REACTORS
330
26A85C
102
}
330
26A85C
100
AcDbScale
 70
     0
300
1:30
140
1.0
141
30.0
290
     0
  0
SCALE
  5
26A866
102
{ACAD_REACTORS
330
26A85C
102
}
330
26A85C
100
AcDbScale
 70
     0
300
1:40
140
1.0
141
40.0
290
     0
  0
SCALE
  5
26A867
102
{ACAD_REACTORS
330
26A85C
102
}
330
26A85C
100
AcDbScale
 70
     0
300
1:50
140
1.0
141
50.0
290
     0
  0
SCALE
  5
26A868
102
{ACAD_REACTORS
330
26A85C
102
}
330
26A85C
100
AcDbScale
 70
     0
300
1:100
140
1.0
141
100.0
290
     0
  0
SCALE
  5
26A869
102
{ACAD_REACTORS
330
26A85C
102
}
330
26A85C
100
AcDbScale
 70
     0
300
2:1
140
2.0
141
1.0
290
     0
  0
SCALE
  5
26A86A
102
{ACAD_REACTORS
330
26A85C
102
}
330
26A85C
100
AcDbScale
 70
     0
300
4:1
140
4.0
141
1.0
290
     0
  0
SCALE
  5
26A86B
102
{ACAD_REACTORS
330
26A85C
102
}
330
26A85C
100
AcDbScale
 70
     0
300
8:1
140
8.0
141
1.0
290
     0
  0
SCALE
  5
26A86C
102
{ACAD_REACTORS
330
26A85C
102
}
330
26A85C
100
AcDbScale
 70
     0
300
10:1
140
10.0
141
1.0
290
     0
  0
SCALE
  5
26A86D
102
{ACAD_REACTORS
330
26A85C
102
}
330
26A85C
100
AcDbScale
 70
     0
300
100:1
140
100.0
141
1.0
290
     0
  0
SCALE
  5
26A86E
102
{ACAD_REACTORS
330
26A85C
102
}
330
26A85C
100
AcDbScale
 70
     0
300
1/128" = 1'-0"
140
0.0078125
141
12.0
290
     0
  0
SCALE
  5
26A86F
102
{ACAD_REACTORS
330
26A85C
102
}
330
26A85C
100
AcDbScale
 70
     0
300
1/64" = 1'-0"
140
0.015625
141
12.0
290
     0
  0
SCALE
  5
26A870
102
{ACAD_REACTORS
330
26A85C
102
}
330
26A85C
100
AcDbScale
 70
     0
300
1/32" = 1'-0"
140
0.03125
141
12.0
290
     0
  0
SCALE
  5
26A871
102
{ACAD_REACTORS
330
26A85C
102
}
330
26A85C
100
AcDbScale
 70
     0
300
1/16" = 1'-0"
140
0.0625
141
12.0
290
     0
  0
SCALE
  5
26A872
102
{ACAD_REACTORS
330
26A85C
102
}
330
26A85C
100
AcDbScale
 70
     0
300
3/32" = 1'-0"
140
0.09375
141
12.0
290
     0
  0
SCALE
  5
26A873
102
{ACAD_REACTORS
330
26A85C
102
}
330
26A85C
100
AcDbScale
 70
     0
300
1/8" = 1'-0"
140
0.125
141
12.0
290
     0
  0
SCALE
  5
26A874
102
{ACAD_REACTORS
330
26A85C
102
}
330
26A85C
100
AcDbScale
 70
     0
300
3/16" = 1'-0"
140
0.1875
141
12.0
290
     0
  0
SCALE
  5
26A875
102
{ACAD_REACTORS
330
26A85C
102
}
330
26A85C
100
AcDbScale
 70
     0
300
1/4" = 1'-0"
140
0.25
141
12.0
290
     0
  0
SCALE
  5
26A876
102
{ACAD_REACTORS
330
26A85C
102
}
330
26A85C
100
AcDbScale
 70
     0
300
3/8" = 1'-0"
140
0.375
141
12.0
290
     0
  0
SCALE
  5
26A877
102
{ACAD_REACTORS
330
26A85C
102
}
330
26A85C
100
AcDbScale
 70
     0
300
1/2" = 1'-0"
140
0.5
141
12.0
290
     0
  0
SCALE
  5
26A878
102
{ACAD_REACTORS
330
26A85C
102
}
330
26A85C
100
AcDbScale
 70
     0
300
3/4" = 1'-0"
140
0.75
141
12.0
290
     0
  0
SCALE
  5
26A879
102
{ACAD_REACTORS
330
26A85C
102
}
330
26A85C
100
AcDbScale
 70
     0
300
1" = 1'-0"
140
1.0
141
12.0
290
     0
  0
SCALE
  5
26A87A
102
{ACAD_REACTORS
330
26A85C
102
}
330
26A85C
100
AcDbScale
 70
     0
300
1-1/2" = 1'-0"
140
1.5
141
12.0
290
     0
  0
SCALE
  5
26A87B
102
{ACAD_REACTORS
330
26A85C
102
}
330
26A85C
100
AcDbScale
 70
     0
300
3" = 1'-0"
140
3.0
141
12.0
290
     0
  0
SCALE
  5
26A87C
102
{ACAD_REACTORS
330
26A85C
102
}
330
26A85C
100
AcDbScale
 70
     0
300
6" = 1'-0"
140
6.0
141
12.0
290
     0
  0
SCALE
  5
26A87D
102
{ACAD_REACTORS
330
26A85C
102
}
330
26A85C
100
AcDbScale
 70
     0
300
1'-0" = 1'-0"
140
12.0
141
12.0
290
     0
  0
DICTIONARYVAR
  5
272F6
102
{ACAD_REACTORS
330
1C63
102
}
330
1C63
100
DictionaryVariables
280
     0
  1
1
  0
DICTIONARYVAR
  5
26A984
102
{ACAD_REACTORS
330
1C63
102
}
330
1C63
100
DictionaryVariables
280
     0
  1
0
  0
DICTIONARYVAR
  5
273B1
102
{ACAD_REACTORS
330
1C63
102
}
330
1C63
100
DictionaryVariables
280
     0
  1

  0
DICTIONARYVAR
  5
1C64
102
{ACAD_REACTORS
330
1C63
102
}
330
1C63
100
DictionaryVariables
280
     0
  1
1
  0
ENDSEC
  0
EOF
