  0
SECTION
  2
HEADER
  9
$ACADVER
  1
AC1015
  9
$ACADMAINTVER
 70
     6
  9
$DWGCODEPAGE
  3
ANSI_932
  9
$INSBASE
 10
0.0
 20
0.0
 30
0.0
  9
$EXTMIN
 10
2280.473875351074
 20
-191.5158139636368
 30
-0.0000000000000127
  9
$EXTMAX
 10
2333.327200676513
 20
-103.1077116441435
 30
0.0000000000000146
  9
$LIMMIN
 10
0.0
 20
0.0
  9
$LIMMAX
 10
840.0
 20
594.0
  9
$ORTHOMODE
 70
     1
  9
$REGENMODE
 70
     1
  9
$FILLMODE
 70
     1
  9
$QTEXTMODE
 70
     0
  9
$MIRRTEXT
 70
     1
  9
$LTSCALE
 40
7.0
  9
$ATTMODE
 70
     0
  9
$TEXTSIZE
 40
6.0
  9
$TRACEWID
 40
1.0
  9
$TEXTSTYLE
  7
STANDARD
  9
$CLAYER
  8
寸法線
  9
$CELTYPE
  6
BYLAYER
  9
$CECOLOR
 62
   256
  9
$CELTSCALE
 40
1.0
  9
$DISPSILH
 70
     0
  9
$DIMSCALE
 40
1.0
  9
$DIMASZ
 40
6.0
  9
$DIMEXO
 40
3.0
  9
$DIMDLI
 40
7.149999999999999
  9
$DIMRND
 40
0.0
  9
$DIMDLE
 40
0.0
  9
$DIMEXE
 40
2.0
  9
$DIMTP
 40
0.0
  9
$DIMTM
 40
0.0
  9
$DIMTXT
 40
5.0
  9
$DIMCEN
 40
0.0
  9
$DIMTSZ
 40
0.0
  9
$DIMTOL
 70
     0
  9
$DIMLIM
 70
     0
  9
$DIMTIH
 70
     0
  9
$DIMTOH
 70
     0
  9
$DIMSE1
 70
     0
  9
$DIMSE2
 70
     0
  9
$DIMTAD
 70
     3
  9
$DIMZIN
 70
     8
  9
$DIMBLK
  1
Open30
  9
$DIMASO
 70
     1
  9
$DIMSHO
 70
     0
  9
$DIMPOST
  1

  9
$DIMAPOST
  1

  9
$DIMALT
 70
     0
  9
$DIMALTD
 70
     2
  9
$DIMALTF
 40
25.4
  9
$DIMLFAC
 40
1.0
  9
$DIMTOFL
 70
     0
  9
$DIMTVP
 40
0.0
  9
$DIMTIX
 70
     0
  9
$DIMSOXD
 70
     0
  9
$DIMSAH
 70
     0
  9
$DIMBLK1
  1

  9
$DIMBLK2
  1

  9
$DIMSTYLE
  2
STANDARD
  9
$DIMCLRD
 70
     0
  9
$DIMCLRE
 70
     0
  9
$DIMCLRT
 70
     0
  9
$DIMTFAC
 40
1.0
  9
$DIMGAP
 40
2.0
  9
$DIMJUST
 70
     0
  9
$DIMSD1
 70
     0
  9
$DIMSD2
 70
     0
  9
$DIMTOLJ
 70
     1
  9
$DIMTZIN
 70
     0
  9
$DIMALTZ
 70
     0
  9
$DIMALTTZ
 70
     0
  9
$DIMUPT
 70
     1
  9
$DIMDEC
 70
     2
  9
$DIMTDEC
 70
     2
  9
$DIMALTU
 70
     2
  9
$DIMALTTD
 70
     2
  9
$DIMTXSTY
  7
STANDARD
  9
$DIMAUNIT
 70
     0
  9
$DIMADEC
 70
     2
  9
$DIMALTRND
 40
0.0
  9
$DIMAZIN
 70
     2
  9
$DIMDSEP
 70
    46
  9
$DIMATFIT
 70
     3
  9
$DIMFRAC
 70
     0
  9
$DIMLDRBLK
  1
Open30
  9
$DIMLUNIT
 70
     2
  9
$DIMLWD
 70
    -2
  9
$DIMLWE
 70
    -2
  9
$DIMTMOVE
 70
     0
  9
$LUNITS
 70
     2
  9
$LUPREC
 70
     2
  9
$SKETCHINC
 40
0.1
  9
$FILLETRAD
 40
5.0
  9
$AUNITS
 70
     0
  9
$AUPREC
 70
     2
  9
$MENU
  1
ACAD
  9
$ELEVATION
 40
0.0
  9
$PELEVATION
 40
0.0
  9
$THICKNESS
 40
0.0
  9
$LIMCHECK
 70
     0
  9
$CHAMFERA
 40
0.0
  9
$CHAMFERB
 40
0.0
  9
$CHAMFERC
 40
0.0
  9
$CHAMFERD
 40
0.0
  9
$SKPOLY
 70
     0
  9
$TDCREATE
 40
2449505.922222222
  9
$TDUCREATE
 40
2449505.547222222
  9
$TDUPDATE
 40
2456821.609745509
  9
$TDUUPDATE
 40
2456821.234745509
  9
$TDINDWG
 40
2.173471169
  9
$TDUSRTIMER
 40
2456821.234617234
  9
$USRTIMER
 70
     1
  9
$ANGBASE
 50
0.0
  9
$ANGDIR
 70
     0
  9
$PDMODE
 70
     3
  9
$PDSIZE
 40
0.0
  9
$PLINEWID
 40
0.0
  9
$SPLFRAME
 70
     0
  9
$SPLINETYPE
 70
     6
  9
$SPLINESEGS
 70
     8
  9
$HANDSEED
  5
258FC
  9
$SURFTAB1
 70
     6
  9
$SURFTAB2
 70
     6
  9
$SURFTYPE
 70
     6
  9
$SURFU
 70
     6
  9
$SURFV
 70
     6
  9
$UCSBASE
  2

  9
$UCSNAME
  2

  9
$UCSORG
 10
0.0
 20
0.0
 30
0.0
  9
$UCSXDIR
 10
1.0
 20
0.0
 30
0.0
  9
$UCSYDIR
 10
0.0
 20
1.0
 30
0.0
  9
$UCSORTHOREF
  2

  9
$UCSORTHOVIEW
 70
     0
  9
$UCSORGTOP
 10
0.0
 20
0.0
 30
0.0
  9
$UCSORGBOTTOM
 10
0.0
 20
0.0
 30
0.0
  9
$UCSORGLEFT
 10
0.0
 20
0.0
 30
0.0
  9
$UCSORGRIGHT
 10
0.0
 20
0.0
 30
0.0
  9
$UCSORGFRONT
 10
0.0
 20
0.0
 30
0.0
  9
$UCSORGBACK
 10
0.0
 20
0.0
 30
0.0
  9
$PUCSBASE
  2

  9
$PUCSNAME
  2

  9
$PUCSORG
 10
0.0
 20
0.0
 30
0.0
  9
$PUCSXDIR
 10
1.0
 20
0.0
 30
0.0
  9
$PUCSYDIR
 10
0.0
 20
1.0
 30
0.0
  9
$PUCSORTHOREF
  2

  9
$PUCSORTHOVIEW
 70
     0
  9
$PUCSORGTOP
 10
0.0
 20
0.0
 30
0.0
  9
$PUCSORGBOTTOM
 10
0.0
 20
0.0
 30
0.0
  9
$PUCSORGLEFT
 10
0.0
 20
0.0
 30
0.0
  9
$PUCSORGRIGHT
 10
0.0
 20
0.0
 30
0.0
  9
$PUCSORGFRONT
 10
0.0
 20
0.0
 30
0.0
  9
$PUCSORGBACK
 10
0.0
 20
0.0
 30
0.0
  9
$USERI1
 70
     0
  9
$USERI2
 70
     0
  9
$USERI3
 70
     0
  9
$USERI4
 70
     0
  9
$USERI5
 70
     0
  9
$USERR1
 40
0.0
  9
$USERR2
 40
0.0
  9
$USERR3
 40
0.0
  9
$USERR4
 40
0.0
  9
$USERR5
 40
0.0
  9
$WORLDVIEW
 70
     0
  9
$SHADEDGE
 70
     3
  9
$SHADEDIF
 70
    70
  9
$TILEMODE
 70
     1
  9
$MAXACTVP
 70
    16
  9
$PINSBASE
 10
0.0
 20
0.0
 30
0.0
  9
$PLIMCHECK
 70
     0
  9
$PEXTMIN
 10
1.000000000000000E+20
 20
1.000000000000000E+20
 30
1.000000000000000E+20
  9
$PEXTMAX
 10
-1.000000000000000E+20
 20
-1.000000000000000E+20
 30
-1.000000000000000E+20
  9
$PLIMMIN
 10
0.0
 20
0.0
  9
$PLIMMAX
 10
0.0
 20
0.0
  9
$UNITMODE
 70
     0
  9
$VISRETAIN
 70
     0
  9
$PLINEGEN
 70
     0
  9
$PSLTSCALE
 70
     0
  9
$TREEDEPTH
 70
  3020
  9
$CMLSTYLE
  2
STANDARD
  9
$CMLJUST
 70
     0
  9
$CMLSCALE
 40
1.0
  9
$PROXYGRAPHICS
 70
     1
  9
$MEASUREMENT
 70
     0
  9
$CELWEIGHT
370
    -1
  9
$ENDCAPS
280
     0
  9
$JOINSTYLE
280
     0
  9
$LWDISPLAY
290
     0
  9
$INSUNITS
 70
     0
  9
$HYPERLINKBASE
  1

  9
$STYLESHEET
  1
spax form.ctb
  9
$XEDIT
290
     1
  9
$CEPSNTYPE
380
     0
  9
$PSTYLEMODE
290
     1
  9
$FINGERPRINTGUID
  2
{C1CFCF3E-DF91-11D3-B30C-0060B0FA8DFC}
  9
$VERSIONGUID
  2
{24B0826F-388F-4B9F-9BAF-7B5921B5FD43}
  9
$EXTNAMES
290
     1
  9
$PSVPSCALE
 40
0.0
  9
$OLESTARTUP
290
     0
  0
ENDSEC
  0
SECTION
  2
CLASSES
  0
CLASS
  1
LWPOLYLINE
  2
AcDbPolyline
  3
ObjectDBX Classes
 90
        0
280
     0
281
     1
  0
CLASS
  1
ACDBDICTIONARYWDFLT
  2
AcDbDictionaryWithDefault
  3
ObjectDBX Classes
 90
        0
280
     0
281
     0
  0
CLASS
  1
ACDBPLACEHOLDER
  2
AcDbPlaceHolder
  3
ObjectDBX Classes
 90
        0
280
     0
281
     0
  0
CLASS
  1
LAYOUT
  2
AcDbLayout
  3
ObjectDBX Classes
 90
        0
280
     0
281
     0
  0
CLASS
  1
DICTIONARYVAR
  2
AcDbDictionaryVar
  3
ObjectDBX Classes
 90
        0
280
     0
281
     0
  0
CLASS
  1
LONG_TRANSACTION
  2
AcDbLongTransaction
  3
ObjectDBX Classes
 90
        0
280
     0
281
     0
  0
CLASS
  1
LWPOLYLINE
  2
AcDbPolyline
  3
ObjectDBX Classes
 90
        0
280
     0
281
     1
  0
CLASS
  1
HATCH
  2
AcDbHatch
  3
ObjectDBX Classes
 90
        0
280
     0
281
     1
  0
CLASS
  1
XRECORD
  2
AcDbXrecord
  3
ObjectDBX Classes
 90
        0
280
     0
281
     0
  0
CLASS
  1
MATERIAL
  2
AcDbMaterial
  3
ObjectDBX Classes
 90
     1153
280
     0
281
     0
  0
CLASS
  1
VISUALSTYLE
  2
AcDbVisualStyle
  3
ObjectDBX Classes
 90
     4095
280
     0
281
     0
  0
CLASS
  1
TABLESTYLE
  2
AcDbTableStyle
  3
ObjectDBX Classes
 90
     4095
280
     0
281
     0
  0
CLASS
  1
SCALE
  2
AcDbScale
  3
ObjectDBX Classes
 90
     1153
280
     0
281
     0
  0
CLASS
  1
MLEADERSTYLE
  2
AcDbMLeaderStyle
  3
ACDB_MLEADERSTYLE_CLASS
 90
     4095
280
     0
281
     0
  0
CLASS
  1
CELLSTYLEMAP
  2
AcDbCellStyleMap
  3
ObjectDBX Classes
 90
     1152
280
     0
281
     0
  0
CLASS
  1
SORTENTSTABLE
  2
AcDbSortentsTable
  3
ObjectDBX Classes
 90
        0
280
     0
281
     0
  0
CLASS
  1
RASTERVARIABLES
  2
AcDbRasterVariables
  3
ISM
 90
        0
280
     0
281
     0
  0
CLASS
  1
SUN
  2
AcDbSun
  3
SCENEOE
 90
     1153
280
     0
281
     0
  0
ENDSEC
  0
SECTION
  2
TABLES
  0
TABLE
  2
VPORT
  5
8
330
0
100
AcDbSymbolTable
 70
     1
  0
VPORT
  5
24438
330
8
100
AcDbSymbolTableRecord
100
AcDbViewportTableRecord
  2
*Active
 70
     0
 10
0.0
 20
0.0
 11
1.0
 21
1.0
 12
2306.900538013793
 22
-147.3117628038902
 13
0.0
 23
0.0
 14
1.0
 24
1.0
 15
20.0
 25
20.0
 16
0.0
 26
0.0
 36
1.0
 17
0.0
 27
0.0
 37
0.0
 40
90.17626436588326
 41
1.731829573934837
 42
50.0
 43
0.0
 44
0.0
 50
0.0
 51
0.0
 71
    16
 72
  2000
 73
     1
 74
     0
 75
     0
 76
     0
 77
     0
 78
     1
281
     0
 65
     1
110
0.0
120
0.0
130
0.0
111
1.0
121
0.0
131
0.0
112
0.0
122
1.0
132
0.0
 79
     0
146
0.0
  0
ENDTAB
  0
TABLE
  2
LTYPE
  5
5
330
0
100
AcDbSymbolTable
 70
     5
  0
LTYPE
  5
12
330
5
100
AcDbSymbolTableRecord
100
AcDbLinetypeTableRecord
  2
BYBLOCK
 70
     0
  3

 72
    65
 73
     0
 40
0.0
  0
LTYPE
  5
13
330
5
100
AcDbSymbolTableRecord
100
AcDbLinetypeTableRecord
  2
BYLAYER
 70
     0
  3

 72
    65
 73
     0
 40
0.0
  0
LTYPE
  5
14
330
5
100
AcDbSymbolTableRecord
100
AcDbLinetypeTableRecord
  2
CONTINUOUS
 70
     0
  3
Solid line
 72
    65
 73
     0
 40
0.0
  0
LTYPE
  5
3D
330
5
100
AcDbSymbolTableRecord
100
AcDbLinetypeTableRecord
  2
PHANTOM
 70
     0
  3
_____ _ _ _____ _ _ _____ _ _ _____ _ _ ____
 72
    65
 73
     6
 40
2.5
 49
1.25
 74
     0
 49
-0.25
 74
     0
 49
0.25
 74
     0
 49
-0.25
 74
     0
 49
0.25
 74
     0
 49
-0.25
 74
     0
  0
LTYPE
  5
40D2
330
5
100
AcDbSymbolTableRecord
100
AcDbLinetypeTableRecord
  2
CENTER
 70
     0
  3
____ _ ____ _ ____ _ ____ _ ____ _ ____ _ ____ 
 72
    65
 73
     4
 40
2.0
 49
1.25
 74
     0
 49
-0.25
 74
     0
 49
0.25
 74
     0
 49
-0.25
 74
     0
  0
LTYPE
  5
A244
330
5
100
AcDbSymbolTableRecord
100
AcDbLinetypeTableRecord
  2
HIDDEN
 70
     0
  3
_ _ _ _ _ _ _ _ _ _ _ _ _ _ _ _ _ _ _ _ _ _ _
 72
    65
 73
     2
 40
0.375
 49
0.25
 74
     0
 49
-0.125
 74
     0
  0
ENDTAB
  0
TABLE
  2
LAYER
  5
2
102
{ACAD_XDICTIONARY
360
15A0E
102
}
330
0
100
AcDbSymbolTable
 70
    15
  0
LAYER
  5
F
102
{ACAD_XDICTIONARY
360
1893A
102
}
330
2
100
AcDbSymbolTableRecord
100
AcDbLayerTableRecord
  2
0
 70
     0
 62
     7
  6
CONTINUOUS
370
    -3
390
40CA
  0
LAYER
  5
4C
102
{ACAD_XDICTIONARY
360
18942
102
}
330
2
100
AcDbSymbolTableRecord
100
AcDbLayerTableRecord
  2
寸法線
 70
     0
 62
     7
  6
CONTINUOUS
370
    -3
390
40CA
  0
LAYER
  5
4D
102
{ACAD_XDICTIONARY
360
18944
102
}
330
2
100
AcDbSymbolTableRecord
100
AcDbLayerTableRecord
  2
姿図
 70
     0
 62
     8
  6
CONTINUOUS
370
    -3
390
40CA
  0
LAYER
  5
40D4
102
{ACAD_XDICTIONARY
360
18948
102
}
330
2
100
AcDbSymbolTableRecord
100
AcDbLayerTableRecord
  2
文字
 70
     0
 62
     7
  6
CONTINUOUS
370
    -3
390
40CA
  0
ENDTAB
  0
TABLE
  2
STYLE
  5
3
330
0
100
AcDbSymbolTable
 70
     1
  0
STYLE
  5
10
330
3
100
AcDbSymbolTableRecord
100
AcDbTextStyleTableRecord
  2
STANDARD
 70
     0
 40
0.0
 41
1.0
 50
0.0
 71
     0
 42
6.0
  3
MONOTXT
  4
BIGFONT
  0
ENDTAB
  0
TABLE
  2
VIEW
  5
6
330
0
100
AcDbSymbolTable
 70
     1
  0
VIEW
  5
41
330
6
100
AcDbSymbolTableRecord
100
AcDbViewTableRecord
  2
CUT1
 70
     0
 40
612.7795527156796
 10
420.0000000000169
 20
306.3897763578398
 41
840.0000000000338
 11
0.0
 21
0.0
 31
1.0
 12
0.0
 22
0.0
 32
0.0
 42
50.0
 43
0.0
 44
0.0
 50
0.0
 71
     0
281
     0
 72
     0
  0
ENDTAB
  0
TABLE
  2
UCS
  5
7
330
0
100
AcDbSymbolTable
 70
     0
  0
ENDTAB
  0
TABLE
  2
APPID
  5
9
330
0
100
AcDbSymbolTable
 70
     7
  0
APPID
  5
11
330
9
100
AcDbSymbolTableRecord
100
AcDbRegAppTableRecord
  2
ACAD
 70
     0
  0
APPID
  5
1892C
330
9
100
AcDbSymbolTableRecord
100
AcDbRegAppTableRecord
  2
ACAD_MLEADERVER
 70
     0
  0
APPID
  5
1D6A9
330
9
100
AcDbSymbolTableRecord
100
AcDbRegAppTableRecord
  2
ACAD_PSEXT
 70
     0
  0
APPID
  5
1D6AA
330
9
100
AcDbSymbolTableRecord
100
AcDbRegAppTableRecord
  2
AcadAnnotative
 70
     0
  0
APPID
  5
1D6AB
330
9
100
AcDbSymbolTableRecord
100
AcDbRegAppTableRecord
  2
ACAD_DSTYLE_DIMJAG
 70
     0
  0
APPID
  5
1D6AC
330
9
100
AcDbSymbolTableRecord
100
AcDbRegAppTableRecord
  2
ACAD_DSTYLE_DIMTALN
 70
     0
  0
APPID
  5
1D6C4
330
9
100
AcDbSymbolTableRecord
100
AcDbRegAppTableRecord
  2
ACAD_EXEMPT_FROM_CAD_STANDARDS
 70
     0
  0
ENDTAB
  0
TABLE
  2
DIMSTYLE
  5
A
330
0
100
AcDbSymbolTable
 70
     2
100
AcDbDimStyleTable
  0
DIMSTYLE
105
1B3A
330
A
100
AcDbSymbolTableRecord
100
AcDbDimStyleTableRecord
  2
STANDARD
 70
     0
 41
4.0
 42
3.0
 43
7.149999999999999
 44
2.0
 73
     0
 74
     0
 77
     3
 78
     8
 79
     2
140
5.0
141
0.0
147
2.0
178
     0
179
     2
271
     2
272
     2
288
     1
340
10
341
49C3
342
49C3
  0
ENDTAB
  0
TABLE
  2
BLOCK_RECORD
  5
1
330
0
100
AcDbSymbolTable
 70
   148
  0
BLOCK_RECORD
  5
18
102
{ACAD_XDICTIONARY
360
9FD5
102
}
330
1
100
AcDbSymbolTableRecord
100
AcDbBlockTableRecord
  2
*MODEL_SPACE
340
40CD
  0
BLOCK_RECORD
  5
15
330
1
100
AcDbSymbolTableRecord
100
AcDbBlockTableRecord
  2
*PAPER_SPACE
340
40CE
  0
BLOCK_RECORD
  5
49C3
330
1
100
AcDbSymbolTableRecord
100
AcDbBlockTableRecord
  2
_OPEN
340
0
  0
BLOCK_RECORD
  5
FD36
330
1
100
AcDbSymbolTableRecord
100
AcDbBlockTableRecord
  2
_Open30
340
0
102
{BLKREFS
331
165F8
331
165F9
331
16601
331
16602
331
16609
331
1660A
331
16612
331
16613
331
1661C
331
1661D
331
16625
331
16626
331
1662E
331
1662F
331
16636
331
16637
331
16640
331
16641
331
16649
331
1664A
331
16651
331
16652
331
1665A
331
1665B
331
16663
331
16664
331
1666C
331
1666D
331
16676
331
16677
331
1667F
331
16680
331
16687
331
16688
331
16691
331
16692
331
16699
331
1669A
331
166A3
331
166A4
331
166B5
331
166B6
331
166BD
331
166BE
331
166C6
331
166C7
331
166D0
331
166D1
331
166D9
331
166DA
331
166E1
331
166E2
331
166F4
331
166F5
331
166FC
331
166FD
331
1670F
331
16710
331
16717
331
16718
331
17D62
331
17D63
331
17D99
331
17D9A
331
17DA3
331
17DA4
331
18890
331
18891
331
18899
331
1889A
331
188A3
331
188A4
331
188AB
331
188AC
331
188B5
331
188B6
331
188BE
331
188BF
331
188C6
331
188C7
331
188D0
331
188D1
331
1943E
331
1943F
331
19448
331
19449
331
19450
331
19451
331
1945A
331
1945B
331
19462
331
19463
331
1946B
331
1946C
331
19475
331
19476
331
1947E
331
1947F
331
1D61A
331
1D61B
331
1D624
331
1D625
331
1D62C
331
1D62D
331
1D635
331
1D636
331
1D63F
331
1D640
331
1D648
331
1D649
331
1D651
331
1D652
331
1D659
331
1D65A
331
1D662
331
1D663
331
1D66C
331
1D66D
331
1D675
331
1D676
331
1D67D
331
1D67E
331
1D686
331
1D687
331
1D690
331
1D691
331
1D699
331
1D69A
331
1D6A1
331
1D6A2
331
1ECB2
331
1ECB3
331
1ECBC
331
1ECBD
331
1ECC4
331
1ECC5
331
1ECCE
331
1ECCF
331
1ECD6
331
1ECD7
331
1ECE0
331
1ECE1
331
1ECE9
331
1ECEA
331
1ECF1
331
1ECF2
331
1ECFA
331
1ECFB
331
1ED04
331
1ED05
331
1ED0C
331
1ED0D
331
1ED15
331
1ED16
331
1ED1F
331
1ED20
331
1ED28
331
1ED29
331
1ED31
331
1ED32
331
1ED39
331
1ED3A
331
202E5
331
202E6
331
202EF
331
202F0
331
202F7
331
202F8
331
20301
331
20302
331
2030A
331
2030B
331
20312
331
20313
331
2031C
331
2031D
331
20325
331
20326
331
2032D
331
2032E
331
20336
331
20337
331
2033F
331
20340
331
20348
331
20349
331
20352
331
20353
331
2035B
331
2035C
331
20364
331
20365
331
2036C
331
2036D
331
22F00
331
22F01
331
22F08
331
22F09
331
22F11
331
22F12
331
22F1B
331
22F1C
331
22F24
331
22F25
331
22F2C
331
22F2D
331
22F36
331
22F37
331
22F3E
331
22F3F
331
22F48
331
22F49
331
22F51
331
22F52
331
22F59
331
22F5A
331
22F62
331
22F63
331
22F6C
331
22F6D
331
22F74
331
22F75
331
22F7E
331
22F7F
331
22F86
331
22F87
331
243A1
331
243A2
331
243AB
331
243AC
331
243B4
331
243B5
331
243BD
331
243BE
331
243C5
331
243C6
331
243CE
331
243CF
331
243D8
331
243D9
331
243E1
331
243E2
331
243EA
331
243EB
331
243F2
331
243F3
331
243FB
331
243FC
331
24405
331
24406
331
2440D
331
2440E
331
24416
331
24417
331
2441F
331
24420
331
24429
331
2442A
331
2582B
331
2582C
331
25835
331
25836
331
2583D
331
2583E
331
25847
331
25848
331
2584F
331
25850
331
25859
331
2585A
331
25862
331
25863
331
2586A
331
2586B
331
25873
331
25874
331
2587D
331
2587E
331
25885
331
25886
331
2588E
331
2588F
331
25898
331
25899
331
258A1
331
258A2
331
258AA
331
258AB
331
258B2
331
258B3
102
}
  0
ENDTAB
  0
ENDSEC
  0
SECTION
  2
BLOCKS
  0
BLOCK
  5
52
330
18
100
AcDbEntity
  8
0
100
AcDbBlockBegin
  2
*MODEL_SPACE
 70
     0
 10
0.0
 20
0.0
 30
0.0
  3
*MODEL_SPACE
  1
*MODEL_SPACE
  0
ENDBLK
  5
53
330
18
100
AcDbEntity
  8
0
100
AcDbBlockEnd
  0
BLOCK
  5
50
330
15
100
AcDbEntity
 67
     1
  8
0
100
AcDbBlockBegin
  2
*PAPER_SPACE
 70
     0
 10
0.0
 20
0.0
 30
0.0
  3
*PAPER_SPACE
  1
*PAPER_SPACE
  0
ENDBLK
  5
51
330
15
100
AcDbEntity
 67
     1
  8
0
100
AcDbBlockEnd
  0
BLOCK
  5
49C7
330
49C3
100
AcDbEntity
  8
0
100
AcDbBlockBegin
  2
_OPEN
 70
     0
 10
0.0
 20
0.0
 30
0.0
  3
_OPEN
  1
_OPEN
  0
LINE
  5
49C4
330
49C3
100
AcDbEntity
  8
0
  6
ByBlock
 62
     0
100
AcDbLine
 10
-1.0
 20
0.1666666666666667
 30
0.0
 11
0.0
 21
0.0
 31
0.0
  0
LINE
  5
49C5
330
49C3
100
AcDbEntity
  8
0
  6
ByBlock
 62
     0
100
AcDbLine
 10
0.0
 20
0.0
 30
0.0
 11
-1.0
 21
-0.1666666666666667
 31
0.0
  0
LINE
  5
49C6
330
49C3
100
AcDbEntity
  8
0
  6
ByBlock
 62
     0
100
AcDbLine
 10
0.0
 20
0.0
 30
0.0
 11
-1.0
 21
0.0
 31
0.0
  0
ENDBLK
  5
49C8
330
49C3
100
AcDbEntity
  8
0
100
AcDbBlockEnd
  0
BLOCK
  5
FD3A
330
FD36
100
AcDbEntity
  8
0
100
AcDbBlockBegin
  2
_Open30
 70
     0
 10
0.0
 20
0.0
 30
0.0
  3
_Open30
  1
_Open30
  0
LINE
  5
FD37
330
FD36
100
AcDbEntity
  8
寸法線
 62
     0
370
    -2
100
AcDbLine
 10
-1.0
 20
0.26794919
 30
0.0
 11
0.0
 21
0.0
 31
0.0
  0
LINE
  5
FD38
330
FD36
100
AcDbEntity
  8
寸法線
 62
     0
370
    -2
100
AcDbLine
 10
0.0
 20
0.0
 30
0.0
 11
-1.0
 21
-0.26794919
 31
0.0
  0
LINE
  5
FD39
330
FD36
100
AcDbEntity
  8
寸法線
 62
     0
370
    -2
100
AcDbLine
 10
0.0
 20
0.0
 30
0.0
 11
-1.0
 21
0.0
 31
0.0
  0
ENDBLK
  5
FD3B
330
FD36
100
AcDbEntity
  8
0
100
AcDbBlockEnd
  0
ENDSEC
  0
SECTION
  2
ENTITIES
  0
TEXT
  5
1412B
330
18
100
AcDbEntity
  8
文字
100
AcDbText
 10
2305.708405680511
 20
1491.162882011584
 30
0.0
 40
4.5
  1

 11
2305.708405680511
 21
1493.412882011584
 31
0.0
100
AcDbText
 73
     2
  0
SPLINE
  5
24B66
330
18
100
AcDbEntity
  8
姿図
100
AcDbSpline
210
0.0
220
0.0
230
1.0
 70
     8
 71
     3
 72
    20
 73
    16
 74
     0
 42
0.000000001
 43
0.0000000001
 40
61.91009950387845
 40
61.91009950387845
 40
61.91009950387845
 40
61.91009950387845
 40
63.27662545801321
 40
63.27662545801321
 40
65.63207741714923
 40
65.63207741714923
 40
66.46294226239624
 40
66.46294226239624
 40
68.78483332584179
 40
68.78483332584179
 40
78.37384755292882
 40
78.37384755292882
 40
82.12808435629299
 40
82.12808435629299
 40
85.66477676586585
 40
85.66477676586585
 40
85.66477676586585
 40
85.66477676586585
 10
2313.074422079323
 20
-167.5615315975208
 30
-0.0000000000000016
 10
2313.256732924368
 20
-167.3843214773435
 30
-0.0000000000000024
 10
2313.419555155482
 20
-167.2128039407414
 30
-0.0000000000000028
 10
2313.809720783461
 20
-166.7767875399891
 30
0.0
 10
2314.028489331659
 20
-166.4987579845708
 30
-0.0000000000000049
 10
2314.22257741866
 20
-166.2364691043449
 30
0.0
 10
2314.275810322143
 20
-166.1625689044092
 30
-0.0000000000000049
 10
2314.480777514192
 20
-165.8703256370288
 30
0.0000000000000048
 10
2314.606660917935
 20
-165.6752250010441
 30
-0.0000000000000049
 10
2315.250573128679
 20
-164.6082068990054
 30
-0.0000000000000049
 10
2315.894962886231
 20
-163.2785395403689
 30
-0.0000000000000049
 10
2316.386028980755
 20
-160.7395965405967
 30
-0.0000000000000049
 10
2316.468480573303
 20
-160.0072743320086
 30
0.0000000000000048
 10
2316.524229958697
 20
-158.5408102555491
 30
0.0000000000000048
 10
2316.404116383607
 20
-156.7655235546076
 30
-0.0000000000000049
 10
2316.404116383607
 20
-156.7655235546076
 30
-0.0000000000000049
  0
SPLINE
  5
24B67
330
18
100
AcDbEntity
  8
姿図
100
AcDbSpline
210
0.0
220
0.0
230
1.0
 70
     8
 71
     3
 72
     8
 73
     4
 74
     0
 42
0.000000001
 43
0.0000000001
 40
-29.73791167171498
 40
-29.73791167171498
 40
-29.73791167171498
 40
-29.73791167171498
 40
-21.81652578453031
 40
-21.81652578453031
 40
-21.81652578453031
 40
-21.81652578453031
 10
2310.014724422851
 20
-140.3905137892623
 30
0.0
 10
2312.954476152995
 20
-140.4497156970949
 30
0.0000000000000044
 10
2314.356649469191
 20
-141.2207666706215
 30
0.0000000000000048
 10
2316.859811138104
 20
-144.6644033719526
 30
0.0000000000000048
  0
SPLINE
  5
24B68
330
18
100
AcDbEntity
  8
姿図
100
AcDbSpline
210
0.0
220
0.0
230
1.0
 70
     8
 71
     3
 72
     8
 73
     4
 74
     0
 42
0.000000001
 43
0.0000000001
 40
8.0
 40
8.0
 40
8.0
 40
8.0
 40
9.0
 40
9.0
 40
9.0
 40
9.0
 10
2319.583824401247
 20
-149.0397643744882
 30
-0.0000000000000097
 10
2319.583824401247
 20
-149.0397643744882
 30
-0.0000000000000097
 10
2316.257530938916
 20
-118.883245214759
 30
0.0000000000000033
 10
2316.040782607087
 20
-117.8577827426907
 30
0.0000000000000033
  0
SPLINE
  5
24B69
330
18
100
AcDbEntity
  8
姿図
100
AcDbSpline
210
0.0
220
0.0
230
1.0
 70
     8
 71
     3
 72
    14
 73
    10
 74
     0
 42
0.000000001
 43
0.0000000001
 40
-17.67097520731171
 40
-17.67097520731171
 40
-17.67097520731171
 40
-17.67097520731171
 40
-15.46329434907155
 40
-15.46329434907155
 40
-11.48389074227961
 40
-11.48389074227961
 40
-5.954339038219556
 40
-5.954339038219556
 40
-0.5047492958822968
 40
-0.5047492958822968
 40
-0.5047492958822968
 40
-0.5047492958822968
 10
2323.445679507174
 20
-143.1216624903197
 30
0.0000000000000048
 10
2323.563307598597
 20
-143.3442408556912
 30
0.0
 10
2323.673651850972
 20
-143.5686602788103
 30
0.0
 10
2323.959903838576
 20
-144.1975150694805
 30
0.0
 10
2324.115529857074
 20
-144.5977605981229
 30
0.0
 10
2324.431912670404
 20
-145.5762677470725
 30
0.0000000000000048
 10
2324.543663612359
 20
-146.0715752804672
 30
0.0
 10
2324.685130815594
 20
-146.9352494848292
 30
0.0000000000000097
 10
2324.724276226165
 20
-147.3592180438859
 30
0.0000000000000097
 10
2324.731840972996
 20
-147.7727503987321
 30
0.0
  0
SPLINE
  5
24B6A
330
18
100
AcDbEntity
  8
姿図
100
AcDbSpline
210
0.0
220
0.0
230
1.0
 70
     8
 71
     3
 72
     8
 73
     4
 74
     0
 42
0.000000001
 43
0.0000000001
 40
13.0
 40
13.0
 40
13.0
 40
13.0
 40
14.0
 40
14.0
 40
14.0
 40
14.0
 10
2305.112677804443
 20
-117.5364341070185
 30
0.0
 10
2305.112677804443
 20
-117.5364341070185
 30
0.0
 10
2301.814376666414
 20
-118.0289642315392
 30
0.0000000000000033
 10
2301.371022661508
 20
-118.1468485770683
 30
0.0000000000000033
  0
ELLIPSE
  5
24B6C
330
18
100
AcDbEntity
  8
姿図
100
AcDbEllipse
 10
2308.01294133727
 20
-117.7696649860516
 30
0.0
 11
-2.977322425633557
 21
-0.0651525036592447
 31
0.0
210
0.0
220
0.0
230
1.0
 40
0.423425259805966
 41
3.562126164169125
 42
6.045724500716436
  0
SPLINE
  5
24B6D
330
18
100
AcDbEntity
  8
姿図
100
AcDbSpline
210
0.0
220
0.0
230
1.0
 70
     8
 71
     3
 72
    11
 73
     7
 74
     0
 42
0.000000001
 43
0.0000000001
 40
0.0773469307906505
 40
0.0773469307906505
 40
0.0773469307906505
 40
0.0773469307906505
 40
1.0
 40
1.0
 40
1.0
 40
2.0
 40
2.0
 40
2.0
 40
2.0
 10
2312.296978729027
 20
-117.0646349479539
 30
0.0
 10
2311.960040837617
 20
-116.1913414090493
 30
0.0
 10
2310.045843039754
 20
-115.6815990402911
 30
0.0
 10
2307.941120885683
 20
-115.4957749552368
 30
0.0
 10
2305.242102766389
 20
-115.7899169676923
 30
0.0
 10
2304.066434837229
 20
-116.4320306677937
 30
0.0
 10
2303.737211911803
 20
-117.7478471622539
 30
0.0
  0
ELLIPSE
  5
24B71
330
18
100
AcDbEntity
  8
姿図
100
AcDbEllipse
 10
2307.800645315678
 20
-116.6200426255095
 30
0.0
 11
13.39274317416243
 21
0.5235456730338032
 31
0.0
210
0.0
220
0.0
230
1.0
 40
0.2879532291547235
 41
5.382255851318835
 42
10.42665782637244
  0
LINE
  5
24B72
330
18
100
AcDbEntity
  8
姿図
100
AcDbLine
 10
2333.108546763703
 20
-112.1890192042233
 30
0.0
 11
2333.327200676513
 21
-121.8859976463057
 31
0.0
  0
SPLINE
  5
24B8F
330
18
100
AcDbEntity
  8
姿図
100
AcDbSpline
210
0.0
220
0.0
230
1.0
 70
     8
 71
     3
 72
    20
 73
    16
 74
     0
 42
0.000000001
 43
0.0000000001
 40
60.97286850367482
 40
60.97286850367482
 40
60.97286850367482
 40
60.97286850367482
 40
63.27662545801321
 40
63.27662545801321
 40
65.63207741714923
 40
65.63207741714923
 40
66.46294226239624
 40
66.46294226239624
 40
68.78483332584179
 40
68.78483332584179
 40
78.37384755292882
 40
78.37384755292882
 40
82.12808435629299
 40
82.12808435629299
 40
84.32250915659358
 40
84.32250915659358
 40
84.32250915659358
 40
84.32250915659358
 10
2312.691755998028
 20
-167.8067575585969
 30
-0.000000000000005
 10
2312.999807557718
 20
-167.4818797304126
 30
-0.0000000000000056
 10
2313.256292270504
 20
-167.1646203195503
 30
-0.0000000000000068
 10
2313.67419176975
 20
-166.5942109946368
 30
-0.0000000000000127
 10
2313.858823610816
 20
-166.3050737450849
 30
-0.0000000000000046
 10
2314.021437466233
 20
-166.0328888012614
 30
-0.0000000000000046
 10
2314.065888637464
 20
-165.9562691806029
 30
-0.0000000000000046
 10
2314.236457086652
 20
-165.6535346530545
 30
-0.0000000000000046
 10
2314.340026114739
 20
-165.4519492040552
 30
-0.0000000000000127
 10
2314.864544174058
 20
-164.3515769848987
 30
-0.0000000000000046
 10
2315.369530845464
 20
-162.987835487226
 30
-0.0000000000000127
 10
2315.638301587519
 20
-160.4188749085463
 30
-0.0000000000000046
 10
2315.660148713295
 20
-159.6807000919393
 30
-0.0000000000000046
 10
2315.611913899279
 20
-158.4788806597305
 30
-0.0000000000000046
 10
2315.576194493477
 20
-158.027038776276
 30
-0.0000000000000046
 10
2315.522372455931
 20
-157.5724792064668
 30
-0.0000000000000046
  0
LINE
  5
24B90
330
18
100
AcDbEntity
  8
姿図
100
AcDbLine
 10
2307.812214443695
 20
-163.885881731464
 30
0.0
 11
2310.309296540969
 21
-161.2427257494603
 31
0.0
  0
LINE
  5
24B91
330
18
100
AcDbEntity
  8
姿図
100
AcDbLine
 10
2307.785829794009
 20
-164.7329028604281
 30
0.0
 11
2310.345745757679
 21
-162.023237367174
 31
0.0
  0
LINE
  5
24B92
330
18
100
AcDbEntity
  8
姿図
100
AcDbLine
 10
2307.697864246672
 20
-165.6451072359409
 30
0.0
 11
2310.341384819188
 21
-162.8469464456227
 31
0.0
  0
LINE
  5
24B93
330
18
100
AcDbEntity
  8
姿図
100
AcDbLine
 10
2307.520635169781
 20
-166.65179686381
 30
0.0
 11
2310.285851858712
 21
-163.7248209983127
 31
0.0
  0
ARC
  5
24B94
330
18
100
AcDbEntity
  8
姿図
100
AcDbCircle
 10
2289.600229438598
 20
-132.8603433303347
 30
0.0
 40
40.50125572339087
100
AcDbArc
 50
309.6951363314269
 51
335.3347933007474
  0
ELLIPSE
  5
24B95
330
18
100
AcDbEntity
  8
姿図
100
AcDbEllipse
 10
2296.373673970314
 20
-159.5413619653316
 30
0.0
 11
-6.74863655959689
 21
11.79877182209287
 31
0.0
210
0.0
220
0.0
230
1.0
 40
0.662162193431699
 41
0.0
 42
6.283185307179586
  0
ELLIPSE
  5
24B96
330
18
100
AcDbEntity
  8
姿図
100
AcDbEllipse
 10
2296.634270215552
 20
-159.2481741449544
 30
0.0
 11
-7.28242352521681
 21
12.73200189802586
 31
0.0
210
0.0
220
0.0
230
1.0
 40
0.6660508930180213
 41
0.0
 42
6.283185307179586
  0
LINE
  5
24B98
330
18
100
AcDbEntity
  8
姿図
100
AcDbLine
 10
2307.191560399418
 20
-167.8192148287583
 30
0.0
 11
2310.162494245331
 21
-164.6744877989429
 31
0.0
  0
LINE
  5
24B99
330
18
100
AcDbEntity
  8
姿図
100
AcDbLine
 10
2306.83084453483
 20
-168.6720738867759
 30
0.0
 11
2309.760068049831
 21
-166.3557346574073
 31
0.0
  0
LINE
  5
24B9A
330
18
100
AcDbEntity
  8
姿図
100
AcDbLine
 10
2305.846453687065
 20
-170.2613674253037
 30
0.0
 11
2308.751076849158
 21
-168.6257491539693
 31
0.0
  0
LINE
  5
24B9B
330
18
100
AcDbEntity
  8
姿図
100
AcDbLine
 10
2306.500233873487
 20
-169.3725574454943
 30
0.0
 11
2309.242587986854
 21
-167.6079904572882
 31
0.0
  0
SPLINE
  5
24B9C
330
18
100
AcDbEntity
  8
姿図
100
AcDbSpline
210
0.0
220
0.0
230
1.0
 70
     8
 71
     1
 72
     8
 73
     6
 74
     0
 42
0.000000001
 43
0.0000000001
 40
4.553485832398614
 40
4.553485832398614
 40
4.559001824165762
 40
4.564517815932909
 40
4.570033807700057
 40
4.575549799467204
 40
4.581065791234352
 40
4.581065791234352
 10
2304.254646368613
 20
-172.2780166287782
 30
-0.0000000000000114
 10
2304.194660054812
 20
-172.2985228042592
 30
-0.0000000000000114
 10
2304.134486219812
 20
-172.3186070484999
 30
-0.0000000000000033
 10
2304.074126763493
 20
-172.3382687598662
 30
-0.0000000000000114
 10
2304.013583590879
 20
-172.3575073510915
 30
-0.0000000000000114
 10
2303.952858612044
 20
-172.3763222492862
 30
-0.0000000000000114
  0
SPLINE
  5
24B9D
330
18
100
AcDbEntity
  8
姿図
100
AcDbSpline
210
0.0
220
0.0
230
1.0
 70
     8
 71
     1
 72
     8
 73
     6
 74
     0
 42
0.000000001
 43
0.0000000001
 40
4.584727753645457
 40
4.584727753645457
 40
4.584891353986822
 40
4.585054954328187
 40
4.585218554669551
 40
4.585382155010916
 40
4.585545755352282
 40
4.585545755352282
 10
2303.861653994233
 20
-172.403874414641
 30
-0.0000000000000114
 10
2303.855539068303
 20
-172.405712276611
 30
-0.0000000000000114
 10
2303.849424324653
 20
-172.4075486604197
 30
-0.0000000000000114
 10
2303.843309764071
 20
-172.4093835661654
 30
-0.0000000000000114
 10
2303.837195387347
 20
-172.4112169939465
 30
-0.0000000000000114
 10
2303.831081195272
 20
-172.4130489438623
 30
-0.0000000000000114
  0
SPLINE
  5
24B9E
330
18
100
AcDbEntity
  8
姿図
100
AcDbSpline
210
0.0
220
0.0
230
1.0
 70
     8
 71
     3
 72
     8
 73
     4
 74
     0
 42
0.000000001
 43
0.0000000001
 40
-0.691446024632862
 40
-0.691446024632862
 40
-0.691446024632862
 40
-0.691446024632862
 40
-0.6779385051869151
 40
-0.6779385051869151
 40
-0.6779385051869151
 40
-0.6779385051869151
 10
2303.952858612044
 20
-172.3763222492862
 30
-0.0000000000000114
 10
2303.952044799763
 20
-172.3765711875619
 30
-0.0000000000000114
 10
2303.951222532961
 20
-172.3768056542247
 30
-0.0000000000000114
 10
2303.950392045803
 20
-172.3770256096732
 30
-0.0000000000000114
  0
SPLINE
  5
24B9F
330
18
100
AcDbEntity
  8
姿図
100
AcDbSpline
210
0.0
220
0.0
230
1.0
 70
     8
 71
     3
 72
     8
 73
     4
 74
     0
 42
0.000000001
 43
0.0000000001
 40
211.7706370983692
 40
211.7706370983692
 40
211.7706370983692
 40
211.7706370983692
 40
212.1566911252955
 40
212.1566911252955
 40
212.1566911252955
 40
212.1566911252955
 10
2303.897596965694
 20
-172.3928392393741
 30
-0.0000000000000114
 10
2303.915958619051
 20
-172.3873839632101
 30
-0.0000000000000114
 10
2303.934366724493
 20
-172.3818649411398
 30
-0.0000000000000033
 10
2303.952820180023
 20
-172.3762825300144
 30
-0.0000000000000114
  0
SPLINE
  5
24BA0
330
18
100
AcDbEntity
  8
姿図
100
AcDbSpline
210
0.0
220
0.0
230
1.0
 70
     8
 71
     3
 72
    12
 73
     8
 74
     0
 42
0.000000001
 43
0.0000000001
 40
-1.090507445860422
 40
-1.090507445860422
 40
-1.090507445860422
 40
-1.090507445860422
 40
-0.9471425154221369
 40
-0.9471425154221369
 40
-0.7528206779009274
 40
-0.7528206779009274
 40
-0.6501188551225207
 40
-0.6501188551225207
 40
-0.6501188551225207
 40
-0.6501188551225207
 10
2303.950392045803
 20
-172.3770256096732
 30
-0.0000000000000114
 10
2303.943052405097
 20
-172.3792536414644
 30
-0.0000000000000114
 10
2303.934529188361
 20
-172.3818410450044
 30
-0.0000000000000114
 10
2303.912284850821
 20
-172.3885876339732
 30
-0.0000000000000114
 10
2303.898410144644
 20
-172.3927907814123
 30
-0.0000000000000114
 10
2303.877094165754
 20
-172.3992263850662
 30
-0.0000000000000114
 10
2303.869471837469
 20
-172.4015238724539
 30
-0.0000000000000114
 10
2303.861653994233
 20
-172.403874414641
 30
-0.0000000000000114
  0
SPLINE
  5
24BA1
330
18
100
AcDbEntity
  8
姿図
100
AcDbSpline
210
-2.784766282423077E-10
220
9.163450144388233E-10
230
-1.0
 70
     8
 71
     3
 72
     8
 73
     4
 74
     0
 42
0.000000001
 43
0.0000000001
 40
104.4616887805064
 40
104.4616887805064
 40
104.4616887805064
 40
104.4616887805064
 40
104.5558158786619
 40
104.5558158786619
 40
104.5558158786619
 40
104.5558158786619
 10
2303.980618522696
 20
-172.3678356947466
 30
-0.0000000000000033
 10
2303.976108156513
 20
-172.3692122710765
 30
-0.0000000000000033
 10
2303.971600456353
 20
-172.3705851115176
 30
-0.0000000000000114
 10
2303.967095453225
 20
-172.3719541789119
 30
-0.0000000000000114
  0
ARC
  5
24BA2
330
18
100
AcDbEntity
  8
姿図
100
AcDbCircle
 10
2301.140864441586
 20
-162.5767515436437
 30
-0.0000000000000033
 40
10.19977863332881
100
AcDbArc
 50
273.4181627137714
 51
284.7582780585445
  0
LINE
  5
24BA3
330
18
100
AcDbEntity
  8
姿図
100
AcDbLine
 10
2307.953811098217
 20
-169.7380484487326
 30
0.0
 11
2305.528776063943
 21
-170.7074844518986
 31
0.0
  0
LINE
  5
24BA4
330
18
100
AcDbEntity
  8
姿図
100
AcDbLine
 10
2307.145796635911
 20
-170.5755417209825
 30
0.0
 11
2305.061975194798
 21
-171.1060906767241
 31
0.0
  0
LINE
  5
24BA5
330
18
100
AcDbEntity
  8
姿図
100
AcDbLine
 10
2306.208054501617
 20
-171.3068433238309
 30
0.0
 11
2304.558464082773
 21
-171.5467320524535
 31
0.0
  0
ARC
  5
24BA6
330
18
100
AcDbEntity
  8
姿図
100
AcDbCircle
 10
2274.655889868939
 20
-108.0320080711622
 30
0.0
 40
70.85017846467
100
AcDbArc
 50
295.2712329144035
 51
302.8369599190622
  0
ARC
  5
24BA7
330
18
100
AcDbEntity
  8
姿図
100
AcDbCircle
 10
2309.078381925744
 20
-156.6262174989195
 30
0.0
 40
16.26268158145045
100
AcDbArc
 50
86.69930458944697
 51
107.0828459404596
  0
LWPOLYLINE
  5
24BA8
330
18
100
AcDbEntity
  8
姿図
100
AcDbPolyline
 90
        4
 70
     0
 43
0.0
 10
2312.87644307953
 20
-147.8424673335685
 10
2314.220088775722
 20
-146.9244408961224
 10
2314.543175711935
 20
-146.8174983999259
 10
2317.092513729613
 20
-145.8652089267073
  0
LWPOLYLINE
  5
24BA9
330
18
100
AcDbEntity
  8
姿図
100
AcDbPolyline
 90
        4
 70
     0
 43
0.0
 10
2313.27637648518
 20
-148.2889127611754
 10
2314.620022181371
 20
-147.3708863237293
 10
2314.943109117583
 20
-147.2639438275328
 10
2317.321183284436
 20
-146.3470942965646
  0
LINE
  5
24BAA
330
18
100
AcDbEntity
  8
姿図
100
AcDbLine
 10
2314.749737875919
 20
-142.9024682630488
 30
0.0
 11
2311.834531209146
 21
-145.4355371424183
 31
0.0
  0
LWPOLYLINE
  5
24BAB
330
18
100
AcDbEntity
  8
姿図
100
AcDbPolyline
 90
        4
 70
     0
 43
0.0
 10
2309.371421266388
 20
-144.0411492521732
 10
2309.832228552076
 20
-143.7830310551496
 10
2310.207732662134
 20
-143.6609864612421
 10
2314.41268582689
 20
-142.5836758400362
  0
LWPOLYLINE
  5
24BAC
330
18
100
AcDbEntity
  8
姿図
100
AcDbPolyline
 90
        4
 70
     0
 43
0.0
 10
2309.708473315415
 20
-144.3599416751861
 10
2310.169280601105
 20
-144.1018234781623
 10
2310.544784711162
 20
-143.9797788842548
 10
2314.749737875919
 20
-142.9024682630488
  0
SPLINE
  5
24BAD
330
18
100
AcDbEntity
  8
姿図
100
AcDbSpline
210
0.0
220
0.0
230
1.0
 70
     8
 71
     3
 72
    20
 73
    16
 74
     0
 42
0.000000001
 43
0.0000000001
 40
0.0507684683112425
 40
0.0507684683112425
 40
0.0507684683112425
 40
0.0507684683112425
 40
16.17239265914957
 40
16.17239265914957
 40
33.44137084920912
 40
33.44137084920912
 40
41.29196149669883
 40
41.29196149669883
 40
50.54402678597219
 40
50.54402678597219
 40
58.56297097631615
 40
58.56297097631615
 40
66.12555618457822
 40
66.12555618457822
 40
66.75214355035303
 40
66.75214355035303
 40
66.75214355035303
 40
66.75214355035303
 10
2313.795060697055
 20
-151.637658576688
 30
-0.0000000000000046
 10
2313.173808997021
 20
-150.313831680787
 30
-0.0000000000000046
 10
2312.408997547378
 20
-149.03864836294
 30
-0.0000000000000046
 10
2310.575138310885
 20
-146.6056608418269
 30
-0.0000000000000046
 10
2309.154544656564
 20
-145.0229268829557
 30
-0.0000000000000046
 10
2306.381210897586
 20
-143.049010845923
 30
-0.0000000000000046
 10
2305.47450634329
 20
-142.5202293611308
 30
-0.0000000000000046
 10
2303.47862194789
 20
-141.6014627228728
 30
-0.0000000000000046
 10
2302.390585175238
 20
-141.2560240632549
 30
-0.0000000000000046
 10
2300.368497207066
 20
-140.8888765792976
 30
-0.0000000000000046
 10
2299.551614562567
 20
-140.8498574933349
 30
0.0000000000000035
 10
2298.201303825318
 20
-140.9049320195859
 30
-0.0000000000000046
 10
2297.392489515526
 20
-141.0025836979944
 30
-0.0000000000000046
 10
2296.490885465625
 20
-141.261511374747
 30
-0.0000000000000046
 10
2296.42218639918
 20
-141.2821557140444
 30
-0.0000000000000046
 10
2296.353798741794
 20
-141.3036129828861
 30
-0.0000000000000046
  0
LINE
  5
24BAE
330
18
100
AcDbEntity
  8
姿図
100
AcDbLine
 10
2303.882813635555
 20
-152.4823763053641
 30
0.0
 11
2305.824046890264
 21
-150.4275851171819
 31
0.0
  0
LINE
  5
24BAF
330
18
100
AcDbEntity
  8
姿図
100
AcDbLine
 10
2304.212041905382
 20
-152.9529819306013
 30
0.0
 11
2306.18036130181
 21
-150.8695201201781
 31
0.0
  0
LINE
  5
24BB0
330
18
100
AcDbEntity
  8
姿図
100
AcDbLine
 10
2304.530553540736
 20
-153.4349310901769
 30
0.0
 11
2306.525458323302
 21
-151.3233287062087
 31
0.0
  0
LINE
  5
24BB1
330
18
100
AcDbEntity
  8
姿図
100
AcDbLine
 10
2304.838216786315
 20
-153.9283632467907
 30
0.0
 11
2306.85925825298
 21
-151.789095239413
 31
0.0
  0
LINE
  5
24BB2
330
18
100
AcDbEntity
  8
姿図
100
AcDbLine
 10
2306.205028257391
 20
-156.577061442837
 30
0.0
 11
2308.352299726596
 21
-154.304179251654
 31
0.0
  0
LINE
  5
24BB3
330
18
100
AcDbEntity
  8
姿図
100
AcDbLine
 10
2305.693943149126
 20
-155.4798578519922
 30
0.0
 11
2307.791307206144
 21
-153.2598025483226
 31
0.0
  0
LINE
  5
24BB4
330
18
100
AcDbEntity
  8
姿図
100
AcDbLine
 10
2305.955713345093
 20
-156.0218677020439
 30
0.0
 11
2308.078066922092
 21
-153.7753610456969
 31
0.0
  0
LINE
  5
24BB5
330
18
100
AcDbEntity
  8
姿図
100
AcDbLine
 10
2305.134844838498
 20
-154.4334761316713
 30
0.0
 11
2307.181631210466
 21
-152.266957197889
 31
0.0
  0
LINE
  5
24BB6
330
18
100
AcDbEntity
  8
姿図
100
AcDbLine
 10
2305.42019117939
 20
-154.9505306834753
 30
0.0
 11
2307.492394255676
 21
-152.7571082233194
 31
0.0
  0
LINE
  5
24BB7
330
18
100
AcDbEntity
  8
姿図
100
AcDbLine
 10
2307.239805861709
 20
-159.5772167664277
 30
0.0
 11
2309.516004184281
 21
-157.1678657806908
 31
0.0
  0
LINE
  5
24BB8
330
18
100
AcDbEntity
  8
姿図
100
AcDbLine
 10
2307.396936622347
 20
-160.2299872317401
 30
0.0
 11
2309.701553966341
 21
-157.7905547734877
 31
0.0
  0
LINE
  5
24BB9
330
18
100
AcDbEntity
  8
姿図
100
AcDbLine
 10
2307.533690454712
 20
-160.9043266314166
 30
0.0
 11
2309.868611360038
 21
-158.4328179192446
 31
0.0
  0
LINE
  5
24BBA
330
18
100
AcDbEntity
  8
姿図
100
AcDbLine
 10
2307.647550811184
 20
-161.602898725652
 30
0.0
 11
2310.015432924317
 21
-159.0965006465335
 31
0.0
  0
LINE
  5
24BBB
330
18
100
AcDbEntity
  8
姿図
100
AcDbLine
 10
2307.73521384775
 20
-162.3292006261679
 30
0.0
 11
2310.139830854835
 21
-159.7839187415073
 31
0.0
  0
LINE
  5
24BBC
330
18
100
AcDbEntity
  8
姿図
100
AcDbLine
 10
2307.792205501358
 20
-163.0879681189979
 30
0.0
 11
2310.239007222571
 21
-160.4980338059597
 31
0.0
  0
LINE
  5
24BBD
330
18
100
AcDbEntity
  8
姿図
100
AcDbLine
 10
2301.451695341496
 20
-157.5874985415749
 30
0.0
 11
2296.90102627899
 21
-163.0146318007037
 31
0.0
  0
LINE
  5
24BBE
330
18
100
AcDbEntity
  8
姿図
100
AcDbLine
 10
2306.441313292494
 20
-157.1460472803694
 30
0.0
 11
2308.613551489696
 21
-154.8467378617729
 31
0.0
  0
LINE
  5
24BBF
330
18
100
AcDbEntity
  8
姿図
100
AcDbLine
 10
2306.663872956879
 20
-157.7295613930266
 30
0.0
 11
2308.86127471074
 21
-155.4036164043041
 31
0.0
  0
LINE
  5
24BC0
330
18
100
AcDbEntity
  8
姿図
100
AcDbLine
 10
2306.871864393748
 20
-158.3284959429009
 30
0.0
 11
2309.094811652304
 21
-155.9755110928852
 31
0.0
  0
LINE
  5
24BC1
330
18
100
AcDbEntity
  8
姿図
100
AcDbLine
 10
2307.064261559606
 20
-158.9439369948057
 30
0.0
 11
2309.313372162104
 21
-156.5632583019942
 31
0.0
  0
LINE
  5
24BC2
330
18
100
AcDbEntity
  8
姿図
100
AcDbLine
 10
2299.983736437499
 20
-155.0939500688705
 30
0.0
 11
2295.433067374993
 21
-160.5210833279993
 31
0.0
  0
LINE
  5
24BC3
330
18
100
AcDbEntity
  8
姿図
100
AcDbLine
 10
2300.277327775813
 20
-152.4537219738695
 30
0.0
 11
2295.726658713307
 21
-157.8808552329983
 31
0.0
  0
ARC
  5
24BC4
330
18
100
AcDbEntity
  8
姿図
100
AcDbCircle
 10
2317.938165441349
 20
-179.6204396202945
 30
0.0
 40
43.97799551346176
100
AcDbArc
 50
118.0581559460046
 51
129.4391471832857
  0
LINE
  5
24BC5
330
18
100
AcDbEntity
  8
姿図
100
AcDbLine
 10
2294.033419659361
 20
-145.7069847339073
 30
0.0
 11
2295.187110598433
 21
-144.485805378082
 31
0.0
  0
LINE
  5
24BC6
330
18
100
AcDbEntity
  8
姿図
100
AcDbLine
 10
2289.453743225003
 20
-146.4590971304885
 30
0.0
 11
2290.289630872234
 21
-145.5743118695332
 31
0.0
  0
LINE
  5
24BC7
330
18
100
AcDbEntity
  8
姿図
100
AcDbLine
 10
2293.32537872132
 20
-145.637351496058
 30
0.0
 11
2294.421472931336
 21
-144.4771381529708
 31
0.0
  0
LINE
  5
24BC8
330
18
100
AcDbEntity
  8
姿図
100
AcDbLine
 10
2290.732378483529
 20
-145.9247575181328
 30
0.0
 11
2291.629130079523
 21
-144.9755478994705
 31
0.0
  0
LINE
  5
24BC9
330
18
100
AcDbEntity
  8
姿図
100
AcDbLine
 10
2291.71244574906
 20
-145.7064514785529
 30
0.0
 11
2292.680291559622
 21
-144.6819887880247
 31
0.0
  0
LINE
  5
24BCA
330
18
100
AcDbEntity
  8
姿図
100
AcDbLine
 10
2292.559725624602
 20
-145.6287006031662
 30
0.0
 11
2293.594101247465
 21
-144.5338162506673
 31
0.0
  0
ARC
  5
24BCB
330
18
100
AcDbEntity
  8
姿図
100
AcDbCircle
 10
2297.255337938586
 20
-159.7170998396182
 30
0.0
 40
20.05365414378541
100
AcDbArc
 50
37.17842849425487
 51
45.47237121298996
  0
ARC
  5
24BCC
330
18
100
AcDbEntity
  8
姿図
100
AcDbCircle
 10
2311.262213328344
 20
-151.1176788844846
 30
0.0
 40
9.620582517572863
100
AcDbArc
 50
87.54452681587186
 51
115.8684151450544
  0
ARC
  5
24BCD
330
18
100
AcDbEntity
  8
姿図
100
AcDbCircle
 10
2311.728489687241
 20
-151.389528931908
 30
0.0
 40
9.620582517572863
100
AcDbArc
 50
87.54452681587186
 51
115.8684151450544
  0
LINE
  5
24BCE
330
18
100
AcDbEntity
  8
姿図
100
AcDbLine
 10
2312.140664057699
 20
-141.7777798576874
 30
0.0
 11
2310.623330959126
 21
-142.5114165991156
 31
0.0
  0
LINE
  5
24BCF
330
18
100
AcDbEntity
  8
姿図
100
AcDbLine
 10
2294.697442725762
 20
-145.8232107933804
 30
0.0
 11
2295.905256543923
 21
-144.5447424874715
 31
0.0
  0
LINE
  5
24BD0
330
18
100
AcDbEntity
  8
姿図
100
AcDbLine
 10
2295.326038615668
 20
-145.9769364423071
 30
0.0
 11
2296.585017733788
 21
-144.6443097774056
 31
0.0
  0
LINE
  5
24BD1
330
18
100
AcDbEntity
  8
姿図
100
AcDbLine
 10
2295.925046688427
 20
-146.161980731488
 30
0.0
 11
2297.232636582752
 21
-144.7778996654445
 31
0.0
  0
LINE
  5
24BD2
330
18
100
AcDbEntity
  8
姿図
100
AcDbLine
 10
2296.498647061595
 20
-146.3739190155566
 30
0.0
 11
2297.852610479106
 21
-144.9407516758381
 31
0.0
  0
LINE
  5
24BD3
330
18
100
AcDbEntity
  8
姿図
100
AcDbLine
 10
2297.049949283661
 20
-146.6094598441866
 30
0.0
 11
2298.448302502128
 21
-145.1293059964692
 31
0.0
  0
LINE
  5
24BD4
330
18
100
AcDbEntity
  8
姿図
100
AcDbLine
 10
2297.581335337811
 20
-146.8660818933436
 30
0.0
 11
2299.02230051642
 21
-145.3408233782723
 31
0.0
  0
LINE
  5
24BD5
330
18
100
AcDbEntity
  8
姿図
100
AcDbLine
 10
2298.094671817958
 20
-147.14180937742
 30
0.0
 11
2299.576640904095
 21
-145.5731483151981
 31
0.0
  0
LINE
  5
24BD6
330
18
100
AcDbEntity
  8
姿図
100
AcDbLine
 10
2298.591447540962
 20
-147.4350663869998
 30
0.0
 11
2300.112954532361
 21
-145.8245545378436
 31
0.0
  0
LINE
  5
24BD7
330
18
100
AcDbEntity
  8
姿図
100
AcDbLine
 10
2299.072866281338
 20
-147.744578729373
 30
0.0
 11
2300.632565617251
 21
-146.0936403664148
 31
0.0
  0
LINE
  5
24BD8
330
18
100
AcDbEntity
  8
姿図
100
AcDbLine
 10
2299.539911254059
 20
-148.0693056736186
 30
0.0
 11
2301.136560780159
 21
-146.379255614519
 31
0.0
  0
LINE
  5
24BD9
330
18
100
AcDbEntity
  8
姿図
100
AcDbLine
 10
2299.993391124447
 20
-148.4083912492536
 30
0.0
 11
2301.625838533338
 21
-146.6804492088909
 31
0.0
  0
LINE
  5
24BDA
330
18
100
AcDbEntity
  8
姿図
100
AcDbLine
 10
2300.433973537367
 20
-148.761128755634
 30
0.0
 11
2302.10114550011
 21
-146.9964308503613
 31
0.0
  0
LINE
  5
24BDB
330
18
100
AcDbEntity
  8
姿図
100
AcDbLine
 10
2300.86220996664
 20
-149.1269344589175
 30
0.0
 11
2302.56310338881
 21
-147.3265424620072
 31
0.0
  0
LINE
  5
24BDC
330
18
100
AcDbEntity
  8
姿図
100
AcDbLine
 10
2301.278554366831
 20
-149.5053278491823
 30
0.0
 11
2303.012229357154
 21
-147.6702366335089
 31
0.0
  0
LINE
  5
24BDD
330
18
100
AcDbEntity
  8
姿図
100
AcDbLine
 10
2301.683377288361
 20
-149.8959166996119
 30
0.0
 11
2303.448951539925
 21
-148.0270601851269
 31
0.0
  0
LINE
  5
24BDE
330
18
100
AcDbEntity
  8
姿図
100
AcDbLine
 10
2302.076976589291
 20
-150.2983857280931
 30
0.0
 11
2303.873620956603
 21
-148.3966415635032
 31
0.0
  0
LINE
  5
24BDF
330
18
100
AcDbEntity
  8
姿図
100
AcDbLine
 10
2302.459585528257
 20
-150.7124880308686
 30
0.0
 11
2304.286520647383
 21
-148.7786811712049
 31
0.0
  0
LINE
  5
24BE0
330
18
100
AcDbEntity
  8
姿図
100
AcDbLine
 10
2302.831378785424
 20
-151.1380387093607
 30
0.0
 11
2304.687872635873
 21
-149.1729439967248
 31
0.0
  0
LINE
  5
24BE1
330
18
100
AcDbEntity
  8
姿図
100
AcDbLine
 10
2303.192476791608
 20
-151.5749102878115
 30
0.0
 11
2305.077843142074
 21
-149.5792540965538
 31
0.0
  0
LINE
  5
24BE2
330
18
100
AcDbEntity
  8
姿図
100
AcDbLine
 10
2303.542948624164
 20
-152.0230296479926
 30
0.0
 11
2305.456546343687
 21
-149.9974906138423
 31
0.0
  0
SPLINE
  5
24BE3
330
18
100
AcDbEntity
  8
姿図
100
AcDbSpline
210
0.0
220
0.0
230
1.0
 70
     8
 71
     1
 72
    95
 73
    93
 74
     0
 42
0.000000001
 43
0.0000000001
 40
4.868828357704044
 40
4.868828357704044
 40
4.899304006515187
 40
4.929779655326332
 40
4.960255304137476
 40
4.99073095294862
 40
5.021206601759763
 40
5.051682250570908
 40
5.082157899382052
 40
5.112633548193195
 40
5.141866847195869
 40
5.171100146198544
 40
5.200333445201219
 40
5.229566744203892
 40
5.258800043206566
 40
5.288033342209241
 40
5.317266641211915
 40
5.346499940214589
 40
5.375733239217263
 40
5.410288874003569
 40
5.444844508789874
 40
5.479400143576179
 40
5.513955778362485
 40
5.548511413148789
 40
5.583067047935096
 40
5.617622682721401
 40
5.652178317507706
 40
5.686733952294011
 40
5.721773394811629
 40
5.756812837329247
 40
5.791852279846864
 40
5.826891722364483
 40
5.861931164882101
 40
5.896970607399719
 40
5.932010049917338
 40
5.967049492434954
 40
6.002088934952573
 40
6.037128377470191
 40
6.072869040478575
 40
6.108609703486958
 40
6.144350366495342
 40
6.180091029503725
 40
6.215831692512109
 40
6.251572355520493
 40
6.287313018528875
 40
6.323053681537259
 40
6.358794344545643
 40
6.394535007554026
 40
6.434056964704096
 40
6.473578921854168
 40
6.51310087900424
 40
6.55262283615431
 40
6.59214479330438
 40
6.631666750454452
 40
6.671188707604522
 40
6.710710664754592
 40
6.750232621904663
 40
6.785926488730394
 40
6.821620355556124
 40
6.857314222381854
 40
6.893008089207585
 40
6.928701956033316
 40
6.964395822859046
 40
7.000089689684777
 40
7.035783556510507
 40
7.071477423336238
 40
7.107171290161968
 40
7.142623453249049
 40
7.178075616336131
 40
7.213527779423211
 40
7.248979942510293
 40
7.284432105597374
 40
7.319884268684455
 40
7.355336431771536
 40
7.390788594858618
 40
7.426240757945699
 40
7.46169292103278
 40
7.497078312165116
 40
7.532463703297453
 40
7.567849094429789
 40
7.603234485562125
 40
7.638619876694462
 40
7.674005267826798
 40
7.709390658959135
 40
7.74477605009147
 40
7.780161441223807
 40
7.808943887482561
 40
7.837726333741315
 40
7.866508780000069
 40
7.895291226258823
 40
7.924073672517576
 40
7.952856118776331
 40
7.981638565035084
 40
8.010421011293838
 40
8.010421011293838
 10
2319.804384705324
 20
-152.4133854456559
 30
-0.0000000000000046
 10
2319.833026930488
 20
-152.4089652280038
 30
-0.0000000000000046
 10
2319.861410076689
 20
-152.4031786484254
 30
-0.0000000000000046
 10
2319.889457133979
 20
-152.3960493000698
 30
-0.0000000000000046
 10
2319.917095322513
 20
-152.3876087347319
 30
-0.0000000000000046
 10
2319.944257345379
 20
-152.3778955103746
 30
-0.0000000000000046
 10
2319.970882374135
 20
-152.3669540421736
 30
-0.0000000000000127
 10
2319.996916733383
 20
-152.3548333335605
 30
-0.0000000000000127
 10
2320.022314275584
 20
-152.3415856655895
 30
-0.0000000000000046
 10
2320.046042277951
 20
-152.3278693608422
 30
-0.0000000000000046
 10
2320.069121224901
 20
-152.3132146721343
 30
-0.0000000000000046
 10
2320.091529487233
 20
-152.2976700561333
 30
-0.0000000000000046
 10
2320.113250943978
 20
-152.281283073273
 30
-0.0000000000000046
 10
2320.134274436694
 20
-152.2640998031361
 30
-0.0000000000000046
 10
2320.154593170597
 20
-152.2461644014054
 30
-0.0000000000000127
 10
2320.174204095889
 20
-152.2275187911957
 30
-0.0000000000000127
 10
2320.193107296877
 20
-152.2082024758677
 30
-0.0000000000000127
 10
2320.211305410241
 20
-152.1882524569146
 30
-0.0000000000000046
 10
2320.231913880522
 20
-152.163900034169
 30
-0.0000000000000046
 10
2320.251554092074
 20
-152.1387628959958
 30
-0.0000000000000046
 10
2320.270238449542
 20
-152.1128892568979
 30
-0.0000000000000046
 10
2320.287980586533
 20
-152.0863232910813
 30
-0.0000000000000046
 10
2320.304794718914
 20
-152.0591055729069
 30
-0.0000000000000046
 10
2320.320695140889
 20
-152.0312735372563
 30
-0.0000000000000127
 10
2320.33569584672
 20
-152.0028619357658
 30
-0.0000000000000127
 10
2320.349810259641
 20
-151.973903272004
 30
-0.0000000000000046
 10
2320.363051049767
 20
-151.9444282045022
 30
-0.0000000000000127
 10
2320.375597275434
 20
-151.9140430902742
 30
-0.0000000000000046
 10
2320.387268729286
 20
-151.8831862165109
 30
-0.0000000000000046
 10
2320.398075780141
 20
-151.8518858681698
 30
-0.0000000000000046
 10
2320.408027843335
 20
-151.8201696648621
 30
-0.0000000000000046
 10
2320.417133431167
 20
-151.788064777113
 30
-0.0000000000000046
 10
2320.425400220436
 20
-151.7555981050282
 30
-0.0000000000000046
 10
2320.432835130632
 20
-151.7227964231661
 30
-0.0000000000000046
 10
2320.439444407795
 20
-151.6896864954963
 30
-0.0000000000000127
 10
2320.44523371019
 20
-151.6562951641531
 30
-0.0000000000000127
 10
2320.45020819295
 20
-151.6226494155042
 30
-0.0000000000000046
 10
2320.45444769138
 20
-151.5880964182666
 30
-0.0000000000000046
 10
2320.45784900916
 20
-151.5533360739869
 30
-0.0000000000000127
 10
2320.460416505985
 20
-151.5183977175727
 30
-0.0000000000000046
 10
2320.462154317929
 20
-151.4833109446199
 30
-0.0000000000000046
 10
2320.463066420987
 20
-151.4481056047832
 30
-0.0000000000000046
 10
2320.463156686648
 20
-151.4128117862385
 30
-0.0000000000000046
 10
2320.462428929399
 20
-151.377459792935
 30
-0.0000000000000046
 10
2320.460886946153
 20
-151.3420801161808
 30
-0.0000000000000046
 10
2320.458534547675
 20
-151.3067034018759
 30
-0.0000000000000046
 10
2320.455375582109
 20
-151.2713604146002
 30
-0.0000000000000127
 10
2320.450948027328
 20
-151.232354655685
 30
-0.0000000000000127
 10
2320.445544345153
 20
-151.1934696199121
 30
-0.0000000000000127
 10
2320.439169989574
 20
-151.1547470684836
 30
-0.0000000000000046
 10
2320.431830492954
 20
-151.1162286965653
 30
-0.0000000000000046
 10
2320.423531439645
 20
-151.0779560732369
 30
-0.0000000000000046
 10
2320.41427842654
 20
-151.0399705866041
 30
-0.0000000000000046
 10
2320.404077010856
 20
-151.0023133960428
 30
-0.0000000000000127
 10
2320.392932645426
 20
-150.9650253937366
 30
-0.0000000000000046
 10
2320.38085060193
 20
-150.9281471778852
 30
-0.0000000000000046
 10
2320.369137148695
 20
-150.8952266659583
 30
-0.0000000000000127
 10
2320.356666382164
 20
-150.862702738938
 30
-0.0000000000000046
 10
2320.343441423173
 20
-150.8306046800446
 30
-0.0000000000000046
 10
2320.329465013929
 20
-150.798961614551
 30
-0.0000000000000127
 10
2320.314739445977
 20
-150.7678025533401
 30
-0.0000000000000127
 10
2320.299266486737
 20
-150.7371564542975
 30
-0.0000000000000046
 10
2320.283047306789
 20
-150.7070523041621
 30
-0.0000000000000046
 10
2320.266082410717
 20
-150.6775192236557
 30
-0.0000000000000046
 10
2320.248371575189
 20
-150.6485865988845
 30
-0.0000000000000046
 10
2320.229913799002
 20
-150.6202842420141
 30
-0.0000000000000046
 10
2320.210839852851
 20
-150.5928274705789
 30
-0.0000000000000046
 10
2320.191024689851
 20
-150.5660531224948
 30
-0.0000000000000046
 10
2320.170464969829
 20
-150.5399929198907
 30
-0.0000000000000046
 10
2320.149156654887
 20
-150.5146799554398
 30
-0.0000000000000127
 10
2320.127095135842
 20
-150.4901490187754
 30
-0.0000000000000127
 10
2320.104275429125
 20
-150.4664369547222
 30
-0.0000000000000127
 10
2320.080692460273
 20
-150.443583046804
 30
-0.0000000000000127
 10
2320.056341451389
 20
-150.4216294151727
 30
-0.0000000000000046
 10
2320.031218430413
 20
-150.4006214125841
 30
-0.0000000000000046
 10
2320.005320878951
 20
-150.380607995354
 30
-0.0000000000000127
 10
2319.978699495119
 20
-150.3616767400838
 30
-0.0000000000000127
 10
2319.951309159623
 20
-150.3438456900938
 30
-0.0000000000000046
 10
2319.923157098511
 20
-150.3271757182001
 30
-0.0000000000000046
 10
2319.894256084091
 20
-150.3117317641177
 30
-0.0000000000000046
 10
2319.864625791487
 20
-150.2975824644234
 30
-0.0000000000000046
 10
2319.834294207497
 20
-150.2847994738479
 30
-0.0000000000000127
 10
2319.803299011691
 20
-150.2734564300563
 30
-0.0000000000000046
 10
2319.771688825091
 20
-150.2636275321479
 30
-0.0000000000000127
 10
2319.73952420122
 20
-150.2553857318449
 30
-0.0000000000000127
 10
2319.713002759715
 20
-150.2499006261237
 30
-0.0000000000000046
 10
2319.686208105307
 20
-150.2455463938604
 30
-0.0000000000000046
 10
2319.659191086719
 20
-150.2423542750141
 30
-0.0000000000000127
 10
2319.632007523175
 20
-150.2403511405887
 30
-0.0000000000000046
 10
2319.604717612961
 20
-150.239558632511
 30
-0.0000000000000046
 10
2319.577385140429
 20
-150.2399924030206
 30
-0.0000000000000127
 10
2319.550076504599
 20
-150.2416615021129
 30
-0.0000000000000127
 10
2319.522859607239
 20
-150.2445679553268
 30
-0.0000000000000046
  0
LWPOLYLINE
  5
24BE4
330
18
100
AcDbEntity
  8
姿図
100
AcDbPolyline
 90
        3
 70
     0
 43
0.0
 10
2324.331860450315
 20
-149.3714792810774
 10
2323.432660755501
 20
-151.3712581613033
 10
2321.769583070126
 20
-153.7268985285218
  0
LWPOLYLINE
  5
24BE5
330
18
100
AcDbEntity
  8
姿図
100
AcDbPolyline
 90
        4
 70
     0
 43
0.0
 10
2316.491923598754
 20
-159.81624617889
 10
2318.006733840106
 20
-158.824415902674
 10
2318.391950598917
 20
-158.4576755054693
 10
2320.876469013996
 20
-153.998952764774
  0
LWPOLYLINE
  5
24BE6
330
18
100
AcDbEntity
  8
姿図
100
AcDbPolyline
 90
        4
 70
     0
 43
0.0
 10
2316.498542409482
 20
-159.2114734236845
 10
2317.679253100293
 20
-158.4383966523296
 10
2318.064469859104
 20
-158.0716562551245
 10
2320.548988274184
 20
-153.6129335144296
  0
LINE
  5
24BE7
330
18
100
AcDbEntity
  8
姿図
100
AcDbLine
 10
2317.217455883523
 20
-146.7128385731769
 30
0.0
 11
2315.199127157098
 21
-149.2428670643008
 31
0.0
  0
SPLINE
  5
24BE8
330
18
100
AcDbEntity
  8
姿図
100
AcDbSpline
210
0.0
220
0.0
230
1.0
 70
     8
 71
     3
 72
     8
 73
     4
 74
     0
 42
0.000000001
 43
0.0000000001
 40
20.17474574740567
 40
20.17474574740567
 40
20.17474574740567
 40
20.17474574740567
 40
20.51051228626665
 40
20.51051228626665
 40
20.51051228626665
 40
20.51051228626665
 10
2313.833756309854
 20
-151.7205899219421
 30
-0.0000000000000046
 10
2313.820931849563
 20
-151.692959571682
 30
-0.0000000000000046
 10
2313.808027964524
 20
-151.6653169415149
 30
-0.0000000000000046
 10
2313.795043863036
 20
-151.637660761842
 30
-0.0000000000000046
  0
SPLINE
  5
24BE9
330
18
100
AcDbEntity
  8
姿図
100
AcDbSpline
210
0.0
220
0.0
230
1.0
 70
     8
 71
     3
 72
    14
 73
    10
 74
     0
 42
0.000000001
 43
0.0000000001
 40
-12.4176878319165
 40
-12.4176878319165
 40
-12.4176878319165
 40
-12.4176878319165
 40
-9.929941621284126
 40
-9.929941621284126
 40
-7.882361304732088
 40
-7.882361304732088
 40
-6.55536423551068
 40
-6.55536423551068
 40
-6.54232051596743
 40
-6.54232051596743
 40
-6.54232051596743
 40
-6.54232051596743
 10
2317.873560475432
 20
-149.4938449731064
 30
-0.0000000000000046
 10
2318.072297330315
 20
-149.4228838717165
 30
-0.0000000000000046
 10
2318.311053209968
 20
-149.3366450713991
 30
-0.0000000000000046
 10
2318.730268750788
 20
-149.196836714965
 30
-0.0000000000000046
 10
2318.923677671196
 20
-149.1357731998717
 30
-0.0000000000000127
 10
2319.238295026757
 20
-149.0545181109296
 30
-0.0000000000000046
 10
2319.380713715192
 20
-149.0227619448281
 30
-0.0000000000000127
 10
2319.515593187054
 20
-149.0049968220396
 30
-0.0000000000000046
 10
2319.51690399136
 20
-149.0048253932871
 30
-0.0000000000000127
 10
2319.518212732567
 20
-149.0046555379854
 30
-0.0000000000000046
  0
SPLINE
  5
24BEA
330
18
100
AcDbEntity
  8
姿図
100
AcDbSpline
210
0.0
220
0.0
230
1.0
 70
     8
 71
     3
 72
    14
 73
    10
 74
     0
 42
0.000000001
 43
0.0000000001
 40
-12.4176878319165
 40
-12.4176878319165
 40
-12.4176878319165
 40
-12.4176878319165
 40
-9.929941621284126
 40
-9.929941621284126
 40
-7.882361304732088
 40
-7.882361304732088
 40
-6.55536423551068
 40
-6.55536423551068
 40
-6.54232051596743
 40
-6.54232051596743
 40
-6.54232051596743
 40
-6.54232051596743
 10
2317.873528402294
 20
-149.49383204486
 30
-0.0000000000000046
 10
2318.072266900092
 20
-149.4228703568504
 30
-0.0000000000000046
 10
2318.311024753489
 20
-149.3366308436146
 30
-0.0000000000000046
 10
2318.730243759877
 20
-149.1968213314133
 30
-0.0000000000000046
 10
2318.923654279157
 20
-149.1357573115215
 30
-0.0000000000000127
 10
2319.238274235595
 20
-149.0545015508601
 30
-0.0000000000000046
 10
2319.380694101375
 20
-149.0227451222368
 30
-0.0000000000000127
 10
2319.515574688258
 20
-149.0049798525879
 30
-0.0000000000000046
 10
2319.5168855034
 20
-149.0048084224188
 30
-0.0000000000000127
 10
2319.518194255426
 20
-149.0046385657126
 30
-0.0000000000000046
  0
SPLINE
  5
24BEB
330
18
100
AcDbEntity
  8
姿図
100
AcDbSpline
210
5.967200730323610E-6
220
-1.671209659430053E-5
230
-0.9999999998425493
 70
     8
 71
     3
 72
     8
 73
     4
 74
     0
 42
0.000000001
 43
0.0000000001
 40
110.2937215201613
 40
110.2937215201613
 40
110.2937215201613
 40
110.2937215201613
 40
110.302956437032
 40
110.302956437032
 40
110.302956437032
 40
110.302956437032
 10
2317.873560475432
 20
-149.4938449731064
 30
-0.0000000000000046
 10
2317.873472260973
 20
-149.493876471013
 30
-0.0000000000000127
 10
2317.873384049135
 20
-149.4939079676635
 30
-0.0000000000000046
 10
2317.873295839713
 20
-149.4939394631276
 30
-0.0000000000000127
  0
SPLINE
  5
24BEC
330
18
100
AcDbEntity
  8
姿図
100
AcDbSpline
210
0.0
220
0.0
230
1.0
 70
     8
 71
     3
 72
     8
 73
     4
 74
     0
 42
0.000000001
 43
0.0000000001
 40
-5.558709854342928
 40
-5.558709854342928
 40
-5.558709854342928
 40
-5.558709854342928
 40
-5.251204385375416
 40
-5.251204385375416
 40
-5.251204385375416
 40
-5.251204385375416
 10
2317.83121510725
 20
-149.5421106400893
 30
-0.0000000000000046
 10
2317.845025545022
 20
-149.5256642563061
 30
-0.0000000000000046
 10
2317.859054597102
 20
-149.5095965388898
 30
-0.0000000000000127
 10
2317.873295839713
 20
-149.4939394631276
 30
-0.0000000000000127
  0
SPLINE
  5
24BED
330
18
100
AcDbEntity
  8
姿図
100
AcDbSpline
210
5.960454970074308E-6
220
-1.669320395076563E-5
230
-0.999999999842905
 70
     8
 71
     3
 72
     8
 73
     4
 74
     0
 42
0.000000001
 43
0.0000000001
 40
110.2937215201613
 40
110.2937215201613
 40
110.2937215201613
 40
110.2937215201613
 40
110.302956437032
 40
110.302956437032
 40
110.302956437032
 40
110.302956437032
 10
2317.873528402294
 20
-149.49383204486
 30
-0.0000000000000046
 10
2317.873440187107
 20
-149.4938635430271
 30
-0.0000000000000127
 10
2317.873351974539
 20
-149.4938950399383
 30
-0.0000000000000046
 10
2317.873263764386
 20
-149.4939265356627
 30
-0.0000000000000127
  0
SPLINE
  5
24BEE
330
18
100
AcDbEntity
  8
姿図
100
AcDbSpline
210
0.0
220
0.0
230
1.0
 70
     8
 71
     3
 72
     8
 73
     4
 74
     0
 42
0.000000001
 43
0.0000000001
 40
-5.558709854342928
 40
-5.558709854342928
 40
-5.558709854342928
 40
-5.558709854342928
 40
-5.251204385375416
 40
-5.251204385375416
 40
-5.251204385375416
 40
-5.251204385375416
 10
2317.831182684051
 20
-149.5420981108457
 30
-0.0000000000000046
 10
2317.84499323599
 20
-149.5256515911033
 30
-0.0000000000000046
 10
2317.859022404047
 20
-149.5095837408583
 30
-0.0000000000000127
 10
2317.873263764386
 20
-149.4939265356627
 30
-0.0000000000000127
  0
LWPOLYLINE
  5
24BEF
330
18
100
AcDbEntity
  8
姿図
100
AcDbPolyline
 90
        3
 70
     0
 43
0.0
 10
2324.683879048479
 20
-148.641053985765
 10
2325.239047328671
 20
-148.90976780046
 10
2326.406221992654
 20
-149.7621369417298
  0
ELLIPSE
  5
24BF0
330
18
100
AcDbEntity
  8
姿図
100
AcDbEllipse
 10
2308.011610624703
 20
-120.1419177428793
 30
0.0
 11
-1.374390620266722
 21
-0.1061948148059822
 31
0.0
210
0.0
220
0.0
230
1.0
 40
0.4628655777425251
 41
5.477092832877411
 42
9.981255930046515
  0
LINE
  5
24BF1
330
18
100
AcDbEntity
  8
姿図
100
AcDbLine
 10
2306.643122689257
 20
-120.2883296011221
 30
0.0
 11
2307.169854784865
 21
-119.7307848207809
 31
0.0
  0
LINE
  5
24BF2
330
18
100
AcDbEntity
  8
姿図
100
AcDbLine
 10
2306.764680568876
 20
-120.4872980630983
 30
0.0
 11
2307.523868640259
 21
-119.6836991367629
 31
0.0
  0
LINE
  5
24BF3
330
18
100
AcDbEntity
  8
姿図
100
AcDbLine
 10
2306.953795181836
 20
-120.6147578694122
 30
0.0
 11
2307.858015735753
 21
-119.657642374993
 31
0.0
  0
LINE
  5
24BF4
330
18
100
AcDbEntity
  8
姿図
100
AcDbLine
 10
2307.180918389523
 20
-120.7019856606748
 30
0.0
 11
2308.176220561936
 21
-119.6484604707005
 31
0.0
  0
LINE
  5
24BF5
330
18
100
AcDbEntity
  8
姿図
100
AcDbLine
 10
2307.437621487593
 20
-120.7579032021479
 30
0.0
 11
2308.480800610779
 21
-119.6537003636588
 31
0.0
  0
LINE
  5
24BF6
330
18
100
AcDbEntity
  8
姿図
100
AcDbLine
 10
2307.721856353645
 20
-120.7846784269491
 30
0.0
 11
2308.77317774031
 21
-119.6718570202324
 31
0.0
  0
LINE
  5
24BF7
330
18
100
AcDbEntity
  8
姿図
100
AcDbLine
 10
2308.035908825853
 20
-120.7798917803279
 30
0.0
 11
2309.054203900075
 21
-119.7020286536751
 31
0.0
  0
LINE
  5
24BF8
330
18
100
AcDbEntity
  8
姿図
100
AcDbLine
 10
2308.388712891754
 20
-120.7340866558636
 30
0.0
 11
2309.266889550563
 21
-119.8045385679088
 31
0.0
  0
LINE
  5
24BF9
330
18
100
AcDbEntity
  8
姿図
100
AcDbLine
 10
2308.812317455565
 20
-120.6133393579771
 30
0.0
 11
2309.382790873115
 21
-120.0094944832674
 31
0.0
  0
LWPOLYLINE
  5
24BFA
330
18
100
AcDbEntity
  8
姿図
100
AcDbPolyline
 90
        3
 70
     0
 43
0.0
 10
2304.223634923724
 20
-121.047483673377
 10
2304.140745953641
 20
-121.0880090113087
 10
2304.126780697271
 20
-121.1342085221081
  0
LWPOLYLINE
  5
24BFB
330
18
100
AcDbEntity
  8
姿図
100
AcDbPolyline
 90
        3
 70
     0
 43
0.0
 10
2304.09271779446
 20
-121.1985910214703
 10
2304.009828824377
 20
-121.2391163594018
 10
2303.995863568006
 20
-121.2853158702012
  0
ELLIPSE
  5
24BFC
330
18
100
AcDbEntity
  8
姿図
100
AcDbEllipse
 10
2308.094199417092
 20
-120.6290801164314
 30
0.0
 11
-2.977322425633557
 21
-0.0651525036592447
 31
0.0
210
0.0
220
0.0
230
1.0
 40
0.423425259805966
 41
0.3786499284263661
 42
2.848220962939281
  0
ELLIPSE
  5
24BFD
330
18
100
AcDbEntity
  8
姿図
100
AcDbEllipse
 10
2308.094199417092
 20
-120.6290801164314
 30
0.0
 11
-2.977322425633557
 21
-0.0651525036592447
 31
0.0
210
0.0
220
0.0
230
1.0
 40
0.423425259805966
 41
3.551025708286839
 42
6.045724500716436
  0
ELLIPSE
  5
24BFE
330
18
100
AcDbEntity
  8
姿図
100
AcDbEllipse
 10
2308.167887196325
 20
-120.9081361562899
 30
0.0
 11
-2.922366604295876
 21
-0.02352774701720397
 31
0.0
210
0.0
220
0.0
230
1.0
 40
0.4310041458033451
 41
3.612298197460502
 42
5.991115740086309
  0
ELLIPSE
  5
24BFF
330
18
100
AcDbEntity
  8
姿図
100
AcDbEllipse
 10
2308.087669403729
 20
-120.3992935025508
 30
0.0
 11
2.908257364162413
 21
0.09033739870748021
 31
0.0
210
0.0
220
0.0
230
1.0
 40
0.4346217930958619
 41
3.572038920501568
 42
5.869050530619732
  0
LINE
  5
24C00
330
18
100
AcDbEntity
  8
姿図
100
AcDbLine
 10
2333.327200676513
 20
-121.8859976463057
 30
0.0
 11
2316.721377717372
 21
-122.0949025761101
 31
0.0
  0
LINE
  5
24C01
330
18
100
AcDbEntity
  8
姿図
100
AcDbLine
 10
2317.550414906647
 20
-118.9185778999988
 30
0.0
 11
2333.230552195457
 21
-121.8872135055976
 31
0.0
  0
SPLINE
  5
24C7E
330
18
100
AcDbEntity
  8
姿図
100
AcDbSpline
210
0.0
220
0.0
230
1.0
 70
     8
 71
     3
 72
    17
 73
    13
 74
     0
 42
0.000000001
 43
0.0000000001
 40
0.0
 40
0.0
 40
0.0
 40
0.0
 40
1.0
 40
1.0
 40
1.0
 40
2.0
 40
2.0
 40
2.0
 40
3.0
 40
3.0
 40
3.0
 40
4.0
 40
4.0
 40
4.0
 40
4.0
 10
2294.407902141515
 20
-117.1435882985429
 30
0.0
 10
2294.407902141515
 20
-117.1435882985429
 30
0.0
 10
2293.911644071117
 20
-108.058273336582
 30
0.0
 10
2293.911644071117
 20
-108.058273336582
 30
0.0
 10
2294.373707326519
 20
-105.5017985992979
 30
0.0
 10
2300.361006058911
 20
-103.4281674963308
 30
0.0
 10
2307.754380780676
 20
-103.1398705016629
 30
0.0
 10
2315.148430638445
 20
-102.8515582835787
 30
0.0
 10
2321.147777256417
 20
-104.4576665953102
 30
0.0
 10
2321.155044091223
 20
-106.7271130946294
 30
0.0
 10
2321.155044091223
 20
-106.7271130946294
 30
0.0
 10
2321.187342712623
 20
-116.0979842352228
 30
0.0
 10
2321.187342712623
 20
-116.0979842352228
 30
0.0
  0
LINE
  5
24C7F
330
18
100
AcDbEntity
  8
姿図
100
AcDbLine
 10
2321.161576270888
 20
-108.62230896553
 30
0.0
 11
2333.108546763703
 21
-112.1890192042233
 31
0.0
  0
SPLINE
  5
24C80
330
18
100
AcDbEntity
  8
姿図
100
AcDbSpline
210
0.0
220
0.0
230
1.0
 70
     8
 71
     3
 72
    14
 73
    10
 74
     0
 42
0.000000001
 43
0.0000000001
 40
0.0
 40
0.0
 40
0.0
 40
0.0
 40
1.0
 40
1.0
 40
1.0
 40
2.0
 40
2.0
 40
2.0
 40
2.022340226574567
 40
2.022340226574567
 40
2.022340226574567
 40
2.022340226574567
 10
2325.786106091585
 20
-116.7261531180204
 30
0.0
 10
2325.786106091585
 20
-116.7261531180204
 30
0.0
 10
2322.960436331444
 20
-116.95508154955
 30
0.0
 10
2322.960436331444
 20
-116.95508154955
 30
0.0
 10
2322.577634804302
 20
-117.0067739648448
 30
0.0
 10
2322.192283006301
 20
-116.4945809862159
 30
0.0
 10
2322.099923481071
 20
-115.8106244114986
 30
0.0
 10
2322.097860148352
 20
-115.7953446666525
 30
0.0
 10
2322.095960543877
 20
-115.7801087909313
 30
0.0
 10
2322.094222650092
 20
-115.7649218737911
 30
0.0
  0
ELLIPSE
  5
24C81
330
18
100
AcDbEntity
  8
姿図
100
AcDbEllipse
 10
2325.618919084076
 20
-115.4880712557633
 30
0.0
 11
-0.02816331815782049
 21
1.249001609542
 31
0.0
210
0.0
220
0.0
230
1.0
 40
0.5599999999999931
 41
3.197033155767157
 42
9.434679777203067
  0
SPLINE
  5
24C82
330
18
100
AcDbEntity
  8
姿図
100
AcDbSpline
210
0.0
220
0.0
230
1.0
 70
     8
 71
     3
 72
    14
 73
    10
 74
     0
 42
0.000000001
 43
0.0000000001
 40
0.0
 40
0.0
 40
0.0
 40
0.0
 40
1.0
 40
1.0
 40
1.0
 40
2.0
 40
2.0
 40
2.0
 40
2.022340226574543
 40
2.022340226574543
 40
2.022340226574543
 40
2.022340226574543
 10
2325.590755765919
 20
-114.2390696462207
 30
0.0
 10
2325.590755765919
 20
-114.2390696462207
 30
0.0
 10
2322.763995677306
 20
-114.4541166679805
 30
0.0
 10
2322.763995677306
 20
-114.4541166679805
 30
0.0
 10
2322.377817882355
 20
-114.4628244614867
 30
0.0
 10
2322.077159763765
 20
-115.028900738419
 30
0.0
 10
2322.09271809412
 20
-115.7188897356907
 30
0.0
 10
2322.093065670746
 20
-115.7343042462237
 30
0.0
 10
2322.093568118544
 20
-115.7496498629387
 30
0.0
 10
2322.094222650092
 20
-115.7649218737913
 30
0.0
  0
LINE
  5
24C83
330
18
100
AcDbEntity
  8
姿図
100
AcDbLine
 10
2322.096504770437
 20
-115.5282195510335
 30
0.0
 11
2324.924511954232
 21
-115.2962244427119
 31
0.0
  0
LINE
  5
24C84
330
18
100
AcDbEntity
  8
姿図
100
AcDbLine
 10
2322.11988821673
 20
-116.0850623308654
 30
0.0
 11
2324.953036746712
 21
-115.8403623002346
 31
0.0
  0
LINE
  5
24C85
330
18
100
AcDbEntity
  8
姿図
100
AcDbLine
 10
2322.233412541862
 20
-114.9233663889663
 30
0.0
 11
2325.053567767621
 21
-114.7239230977075
 31
0.0
  0
LINE
  5
24C86
330
18
100
AcDbEntity
  8
姿図
100
AcDbLine
 10
2322.364302804702
 20
-116.5780341028358
 30
0.0
 11
2325.180741063655
 21
-116.3316022515764
 31
0.0
  0
SPLINE
  5
24CC5
330
18
100
AcDbEntity
  8
姿図
100
AcDbSpline
210
0.0
220
0.0
230
1.0
 70
     8
 71
     3
 72
     8
 73
     4
 74
     0
 42
0.000000001
 43
0.0000000001
 40
9.0
 40
9.0
 40
9.0
 40
9.0
 40
10.0
 40
10.0
 40
10.0
 40
10.0
 10
2316.040782607087
 20
-117.8577827426907
 30
0.0000000000000033
 10
2315.823180732053
 20
-116.8327777989414
 30
0.0000000000000033
 10
2314.290740226393
 20
-116.9868107785385
 30
0.0000000000000033
 10
2314.290740226393
 20
-116.9868107785385
 30
0.0000000000000033
  0
ELLIPSE
  5
24CC6
330
18
100
AcDbEntity
  8
姿図
100
AcDbEllipse
 10
2302.541082575054
 20
-155.7896521915638
 30
0.0000000000000035
 11
-8.240481708336526
 21
13.54645361661212
 31
1.375286606555164E-15
210
-4.507750876087789E-17
220
7.410251041075211E-17
230
-1.0
 40
0.7445887407026951
 41
2.121095593057874
 42
2.942897457598217
  0
ELLIPSE
  5
24CC7
330
18
100
AcDbEntity
  8
姿図
100
AcDbEllipse
 10
2300.31598125991
 20
-157.4984445261885
 30
0.0000000000000048
 11
-7.82701416331038
 21
11.75310932543846
 31
4.079190685550499E-16
210
-1.502583625362602E-17
220
2.470083680358398E-17
230
-1.0
 40
0.7569365384830131
 41
3.552643368148212
 42
5.078668158851188
  0
ELLIPSE
  5
24CC8
330
18
100
AcDbEntity
  8
姿図
100
AcDbEllipse
 10
2302.196075869583
 20
-156.6159668023113
 30
0.0000000000000048
 11
-7.362188164839183
 21
12.10263477568438
 31
2.047841201604088E-16
210
-7.512918126812984E-18
220
1.235041840179202E-17
230
-1.0
 40
0.7445887407023684
 41
4.327427167059906
 42
4.752891862258899
  0
ELLIPSE
  5
24CC9
330
18
100
AcDbEntity
  8
姿図
100
AcDbEllipse
 10
2300.370886742307
 20
-157.3131015063946
 30
0.0000000000000048
 11
-7.444693544853399
 21
11.8886404268406
 31
1.216566339489824E-15
210
-4.507750876087801E-17
220
7.410251041075205E-17
230
-1.0
 40
0.7056022756695942
 41
3.486045950244612
 42
5.025651057886404
  0
ELLIPSE
  5
24CCA
330
18
100
AcDbEntity
  8
姿図
100
AcDbEllipse
 10
2298.409557903881
 20
-158.3029119883699
 30
0.0000000000000048
 11
-7.672174073519265
 21
12.61221781735697
 31
1.280439496127413E-15
210
-4.507750876087800E-17
220
7.410251041075201E-17
230
-1.0
 40
0.7445887407026809
 41
3.636283805279289
 42
5.673615026347025
  0
ELLIPSE
  5
24CCB
330
18
100
AcDbEntity
  8
姿図
100
AcDbEllipse
 10
2297.887185691169
 20
-158.7026242908073
 30
0.0000000000000048
 11
-7.884575982221196
 21
12.9613834008953
 31
4.386293637723255E-16
210
-1.502583625362600E-17
220
2.470083680358401E-17
230
-1.0
 40
0.7445887407027151
 41
-0.1600394095497866
 42
2.858287793139493
  0
ELLIPSE
  5
24CCC
330
18
100
AcDbEntity
  8
姿図
100
AcDbEllipse
 10
2298.008766882586
 20
-158.5467183138717
 30
0.0000000000000048
 11
-7.884575982221855
 21
12.96138340089481
 31
4.386293637723232E-16
210
-1.502583625362599E-17
220
2.470083680358400E-17
230
-1.0
 40
0.7445887407027094
 41
-0.1600394095497162
 42
3.301632058444431
  0
ELLIPSE
  5
24CCD
330
18
100
AcDbEntity
  8
姿図
100
AcDbEllipse
 10
2301.739863662845
 20
-156.819967181056
 30
0.0000000000000048
 11
-7.060164574590121
 21
11.81984014879487
 31
1.990224096906372E-16
210
-7.512918126813000E-18
220
1.235041840179201E-17
230
-1.0
 40
0.7210291192186467
 41
3.53225784205633
 42
5.995539524716994
  0
ELLIPSE
  5
24CCE
330
18
100
AcDbEntity
  8
姿図
100
AcDbEllipse
 10
2299.45849544568
 20
-158.0200641594379
 30
0.0000000000000048
 11
-8.208672799841843
 21
11.462383986619
 31
6.097089743752613E-16
210
-2.253875438043899E-17
220
3.705125520537601E-17
230
-1.0
 40
0.7212488145120978
 41
3.547863408263944
 42
6.141197072414606
  0
ELLIPSE
  5
24CCF
330
18
100
AcDbEntity
  8
姿図
100
AcDbEllipse
 10
2297.941838368846
 20
-158.5874317883236
 30
0.0000000000000048
 11
-7.874212555822768
 21
12.94434706054504
 31
8.761056655230284E-16
210
-3.005167250725200E-17
220
4.940167360716802E-17
230
-1.0
 40
0.7445887405939735
 41
3.327615434085498
 42
3.342055807832923
  0
ELLIPSE
  5
24CD0
330
18
100
AcDbEntity
  8
姿図
100
AcDbEllipse
 10
2298.004883259841
 20
-158.5490807714637
 30
0.0000000000000048
 11
-7.883976894925901
 21
12.96040266558285
 31
4.385961370018242E-16
210
-1.502583625362601E-17
220
2.470083680358399E-17
230
-1.0
 40
0.7445885816862141
 41
3.329004700455244
 42
3.329226432330678
  0
ELLIPSE
  5
24CD1
330
18
100
AcDbEntity
  8
姿図
100
AcDbEllipse
 10
2299.812716508984
 20
-157.4493525885077
 30
0.0000000000000048
 11
-7.13486450601208
 21
11.72893942405067
 31
1.984609621758720E-16
210
-7.512918126813008E-18
220
1.235041840179200E-17
230
-1.0
 40
0.7445887418889435
 41
3.384599287400112
 42
3.389850227392116
  0
ELLIPSE
  5
24CD2
330
18
100
AcDbEntity
  8
姿図
100
AcDbEllipse
 10
2302.196075869583
 20
-156.6159668023113
 30
0.0000000000000048
 11
-7.245890988991941
 21
12.14575907608555
 31
1.022214960765639E-15
210
-3.756459063406504E-17
220
6.175209200896002E-17
230
-1.0
 40
0.7430302579573002
 41
3.587432645584389
 42
4.013845773911165
  0
ELLIPSE
  5
24CD3
330
18
100
AcDbEntity
  8
姿図
100
AcDbEllipse
 10
2316.228613124483
 20
-137.1505220905542
 30
0.0000000000000052
 11
17.59358850054388
 21
31.5635918245737
 31
7.729331260063255E-16
210
-2.253875438043898E-17
220
3.705125520537601E-17
230
-1.0
 40
0.6410056557820725
 41
3.099784278963601
 42
3.266368125798948
  0
LINE
  5
24CD4
330
18
100
AcDbEntity
  8
姿図
100
AcDbLine
 10
2299.945020641817
 20
-168.5498329862057
 30
0.0000000000000042
 11
2299.496037717635
 21
-169.1578926479392
 31
0.0000000000000044
  0
LINE
  5
24CD5
330
18
100
AcDbEntity
  8
姿図
100
AcDbLine
 10
2296.608792392811
 20
-166.2413980378562
 30
0.0000000000000048
 11
2296.253836792551
 21
-167.0652089545133
 31
0.0000000000000046
  0
SPLINE
  5
24CD6
330
18
100
AcDbEntity
  8
姿図
100
AcDbSpline
210
0.0
220
0.0
230
1.0
 70
     8
 71
     3
 72
     8
 73
     4
 74
     0
 42
0.000000001
 43
0.0000000001
 40
6.0
 40
6.0
 40
6.0
 40
6.0
 40
6.981114317255776
 40
6.981114317255776
 40
6.981114317255776
 40
6.981114317255776
 10
2312.438717330333
 20
-120.248667104466
 30
0.0000000000000033
 10
2312.611327855173
 20
-120.8376282338381
 30
0.0000000000000033
 10
2317.510559054853
 20
-148.548101940547
 30
0.0000000000000033
 10
2317.695577337536
 20
-149.7080064596278
 30
0.0000000000000033
  0
LINE
  5
24CD7
330
18
100
AcDbEntity
  8
姿図
100
AcDbLine
 10
2324.219656168499
 20
-139.5348727131361
 30
0.0000000000000048
 11
2324.632394560558
 21
-141.6034328633584
 31
0.0000000000000048
  0
ARC
  5
24CD8
330
18
100
AcDbEntity
  8
姿図
100
AcDbCircle
 10
2313.040593184326
 20
-149.1396236436556
 30
0.0000000000000048
 40
12.02005315416621
100
AcDbArc
 50
30.04368224852433
 51
63.15055502810434
  0
SPLINE
  5
24CD9
330
18
100
AcDbEntity
  8
姿図
100
AcDbSpline
210
0.0
220
0.0
230
1.0
 70
     8
 71
     3
 72
     8
 73
     4
 74
     0
 42
0.000000001
 43
0.0000000001
 40
15.0
 40
15.0
 40
15.0
 40
15.0
 40
15.72631331981369
 40
15.72631331981369
 40
15.72631331981369
 40
15.72631331981369
 10
2300.85862865934
 20
-119.2809859470779
 30
0.0000000000000033
 10
2300.85862865934
 20
-119.2809859470779
 30
0.0000000000000033
 10
2299.102389486207
 20
-129.7227300129796
 30
0.0000000000000033
 10
2297.346891268332
 20
-140.6867642100829
 30
0.0000000000000033
  0
SPLINE
  5
24CDA
330
18
100
AcDbEntity
  8
姿図
100
AcDbSpline
210
0.0
220
0.0
230
1.0
 70
     8
 71
     3
 72
    18
 73
    14
 74
     0
 42
0.000000001
 43
0.0000000001
 40
28.74698734064234
 40
28.74698734064234
 40
28.74698734064234
 40
28.74698734064234
 40
33.44137084920912
 40
33.44137084920912
 40
41.29196149669883
 40
41.29196149669883
 40
50.54402678597219
 40
50.54402678597219
 40
58.56297097631615
 40
58.56297097631615
 40
66.12555618457822
 40
66.12555618457822
 40
66.63663448405963
 40
66.63663448405963
 40
66.63663448405963
 40
66.63663448405963
 10
2310.220163071037
 20
-144.8205529969209
 30
0.000000000000004
 10
2309.778477483716
 20
-144.4095116424528
 30
0.0000000000000045
 10
2309.298599868635
 20
-144.0022784363969
 30
0.0000000000000048
 10
2307.910983521385
 20
-142.9534969419713
 30
0.0000000000000048
 10
2306.993220747325
 20
-142.3827296720976
 30
0.0
 10
2304.953290843724
 20
-141.369960947035
 30
0.0000000000000048
 10
2303.828754863501
 20
-140.9722760345737
 30
0.0
 10
2301.716749868809
 20
-140.5062584229449
 30
0.0000000000000048
 10
2300.854759942098
 20
-140.4265931697068
 30
0.0000000000000048
 10
2299.420278643507
 20
-140.4137085387697
 30
0.0000000000000048
 10
2298.555851695386
 20
-140.4702369154124
 30
0.0000000000000048
 10
2297.593957905549
 20
-140.6793640529704
 30
0.0000000000000048
 10
2297.533225455058
 20
-140.6931621646081
 30
0.0000000000000049
 10
2297.472665513774
 20
-140.7075102539814
 30
0.0000000000000049
  0
SPLINE
  5
24CDB
330
18
100
AcDbEntity
  8
姿図
100
AcDbSpline
210
0.0
220
0.0
230
1.0
 70
     8
 71
     3
 72
    10
 73
     6
 74
     0
 42
0.000000001
 43
0.0000000001
 40
0.0507684683112425
 40
0.0507684683112425
 40
0.0507684683112425
 40
0.0507684683112425
 40
16.17239265914957
 40
16.17239265914957
 40
28.35901754380262
 40
28.35901754380262
 40
28.35901754380262
 40
28.35901754380262
 10
2314.816075402883
 20
-151.2599084365979
 30
0.0000000000000048
 10
2314.520984466887
 20
-150.5115588330943
 30
0.0000000000000097
 10
2313.813469870903
 20
-149.2063055485746
 30
0.0000000000000048
 10
2312.332663589476
 20
-147.0790998710604
 30
0.0000000000000007
 10
2311.459140376428
 20
-145.9910404548923
 30
0.0000000000000026
 10
2310.220163071037
 20
-144.8205529969209
 30
0.000000000000004
  0
ELLIPSE
  5
24CDC
330
18
100
AcDbEntity
  8
姿図
100
AcDbEllipse
 10
2302.541082575054
 20
-155.7896521915638
 30
0.0000000000000035
 11
-8.240481708337285
 21
13.54645361661168
 31
1.375286606555164E-15
210
-4.507750876087788E-17
220
7.410251041075196E-17
230
-1.0
 40
0.7445887407027103
 41
0.1816174140285645
 42
1.721396946041356
  0
ELLIPSE
  5
24CDD
330
18
100
AcDbEntity
  8
姿図
100
AcDbEllipse
 10
2302.196075869583
 20
-156.6159668023113
 30
0.0000000000000048
 11
-7.3621881648323
 21
12.1026347756822
 31
8.191364806413193E-16
210
-3.005167250725200E-17
220
4.940167360716794E-17
230
-1.0
 40
0.7445887407026724
 41
-1.020444988477155
 42
-0.675422466435305
  0
ELLIPSE
  5
24CDE
330
18
100
AcDbEntity
  8
姿図
100
AcDbEllipse
 10
2300.31598125991
 20
-157.4984445261885
 30
0.0000000000000048
 11
-8.829979100642742
 21
10.98552652668503
 31
4.040295180262875E-16
210
-1.502583625362599E-17
220
2.470083680358400E-17
230
-1.0
 40
0.7419878916066797
 41
-1.136589550032924
 42
-0.125843033866976
  0
ELLIPSE
  5
24CDF
330
18
100
AcDbEntity
  8
姿図
100
AcDbEllipse
 10
2300.370886742307
 20
-157.3131015063946
 30
0.0000000000000048
 11
-6.171736332991535
 21
12.71299744546082
 31
1.220271524174379E-15
210
-4.507750876087797E-17
220
7.410251041075204E-17
230
-1.0
 40
0.7148769796037835
 41
-1.336025501013204
 42
-0.3740805824015643
  0
LINE
  5
24CE0
330
18
100
AcDbEntity
  8
姿図
100
AcDbLine
 10
2290.909242350842
 20
-156.430842393381
 30
0.0000000000000048
 11
2289.915523527159
 21
-156.6368157421823
 31
0.0000000000000051
  0
LINE
  5
24CE1
330
18
100
AcDbEntity
  8
姿図
100
AcDbLine
 10
2291.848695605668
 20
-161.8911182866807
 30
0.000000000000005
 11
2292.893872553771
 21
-161.6032158559149
 31
0.0000000000000048
  0
ELLIPSE
  5
24CE2
330
18
100
AcDbEntity
  8
姿図
100
AcDbEllipse
 10
2302.196075869583
 20
-156.6159668023113
 30
0.0000000000000048
 11
-7.362188164830537
 21
12.10263477569337
 31
2.047841201604545E-16
210
-7.512918126813013E-18
220
1.235041840179197E-17
230
-1.0
 40
0.7445887407022102
 41
-1.530293444921352
 42
-1.020444988477903
  0
ELLIPSE
  5
24CE3
330
18
100
AcDbEntity
  8
姿図
100
AcDbEllipse
 10
2301.685314610676
 20
-156.80924652456
 30
0.0000000000000048
 11
-8.500228564433543
 21
9.951939267751863
 31
5.603164053892366E-16
210
-2.253875438043900E-17
220
3.705125520537602E-17
230
-1.0
 40
0.8394320487860444
 41
-1.376701961562133
 42
-0.9346820271856128
  0
ELLIPSE
  5
24CE4
330
18
100
AcDbEntity
  8
姿図
100
AcDbEllipse
 10
2298.721370927237
 20
-158.1132321217335
 30
0.0000000000000048
 11
-7.530096776584824
 21
12.37865822770092
 31
2.094546089343517E-16
210
-7.512918126813007E-18
220
1.235041840179200E-17
230
-1.0
 40
0.7445887400054914
 41
-0.0197153658459095
 42
-0.0169158929493971
  0
ELLIPSE
  5
24CE5
330
18
100
AcDbEntity
  8
姿図
100
AcDbEllipse
 10
2302.196075869583
 20
-156.6159668023113
 30
0.0000000000000048
 11
-7.362188164834699
 21
12.10263477567932
 31
4.095682403206245E-16
210
-1.502583625362597E-17
220
2.470083680358399E-17
230
-1.0
 40
0.7445887407026627
 41
-0.6754224664350246
 42
-0.3300486139800427
  0
ELLIPSE
  5
24CE6
330
18
100
AcDbEntity
  8
姿図
100
AcDbEllipse
 10
2302.468743360011
 20
-156.659075494603
 30
0.0000000000000048
 11
-8.699597329939269
 21
11.81675478891425
 31
6.339036848116349E-16
210
-2.253875438043900E-17
220
3.705125520537601E-17
230
-1.0
 40
0.7846158028914396
 41
-0.5798433882892109
 42
-0.2849668007484034
  0
LINE
  5
24CE7
330
18
100
AcDbEntity
  8
姿図
100
AcDbLine
 10
2291.906849998639
 20
-147.5326786736816
 30
0.0000000000000048
 11
2291.513504652134
 21
-147.2377975096397
 31
0.0000000000000054
  0
LINE
  5
24CE8
330
18
100
AcDbEntity
  8
姿図
100
AcDbLine
 10
2290.112572489398
 20
-150.5082643283938
 30
0.0000000000000048
 11
2290.817133501946
 21
-150.6053541907008
 31
0.0000000000000048
  0
SPLINE
  5
24CE9
330
18
100
AcDbEntity
  8
姿図
100
AcDbSpline
210
0.0
220
0.0
230
1.0
 70
    24
 71
     1
 72
     4
 73
     2
 74
     0
 42
0.000000001
 43
0.0000000001
 40
0.500003153875532
 40
0.500003153875532
 40
1.000006307751064
 40
1.000006307751064
 10
2297.361308688621
 20
-140.7504419892011
 30
0.0000000000000049
 10
2297.248560947166
 20
-140.8133223833302
 30
0.0000000000000146
  0
SPLINE
  5
24CEA
330
18
100
AcDbEntity
  8
姿図
100
AcDbSpline
210
0.0
220
0.0
230
1.0
 70
    24
 71
     1
 72
     4
 73
     2
 74
     0
 42
0.000000001
 43
0.0000000001
 40
0.0
 40
0.0
 40
0.500003153875532
 40
0.500003153875532
 10
2297.472665513774
 20
-140.7075102539814
 30
0.0000000000000049
 10
2297.361308688621
 20
-140.7504419892011
 30
0.0000000000000049
  0
ELLIPSE
  5
24CEB
330
18
100
AcDbEntity
  8
姿図
100
AcDbEllipse
 10
2319.558780308816
 20
-151.3425857807954
 30
0.0000000000000035
 11
-0.2111438235632067
 21
1.6266131177468
 31
7.113492607458361E-17
210
-5.582593766667742E-18
220
4.300727389816779E-17
230
-1.0
 40
0.6338586263932079
 41
0.236134012315081
 42
2.425367404911594
  0
ELLIPSE
  5
24CEC
330
18
100
AcDbEntity
  8
姿図
100
AcDbEllipse
 10
2320.292673241075
 20
-151.2473222186663
 30
0.0000000000000035
 11
-0.2287391421940569
 21
1.762164210892201
 31
1.027504487743933E-16
210
-7.443458355556960E-18
220
5.734303186422367E-17
230
-1.0
 40
0.6338586263934508
 41
4.868828357704053
 42
11.15201366488364
  0
ELLIPSE
  5
24CED
330
18
100
AcDbEntity
  8
姿図
100
AcDbEllipse
 10
2320.292673241075
 20
-151.2473222186663
 30
0.0000000000000035
 11
-0.2991204167153053
 21
2.304368583474418
 31
1.343659714742069E-16
210
-7.443458355556967E-18
220
5.734303186422374E-17
230
-1.0
 40
0.6338586263934506
 41
4.868828357704045
 42
11.15201366488363
  0
ELLIPSE
  5
24CEE
330
18
100
AcDbEntity
  8
姿図
100
AcDbEllipse
 10
2318.824887376557
 20
-151.4378493429251
 30
0.0000000000000035
 11
-0.2991204167146964
 21
2.304368583474401
 31
1.343659714742013E-16
210
-7.443458355556932E-18
220
5.734303186422374E-17
230
-1.0
 40
0.6338586263934446
 41
3.141592653589488
 42
5.180284413960835
  0
ELLIPSE
  5
24CEF
330
18
100
AcDbEntity
  8
姿図
100
AcDbEllipse
 10
2318.82486316784
 20
-151.4378524853578
 30
0.0000000000000035
 11
-0.2991228894817231
 21
2.304387633208462
 31
1.343670822496472E-16
210
-7.443458355556994E-18
220
5.734303186422380E-17
230
-1.0
 40
0.6338586263936772
 41
3.141592653590172
 42
3.809748048093252
  0
ELLIPSE
  5
24CF0
330
18
100
AcDbEntity
  8
姿図
100
AcDbEllipse
 10
2319.558780308816
 20
-151.3425857807954
 30
0.0000000000000035
 11
-0.1407625490449988
 21
1.084408745164072
 31
4.742328404971855E-17
210
-5.582593766667744E-18
220
4.300727389816780E-17
230
-1.0
 40
0.6338586263981275
 41
3.141592653593585
 42
3.378250081950879
  0
ELLIPSE
  5
24CF1
330
18
100
AcDbEntity
  8
姿図
100
AcDbEllipse
 10
2319.558780308816
 20
-151.3425857807954
 30
0.0000000000000035
 11
-0.2111438235688974
 21
1.626613117745057
 31
7.113492607454048E-17
210
-5.582593766667769E-18
220
4.300727389816779E-17
230
-1.0
 40
0.6338586263916416
 41
2.425367404914558
 42
2.905458641278822
  0
ELLIPSE
  5
24CF2
330
18
100
AcDbEntity
  8
姿図
100
AcDbEllipse
 10
2319.349096613885
 20
-151.3698039414046
 30
0.0000000000000035
 11
-0.2287391421075747
 21
1.762164210926229
 31
1.027504487757010E-16
210
-7.443458355557023E-18
220
5.734303186422371E-17
230
-1.0
 40
0.633858626413942
 41
2.631951070199932
 42
2.705517797080201
  0
ELLIPSE
  5
24CF3
330
18
100
AcDbEntity
  8
姿図
100
AcDbEllipse
 10
2319.558762167038
 20
-151.3425881357039
 30
0.0000000000000035
 11
-0.14076371269443
 21
1.0844177097455
 31
4.742367608810951E-17
210
-5.582593766667758E-18
220
4.300727389816784E-17
230
-1.0
 40
0.6338586263885858
 41
3.141592653585752
 42
3.378250081947276
  0
ELLIPSE
  5
24CF4
330
18
100
AcDbEntity
  8
姿図
100
AcDbEllipse
 10
2319.558762167038
 20
-151.3425881357039
 30
0.0000000000000035
 11
-0.2111455690441831
 21
1.626626564618221
 31
7.113551413217713E-17
210
-5.582593766667726E-18
220
4.300727389816779E-17
230
-1.0
 40
0.6338586263939806
 41
2.425367404911215
 42
2.905458641273128
  0
ELLIPSE
  5
24CF5
330
18
100
AcDbEntity
  8
姿図
100
AcDbEllipse
 10
2319.349076738696
 20
-151.36980652132
 30
0.0000000000000035
 11
-0.2287410330029986
 21
1.762178778387061
 31
1.027512981928730E-16
210
-7.443458355556966E-18
220
5.734303186422371E-17
230
-1.0
 40
0.633858626423758
 41
2.63195107017216
 42
2.705517797050096
  0
ARC
  5
24CF6
330
18
100
AcDbEntity
  8
姿図
100
AcDbCircle
 10
2318.685899321432
 20
-153.1220119129789
 30
0.0000000000000026
 40
2.763779877119617
100
AcDbArc
 50
319.1512900024634
 51
4.149031979423785
  0
LINE
  5
24CF7
330
18
100
AcDbEntity
  8
姿図
100
AcDbLine
 10
2319.804384705324
 20
-152.4133854456566
 30
0.0000000000000035
 11
2319.699542857858
 21
-152.4269945259609
 31
0.0000000000000035
  0
LINE
  5
24CF8
330
18
100
AcDbEntity
  8
姿図
100
AcDbLine
 10
2319.804368593907
 20
-152.4133966526422
 30
0.0000000000000035
 11
2319.699525879735
 21
-152.4270058454497
 31
0.0000000000000035
  0
LINE
  5
24CF9
330
18
100
AcDbEntity
  8
姿図
100
AcDbLine
 10
2320.591793657789
 20
-153.5516908021409
 30
0.0000000000000035
 11
2319.124007793272
 21
-153.7422179264006
 31
0.0000000000000035
  0
LINE
  5
24CFA
330
18
100
AcDbEntity
  8
姿図
100
AcDbLine
 10
2320.591784055717
 20
-153.5517114192596
 30
0.0000000000000035
 11
2319.123986057321
 21
-153.7422401185665
 31
0.0000000000000035
  0
LINE
  5
24CFB
330
18
100
AcDbEntity
  8
姿図
100
AcDbLine
 10
2319.559355574858
 20
-153.7141088508306
 30
0.0000000000000048
 11
2315.447821190818
 21
-157.6437320165014
 31
0.0000000000000048
  0
ARC
  5
24CFC
330
18
100
AcDbEntity
  8
姿図
100
AcDbCircle
 10
2309.147280592209
 20
-152.5754665203715
 30
0.0000000000000026
 40
11.86515413592403
100
AcDbArc
 50
305.5986504504083
 51
348.5556650930566
  0
LINE
  5
24CFD
330
18
100
AcDbEntity
  8
姿図
100
AcDbLine
 10
2317.481075281123
 20
-150.1940811097156
 30
0.0000000000000048
 11
2313.742789633377
 21
-151.7586621153403
 31
0.0000000000000048
  0
SPLINE
  5
24CFE
330
18
100
AcDbEntity
  8
姿図
100
AcDbSpline
210
0.0
220
0.0
230
1.0
 70
     8
 71
     3
 72
     8
 73
     4
 74
     0
 42
0.000000001
 43
0.0000000001
 40
0.0522524473711178
 40
0.0522524473711178
 40
0.0522524473711178
 40
0.0522524473711178
 40
3.974673657107151
 40
3.974673657107151
 40
3.974673657107151
 40
3.974673657107151
 10
2324.731834536607
 20
-147.7727546982144
 30
0.0000000000000048
 10
2324.737292741017
 20
-148.0703360911652
 30
0.0000000000000048
 10
2324.726379929237
 20
-148.3628107246618
 30
0.0000000000000048
 10
2324.698822184422
 20
-148.6482867964385
 30
0.0000000000000048
  0
ELLIPSE
  5
24CFF
330
18
100
AcDbEntity
  8
姿図
100
AcDbEllipse
 10
2325.50623773542
 20
-141.3561662159896
 30
0.0000000000000048
 11
-0.05228476964520482
 21
0.1116281975137274
 31
3.563878994237584E-18
210
-1.226338209620105E-17
220
2.618237104390372E-17
230
-1.0
 40
0.7445887407034333
 41
0.0194714738028587
 42
1.456954302896184
  0
ELLIPSE
  5
24D00
330
18
100
AcDbEntity
  8
姿図
100
AcDbEllipse
 10
2320.846149857269
 20
-142.9069895051266
 30
0.0000000000000048
 11
-5.127492779515051
 21
5.091762886143623
 31
2.942922424549431E-16
210
-1.839507314430161E-17
220
3.927355656585553E-17
230
-1.0
 40
0.6510494580119257
 41
1.88482654767138
 42
2.693896839941427
  0
ELLIPSE
  5
24D01
330
18
100
AcDbEntity
  8
姿図
100
AcDbEllipse
 10
2318.824887376557
 20
-151.4378493429251
 30
0.0000000000000035
 11
-0.2991204167161672
 21
2.304368583473515
 31
1.343659714741615E-16
210
-7.443458355556994E-18
220
5.734303186422372E-17
230
-1.0
 40
0.6338586263936181
 41
-1.249552989788636
 42
-0.5274645292532043
  0
ELLIPSE
  5
24D02
330
18
100
AcDbEntity
  8
姿図
100
AcDbEllipse
 10
2318.82486316784
 20
-151.4378524853578
 30
0.0000000000000035
 11
-0.2991228894807637
 21
2.304387633209254
 31
1.343670822496855E-16
210
-7.443458355557009E-18
220
5.734303186422380E-17
230
-1.0
 40
0.6338586263931683
 41
-1.249552989789342
 42
-0.5274645292546232
  0
ELLIPSE
  5
24D03
330
18
100
AcDbEntity
  8
姿図
100
AcDbEllipse
 10
2319.349096613885
 20
-151.3698039414046
 30
0.0000000000000035
 11
-0.2287391422591012
 21
1.762164210898996
 31
1.027504487752671E-16
210
-7.443458355556966E-18
220
5.734303186422369E-17
230
-1.0
 40
0.633858626409089
 41
0.4360748564913792
 42
0.5096415833729382
  0
ELLIPSE
  5
24D04
330
18
100
AcDbEntity
  8
姿図
100
AcDbEllipse
 10
2319.558780308816
 20
-151.3425857807954
 30
0.0000000000000035
 11
-0.1407625490411045
 21
1.084408745164576
 31
4.742328404971853E-17
210
-5.582593766667744E-18
220
4.300727389816784E-17
230
-1.0
 40
0.633858626398207
 41
-0.2366574283595551
 42
-0.0000000000018734
  0
ELLIPSE
  5
24D05
330
18
100
AcDbEntity
  8
姿図
100
AcDbEllipse
 10
2319.349076738696
 20
-151.36980652132
 30
0.0000000000000035
 11
-0.2287410332444538
 21
1.762178778345462
 31
1.027512981922848E-16
210
-7.443458355556964E-18
220
5.734303186422369E-17
230
-1.0
 40
0.6338586264241365
 41
0.4360748565184052
 42
0.5096415833980092
  0
ELLIPSE
  5
24D06
330
18
100
AcDbEntity
  8
姿図
100
AcDbEllipse
 10
2319.558762167038
 20
-151.3425881357039
 30
0.0000000000000035
 11
-0.1407637126969691
 21
1.08441770974517
 31
4.742367608810948E-17
210
-5.582593766667772E-18
220
4.300727389816783E-17
230
-1.0
 40
0.6338586263940378
 41
-0.2366574283589882
 42
-0.0000000000003468
  0
LINE
  5
24D07
330
18
100
AcDbEntity
  8
姿図
100
AcDbLine
 10
2324.707722184512
 20
-147.7086196252403
 30
0.0000000000000048
 11
2326.903337007953
 21
-146.0518493874633
 31
0.0000000000000048
  0
LINE
  5
24D08
330
18
100
AcDbEntity
  8
姿図
100
AcDbLine
 10
2326.364156449809
 20
-148.4306471386883
 30
0.0000000000000048
 11
2325.078806169014
 21
-147.4373783268973
 31
0.0000000000000048
  0
LINE
  5
24D09
330
18
100
AcDbEntity
  8
姿図
100
AcDbLine
 10
2325.430617947254
 20
-149.0569474133135
 30
0.0000000000000048
 11
2326.364156449809
 21
-148.4306471386883
 31
0.0000000000000048
  0
LINE
  5
24D0A
330
18
100
AcDbEntity
  8
姿図
100
AcDbLine
 10
2325.455581187191
 20
-141.2438011898216
 30
0.0000000000000048
 11
2322.957120459823
 21
-142.3353223389493
 31
0.0000000000000048
  0
LINE
  5
24D0B
330
18
100
AcDbEntity
  8
姿図
100
AcDbLine
 10
2319.522859607239
 20
-150.2445679553277
 30
0.0000000000000035
 11
2319.418017759774
 21
-150.2581770356321
 31
0.0000000000000035
  0
LINE
  5
24D0C
330
18
100
AcDbEntity
  8
姿図
100
AcDbLine
 10
2319.522841168512
 20
-150.2445612331519
 30
0.0000000000000035
 11
2319.41799845434
 21
-150.2581704259594
 31
0.0000000000000035
  0
LINE
  5
24D0D
330
18
100
AcDbEntity
  8
姿図
100
AcDbLine
 10
2319.993552824359
 20
-148.942953635192
 30
0.0000000000000035
 11
2319.518212732567
 21
-149.0046555379861
 31
0.0000000000000035
  0
LINE
  5
24D0E
330
18
100
AcDbEntity
  8
姿図
100
AcDbLine
 10
2319.993538276755
 20
-148.9429361528425
 30
0.0000000000000035
 11
2319.518194255426
 21
-149.0046385657131
 31
0.0000000000000035
  0
LINE
  5
24D0F
330
18
100
AcDbEntity
  8
姿図
100
AcDbLine
 10
2314.289113140098
 20
-138.2000117485848
 30
0.0000000000000026
 11
2310.855311287622
 21
-139.9489152618173
 31
0.0000000000000026
  0
ARC
  5
24D10
330
18
100
AcDbEntity
  8
姿図
100
AcDbCircle
 10
2321.748727638137
 20
-200.2524569821767
 30
0.0000000000000048
 40
63.61878588667222
100
AcDbArc
 50
96.70523189140651
 51
109.8629148029439
  0
SPLINE
  5
24D11
330
18
100
AcDbEntity
  8
姿図
100
AcDbSpline
210
0.0
220
0.0
230
1.0
 70
     8
 71
     3
 72
     8
 73
     4
 74
     0
 42
0.000000001
 43
0.0000000001
 40
0.2696514016814274
 40
0.2696514016814274
 40
0.2696514016814274
 40
0.2696514016814274
 40
1.0
 40
1.0
 40
1.0
 40
1.0
 10
2297.945264322885
 20
-140.4762835525655
 30
0.0000000000000033
 10
2299.844556735019
 20
-130.1615812162488
 30
0.0000000000000033
 10
2301.912106870438
 20
-120.7418493861126
 30
0.0000000000000033
 10
2301.912106870438
 20
-120.7418493861126
 30
0.0000000000000033
  0
LINE
  5
24D12
330
18
100
AcDbEntity
  8
姿図
100
AcDbLine
 10
2303.989940466031
 20
-121.2757505742986
 30
0.0000000000000033
 11
2299.878751824699
 21
-140.4866295115612
 31
0.0000000000000033
  0
SPLINE
  5
24D13
330
18
100
AcDbEntity
  8
姿図
100
AcDbSpline
210
0.0
220
0.0
230
1.0
 70
     8
 71
     3
 72
     8
 73
     4
 74
     0
 42
0.000000001
 43
0.0000000001
 40
5.0
 40
5.0
 40
5.0
 40
5.0
 40
6.0
 40
6.0
 40
6.0
 40
6.0
 10
2312.222982070413
 20
-120.0364284396776
 30
0.0000000000000033
 10
2312.222982070413
 20
-120.0364284396776
 30
0.0000000000000033
 10
2312.346165938212
 20
-120.0411600127504
 30
0.0000000000000033
 10
2312.438717330333
 20
-120.248667104466
 30
0.0000000000000033
  0
SPLINE
  5
24D14
330
18
100
AcDbEntity
  8
姿図
100
AcDbSpline
210
0.0
220
0.0
230
1.0
 70
     8
 71
     3
 72
     8
 73
     4
 74
     0
 42
0.000000001
 43
0.0000000001
 40
5.0
 40
5.0
 40
5.0
 40
5.0
 40
6.0
 40
6.0
 40
6.0
 40
6.0
 10
2312.230091015986
 20
-120.2865872740917
 30
0.0000000000000033
 10
2312.230091015986
 20
-120.2865872740917
 30
0.0000000000000033
 10
2312.353274883787
 20
-120.2913188471646
 30
0.0000000000000033
 10
2312.445826275907
 20
-120.4988259388799
 30
0.0000000000000033
  0
SPLINE
  5
24D15
330
18
100
AcDbEntity
  8
姿図
100
AcDbSpline
210
0.0
220
0.0
230
1.0
 70
     8
 71
     3
 72
     8
 73
     4
 74
     0
 42
0.000000001
 43
0.0000000001
 40
4.562871291847087
 40
4.562871291847087
 40
4.562871291847087
 40
4.562871291847087
 40
5.0
 40
5.0
 40
5.0
 40
5.0
 10
2310.799508386954
 20
-120.0682354252458
 30
0.0000000000000033
 10
2311.628842891272
 20
-120.0245055058599
 30
0.0000000000000033
 10
2312.222982070413
 20
-120.0364284396776
 30
0.0000000000000033
 10
2312.222982070413
 20
-120.0364284396776
 30
0.0000000000000033
  0
SPLINE
  5
24D16
330
18
100
AcDbEntity
  8
姿図
100
AcDbSpline
210
0.0
220
0.0
230
1.0
 70
     8
 71
     3
 72
     8
 73
     4
 74
     0
 42
0.000000001
 43
0.0000000001
 40
0.0
 40
0.0
 40
0.0
 40
0.0
 40
0.4810436403893932
 40
0.4810436403893932
 40
0.4810436403893932
 40
0.4810436403893932
 10
2312.590221979396
 20
-121.1102586550589
 30
0.0000000000000033
 10
2312.590221979396
 20
-121.1102586550589
 30
0.0000000000000033
 10
2311.753705185513
 20
-121.0007912400067
 30
0.0000000000000033
 10
2310.952291334854
 20
-120.9312747541935
 30
0.0000000000000033
  0
SPLINE
  5
24D17
330
18
100
AcDbEntity
  8
姿図
100
AcDbSpline
210
0.0
220
0.0
230
1.0
 70
     8
 71
     3
 72
     8
 73
     4
 74
     0
 42
0.000000001
 43
0.0000000001
 40
0.0
 40
0.0
 40
0.0
 40
0.0
 40
0.4810436403893932
 40
0.4810436403893932
 40
0.4810436403893932
 40
0.4810436403893932
 10
2312.553170842276
 20
-120.9634723854604
 30
0.0000000000000033
 10
2312.553170842276
 20
-120.9634723854604
 30
0.0000000000000033
 10
2311.716654048392
 20
-120.8540049704084
 30
0.0000000000000033
 10
2310.784333692285
 20
-120.8096838387623
 30
0.0000000000000033
  0
SPLINE
  5
24D18
330
18
100
AcDbEntity
  8
姿図
100
AcDbSpline
210
0.0
220
0.0
230
1.0
 70
     8
 71
     3
 72
     8
 73
     4
 74
     0
 42
0.000000001
 43
0.0000000001
 40
4.562871291847087
 40
4.562871291847087
 40
4.562871291847087
 40
4.562871291847087
 40
5.0
 40
5.0
 40
5.0
 40
5.0
 10
2310.806617332527
 20
-120.3183942596602
 30
0.0000000000000033
 10
2311.635951836846
 20
-120.2746643402736
 30
0.0000000000000033
 10
2312.230091015986
 20
-120.2865872740917
 30
0.0000000000000033
 10
2312.230091015986
 20
-120.2865872740917
 30
0.0000000000000033
  0
SPLINE
  5
24D19
330
18
100
AcDbEntity
  8
姿図
100
AcDbSpline
210
0.0
220
0.0
230
1.0
 70
     8
 71
     3
 72
     8
 73
     4
 74
     0
 42
0.000000001
 43
0.0000000001
 40
3.357032710531275
 40
3.357032710531275
 40
3.357032710531275
 40
3.357032710531275
 40
4.0
 40
4.0
 40
4.0
 40
4.0
 10
2305.337975006513
 20
-121.1556461157168
 30
0.0000000000000033
 10
2304.794374477919
 20
-121.1739499975617
 30
0.0000000000000033
 10
2304.085083904058
 20
-121.1988079592873
 30
0.0000000000000033
 10
2304.085083904058
 20
-121.1988079592873
 30
0.0000000000000033
  0
SPLINE
  5
24D1A
330
18
100
AcDbEntity
  8
姿図
100
AcDbSpline
210
0.0
220
0.0
230
1.0
 70
    24
 71
     3
 72
     8
 73
     4
 74
     0
 42
0.000000001
 43
0.0000000001
 40
1.0
 40
1.0
 40
1.0
 40
1.0
 40
2.0
 40
2.0
 40
2.0
 40
2.0
 10
2302.204753221583
 20
-120.6513012410803
 30
0.0000000000000033
 10
2302.204753221583
 20
-120.6513012410803
 30
0.0000000000000033
 10
2305.206459527586
 20
-120.3947789816987
 30
0.0000000000000033
 10
2305.206459527586
 20
-120.3947789816987
 30
0.0000000000000033
  0
SPLINE
  5
24D1B
330
18
100
AcDbEntity
  8
姿図
100
AcDbSpline
210
0.0
220
0.0
230
1.0
 70
    24
 71
     3
 72
     8
 73
     4
 74
     0
 42
0.000000001
 43
0.0000000001
 40
1.0
 40
1.0
 40
1.0
 40
1.0
 40
2.0
 40
2.0
 40
2.0
 40
2.0
 10
2302.388066033369
 20
-120.8243453728926
 30
0.0000000000000033
 10
2302.388066033369
 20
-120.8243453728926
 30
0.0000000000000033
 10
2305.389772339372
 20
-120.5678231135112
 30
0.0000000000000033
 10
2305.389772339372
 20
-120.5678231135112
 30
0.0000000000000033
  0
SPLINE
  5
24D1C
330
18
100
AcDbEntity
  8
姿図
100
AcDbSpline
210
0.0
220
0.0
230
1.0
 70
     8
 71
     3
 72
     8
 73
     4
 74
     0
 42
0.000000001
 43
0.0000000001
 40
3.357032710531275
 40
3.357032710531275
 40
3.357032710531275
 40
3.357032710531275
 40
4.0
 40
4.0
 40
4.0
 40
4.0
 10
2305.468892135778
 20
-121.0045387676237
 30
0.0000000000000033
 10
2304.925291607183
 20
-121.0228426494684
 30
0.0000000000000033
 10
2304.216001033323
 20
-121.0477006111939
 30
0.0000000000000033
 10
2304.216001033323
 20
-121.0477006111939
 30
0.0000000000000033
  0
ARC
  5
24D1D
330
18
100
AcDbEntity
  8
姿図
100
AcDbCircle
 10
2302.133084034469
 20
-120.937852672869
 30
0.0000000000000033
 40
0.2953780551123366
100
AcDbArc
 50
75.95786092131543
 51
138.4274760917632
  0
ARC
  5
24D1E
330
18
100
AcDbEntity
  8
姿図
100
AcDbCircle
 10
2302.316396846255
 20
-121.1108968046817
 30
0.0000000000000033
 40
0.2953780551123366
100
AcDbArc
 50
75.95786092131543
 51
138.4274760917632
  0
SPLINE
  5
24D1F
330
18
100
AcDbEntity
  8
姿図
100
AcDbSpline
210
0.0
220
0.0
230
1.0
 70
     8
 71
     3
 72
     8
 73
     4
 74
     0
 42
0.000000001
 43
0.0000000001
 40
14.0
 40
14.0
 40
14.0
 40
14.0
 40
15.0
 40
15.0
 40
15.0
 40
15.0
 10
2301.371022661508
 20
-118.1468485770683
 30
0.0000000000000033
 10
2300.927717867347
 20
-118.2664646143817
 30
0.0000000000000033
 10
2300.85862865934
 20
-119.2809859470779
 30
0.0000000000000033
 10
2300.85862865934
 20
-119.2809859470779
 30
0.0000000000000033
  0
ELLIPSE
  5
24D20
330
18
100
AcDbEntity
  8
姿図
100
AcDbEllipse
 10
2314.427336849336
 20
-137.3057903277743
 30
0.0000000000000048
 11
-0.3468879042634136
 21
0.1161587325640263
 31
1.459065990102709E-17
210
-2.452676419240198E-17
220
5.236474208780739E-17
230
-1.0
 40
0.5954474281841662
 41
1.067175184772285
 42
2.559533103277989
  0
LINE
  5
24D21
330
18
100
AcDbEntity
  8
姿図
100
AcDbLine
 10
2314.755127411474
 20
-137.2892695916855
 30
0.0000000000000048
 11
2314.94791251825
 21
-137.6468211941919
 31
0.0000000000000026
  0
ARC
  5
24D22
330
18
100
AcDbEntity
  8
姿図
100
AcDbCircle
 10
2315.354509065035
 20
-142.1109774271151
 30
0.0000000000000026
 40
4.482634451279683
100
AcDbArc
 50
84.71222861638353
 51
95.20415610003253
  0
ELLIPSE
  5
24D23
330
18
100
AcDbEntity
  8
姿図
100
AcDbEllipse
 10
2324.018636474502
 20
-139.5390163822201
 30
0.0000000000000048
 11
-0.1102631686521534
 21
0.2354123170481558
 31
3.382133400710607E-17
210
-5.518521943290480E-17
220
1.178206696975666E-16
230
-1.0
 40
0.7445887407032984
 41
0.01947147381301
 42
1.889738879637535
  0
ELLIPSE
  5
24D24
330
18
100
AcDbEntity
  8
姿図
100
AcDbEllipse
 10
2321.622750548864
 20
-138.751960974919
 30
0.0000000000000048
 11
-0.1102631686521534
 21
0.2354123170481558
 31
0.0
210
0.0
220
0.0
230
-1.0
 40
0.7445887407032984
 41
0.01947147381301
 42
1.889738879637535
  0
ELLIPSE
  5
24D25
330
18
100
AcDbEntity
  8
姿図
100
AcDbEllipse
 10
2320.815716902191
 20
-138.5878237123861
 30
0.0000000000000048
 11
-0.1102631686521534
 21
0.2354123170481558
 31
0.0
210
0.0
220
0.0
230
-1.0
 40
0.7445887407032984
 41
0.01947147381301
 42
1.889738879637535
  0
LINE
  5
24D26
330
18
100
AcDbEntity
  8
姿図
100
AcDbLine
 10
2321.823770242859
 20
-138.7478173058346
 30
0.0000000000000048
 11
2322.098749320409
 21
-140.1259560322208
 31
0.0000000000000048
  0
LINE
  5
24D27
330
18
100
AcDbEntity
  8
姿図
100
AcDbLine
 10
2323.911807056328
 20
-139.3020501697883
 30
0.0000000000000048
 11
2321.379293288436
 21
-140.4084483243921
 31
0.0000000000000048
  0
LINE
  5
24D28
330
18
100
AcDbEntity
  8
姿図
100
AcDbLine
 10
2321.016736596187
 20
-138.5836800433019
 30
0.0000000000000048
 11
2321.043750747071
 21
-138.7190694257458
 31
0.0000000000000048
  0
LINE
  5
24D29
330
18
100
AcDbEntity
  8
姿図
100
AcDbLine
 10
2321.515921130691
 20
-138.5149947624866
 30
0.0000000000000048
 11
2319.850558441559
 21
-139.2347737697669
 31
0.0000000000000048
  0
LINE
  5
24D2A
330
18
100
AcDbEntity
  8
姿図
100
AcDbLine
 10
2320.708887484017
 20
-138.3508574999535
 30
0.0000000000000048
 11
2319.37811002135
 21
-138.9260269133438
 31
0.0000000000000048
  0
SPLINE
  5
24D2B
330
18
100
AcDbEntity
  8
姿図
100
AcDbSpline
210
0.0
220
0.0
230
1.0
 70
    24
 71
     3
 72
     8
 73
     4
 74
     0
 42
0.000000001
 43
0.0000000001
 40
10.0
 40
10.0
 40
10.0
 40
10.0
 40
10.56265067495566
 40
10.56265067495566
 40
10.56265067495566
 40
10.56265067495566
 10
2314.290740226393
 20
-116.9868107785385
 30
0.0000000000000033
 10
2314.290740226393
 20
-116.9868107785385
 30
0.0000000000000033
 10
2312.385821155635
 20
-117.0981414705855
 30
0.0000000000000033
 10
2310.719591015914
 20
-117.1955222766326
 30
0.0000000000000033
  0
SPLINE
  5
25456
330
18
100
AcDbEntity
  8
姿図
100
AcDbSpline
210
0.0
220
0.0
230
1.0
 70
     8
 71
     3
 72
    20
 73
    16
 74
     0
 42
0.000000001
 43
0.0000000001
 40
61.91009950387845
 40
61.91009950387845
 40
61.91009950387845
 40
61.91009950387845
 40
63.27662545801321
 40
63.27662545801321
 40
65.63207741714923
 40
65.63207741714923
 40
66.46294226239624
 40
66.46294226239624
 40
68.78483332584179
 40
68.78483332584179
 40
78.37384755292882
 40
78.37384755292882
 40
82.12808435629299
 40
82.12808435629299
 40
85.66477676586585
 40
85.66477676586585
 40
85.66477676586585
 40
85.66477676586585
 10
2313.074422079323
 20
-167.5615315975208
 30
-0.0000000000000016
 10
2313.256732924368
 20
-167.3843214773435
 30
-0.0000000000000024
 10
2313.419555155482
 20
-167.2128039407414
 30
-0.0000000000000028
 10
2313.809720783461
 20
-166.7767875399891
 30
0.0
 10
2314.028489331659
 20
-166.4987579845708
 30
-0.0000000000000049
 10
2314.22257741866
 20
-166.2364691043449
 30
0.0
 10
2314.275810322143
 20
-166.1625689044092
 30
-0.0000000000000049
 10
2314.480777514192
 20
-165.8703256370288
 30
0.0000000000000048
 10
2314.606660917935
 20
-165.6752250010441
 30
-0.0000000000000049
 10
2315.250573128679
 20
-164.6082068990054
 30
-0.0000000000000049
 10
2315.894962886231
 20
-163.2785395403689
 30
-0.0000000000000049
 10
2316.386028980755
 20
-160.7395965405967
 30
-0.0000000000000049
 10
2316.468480573303
 20
-160.0072743320086
 30
0.0000000000000048
 10
2316.524229958697
 20
-158.5408102555491
 30
0.0000000000000048
 10
2316.404116383607
 20
-156.7655235546076
 30
-0.0000000000000049
 10
2316.404116383607
 20
-156.7655235546076
 30
-0.0000000000000049
  0
SPLINE
  5
25457
330
18
100
AcDbEntity
  8
姿図
100
AcDbSpline
210
0.0
220
0.0
230
1.0
 70
     8
 71
     3
 72
     8
 73
     4
 74
     0
 42
0.000000001
 43
0.0000000001
 40
-29.73791167171498
 40
-29.73791167171498
 40
-29.73791167171498
 40
-29.73791167171498
 40
-21.81652578453031
 40
-21.81652578453031
 40
-21.81652578453031
 40
-21.81652578453031
 10
2310.014724422851
 20
-140.3905137892623
 30
0.0
 10
2312.954476152995
 20
-140.4497156970949
 30
0.0000000000000044
 10
2314.356649469191
 20
-141.2207666706215
 30
0.0000000000000048
 10
2316.859811138104
 20
-144.6644033719526
 30
0.0000000000000048
  0
SPLINE
  5
25458
330
18
100
AcDbEntity
  8
姿図
100
AcDbSpline
210
0.0
220
0.0
230
1.0
 70
     8
 71
     3
 72
     8
 73
     4
 74
     0
 42
0.000000001
 43
0.0000000001
 40
8.0
 40
8.0
 40
8.0
 40
8.0
 40
9.0
 40
9.0
 40
9.0
 40
9.0
 10
2319.583824401247
 20
-149.0397643744882
 30
-0.0000000000000097
 10
2319.583824401247
 20
-149.0397643744882
 30
-0.0000000000000097
 10
2316.257530938916
 20
-118.883245214759
 30
0.0000000000000033
 10
2316.040782607087
 20
-117.8577827426907
 30
0.0000000000000033
  0
SPLINE
  5
25459
330
18
100
AcDbEntity
  8
姿図
100
AcDbSpline
210
0.0
220
0.0
230
1.0
 70
     8
 71
     3
 72
    14
 73
    10
 74
     0
 42
0.000000001
 43
0.0000000001
 40
-17.67097520731171
 40
-17.67097520731171
 40
-17.67097520731171
 40
-17.67097520731171
 40
-15.46329434907155
 40
-15.46329434907155
 40
-11.48389074227961
 40
-11.48389074227961
 40
-5.954339038219556
 40
-5.954339038219556
 40
-0.5047492958822968
 40
-0.5047492958822968
 40
-0.5047492958822968
 40
-0.5047492958822968
 10
2323.445679507174
 20
-143.1216624903197
 30
0.0000000000000048
 10
2323.563307598597
 20
-143.3442408556912
 30
0.0
 10
2323.673651850972
 20
-143.5686602788103
 30
0.0
 10
2323.959903838576
 20
-144.1975150694805
 30
0.0
 10
2324.115529857074
 20
-144.5977605981229
 30
0.0
 10
2324.431912670404
 20
-145.5762677470725
 30
0.0000000000000048
 10
2324.543663612359
 20
-146.0715752804672
 30
0.0
 10
2324.685130815594
 20
-146.9352494848292
 30
0.0000000000000097
 10
2324.724276226165
 20
-147.3592180438859
 30
0.0000000000000097
 10
2324.731840972996
 20
-147.7727503987321
 30
0.0
  0
SPLINE
  5
2545A
330
18
100
AcDbEntity
  8
姿図
100
AcDbSpline
210
0.0
220
0.0
230
1.0
 70
     8
 71
     3
 72
     8
 73
     4
 74
     0
 42
0.000000001
 43
0.0000000001
 40
13.0
 40
13.0
 40
13.0
 40
13.0
 40
14.0
 40
14.0
 40
14.0
 40
14.0
 10
2305.112677804443
 20
-117.5364341070185
 30
0.0
 10
2305.112677804443
 20
-117.5364341070185
 30
0.0
 10
2301.814376666414
 20
-118.0289642315392
 30
0.0000000000000033
 10
2301.371022661508
 20
-118.1468485770683
 30
0.0000000000000033
  0
ELLIPSE
  5
2545C
330
18
100
AcDbEntity
  8
姿図
100
AcDbEllipse
 10
2308.01294133727
 20
-117.7696649860516
 30
0.0
 11
-2.977322425633557
 21
-0.0651525036592447
 31
0.0
210
0.0
220
0.0
230
1.0
 40
0.423425259805966
 41
3.562126164169125
 42
6.045724500716436
  0
SPLINE
  5
2545D
330
18
100
AcDbEntity
  8
姿図
100
AcDbSpline
210
0.0
220
0.0
230
1.0
 70
     8
 71
     3
 72
    11
 73
     7
 74
     0
 42
0.000000001
 43
0.0000000001
 40
0.0773469307906505
 40
0.0773469307906505
 40
0.0773469307906505
 40
0.0773469307906505
 40
1.0
 40
1.0
 40
1.0
 40
2.0
 40
2.0
 40
2.0
 40
2.0
 10
2312.296978729027
 20
-117.0646349479539
 30
0.0
 10
2311.960040837617
 20
-116.1913414090493
 30
0.0
 10
2310.045843039754
 20
-115.6815990402911
 30
0.0
 10
2307.941120885683
 20
-115.4957749552368
 30
0.0
 10
2305.242102766389
 20
-115.7899169676923
 30
0.0
 10
2304.066434837229
 20
-116.4320306677937
 30
0.0
 10
2303.737211911803
 20
-117.7478471622539
 30
0.0
  0
ELLIPSE
  5
25462
330
18
100
AcDbEntity
  8
姿図
100
AcDbEllipse
 10
2307.800645315678
 20
-116.6200426255095
 30
0.0
 11
13.39274317416243
 21
0.5235456730338032
 31
0.0
210
0.0
220
0.0
230
1.0
 40
0.2879532291547235
 41
5.382255851318835
 42
10.42665782637244
  0
LINE
  5
25463
330
18
100
AcDbEntity
  8
姿図
100
AcDbLine
 10
2333.108546763703
 20
-112.1890192042233
 30
0.0
 11
2333.327200676513
 21
-121.8859976463057
 31
0.0
  0
SPLINE
  5
25480
330
18
100
AcDbEntity
  8
姿図
100
AcDbSpline
210
0.0
220
0.0
230
1.0
 70
     8
 71
     3
 72
    20
 73
    16
 74
     0
 42
0.000000001
 43
0.0000000001
 40
60.97286850367482
 40
60.97286850367482
 40
60.97286850367482
 40
60.97286850367482
 40
63.27662545801321
 40
63.27662545801321
 40
65.63207741714923
 40
65.63207741714923
 40
66.46294226239624
 40
66.46294226239624
 40
68.78483332584179
 40
68.78483332584179
 40
78.37384755292882
 40
78.37384755292882
 40
82.12808435629299
 40
82.12808435629299
 40
84.32250915659358
 40
84.32250915659358
 40
84.32250915659358
 40
84.32250915659358
 10
2312.691755998028
 20
-167.8067575585969
 30
-0.000000000000005
 10
2312.999807557718
 20
-167.4818797304126
 30
-0.0000000000000056
 10
2313.256292270504
 20
-167.1646203195503
 30
-0.0000000000000068
 10
2313.67419176975
 20
-166.5942109946368
 30
-0.0000000000000127
 10
2313.858823610816
 20
-166.3050737450849
 30
-0.0000000000000046
 10
2314.021437466233
 20
-166.0328888012614
 30
-0.0000000000000046
 10
2314.065888637464
 20
-165.9562691806029
 30
-0.0000000000000046
 10
2314.236457086652
 20
-165.6535346530545
 30
-0.0000000000000046
 10
2314.340026114739
 20
-165.4519492040552
 30
-0.0000000000000127
 10
2314.864544174058
 20
-164.3515769848987
 30
-0.0000000000000046
 10
2315.369530845464
 20
-162.987835487226
 30
-0.0000000000000127
 10
2315.638301587519
 20
-160.4188749085463
 30
-0.0000000000000046
 10
2315.660148713295
 20
-159.6807000919393
 30
-0.0000000000000046
 10
2315.611913899279
 20
-158.4788806597305
 30
-0.0000000000000046
 10
2315.576194493477
 20
-158.027038776276
 30
-0.0000000000000046
 10
2315.522372455931
 20
-157.5724792064668
 30
-0.0000000000000046
  0
LINE
  5
25481
330
18
100
AcDbEntity
  8
姿図
100
AcDbLine
 10
2307.812214443695
 20
-163.885881731464
 30
0.0
 11
2310.309296540969
 21
-161.2427257494603
 31
0.0
  0
LINE
  5
25482
330
18
100
AcDbEntity
  8
姿図
100
AcDbLine
 10
2307.785829794009
 20
-164.7329028604281
 30
0.0
 11
2310.345745757679
 21
-162.023237367174
 31
0.0
  0
LINE
  5
25483
330
18
100
AcDbEntity
  8
姿図
100
AcDbLine
 10
2307.697864246672
 20
-165.6451072359409
 30
0.0
 11
2310.341384819188
 21
-162.8469464456227
 31
0.0
  0
LINE
  5
25484
330
18
100
AcDbEntity
  8
姿図
100
AcDbLine
 10
2307.520635169781
 20
-166.65179686381
 30
0.0
 11
2310.285851858712
 21
-163.7248209983127
 31
0.0
  0
ARC
  5
25485
330
18
100
AcDbEntity
  8
姿図
100
AcDbCircle
 10
2289.600229438598
 20
-132.8603433303347
 30
0.0
 40
40.50125572339087
100
AcDbArc
 50
309.6951363314269
 51
335.3347933007474
  0
ELLIPSE
  5
25486
330
18
100
AcDbEntity
  8
姿図
100
AcDbEllipse
 10
2296.373673970314
 20
-159.5413619653316
 30
0.0
 11
-6.74863655959689
 21
11.79877182209287
 31
0.0
210
0.0
220
0.0
230
1.0
 40
0.662162193431699
 41
0.0
 42
6.283185307179586
  0
ELLIPSE
  5
25487
330
18
100
AcDbEntity
  8
姿図
100
AcDbEllipse
 10
2296.634270215552
 20
-159.2481741449544
 30
0.0
 11
-7.28242352521681
 21
12.73200189802586
 31
0.0
210
0.0
220
0.0
230
1.0
 40
0.6660508930180213
 41
0.0
 42
6.283185307179586
  0
LINE
  5
25489
330
18
100
AcDbEntity
  8
姿図
100
AcDbLine
 10
2307.191560399418
 20
-167.8192148287583
 30
0.0
 11
2310.162494245331
 21
-164.6744877989429
 31
0.0
  0
LINE
  5
2548A
330
18
100
AcDbEntity
  8
姿図
100
AcDbLine
 10
2306.83084453483
 20
-168.6720738867759
 30
0.0
 11
2309.760068049831
 21
-166.3557346574073
 31
0.0
  0
LINE
  5
2548B
330
18
100
AcDbEntity
  8
姿図
100
AcDbLine
 10
2305.846453687065
 20
-170.2613674253037
 30
0.0
 11
2308.751076849158
 21
-168.6257491539693
 31
0.0
  0
LINE
  5
2548C
330
18
100
AcDbEntity
  8
姿図
100
AcDbLine
 10
2306.500233873487
 20
-169.3725574454943
 30
0.0
 11
2309.242587986854
 21
-167.6079904572882
 31
0.0
  0
SPLINE
  5
2548D
330
18
100
AcDbEntity
  8
姿図
100
AcDbSpline
210
0.0
220
0.0
230
1.0
 70
     8
 71
     1
 72
     8
 73
     6
 74
     0
 42
0.000000001
 43
0.0000000001
 40
4.553485832398614
 40
4.553485832398614
 40
4.559001824165762
 40
4.564517815932909
 40
4.570033807700057
 40
4.575549799467204
 40
4.581065791234352
 40
4.581065791234352
 10
2304.254646368613
 20
-172.2780166287782
 30
-0.0000000000000114
 10
2304.194660054812
 20
-172.2985228042592
 30
-0.0000000000000114
 10
2304.134486219812
 20
-172.3186070484999
 30
-0.0000000000000033
 10
2304.074126763493
 20
-172.3382687598662
 30
-0.0000000000000114
 10
2304.013583590879
 20
-172.3575073510915
 30
-0.0000000000000114
 10
2303.952858612044
 20
-172.3763222492862
 30
-0.0000000000000114
  0
SPLINE
  5
2548E
330
18
100
AcDbEntity
  8
姿図
100
AcDbSpline
210
0.0
220
0.0
230
1.0
 70
     8
 71
     1
 72
     8
 73
     6
 74
     0
 42
0.000000001
 43
0.0000000001
 40
4.584727753645457
 40
4.584727753645457
 40
4.584891353986822
 40
4.585054954328187
 40
4.585218554669551
 40
4.585382155010916
 40
4.585545755352282
 40
4.585545755352282
 10
2303.861653994233
 20
-172.403874414641
 30
-0.0000000000000114
 10
2303.855539068303
 20
-172.405712276611
 30
-0.0000000000000114
 10
2303.849424324653
 20
-172.4075486604197
 30
-0.0000000000000114
 10
2303.843309764071
 20
-172.4093835661654
 30
-0.0000000000000114
 10
2303.837195387347
 20
-172.4112169939465
 30
-0.0000000000000114
 10
2303.831081195272
 20
-172.4130489438623
 30
-0.0000000000000114
  0
SPLINE
  5
2548F
330
18
100
AcDbEntity
  8
姿図
100
AcDbSpline
210
0.0
220
0.0
230
1.0
 70
     8
 71
     3
 72
     8
 73
     4
 74
     0
 42
0.000000001
 43
0.0000000001
 40
-0.691446024632862
 40
-0.691446024632862
 40
-0.691446024632862
 40
-0.691446024632862
 40
-0.6779385051869151
 40
-0.6779385051869151
 40
-0.6779385051869151
 40
-0.6779385051869151
 10
2303.952858612044
 20
-172.3763222492862
 30
-0.0000000000000114
 10
2303.952044799763
 20
-172.3765711875619
 30
-0.0000000000000114
 10
2303.951222532961
 20
-172.3768056542247
 30
-0.0000000000000114
 10
2303.950392045803
 20
-172.3770256096732
 30
-0.0000000000000114
  0
SPLINE
  5
25490
330
18
100
AcDbEntity
  8
姿図
100
AcDbSpline
210
0.0
220
0.0
230
1.0
 70
     8
 71
     3
 72
     8
 73
     4
 74
     0
 42
0.000000001
 43
0.0000000001
 40
211.7706370983692
 40
211.7706370983692
 40
211.7706370983692
 40
211.7706370983692
 40
212.1566911252955
 40
212.1566911252955
 40
212.1566911252955
 40
212.1566911252955
 10
2303.897596965694
 20
-172.3928392393741
 30
-0.0000000000000114
 10
2303.915958619051
 20
-172.3873839632101
 30
-0.0000000000000114
 10
2303.934366724493
 20
-172.3818649411398
 30
-0.0000000000000033
 10
2303.952820180023
 20
-172.3762825300144
 30
-0.0000000000000114
  0
SPLINE
  5
25491
330
18
100
AcDbEntity
  8
姿図
100
AcDbSpline
210
0.0
220
0.0
230
1.0
 70
     8
 71
     3
 72
    12
 73
     8
 74
     0
 42
0.000000001
 43
0.0000000001
 40
-1.090507445860422
 40
-1.090507445860422
 40
-1.090507445860422
 40
-1.090507445860422
 40
-0.9471425154221369
 40
-0.9471425154221369
 40
-0.7528206779009274
 40
-0.7528206779009274
 40
-0.6501188551225207
 40
-0.6501188551225207
 40
-0.6501188551225207
 40
-0.6501188551225207
 10
2303.950392045803
 20
-172.3770256096732
 30
-0.0000000000000114
 10
2303.943052405097
 20
-172.3792536414644
 30
-0.0000000000000114
 10
2303.934529188361
 20
-172.3818410450044
 30
-0.0000000000000114
 10
2303.912284850821
 20
-172.3885876339732
 30
-0.0000000000000114
 10
2303.898410144644
 20
-172.3927907814123
 30
-0.0000000000000114
 10
2303.877094165754
 20
-172.3992263850662
 30
-0.0000000000000114
 10
2303.869471837469
 20
-172.4015238724539
 30
-0.0000000000000114
 10
2303.861653994233
 20
-172.403874414641
 30
-0.0000000000000114
  0
SPLINE
  5
25492
330
18
100
AcDbEntity
  8
姿図
100
AcDbSpline
210
-2.784766282423077E-10
220
9.163450144388233E-10
230
-1.0
 70
     8
 71
     3
 72
     8
 73
     4
 74
     0
 42
0.000000001
 43
0.0000000001
 40
104.4616887805064
 40
104.4616887805064
 40
104.4616887805064
 40
104.4616887805064
 40
104.5558158786619
 40
104.5558158786619
 40
104.5558158786619
 40
104.5558158786619
 10
2303.980618522696
 20
-172.3678356947466
 30
-0.0000000000000033
 10
2303.976108156513
 20
-172.3692122710765
 30
-0.0000000000000033
 10
2303.971600456353
 20
-172.3705851115176
 30
-0.0000000000000114
 10
2303.967095453225
 20
-172.3719541789119
 30
-0.0000000000000114
  0
ARC
  5
25493
330
18
100
AcDbEntity
  8
姿図
100
AcDbCircle
 10
2301.140864441586
 20
-162.5767515436437
 30
-0.0000000000000033
 40
10.19977863332881
100
AcDbArc
 50
273.4181627137714
 51
284.7582780585445
  0
LINE
  5
25494
330
18
100
AcDbEntity
  8
姿図
100
AcDbLine
 10
2307.953811098217
 20
-169.7380484487326
 30
0.0
 11
2305.528776063943
 21
-170.7074844518986
 31
0.0
  0
LINE
  5
25495
330
18
100
AcDbEntity
  8
姿図
100
AcDbLine
 10
2307.145796635911
 20
-170.5755417209825
 30
0.0
 11
2305.061975194798
 21
-171.1060906767241
 31
0.0
  0
LINE
  5
25496
330
18
100
AcDbEntity
  8
姿図
100
AcDbLine
 10
2306.208054501617
 20
-171.3068433238309
 30
0.0
 11
2304.558464082773
 21
-171.5467320524535
 31
0.0
  0
ARC
  5
25497
330
18
100
AcDbEntity
  8
姿図
100
AcDbCircle
 10
2274.655889868939
 20
-108.0320080711622
 30
0.0
 40
70.85017846467
100
AcDbArc
 50
295.2712329144035
 51
302.8369599190622
  0
ARC
  5
25498
330
18
100
AcDbEntity
  8
姿図
100
AcDbCircle
 10
2309.078381925744
 20
-156.6262174989195
 30
0.0
 40
16.26268158145045
100
AcDbArc
 50
86.69930458944697
 51
107.0828459404596
  0
LWPOLYLINE
  5
25499
330
18
100
AcDbEntity
  8
姿図
100
AcDbPolyline
 90
        4
 70
     0
 43
0.0
 10
2312.87644307953
 20
-147.8424673335685
 10
2314.220088775722
 20
-146.9244408961224
 10
2314.543175711935
 20
-146.8174983999259
 10
2317.092513729613
 20
-145.8652089267073
  0
LWPOLYLINE
  5
2549A
330
18
100
AcDbEntity
  8
姿図
100
AcDbPolyline
 90
        4
 70
     0
 43
0.0
 10
2313.27637648518
 20
-148.2889127611754
 10
2314.620022181371
 20
-147.3708863237293
 10
2314.943109117583
 20
-147.2639438275328
 10
2317.321183284436
 20
-146.3470942965646
  0
LINE
  5
2549B
330
18
100
AcDbEntity
  8
姿図
100
AcDbLine
 10
2314.749737875919
 20
-142.9024682630488
 30
0.0
 11
2311.834531209146
 21
-145.4355371424183
 31
0.0
  0
LWPOLYLINE
  5
2549C
330
18
100
AcDbEntity
  8
姿図
100
AcDbPolyline
 90
        4
 70
     0
 43
0.0
 10
2309.371421266388
 20
-144.0411492521732
 10
2309.832228552076
 20
-143.7830310551496
 10
2310.207732662134
 20
-143.6609864612421
 10
2314.41268582689
 20
-142.5836758400362
  0
LWPOLYLINE
  5
2549D
330
18
100
AcDbEntity
  8
姿図
100
AcDbPolyline
 90
        4
 70
     0
 43
0.0
 10
2309.708473315415
 20
-144.3599416751861
 10
2310.169280601105
 20
-144.1018234781623
 10
2310.544784711162
 20
-143.9797788842548
 10
2314.749737875919
 20
-142.9024682630488
  0
SPLINE
  5
2549E
330
18
100
AcDbEntity
  8
姿図
100
AcDbSpline
210
0.0
220
0.0
230
1.0
 70
     8
 71
     3
 72
    20
 73
    16
 74
     0
 42
0.000000001
 43
0.0000000001
 40
0.0507684683112425
 40
0.0507684683112425
 40
0.0507684683112425
 40
0.0507684683112425
 40
16.17239265914957
 40
16.17239265914957
 40
33.44137084920912
 40
33.44137084920912
 40
41.29196149669883
 40
41.29196149669883
 40
50.54402678597219
 40
50.54402678597219
 40
58.56297097631615
 40
58.56297097631615
 40
66.12555618457822
 40
66.12555618457822
 40
66.75214355035303
 40
66.75214355035303
 40
66.75214355035303
 40
66.75214355035303
 10
2313.795060697055
 20
-151.637658576688
 30
-0.0000000000000046
 10
2313.173808997021
 20
-150.313831680787
 30
-0.0000000000000046
 10
2312.408997547378
 20
-149.03864836294
 30
-0.0000000000000046
 10
2310.575138310885
 20
-146.6056608418269
 30
-0.0000000000000046
 10
2309.154544656564
 20
-145.0229268829557
 30
-0.0000000000000046
 10
2306.381210897586
 20
-143.049010845923
 30
-0.0000000000000046
 10
2305.47450634329
 20
-142.5202293611308
 30
-0.0000000000000046
 10
2303.47862194789
 20
-141.6014627228728
 30
-0.0000000000000046
 10
2302.390585175238
 20
-141.2560240632549
 30
-0.0000000000000046
 10
2300.368497207066
 20
-140.8888765792976
 30
-0.0000000000000046
 10
2299.551614562567
 20
-140.8498574933349
 30
0.0000000000000035
 10
2298.201303825318
 20
-140.9049320195859
 30
-0.0000000000000046
 10
2297.392489515526
 20
-141.0025836979944
 30
-0.0000000000000046
 10
2296.490885465625
 20
-141.261511374747
 30
-0.0000000000000046
 10
2296.42218639918
 20
-141.2821557140444
 30
-0.0000000000000046
 10
2296.353798741794
 20
-141.3036129828861
 30
-0.0000000000000046
  0
LINE
  5
2549F
330
18
100
AcDbEntity
  8
姿図
100
AcDbLine
 10
2303.882813635555
 20
-152.4823763053641
 30
0.0
 11
2305.824046890264
 21
-150.4275851171819
 31
0.0
  0
LINE
  5
254A0
330
18
100
AcDbEntity
  8
姿図
100
AcDbLine
 10
2304.212041905382
 20
-152.9529819306013
 30
0.0
 11
2306.18036130181
 21
-150.8695201201781
 31
0.0
  0
LINE
  5
254A1
330
18
100
AcDbEntity
  8
姿図
100
AcDbLine
 10
2304.530553540736
 20
-153.4349310901769
 30
0.0
 11
2306.525458323302
 21
-151.3233287062087
 31
0.0
  0
LINE
  5
254A2
330
18
100
AcDbEntity
  8
姿図
100
AcDbLine
 10
2304.838216786315
 20
-153.9283632467907
 30
0.0
 11
2306.85925825298
 21
-151.789095239413
 31
0.0
  0
LINE
  5
254A3
330
18
100
AcDbEntity
  8
姿図
100
AcDbLine
 10
2306.205028257391
 20
-156.577061442837
 30
0.0
 11
2308.352299726596
 21
-154.304179251654
 31
0.0
  0
LINE
  5
254A4
330
18
100
AcDbEntity
  8
姿図
100
AcDbLine
 10
2305.693943149126
 20
-155.4798578519922
 30
0.0
 11
2307.791307206144
 21
-153.2598025483226
 31
0.0
  0
LINE
  5
254A5
330
18
100
AcDbEntity
  8
姿図
100
AcDbLine
 10
2305.955713345093
 20
-156.0218677020439
 30
0.0
 11
2308.078066922092
 21
-153.7753610456969
 31
0.0
  0
LINE
  5
254A6
330
18
100
AcDbEntity
  8
姿図
100
AcDbLine
 10
2305.134844838498
 20
-154.4334761316713
 30
0.0
 11
2307.181631210466
 21
-152.266957197889
 31
0.0
  0
LINE
  5
254A7
330
18
100
AcDbEntity
  8
姿図
100
AcDbLine
 10
2305.42019117939
 20
-154.9505306834753
 30
0.0
 11
2307.492394255676
 21
-152.7571082233194
 31
0.0
  0
LINE
  5
254A8
330
18
100
AcDbEntity
  8
姿図
100
AcDbLine
 10
2307.239805861709
 20
-159.5772167664277
 30
0.0
 11
2309.516004184281
 21
-157.1678657806908
 31
0.0
  0
LINE
  5
254A9
330
18
100
AcDbEntity
  8
姿図
100
AcDbLine
 10
2307.396936622347
 20
-160.2299872317401
 30
0.0
 11
2309.701553966341
 21
-157.7905547734877
 31
0.0
  0
LINE
  5
254AA
330
18
100
AcDbEntity
  8
姿図
100
AcDbLine
 10
2307.533690454712
 20
-160.9043266314166
 30
0.0
 11
2309.868611360038
 21
-158.4328179192446
 31
0.0
  0
LINE
  5
254AB
330
18
100
AcDbEntity
  8
姿図
100
AcDbLine
 10
2307.647550811184
 20
-161.602898725652
 30
0.0
 11
2310.015432924317
 21
-159.0965006465335
 31
0.0
  0
LINE
  5
254AC
330
18
100
AcDbEntity
  8
姿図
100
AcDbLine
 10
2307.73521384775
 20
-162.3292006261679
 30
0.0
 11
2310.139830854835
 21
-159.7839187415073
 31
0.0
  0
LINE
  5
254AD
330
18
100
AcDbEntity
  8
姿図
100
AcDbLine
 10
2307.792205501358
 20
-163.0879681189979
 30
0.0
 11
2310.239007222571
 21
-160.4980338059597
 31
0.0
  0
LINE
  5
254AE
330
18
100
AcDbEntity
  8
姿図
100
AcDbLine
 10
2301.451695341496
 20
-157.5874985415749
 30
0.0
 11
2296.90102627899
 21
-163.0146318007037
 31
0.0
  0
LINE
  5
254AF
330
18
100
AcDbEntity
  8
姿図
100
AcDbLine
 10
2306.441313292494
 20
-157.1460472803694
 30
0.0
 11
2308.613551489696
 21
-154.8467378617729
 31
0.0
  0
LINE
  5
254B0
330
18
100
AcDbEntity
  8
姿図
100
AcDbLine
 10
2306.663872956879
 20
-157.7295613930266
 30
0.0
 11
2308.86127471074
 21
-155.4036164043041
 31
0.0
  0
LINE
  5
254B1
330
18
100
AcDbEntity
  8
姿図
100
AcDbLine
 10
2306.871864393748
 20
-158.3284959429009
 30
0.0
 11
2309.094811652304
 21
-155.9755110928852
 31
0.0
  0
LINE
  5
254B2
330
18
100
AcDbEntity
  8
姿図
100
AcDbLine
 10
2307.064261559606
 20
-158.9439369948057
 30
0.0
 11
2309.313372162104
 21
-156.5632583019942
 31
0.0
  0
LINE
  5
254B3
330
18
100
AcDbEntity
  8
姿図
100
AcDbLine
 10
2299.983736437499
 20
-155.0939500688705
 30
0.0
 11
2295.433067374993
 21
-160.5210833279993
 31
0.0
  0
LINE
  5
254B4
330
18
100
AcDbEntity
  8
姿図
100
AcDbLine
 10
2300.277327775813
 20
-152.4537219738695
 30
0.0
 11
2295.726658713307
 21
-157.8808552329983
 31
0.0
  0
ARC
  5
254B5
330
18
100
AcDbEntity
  8
姿図
100
AcDbCircle
 10
2317.938165441349
 20
-179.6204396202945
 30
0.0
 40
43.97799551346176
100
AcDbArc
 50
118.0581559460046
 51
129.4391471832857
  0
LINE
  5
254B6
330
18
100
AcDbEntity
  8
姿図
100
AcDbLine
 10
2294.033419659361
 20
-145.7069847339073
 30
0.0
 11
2295.187110598433
 21
-144.485805378082
 31
0.0
  0
LINE
  5
254B7
330
18
100
AcDbEntity
  8
姿図
100
AcDbLine
 10
2289.453743225003
 20
-146.4590971304885
 30
0.0
 11
2290.289630872234
 21
-145.5743118695332
 31
0.0
  0
LINE
  5
254B8
330
18
100
AcDbEntity
  8
姿図
100
AcDbLine
 10
2293.32537872132
 20
-145.637351496058
 30
0.0
 11
2294.421472931336
 21
-144.4771381529708
 31
0.0
  0
LINE
  5
254B9
330
18
100
AcDbEntity
  8
姿図
100
AcDbLine
 10
2290.732378483529
 20
-145.9247575181328
 30
0.0
 11
2291.629130079523
 21
-144.9755478994705
 31
0.0
  0
LINE
  5
254BA
330
18
100
AcDbEntity
  8
姿図
100
AcDbLine
 10
2291.71244574906
 20
-145.7064514785529
 30
0.0
 11
2292.680291559622
 21
-144.6819887880247
 31
0.0
  0
LINE
  5
254BB
330
18
100
AcDbEntity
  8
姿図
100
AcDbLine
 10
2292.559725624602
 20
-145.6287006031662
 30
0.0
 11
2293.594101247465
 21
-144.5338162506673
 31
0.0
  0
ARC
  5
254BC
330
18
100
AcDbEntity
  8
姿図
100
AcDbCircle
 10
2297.255337938586
 20
-159.7170998396182
 30
0.0
 40
20.05365414378541
100
AcDbArc
 50
37.17842849425487
 51
45.47237121298996
  0
ARC
  5
254BD
330
18
100
AcDbEntity
  8
姿図
100
AcDbCircle
 10
2311.262213328344
 20
-151.1176788844846
 30
0.0
 40
9.620582517572863
100
AcDbArc
 50
87.54452681587186
 51
115.8684151450544
  0
ARC
  5
254BE
330
18
100
AcDbEntity
  8
姿図
100
AcDbCircle
 10
2311.728489687241
 20
-151.389528931908
 30
0.0
 40
9.620582517572863
100
AcDbArc
 50
87.54452681587186
 51
115.8684151450544
  0
LINE
  5
254BF
330
18
100
AcDbEntity
  8
姿図
100
AcDbLine
 10
2312.140664057699
 20
-141.7777798576874
 30
0.0
 11
2310.623330959126
 21
-142.5114165991156
 31
0.0
  0
LINE
  5
254C0
330
18
100
AcDbEntity
  8
姿図
100
AcDbLine
 10
2294.697442725762
 20
-145.8232107933804
 30
0.0
 11
2295.905256543923
 21
-144.5447424874715
 31
0.0
  0
LINE
  5
254C1
330
18
100
AcDbEntity
  8
姿図
100
AcDbLine
 10
2295.326038615668
 20
-145.9769364423071
 30
0.0
 11
2296.585017733788
 21
-144.6443097774056
 31
0.0
  0
LINE
  5
254C2
330
18
100
AcDbEntity
  8
姿図
100
AcDbLine
 10
2295.925046688427
 20
-146.161980731488
 30
0.0
 11
2297.232636582752
 21
-144.7778996654445
 31
0.0
  0
LINE
  5
254C3
330
18
100
AcDbEntity
  8
姿図
100
AcDbLine
 10
2296.498647061595
 20
-146.3739190155566
 30
0.0
 11
2297.852610479106
 21
-144.9407516758381
 31
0.0
  0
LINE
  5
254C4
330
18
100
AcDbEntity
  8
姿図
100
AcDbLine
 10
2297.049949283661
 20
-146.6094598441866
 30
0.0
 11
2298.448302502128
 21
-145.1293059964692
 31
0.0
  0
LINE
  5
254C5
330
18
100
AcDbEntity
  8
姿図
100
AcDbLine
 10
2297.581335337811
 20
-146.8660818933436
 30
0.0
 11
2299.02230051642
 21
-145.3408233782723
 31
0.0
  0
LINE
  5
254C6
330
18
100
AcDbEntity
  8
姿図
100
AcDbLine
 10
2298.094671817958
 20
-147.14180937742
 30
0.0
 11
2299.576640904095
 21
-145.5731483151981
 31
0.0
  0
LINE
  5
254C7
330
18
100
AcDbEntity
  8
姿図
100
AcDbLine
 10
2298.591447540962
 20
-147.4350663869998
 30
0.0
 11
2300.112954532361
 21
-145.8245545378436
 31
0.0
  0
LINE
  5
254C8
330
18
100
AcDbEntity
  8
姿図
100
AcDbLine
 10
2299.072866281338
 20
-147.744578729373
 30
0.0
 11
2300.632565617251
 21
-146.0936403664148
 31
0.0
  0
LINE
  5
254C9
330
18
100
AcDbEntity
  8
姿図
100
AcDbLine
 10
2299.539911254059
 20
-148.0693056736186
 30
0.0
 11
2301.136560780159
 21
-146.379255614519
 31
0.0
  0
LINE
  5
254CA
330
18
100
AcDbEntity
  8
姿図
100
AcDbLine
 10
2299.993391124447
 20
-148.4083912492536
 30
0.0
 11
2301.625838533338
 21
-146.6804492088909
 31
0.0
  0
LINE
  5
254CB
330
18
100
AcDbEntity
  8
姿図
100
AcDbLine
 10
2300.433973537367
 20
-148.761128755634
 30
0.0
 11
2302.10114550011
 21
-146.9964308503613
 31
0.0
  0
LINE
  5
254CC
330
18
100
AcDbEntity
  8
姿図
100
AcDbLine
 10
2300.86220996664
 20
-149.1269344589175
 30
0.0
 11
2302.56310338881
 21
-147.3265424620072
 31
0.0
  0
LINE
  5
254CD
330
18
100
AcDbEntity
  8
姿図
100
AcDbLine
 10
2301.278554366831
 20
-149.5053278491823
 30
0.0
 11
2303.012229357154
 21
-147.6702366335089
 31
0.0
  0
LINE
  5
254CE
330
18
100
AcDbEntity
  8
姿図
100
AcDbLine
 10
2301.683377288361
 20
-149.8959166996119
 30
0.0
 11
2303.448951539925
 21
-148.0270601851269
 31
0.0
  0
LINE
  5
254CF
330
18
100
AcDbEntity
  8
姿図
100
AcDbLine
 10
2302.076976589291
 20
-150.2983857280931
 30
0.0
 11
2303.873620956603
 21
-148.3966415635032
 31
0.0
  0
LINE
  5
254D0
330
18
100
AcDbEntity
  8
姿図
100
AcDbLine
 10
2302.459585528257
 20
-150.7124880308686
 30
0.0
 11
2304.286520647383
 21
-148.7786811712049
 31
0.0
  0
LINE
  5
254D1
330
18
100
AcDbEntity
  8
姿図
100
AcDbLine
 10
2302.831378785424
 20
-151.1380387093607
 30
0.0
 11
2304.687872635873
 21
-149.1729439967248
 31
0.0
  0
LINE
  5
254D2
330
18
100
AcDbEntity
  8
姿図
100
AcDbLine
 10
2303.192476791608
 20
-151.5749102878115
 30
0.0
 11
2305.077843142074
 21
-149.5792540965538
 31
0.0
  0
LINE
  5
254D3
330
18
100
AcDbEntity
  8
姿図
100
AcDbLine
 10
2303.542948624164
 20
-152.0230296479926
 30
0.0
 11
2305.456546343687
 21
-149.9974906138423
 31
0.0
  0
SPLINE
  5
254D4
330
18
100
AcDbEntity
  8
姿図
100
AcDbSpline
210
0.0
220
0.0
230
1.0
 70
     8
 71
     1
 72
    95
 73
    93
 74
     0
 42
0.000000001
 43
0.0000000001
 40
4.868828357704044
 40
4.868828357704044
 40
4.899304006515187
 40
4.929779655326332
 40
4.960255304137476
 40
4.99073095294862
 40
5.021206601759763
 40
5.051682250570908
 40
5.082157899382052
 40
5.112633548193195
 40
5.141866847195869
 40
5.171100146198544
 40
5.200333445201219
 40
5.229566744203892
 40
5.258800043206566
 40
5.288033342209241
 40
5.317266641211915
 40
5.346499940214589
 40
5.375733239217263
 40
5.410288874003569
 40
5.444844508789874
 40
5.479400143576179
 40
5.513955778362485
 40
5.548511413148789
 40
5.583067047935096
 40
5.617622682721401
 40
5.652178317507706
 40
5.686733952294011
 40
5.721773394811629
 40
5.756812837329247
 40
5.791852279846864
 40
5.826891722364483
 40
5.861931164882101
 40
5.896970607399719
 40
5.932010049917338
 40
5.967049492434954
 40
6.002088934952573
 40
6.037128377470191
 40
6.072869040478575
 40
6.108609703486958
 40
6.144350366495342
 40
6.180091029503725
 40
6.215831692512109
 40
6.251572355520493
 40
6.287313018528875
 40
6.323053681537259
 40
6.358794344545643
 40
6.394535007554026
 40
6.434056964704096
 40
6.473578921854168
 40
6.51310087900424
 40
6.55262283615431
 40
6.59214479330438
 40
6.631666750454452
 40
6.671188707604522
 40
6.710710664754592
 40
6.750232621904663
 40
6.785926488730394
 40
6.821620355556124
 40
6.857314222381854
 40
6.893008089207585
 40
6.928701956033316
 40
6.964395822859046
 40
7.000089689684777
 40
7.035783556510507
 40
7.071477423336238
 40
7.107171290161968
 40
7.142623453249049
 40
7.178075616336131
 40
7.213527779423211
 40
7.248979942510293
 40
7.284432105597374
 40
7.319884268684455
 40
7.355336431771536
 40
7.390788594858618
 40
7.426240757945699
 40
7.46169292103278
 40
7.497078312165116
 40
7.532463703297453
 40
7.567849094429789
 40
7.603234485562125
 40
7.638619876694462
 40
7.674005267826798
 40
7.709390658959135
 40
7.74477605009147
 40
7.780161441223807
 40
7.808943887482561
 40
7.837726333741315
 40
7.866508780000069
 40
7.895291226258823
 40
7.924073672517576
 40
7.952856118776331
 40
7.981638565035084
 40
8.010421011293838
 40
8.010421011293838
 10
2319.804384705324
 20
-152.4133854456559
 30
-0.0000000000000046
 10
2319.833026930488
 20
-152.4089652280038
 30
-0.0000000000000046
 10
2319.861410076689
 20
-152.4031786484254
 30
-0.0000000000000046
 10
2319.889457133979
 20
-152.3960493000698
 30
-0.0000000000000046
 10
2319.917095322513
 20
-152.3876087347319
 30
-0.0000000000000046
 10
2319.944257345379
 20
-152.3778955103746
 30
-0.0000000000000046
 10
2319.970882374135
 20
-152.3669540421736
 30
-0.0000000000000127
 10
2319.996916733383
 20
-152.3548333335605
 30
-0.0000000000000127
 10
2320.022314275584
 20
-152.3415856655895
 30
-0.0000000000000046
 10
2320.046042277951
 20
-152.3278693608422
 30
-0.0000000000000046
 10
2320.069121224901
 20
-152.3132146721343
 30
-0.0000000000000046
 10
2320.091529487233
 20
-152.2976700561333
 30
-0.0000000000000046
 10
2320.113250943978
 20
-152.281283073273
 30
-0.0000000000000046
 10
2320.134274436694
 20
-152.2640998031361
 30
-0.0000000000000046
 10
2320.154593170597
 20
-152.2461644014054
 30
-0.0000000000000127
 10
2320.174204095889
 20
-152.2275187911957
 30
-0.0000000000000127
 10
2320.193107296877
 20
-152.2082024758677
 30
-0.0000000000000127
 10
2320.211305410241
 20
-152.1882524569146
 30
-0.0000000000000046
 10
2320.231913880522
 20
-152.163900034169
 30
-0.0000000000000046
 10
2320.251554092074
 20
-152.1387628959958
 30
-0.0000000000000046
 10
2320.270238449542
 20
-152.1128892568979
 30
-0.0000000000000046
 10
2320.287980586533
 20
-152.0863232910813
 30
-0.0000000000000046
 10
2320.304794718914
 20
-152.0591055729069
 30
-0.0000000000000046
 10
2320.320695140889
 20
-152.0312735372563
 30
-0.0000000000000127
 10
2320.33569584672
 20
-152.0028619357658
 30
-0.0000000000000127
 10
2320.349810259641
 20
-151.973903272004
 30
-0.0000000000000046
 10
2320.363051049767
 20
-151.9444282045022
 30
-0.0000000000000127
 10
2320.375597275434
 20
-151.9140430902742
 30
-0.0000000000000046
 10
2320.387268729286
 20
-151.8831862165109
 30
-0.0000000000000046
 10
2320.398075780141
 20
-151.8518858681698
 30
-0.0000000000000046
 10
2320.408027843335
 20
-151.8201696648621
 30
-0.0000000000000046
 10
2320.417133431167
 20
-151.788064777113
 30
-0.0000000000000046
 10
2320.425400220436
 20
-151.7555981050282
 30
-0.0000000000000046
 10
2320.432835130632
 20
-151.7227964231661
 30
-0.0000000000000046
 10
2320.439444407795
 20
-151.6896864954963
 30
-0.0000000000000127
 10
2320.44523371019
 20
-151.6562951641531
 30
-0.0000000000000127
 10
2320.45020819295
 20
-151.6226494155042
 30
-0.0000000000000046
 10
2320.45444769138
 20
-151.5880964182666
 30
-0.0000000000000046
 10
2320.45784900916
 20
-151.5533360739869
 30
-0.0000000000000127
 10
2320.460416505985
 20
-151.5183977175727
 30
-0.0000000000000046
 10
2320.462154317929
 20
-151.4833109446199
 30
-0.0000000000000046
 10
2320.463066420987
 20
-151.4481056047832
 30
-0.0000000000000046
 10
2320.463156686648
 20
-151.4128117862385
 30
-0.0000000000000046
 10
2320.462428929399
 20
-151.377459792935
 30
-0.0000000000000046
 10
2320.460886946153
 20
-151.3420801161808
 30
-0.0000000000000046
 10
2320.458534547675
 20
-151.3067034018759
 30
-0.0000000000000046
 10
2320.455375582109
 20
-151.2713604146002
 30
-0.0000000000000127
 10
2320.450948027328
 20
-151.232354655685
 30
-0.0000000000000127
 10
2320.445544345153
 20
-151.1934696199121
 30
-0.0000000000000127
 10
2320.439169989574
 20
-151.1547470684836
 30
-0.0000000000000046
 10
2320.431830492954
 20
-151.1162286965653
 30
-0.0000000000000046
 10
2320.423531439645
 20
-151.0779560732369
 30
-0.0000000000000046
 10
2320.41427842654
 20
-151.0399705866041
 30
-0.0000000000000046
 10
2320.404077010856
 20
-151.0023133960428
 30
-0.0000000000000127
 10
2320.392932645426
 20
-150.9650253937366
 30
-0.0000000000000046
 10
2320.38085060193
 20
-150.9281471778852
 30
-0.0000000000000046
 10
2320.369137148695
 20
-150.8952266659583
 30
-0.0000000000000127
 10
2320.356666382164
 20
-150.862702738938
 30
-0.0000000000000046
 10
2320.343441423173
 20
-150.8306046800446
 30
-0.0000000000000046
 10
2320.329465013929
 20
-150.798961614551
 30
-0.0000000000000127
 10
2320.314739445977
 20
-150.7678025533401
 30
-0.0000000000000127
 10
2320.299266486737
 20
-150.7371564542975
 30
-0.0000000000000046
 10
2320.283047306789
 20
-150.7070523041621
 30
-0.0000000000000046
 10
2320.266082410717
 20
-150.6775192236557
 30
-0.0000000000000046
 10
2320.248371575189
 20
-150.6485865988845
 30
-0.0000000000000046
 10
2320.229913799002
 20
-150.6202842420141
 30
-0.0000000000000046
 10
2320.210839852851
 20
-150.5928274705789
 30
-0.0000000000000046
 10
2320.191024689851
 20
-150.5660531224948
 30
-0.0000000000000046
 10
2320.170464969829
 20
-150.5399929198907
 30
-0.0000000000000046
 10
2320.149156654887
 20
-150.5146799554398
 30
-0.0000000000000127
 10
2320.127095135842
 20
-150.4901490187754
 30
-0.0000000000000127
 10
2320.104275429125
 20
-150.4664369547222
 30
-0.0000000000000127
 10
2320.080692460273
 20
-150.443583046804
 30
-0.0000000000000127
 10
2320.056341451389
 20
-150.4216294151727
 30
-0.0000000000000046
 10
2320.031218430413
 20
-150.4006214125841
 30
-0.0000000000000046
 10
2320.005320878951
 20
-150.380607995354
 30
-0.0000000000000127
 10
2319.978699495119
 20
-150.3616767400838
 30
-0.0000000000000127
 10
2319.951309159623
 20
-150.3438456900938
 30
-0.0000000000000046
 10
2319.923157098511
 20
-150.3271757182001
 30
-0.0000000000000046
 10
2319.894256084091
 20
-150.3117317641177
 30
-0.0000000000000046
 10
2319.864625791487
 20
-150.2975824644234
 30
-0.0000000000000046
 10
2319.834294207497
 20
-150.2847994738479
 30
-0.0000000000000127
 10
2319.803299011691
 20
-150.2734564300563
 30
-0.0000000000000046
 10
2319.771688825091
 20
-150.2636275321479
 30
-0.0000000000000127
 10
2319.73952420122
 20
-150.2553857318449
 30
-0.0000000000000127
 10
2319.713002759715
 20
-150.2499006261237
 30
-0.0000000000000046
 10
2319.686208105307
 20
-150.2455463938604
 30
-0.0000000000000046
 10
2319.659191086719
 20
-150.2423542750141
 30
-0.0000000000000127
 10
2319.632007523175
 20
-150.2403511405887
 30
-0.0000000000000046
 10
2319.604717612961
 20
-150.239558632511
 30
-0.0000000000000046
 10
2319.577385140429
 20
-150.2399924030206
 30
-0.0000000000000127
 10
2319.550076504599
 20
-150.2416615021129
 30
-0.0000000000000127
 10
2319.522859607239
 20
-150.2445679553268
 30
-0.0000000000000046
  0
LWPOLYLINE
  5
254D5
330
18
100
AcDbEntity
  8
姿図
100
AcDbPolyline
 90
        3
 70
     0
 43
0.0
 10
2324.331860450315
 20
-149.3714792810774
 10
2323.432660755501
 20
-151.3712581613033
 10
2321.769583070126
 20
-153.7268985285218
  0
LWPOLYLINE
  5
254D6
330
18
100
AcDbEntity
  8
姿図
100
AcDbPolyline
 90
        4
 70
     0
 43
0.0
 10
2316.491923598754
 20
-159.81624617889
 10
2318.006733840106
 20
-158.824415902674
 10
2318.391950598917
 20
-158.4576755054693
 10
2320.876469013996
 20
-153.998952764774
  0
LWPOLYLINE
  5
254D7
330
18
100
AcDbEntity
  8
姿図
100
AcDbPolyline
 90
        4
 70
     0
 43
0.0
 10
2316.498542409482
 20
-159.2114734236845
 10
2317.679253100293
 20
-158.4383966523296
 10
2318.064469859104
 20
-158.0716562551245
 10
2320.548988274184
 20
-153.6129335144296
  0
LINE
  5
254D8
330
18
100
AcDbEntity
  8
姿図
100
AcDbLine
 10
2317.217455883523
 20
-146.7128385731769
 30
0.0
 11
2315.199127157098
 21
-149.2428670643008
 31
0.0
  0
SPLINE
  5
254D9
330
18
100
AcDbEntity
  8
姿図
100
AcDbSpline
210
0.0
220
0.0
230
1.0
 70
     8
 71
     3
 72
     8
 73
     4
 74
     0
 42
0.000000001
 43
0.0000000001
 40
20.17474574740567
 40
20.17474574740567
 40
20.17474574740567
 40
20.17474574740567
 40
20.51051228626665
 40
20.51051228626665
 40
20.51051228626665
 40
20.51051228626665
 10
2313.833756309854
 20
-151.7205899219421
 30
-0.0000000000000046
 10
2313.820931849563
 20
-151.692959571682
 30
-0.0000000000000046
 10
2313.808027964524
 20
-151.6653169415149
 30
-0.0000000000000046
 10
2313.795043863036
 20
-151.637660761842
 30
-0.0000000000000046
  0
SPLINE
  5
254DA
330
18
100
AcDbEntity
  8
姿図
100
AcDbSpline
210
0.0
220
0.0
230
1.0
 70
     8
 71
     3
 72
    14
 73
    10
 74
     0
 42
0.000000001
 43
0.0000000001
 40
-12.4176878319165
 40
-12.4176878319165
 40
-12.4176878319165
 40
-12.4176878319165
 40
-9.929941621284126
 40
-9.929941621284126
 40
-7.882361304732088
 40
-7.882361304732088
 40
-6.55536423551068
 40
-6.55536423551068
 40
-6.54232051596743
 40
-6.54232051596743
 40
-6.54232051596743
 40
-6.54232051596743
 10
2317.873560475432
 20
-149.4938449731064
 30
-0.0000000000000046
 10
2318.072297330315
 20
-149.4228838717165
 30
-0.0000000000000046
 10
2318.311053209968
 20
-149.3366450713991
 30
-0.0000000000000046
 10
2318.730268750788
 20
-149.196836714965
 30
-0.0000000000000046
 10
2318.923677671196
 20
-149.1357731998717
 30
-0.0000000000000127
 10
2319.238295026757
 20
-149.0545181109296
 30
-0.0000000000000046
 10
2319.380713715192
 20
-149.0227619448281
 30
-0.0000000000000127
 10
2319.515593187054
 20
-149.0049968220396
 30
-0.0000000000000046
 10
2319.51690399136
 20
-149.0048253932871
 30
-0.0000000000000127
 10
2319.518212732567
 20
-149.0046555379854
 30
-0.0000000000000046
  0
SPLINE
  5
254DB
330
18
100
AcDbEntity
  8
姿図
100
AcDbSpline
210
0.0
220
0.0
230
1.0
 70
     8
 71
     3
 72
    14
 73
    10
 74
     0
 42
0.000000001
 43
0.0000000001
 40
-12.4176878319165
 40
-12.4176878319165
 40
-12.4176878319165
 40
-12.4176878319165
 40
-9.929941621284126
 40
-9.929941621284126
 40
-7.882361304732088
 40
-7.882361304732088
 40
-6.55536423551068
 40
-6.55536423551068
 40
-6.54232051596743
 40
-6.54232051596743
 40
-6.54232051596743
 40
-6.54232051596743
 10
2317.873528402294
 20
-149.49383204486
 30
-0.0000000000000046
 10
2318.072266900092
 20
-149.4228703568504
 30
-0.0000000000000046
 10
2318.311024753489
 20
-149.3366308436146
 30
-0.0000000000000046
 10
2318.730243759877
 20
-149.1968213314133
 30
-0.0000000000000046
 10
2318.923654279157
 20
-149.1357573115215
 30
-0.0000000000000127
 10
2319.238274235595
 20
-149.0545015508601
 30
-0.0000000000000046
 10
2319.380694101375
 20
-149.0227451222368
 30
-0.0000000000000127
 10
2319.515574688258
 20
-149.0049798525879
 30
-0.0000000000000046
 10
2319.5168855034
 20
-149.0048084224188
 30
-0.0000000000000127
 10
2319.518194255426
 20
-149.0046385657126
 30
-0.0000000000000046
  0
SPLINE
  5
254DC
330
18
100
AcDbEntity
  8
姿図
100
AcDbSpline
210
5.967200730323610E-6
220
-1.671209659430053E-5
230
-0.9999999998425493
 70
     8
 71
     3
 72
     8
 73
     4
 74
     0
 42
0.000000001
 43
0.0000000001
 40
110.2937215201613
 40
110.2937215201613
 40
110.2937215201613
 40
110.2937215201613
 40
110.302956437032
 40
110.302956437032
 40
110.302956437032
 40
110.302956437032
 10
2317.873560475432
 20
-149.4938449731064
 30
-0.0000000000000046
 10
2317.873472260973
 20
-149.493876471013
 30
-0.0000000000000127
 10
2317.873384049135
 20
-149.4939079676635
 30
-0.0000000000000046
 10
2317.873295839713
 20
-149.4939394631276
 30
-0.0000000000000127
  0
SPLINE
  5
254DD
330
18
100
AcDbEntity
  8
姿図
100
AcDbSpline
210
0.0
220
0.0
230
1.0
 70
     8
 71
     3
 72
     8
 73
     4
 74
     0
 42
0.000000001
 43
0.0000000001
 40
-5.558709854342928
 40
-5.558709854342928
 40
-5.558709854342928
 40
-5.558709854342928
 40
-5.251204385375416
 40
-5.251204385375416
 40
-5.251204385375416
 40
-5.251204385375416
 10
2317.83121510725
 20
-149.5421106400893
 30
-0.0000000000000046
 10
2317.845025545022
 20
-149.5256642563061
 30
-0.0000000000000046
 10
2317.859054597102
 20
-149.5095965388898
 30
-0.0000000000000127
 10
2317.873295839713
 20
-149.4939394631276
 30
-0.0000000000000127
  0
SPLINE
  5
254DE
330
18
100
AcDbEntity
  8
姿図
100
AcDbSpline
210
5.960454970074308E-6
220
-1.669320395076563E-5
230
-0.999999999842905
 70
     8
 71
     3
 72
     8
 73
     4
 74
     0
 42
0.000000001
 43
0.0000000001
 40
110.2937215201613
 40
110.2937215201613
 40
110.2937215201613
 40
110.2937215201613
 40
110.302956437032
 40
110.302956437032
 40
110.302956437032
 40
110.302956437032
 10
2317.873528402294
 20
-149.49383204486
 30
-0.0000000000000046
 10
2317.873440187107
 20
-149.4938635430271
 30
-0.0000000000000127
 10
2317.873351974539
 20
-149.4938950399383
 30
-0.0000000000000046
 10
2317.873263764386
 20
-149.4939265356627
 30
-0.0000000000000127
  0
SPLINE
  5
254DF
330
18
100
AcDbEntity
  8
姿図
100
AcDbSpline
210
0.0
220
0.0
230
1.0
 70
     8
 71
     3
 72
     8
 73
     4
 74
     0
 42
0.000000001
 43
0.0000000001
 40
-5.558709854342928
 40
-5.558709854342928
 40
-5.558709854342928
 40
-5.558709854342928
 40
-5.251204385375416
 40
-5.251204385375416
 40
-5.251204385375416
 40
-5.251204385375416
 10
2317.831182684051
 20
-149.5420981108457
 30
-0.0000000000000046
 10
2317.84499323599
 20
-149.5256515911033
 30
-0.0000000000000046
 10
2317.859022404047
 20
-149.5095837408583
 30
-0.0000000000000127
 10
2317.873263764386
 20
-149.4939265356627
 30
-0.0000000000000127
  0
LWPOLYLINE
  5
254E0
330
18
100
AcDbEntity
  8
姿図
100
AcDbPolyline
 90
        3
 70
     0
 43
0.0
 10
2324.683879048479
 20
-148.641053985765
 10
2325.239047328671
 20
-148.90976780046
 10
2326.406221992654
 20
-149.7621369417298
  0
ELLIPSE
  5
254E1
330
18
100
AcDbEntity
  8
姿図
100
AcDbEllipse
 10
2308.011610624703
 20
-120.1419177428793
 30
0.0
 11
-1.374390620266722
 21
-0.1061948148059822
 31
0.0
210
0.0
220
0.0
230
1.0
 40
0.4628655777425251
 41
5.477092832877411
 42
9.981255930046515
  0
LINE
  5
254E2
330
18
100
AcDbEntity
  8
姿図
100
AcDbLine
 10
2306.643122689257
 20
-120.2883296011221
 30
0.0
 11
2307.169854784865
 21
-119.7307848207809
 31
0.0
  0
LINE
  5
254E3
330
18
100
AcDbEntity
  8
姿図
100
AcDbLine
 10
2306.764680568876
 20
-120.4872980630983
 30
0.0
 11
2307.523868640259
 21
-119.6836991367629
 31
0.0
  0
LINE
  5
254E4
330
18
100
AcDbEntity
  8
姿図
100
AcDbLine
 10
2306.953795181836
 20
-120.6147578694122
 30
0.0
 11
2307.858015735753
 21
-119.657642374993
 31
0.0
  0
LINE
  5
254E5
330
18
100
AcDbEntity
  8
姿図
100
AcDbLine
 10
2307.180918389523
 20
-120.7019856606748
 30
0.0
 11
2308.176220561936
 21
-119.6484604707005
 31
0.0
  0
LINE
  5
254E6
330
18
100
AcDbEntity
  8
姿図
100
AcDbLine
 10
2307.437621487593
 20
-120.7579032021479
 30
0.0
 11
2308.480800610779
 21
-119.6537003636588
 31
0.0
  0
LINE
  5
254E7
330
18
100
AcDbEntity
  8
姿図
100
AcDbLine
 10
2307.721856353645
 20
-120.7846784269491
 30
0.0
 11
2308.77317774031
 21
-119.6718570202324
 31
0.0
  0
LINE
  5
254E8
330
18
100
AcDbEntity
  8
姿図
100
AcDbLine
 10
2308.035908825853
 20
-120.7798917803279
 30
0.0
 11
2309.054203900075
 21
-119.7020286536751
 31
0.0
  0
LINE
  5
254E9
330
18
100
AcDbEntity
  8
姿図
100
AcDbLine
 10
2308.388712891754
 20
-120.7340866558636
 30
0.0
 11
2309.266889550563
 21
-119.8045385679088
 31
0.0
  0
LINE
  5
254EA
330
18
100
AcDbEntity
  8
姿図
100
AcDbLine
 10
2308.812317455565
 20
-120.6133393579771
 30
0.0
 11
2309.382790873115
 21
-120.0094944832674
 31
0.0
  0
LWPOLYLINE
  5
254EB
330
18
100
AcDbEntity
  8
姿図
100
AcDbPolyline
 90
        3
 70
     0
 43
0.0
 10
2304.223634923724
 20
-121.047483673377
 10
2304.140745953641
 20
-121.0880090113087
 10
2304.126780697271
 20
-121.1342085221081
  0
LWPOLYLINE
  5
254EC
330
18
100
AcDbEntity
  8
姿図
100
AcDbPolyline
 90
        3
 70
     0
 43
0.0
 10
2304.09271779446
 20
-121.1985910214703
 10
2304.009828824377
 20
-121.2391163594018
 10
2303.995863568006
 20
-121.2853158702012
  0
ELLIPSE
  5
254ED
330
18
100
AcDbEntity
  8
姿図
100
AcDbEllipse
 10
2308.094199417092
 20
-120.6290801164314
 30
0.0
 11
-2.977322425633557
 21
-0.0651525036592447
 31
0.0
210
0.0
220
0.0
230
1.0
 40
0.423425259805966
 41
0.3786499284263661
 42
2.848220962939281
  0
ELLIPSE
  5
254EE
330
18
100
AcDbEntity
  8
姿図
100
AcDbEllipse
 10
2308.094199417092
 20
-120.6290801164314
 30
0.0
 11
-2.977322425633557
 21
-0.0651525036592447
 31
0.0
210
0.0
220
0.0
230
1.0
 40
0.423425259805966
 41
3.551025708286839
 42
6.045724500716436
  0
ELLIPSE
  5
254EF
330
18
100
AcDbEntity
  8
姿図
100
AcDbEllipse
 10
2308.167887196325
 20
-120.9081361562899
 30
0.0
 11
-2.922366604295876
 21
-0.02352774701720397
 31
0.0
210
0.0
220
0.0
230
1.0
 40
0.4310041458033451
 41
3.612298197460502
 42
5.991115740086309
  0
ELLIPSE
  5
254F0
330
18
100
AcDbEntity
  8
姿図
100
AcDbEllipse
 10
2308.087669403729
 20
-120.3992935025508
 30
0.0
 11
2.908257364162413
 21
0.09033739870748021
 31
0.0
210
0.0
220
0.0
230
1.0
 40
0.4346217930958619
 41
3.572038920501568
 42
5.869050530619732
  0
LINE
  5
254F1
330
18
100
AcDbEntity
  8
姿図
100
AcDbLine
 10
2333.327200676513
 20
-121.8859976463057
 30
0.0
 11
2316.721377717372
 21
-122.0949025761101
 31
0.0
  0
LINE
  5
254F2
330
18
100
AcDbEntity
  8
姿図
100
AcDbLine
 10
2317.550414906647
 20
-118.9185778999988
 30
0.0
 11
2333.230552195457
 21
-121.8872135055976
 31
0.0
  0
SPLINE
  5
2556F
330
18
100
AcDbEntity
  8
姿図
100
AcDbSpline
210
0.0
220
0.0
230
1.0
 70
     8
 71
     3
 72
    17
 73
    13
 74
     0
 42
0.000000001
 43
0.0000000001
 40
0.0
 40
0.0
 40
0.0
 40
0.0
 40
1.0
 40
1.0
 40
1.0
 40
2.0
 40
2.0
 40
2.0
 40
3.0
 40
3.0
 40
3.0
 40
4.0
 40
4.0
 40
4.0
 40
4.0
 10
2294.407902141515
 20
-117.1435882985429
 30
0.0
 10
2294.407902141515
 20
-117.1435882985429
 30
0.0
 10
2293.911644071117
 20
-108.058273336582
 30
0.0
 10
2293.911644071117
 20
-108.058273336582
 30
0.0
 10
2294.373707326519
 20
-105.5017985992979
 30
0.0
 10
2300.361006058911
 20
-103.4281674963308
 30
0.0
 10
2307.754380780676
 20
-103.1398705016629
 30
0.0
 10
2315.148430638445
 20
-102.8515582835787
 30
0.0
 10
2321.147777256417
 20
-104.4576665953102
 30
0.0
 10
2321.155044091223
 20
-106.7271130946294
 30
0.0
 10
2321.155044091223
 20
-106.7271130946294
 30
0.0
 10
2321.187342712623
 20
-116.0979842352228
 30
0.0
 10
2321.187342712623
 20
-116.0979842352228
 30
0.0
  0
LINE
  5
25570
330
18
100
AcDbEntity
  8
姿図
100
AcDbLine
 10
2321.161576270888
 20
-108.62230896553
 30
0.0
 11
2333.108546763703
 21
-112.1890192042233
 31
0.0
  0
SPLINE
  5
25571
330
18
100
AcDbEntity
  8
姿図
100
AcDbSpline
210
0.0
220
0.0
230
1.0
 70
     8
 71
     3
 72
    14
 73
    10
 74
     0
 42
0.000000001
 43
0.0000000001
 40
0.0
 40
0.0
 40
0.0
 40
0.0
 40
1.0
 40
1.0
 40
1.0
 40
2.0
 40
2.0
 40
2.0
 40
2.022340226574567
 40
2.022340226574567
 40
2.022340226574567
 40
2.022340226574567
 10
2325.786106091585
 20
-116.7261531180204
 30
0.0
 10
2325.786106091585
 20
-116.7261531180204
 30
0.0
 10
2322.960436331444
 20
-116.95508154955
 30
0.0
 10
2322.960436331444
 20
-116.95508154955
 30
0.0
 10
2322.577634804302
 20
-117.0067739648448
 30
0.0
 10
2322.192283006301
 20
-116.4945809862159
 30
0.0
 10
2322.099923481071
 20
-115.8106244114986
 30
0.0
 10
2322.097860148352
 20
-115.7953446666525
 30
0.0
 10
2322.095960543877
 20
-115.7801087909313
 30
0.0
 10
2322.094222650092
 20
-115.7649218737911
 30
0.0
  0
ELLIPSE
  5
25572
330
18
100
AcDbEntity
  8
姿図
100
AcDbEllipse
 10
2325.618919084076
 20
-115.4880712557633
 30
0.0
 11
-0.02816331815782049
 21
1.249001609542
 31
0.0
210
0.0
220
0.0
230
1.0
 40
0.5599999999999931
 41
3.197033155767157
 42
9.434679777203067
  0
SPLINE
  5
25573
330
18
100
AcDbEntity
  8
姿図
100
AcDbSpline
210
0.0
220
0.0
230
1.0
 70
     8
 71
     3
 72
    14
 73
    10
 74
     0
 42
0.000000001
 43
0.0000000001
 40
0.0
 40
0.0
 40
0.0
 40
0.0
 40
1.0
 40
1.0
 40
1.0
 40
2.0
 40
2.0
 40
2.0
 40
2.022340226574543
 40
2.022340226574543
 40
2.022340226574543
 40
2.022340226574543
 10
2325.590755765919
 20
-114.2390696462207
 30
0.0
 10
2325.590755765919
 20
-114.2390696462207
 30
0.0
 10
2322.763995677306
 20
-114.4541166679805
 30
0.0
 10
2322.763995677306
 20
-114.4541166679805
 30
0.0
 10
2322.377817882355
 20
-114.4628244614867
 30
0.0
 10
2322.077159763765
 20
-115.028900738419
 30
0.0
 10
2322.09271809412
 20
-115.7188897356907
 30
0.0
 10
2322.093065670746
 20
-115.7343042462237
 30
0.0
 10
2322.093568118544
 20
-115.7496498629387
 30
0.0
 10
2322.094222650092
 20
-115.7649218737913
 30
0.0
  0
LINE
  5
25574
330
18
100
AcDbEntity
  8
姿図
100
AcDbLine
 10
2322.096504770437
 20
-115.5282195510335
 30
0.0
 11
2324.924511954232
 21
-115.2962244427119
 31
0.0
  0
LINE
  5
25575
330
18
100
AcDbEntity
  8
姿図
100
AcDbLine
 10
2322.11988821673
 20
-116.0850623308654
 30
0.0
 11
2324.953036746712
 21
-115.8403623002346
 31
0.0
  0
LINE
  5
25576
330
18
100
AcDbEntity
  8
姿図
100
AcDbLine
 10
2322.233412541862
 20
-114.9233663889663
 30
0.0
 11
2325.053567767621
 21
-114.7239230977075
 31
0.0
  0
LINE
  5
25577
330
18
100
AcDbEntity
  8
姿図
100
AcDbLine
 10
2322.364302804702
 20
-116.5780341028358
 30
0.0
 11
2325.180741063655
 21
-116.3316022515764
 31
0.0
  0
TEXT
  5
255B1
330
18
100
AcDbEntity
  8
文字
100
AcDbText
 10
2280.473875351074
 20
-191.5158139636368
 30
0.0
 40
6.5
  1
SX-504F
100
AcDbText
  0
SPLINE
  5
255B6
330
18
100
AcDbEntity
  8
姿図
100
AcDbSpline
210
0.0
220
0.0
230
1.0
 70
     8
 71
     3
 72
     8
 73
     4
 74
     0
 42
0.000000001
 43
0.0000000001
 40
9.0
 40
9.0
 40
9.0
 40
9.0
 40
10.0
 40
10.0
 40
10.0
 40
10.0
 10
2316.040782607087
 20
-117.8577827426907
 30
0.0000000000000033
 10
2315.823180732053
 20
-116.8327777989414
 30
0.0000000000000033
 10
2314.290740226393
 20
-116.9868107785385
 30
0.0000000000000033
 10
2314.290740226393
 20
-116.9868107785385
 30
0.0000000000000033
  0
ELLIPSE
  5
255B7
330
18
100
AcDbEntity
  8
姿図
100
AcDbEllipse
 10
2302.541082575054
 20
-155.7896521915638
 30
0.0000000000000035
 11
-8.240481708336526
 21
13.54645361661212
 31
1.375286606555164E-15
210
-4.507750876087789E-17
220
7.410251041075211E-17
230
-1.0
 40
0.7445887407026951
 41
2.121095593057874
 42
2.942897457598217
  0
ELLIPSE
  5
255B8
330
18
100
AcDbEntity
  8
姿図
100
AcDbEllipse
 10
2300.31598125991
 20
-157.4984445261885
 30
0.0000000000000048
 11
-7.82701416331038
 21
11.75310932543846
 31
4.079190685550499E-16
210
-1.502583625362602E-17
220
2.470083680358398E-17
230
-1.0
 40
0.7569365384830131
 41
3.552643368148212
 42
5.078668158851188
  0
ELLIPSE
  5
255B9
330
18
100
AcDbEntity
  8
姿図
100
AcDbEllipse
 10
2302.196075869583
 20
-156.6159668023113
 30
0.0000000000000048
 11
-7.362188164839183
 21
12.10263477568438
 31
2.047841201604088E-16
210
-7.512918126812984E-18
220
1.235041840179202E-17
230
-1.0
 40
0.7445887407023684
 41
4.327427167059906
 42
4.752891862258899
  0
ELLIPSE
  5
255BA
330
18
100
AcDbEntity
  8
姿図
100
AcDbEllipse
 10
2300.370886742307
 20
-157.3131015063946
 30
0.0000000000000048
 11
-7.444693544853399
 21
11.8886404268406
 31
1.216566339489824E-15
210
-4.507750876087801E-17
220
7.410251041075205E-17
230
-1.0
 40
0.7056022756695942
 41
3.486045950244612
 42
5.025651057886404
  0
ELLIPSE
  5
255BB
330
18
100
AcDbEntity
  8
姿図
100
AcDbEllipse
 10
2298.409557903881
 20
-158.3029119883699
 30
0.0000000000000048
 11
-7.672174073519265
 21
12.61221781735697
 31
1.280439496127413E-15
210
-4.507750876087800E-17
220
7.410251041075201E-17
230
-1.0
 40
0.7445887407026809
 41
3.636283805279289
 42
5.673615026347025
  0
ELLIPSE
  5
255BC
330
18
100
AcDbEntity
  8
姿図
100
AcDbEllipse
 10
2297.887185691169
 20
-158.7026242908073
 30
0.0000000000000048
 11
-7.884575982221196
 21
12.9613834008953
 31
4.386293637723255E-16
210
-1.502583625362600E-17
220
2.470083680358401E-17
230
-1.0
 40
0.7445887407027151
 41
-0.1600394095497866
 42
2.858287793139493
  0
ELLIPSE
  5
255BD
330
18
100
AcDbEntity
  8
姿図
100
AcDbEllipse
 10
2298.008766882586
 20
-158.5467183138717
 30
0.0000000000000048
 11
-7.884575982221855
 21
12.96138340089481
 31
4.386293637723232E-16
210
-1.502583625362599E-17
220
2.470083680358400E-17
230
-1.0
 40
0.7445887407027094
 41
-0.1600394095497162
 42
3.301632058444431
  0
ELLIPSE
  5
255BE
330
18
100
AcDbEntity
  8
姿図
100
AcDbEllipse
 10
2301.739863662845
 20
-156.819967181056
 30
0.0000000000000048
 11
-7.060164574590121
 21
11.81984014879487
 31
1.990224096906372E-16
210
-7.512918126813000E-18
220
1.235041840179201E-17
230
-1.0
 40
0.7210291192186467
 41
3.53225784205633
 42
5.995539524716994
  0
ELLIPSE
  5
255BF
330
18
100
AcDbEntity
  8
姿図
100
AcDbEllipse
 10
2299.45849544568
 20
-158.0200641594379
 30
0.0000000000000048
 11
-8.208672799841843
 21
11.462383986619
 31
6.097089743752613E-16
210
-2.253875438043899E-17
220
3.705125520537601E-17
230
-1.0
 40
0.7212488145120978
 41
3.547863408263944
 42
6.141197072414606
  0
ELLIPSE
  5
255C0
330
18
100
AcDbEntity
  8
姿図
100
AcDbEllipse
 10
2297.941838368846
 20
-158.5874317883236
 30
0.0000000000000048
 11
-7.874212555822768
 21
12.94434706054504
 31
8.761056655230284E-16
210
-3.005167250725200E-17
220
4.940167360716802E-17
230
-1.0
 40
0.7445887405939735
 41
3.327615434085498
 42
3.342055807832923
  0
ELLIPSE
  5
255C1
330
18
100
AcDbEntity
  8
姿図
100
AcDbEllipse
 10
2298.004883259841
 20
-158.5490807714637
 30
0.0000000000000048
 11
-7.883976894925901
 21
12.96040266558285
 31
4.385961370018242E-16
210
-1.502583625362601E-17
220
2.470083680358399E-17
230
-1.0
 40
0.7445885816862141
 41
3.329004700455244
 42
3.329226432330678
  0
ELLIPSE
  5
255C2
330
18
100
AcDbEntity
  8
姿図
100
AcDbEllipse
 10
2299.812716508984
 20
-157.4493525885077
 30
0.0000000000000048
 11
-7.13486450601208
 21
11.72893942405067
 31
1.984609621758720E-16
210
-7.512918126813008E-18
220
1.235041840179200E-17
230
-1.0
 40
0.7445887418889435
 41
3.384599287400112
 42
3.389850227392116
  0
ELLIPSE
  5
255C3
330
18
100
AcDbEntity
  8
姿図
100
AcDbEllipse
 10
2302.196075869583
 20
-156.6159668023113
 30
0.0000000000000048
 11
-7.245890988991941
 21
12.14575907608555
 31
1.022214960765639E-15
210
-3.756459063406504E-17
220
6.175209200896002E-17
230
-1.0
 40
0.7430302579573002
 41
3.587432645584389
 42
4.013845773911165
  0
ELLIPSE
  5
255C4
330
18
100
AcDbEntity
  8
姿図
100
AcDbEllipse
 10
2316.228613124483
 20
-137.1505220905542
 30
0.0000000000000052
 11
17.59358850054388
 21
31.5635918245737
 31
7.729331260063255E-16
210
-2.253875438043896E-17
220
3.705125520537600E-17
230
-1.0
 40
0.6410056557820725
 41
3.099784278963601
 42
3.266368125798948
  0
LINE
  5
255C5
330
18
100
AcDbEntity
  8
姿図
100
AcDbLine
 10
2299.945020641817
 20
-168.5498329862057
 30
0.0000000000000042
 11
2299.496037717635
 21
-169.1578926479392
 31
0.0000000000000044
  0
LINE
  5
255C6
330
18
100
AcDbEntity
  8
姿図
100
AcDbLine
 10
2296.608792392811
 20
-166.2413980378562
 30
0.0000000000000048
 11
2296.253836792551
 21
-167.0652089545133
 31
0.0000000000000046
  0
SPLINE
  5
255C7
330
18
100
AcDbEntity
  8
姿図
100
AcDbSpline
210
0.0
220
0.0
230
1.0
 70
     8
 71
     3
 72
     8
 73
     4
 74
     0
 42
0.000000001
 43
0.0000000001
 40
6.0
 40
6.0
 40
6.0
 40
6.0
 40
6.981114317255776
 40
6.981114317255776
 40
6.981114317255776
 40
6.981114317255776
 10
2312.438717330333
 20
-120.248667104466
 30
0.0000000000000033
 10
2312.611327855173
 20
-120.8376282338381
 30
0.0000000000000033
 10
2317.510559054853
 20
-148.548101940547
 30
0.0000000000000033
 10
2317.695577337536
 20
-149.7080064596278
 30
0.0000000000000033
  0
LINE
  5
255C8
330
18
100
AcDbEntity
  8
姿図
100
AcDbLine
 10
2324.219656168499
 20
-139.5348727131361
 30
0.0000000000000048
 11
2324.632394560558
 21
-141.6034328633584
 31
0.0000000000000048
  0
ARC
  5
255C9
330
18
100
AcDbEntity
  8
姿図
100
AcDbCircle
 10
2313.040593184326
 20
-149.1396236436556
 30
0.0000000000000048
 40
12.02005315416621
100
AcDbArc
 50
30.04368224852433
 51
63.15055502810434
  0
SPLINE
  5
255CA
330
18
100
AcDbEntity
  8
姿図
100
AcDbSpline
210
0.0
220
0.0
230
1.0
 70
     8
 71
     3
 72
     8
 73
     4
 74
     0
 42
0.000000001
 43
0.0000000001
 40
15.0
 40
15.0
 40
15.0
 40
15.0
 40
15.72631331981369
 40
15.72631331981369
 40
15.72631331981369
 40
15.72631331981369
 10
2300.85862865934
 20
-119.2809859470779
 30
0.0000000000000033
 10
2300.85862865934
 20
-119.2809859470779
 30
0.0000000000000033
 10
2299.102389486207
 20
-129.7227300129796
 30
0.0000000000000033
 10
2297.346891268332
 20
-140.6867642100829
 30
0.0000000000000033
  0
SPLINE
  5
255CB
330
18
100
AcDbEntity
  8
姿図
100
AcDbSpline
210
0.0
220
0.0
230
1.0
 70
     8
 71
     3
 72
    18
 73
    14
 74
     0
 42
0.000000001
 43
0.0000000001
 40
28.74698734064234
 40
28.74698734064234
 40
28.74698734064234
 40
28.74698734064234
 40
33.44137084920912
 40
33.44137084920912
 40
41.29196149669883
 40
41.29196149669883
 40
50.54402678597219
 40
50.54402678597219
 40
58.56297097631615
 40
58.56297097631615
 40
66.12555618457822
 40
66.12555618457822
 40
66.63663448405963
 40
66.63663448405963
 40
66.63663448405963
 40
66.63663448405963
 10
2310.220163071037
 20
-144.8205529969209
 30
0.000000000000004
 10
2309.778477483716
 20
-144.4095116424528
 30
0.0000000000000045
 10
2309.298599868635
 20
-144.0022784363969
 30
0.0000000000000048
 10
2307.910983521385
 20
-142.9534969419713
 30
0.0000000000000048
 10
2306.993220747325
 20
-142.3827296720976
 30
0.0
 10
2304.953290843724
 20
-141.369960947035
 30
0.0000000000000048
 10
2303.828754863501
 20
-140.9722760345737
 30
0.0
 10
2301.716749868809
 20
-140.5062584229449
 30
0.0000000000000048
 10
2300.854759942098
 20
-140.4265931697068
 30
0.0000000000000048
 10
2299.420278643507
 20
-140.4137085387697
 30
0.0000000000000048
 10
2298.555851695386
 20
-140.4702369154124
 30
0.0000000000000048
 10
2297.593957905549
 20
-140.6793640529704
 30
0.0000000000000048
 10
2297.533225455058
 20
-140.6931621646081
 30
0.0000000000000049
 10
2297.472665513774
 20
-140.7075102539814
 30
0.0000000000000049
  0
SPLINE
  5
255CC
330
18
100
AcDbEntity
  8
姿図
100
AcDbSpline
210
0.0
220
0.0
230
1.0
 70
     8
 71
     3
 72
    10
 73
     6
 74
     0
 42
0.000000001
 43
0.0000000001
 40
0.0507684683112425
 40
0.0507684683112425
 40
0.0507684683112425
 40
0.0507684683112425
 40
16.17239265914957
 40
16.17239265914957
 40
28.35901754380262
 40
28.35901754380262
 40
28.35901754380262
 40
28.35901754380262
 10
2314.816075402883
 20
-151.2599084365979
 30
0.0000000000000048
 10
2314.520984466887
 20
-150.5115588330943
 30
0.0000000000000097
 10
2313.813469870903
 20
-149.2063055485746
 30
0.0000000000000048
 10
2312.332663589476
 20
-147.0790998710604
 30
0.0000000000000007
 10
2311.459140376428
 20
-145.9910404548923
 30
0.0000000000000026
 10
2310.220163071037
 20
-144.8205529969209
 30
0.000000000000004
  0
ELLIPSE
  5
255CD
330
18
100
AcDbEntity
  8
姿図
100
AcDbEllipse
 10
2302.541082575054
 20
-155.7896521915638
 30
0.0000000000000035
 11
-8.240481708337285
 21
13.54645361661168
 31
1.375286606555164E-15
210
-4.507750876087788E-17
220
7.410251041075196E-17
230
-1.0
 40
0.7445887407027103
 41
0.1816174140285645
 42
1.721396946041356
  0
ELLIPSE
  5
255CE
330
18
100
AcDbEntity
  8
姿図
100
AcDbEllipse
 10
2302.196075869583
 20
-156.6159668023113
 30
0.0000000000000048
 11
-7.3621881648323
 21
12.1026347756822
 31
8.191364806413193E-16
210
-3.005167250725200E-17
220
4.940167360716794E-17
230
-1.0
 40
0.7445887407026724
 41
-1.020444988477155
 42
-0.675422466435305
  0
ELLIPSE
  5
255CF
330
18
100
AcDbEntity
  8
姿図
100
AcDbEllipse
 10
2300.31598125991
 20
-157.4984445261885
 30
0.0000000000000048
 11
-8.829979100642742
 21
10.98552652668503
 31
4.040295180262875E-16
210
-1.502583625362599E-17
220
2.470083680358400E-17
230
-1.0
 40
0.7419878916066797
 41
-1.136589550032924
 42
-0.125843033866976
  0
ELLIPSE
  5
255D0
330
18
100
AcDbEntity
  8
姿図
100
AcDbEllipse
 10
2300.370886742307
 20
-157.3131015063946
 30
0.0000000000000048
 11
-6.171736332991535
 21
12.71299744546082
 31
1.220271524174379E-15
210
-4.507750876087799E-17
220
7.410251041075202E-17
230
-1.0
 40
0.7148769796037835
 41
-1.336025501013204
 42
-0.3740805824015643
  0
LINE
  5
255D1
330
18
100
AcDbEntity
  8
姿図
100
AcDbLine
 10
2290.909242350842
 20
-156.430842393381
 30
0.0000000000000048
 11
2289.915523527159
 21
-156.6368157421823
 31
0.0000000000000051
  0
LINE
  5
255D2
330
18
100
AcDbEntity
  8
姿図
100
AcDbLine
 10
2291.848695605668
 20
-161.8911182866807
 30
0.000000000000005
 11
2292.893872553771
 21
-161.6032158559149
 31
0.0000000000000048
  0
ELLIPSE
  5
255D3
330
18
100
AcDbEntity
  8
姿図
100
AcDbEllipse
 10
2302.196075869583
 20
-156.6159668023113
 30
0.0000000000000048
 11
-7.362188164830537
 21
12.10263477569337
 31
2.047841201604545E-16
210
-7.512918126813013E-18
220
1.235041840179197E-17
230
-1.0
 40
0.7445887407022102
 41
-1.530293444921352
 42
-1.020444988477903
  0
ELLIPSE
  5
255D4
330
18
100
AcDbEntity
  8
姿図
100
AcDbEllipse
 10
2301.685314610676
 20
-156.80924652456
 30
0.0000000000000048
 11
-8.500228564433543
 21
9.951939267751863
 31
5.603164053892366E-16
210
-2.253875438043901E-17
220
3.705125520537601E-17
230
-1.0
 40
0.8394320487860444
 41
-1.376701961562133
 42
-0.9346820271856128
  0
ELLIPSE
  5
255D5
330
18
100
AcDbEntity
  8
姿図
100
AcDbEllipse
 10
2298.721370927237
 20
-158.1132321217335
 30
0.0000000000000048
 11
-7.530096776584824
 21
12.37865822770092
 31
2.094546089343517E-16
210
-7.512918126813007E-18
220
1.235041840179200E-17
230
-1.0
 40
0.7445887400054914
 41
-0.0197153658459095
 42
-0.0169158929493971
  0
ELLIPSE
  5
255D6
330
18
100
AcDbEntity
  8
姿図
100
AcDbEllipse
 10
2302.196075869583
 20
-156.6159668023113
 30
0.0000000000000048
 11
-7.362188164834699
 21
12.10263477567932
 31
4.095682403206245E-16
210
-1.502583625362597E-17
220
2.470083680358399E-17
230
-1.0
 40
0.7445887407026627
 41
-0.6754224664350246
 42
-0.3300486139800427
  0
ELLIPSE
  5
255D7
330
18
100
AcDbEntity
  8
姿図
100
AcDbEllipse
 10
2302.468743360011
 20
-156.659075494603
 30
0.0000000000000048
 11
-8.699597329939269
 21
11.81675478891425
 31
6.339036848116349E-16
210
-2.253875438043900E-17
220
3.705125520537601E-17
230
-1.0
 40
0.7846158028914396
 41
-0.5798433882892109
 42
-0.2849668007484034
  0
LINE
  5
255D8
330
18
100
AcDbEntity
  8
姿図
100
AcDbLine
 10
2291.906849998639
 20
-147.5326786736816
 30
0.0000000000000048
 11
2291.513504652134
 21
-147.2377975096397
 31
0.0000000000000054
  0
LINE
  5
255D9
330
18
100
AcDbEntity
  8
姿図
100
AcDbLine
 10
2290.112572489398
 20
-150.5082643283938
 30
0.0000000000000048
 11
2290.817133501946
 21
-150.6053541907008
 31
0.0000000000000048
  0
SPLINE
  5
255DA
330
18
100
AcDbEntity
  8
姿図
100
AcDbSpline
210
0.0
220
0.0
230
1.0
 70
    24
 71
     1
 72
     4
 73
     2
 74
     0
 42
0.000000001
 43
0.0000000001
 40
0.500003153875532
 40
0.500003153875532
 40
1.000006307751064
 40
1.000006307751064
 10
2297.361308688621
 20
-140.7504419892011
 30
0.0000000000000049
 10
2297.248560947166
 20
-140.8133223833302
 30
0.0000000000000146
  0
SPLINE
  5
255DB
330
18
100
AcDbEntity
  8
姿図
100
AcDbSpline
210
0.0
220
0.0
230
1.0
 70
    24
 71
     1
 72
     4
 73
     2
 74
     0
 42
0.000000001
 43
0.0000000001
 40
0.0
 40
0.0
 40
0.500003153875532
 40
0.500003153875532
 10
2297.472665513774
 20
-140.7075102539814
 30
0.0000000000000049
 10
2297.361308688621
 20
-140.7504419892011
 30
0.0000000000000049
  0
ELLIPSE
  5
255DC
330
18
100
AcDbEntity
  8
姿図
100
AcDbEllipse
 10
2319.558780308816
 20
-151.3425857807954
 30
0.0000000000000035
 11
-0.2111438235632067
 21
1.6266131177468
 31
7.113492607458361E-17
210
-5.582593766667742E-18
220
4.300727389816779E-17
230
-1.0
 40
0.6338586263932079
 41
0.236134012315081
 42
2.425367404911594
  0
ELLIPSE
  5
255DD
330
18
100
AcDbEntity
  8
姿図
100
AcDbEllipse
 10
2320.292673241075
 20
-151.2473222186663
 30
0.0000000000000035
 11
-0.2287391421940569
 21
1.762164210892201
 31
1.027504487743933E-16
210
-7.443458355556960E-18
220
5.734303186422367E-17
230
-1.0
 40
0.6338586263934508
 41
4.868828357704053
 42
11.15201366488364
  0
ELLIPSE
  5
255DE
330
18
100
AcDbEntity
  8
姿図
100
AcDbEllipse
 10
2320.292673241075
 20
-151.2473222186663
 30
0.0000000000000035
 11
-0.2991204167153053
 21
2.304368583474418
 31
1.343659714742069E-16
210
-7.443458355556967E-18
220
5.734303186422374E-17
230
-1.0
 40
0.6338586263934506
 41
4.868828357704045
 42
11.15201366488363
  0
ELLIPSE
  5
255DF
330
18
100
AcDbEntity
  8
姿図
100
AcDbEllipse
 10
2318.824887376557
 20
-151.4378493429251
 30
0.0000000000000035
 11
-0.2991204167146964
 21
2.304368583474401
 31
1.343659714742013E-16
210
-7.443458355556932E-18
220
5.734303186422374E-17
230
-1.0
 40
0.6338586263934446
 41
3.141592653589488
 42
5.180284413960835
  0
ELLIPSE
  5
255E0
330
18
100
AcDbEntity
  8
姿図
100
AcDbEllipse
 10
2318.82486316784
 20
-151.4378524853578
 30
0.0000000000000035
 11
-0.2991228894817231
 21
2.304387633208462
 31
1.343670822496472E-16
210
-7.443458355556994E-18
220
5.734303186422380E-17
230
-1.0
 40
0.6338586263936772
 41
3.141592653590172
 42
3.809748048093252
  0
ELLIPSE
  5
255E1
330
18
100
AcDbEntity
  8
姿図
100
AcDbEllipse
 10
2319.558780308816
 20
-151.3425857807954
 30
0.0000000000000035
 11
-0.1407625490449988
 21
1.084408745164072
 31
4.742328404971855E-17
210
-5.582593766667744E-18
220
4.300727389816780E-17
230
-1.0
 40
0.6338586263981275
 41
3.141592653593585
 42
3.378250081950879
  0
ELLIPSE
  5
255E2
330
18
100
AcDbEntity
  8
姿図
100
AcDbEllipse
 10
2319.558780308816
 20
-151.3425857807954
 30
0.0000000000000035
 11
-0.2111438235688974
 21
1.626613117745057
 31
7.113492607454048E-17
210
-5.582593766667769E-18
220
4.300727389816779E-17
230
-1.0
 40
0.6338586263916416
 41
2.425367404914558
 42
2.905458641278822
  0
ELLIPSE
  5
255E3
330
18
100
AcDbEntity
  8
姿図
100
AcDbEllipse
 10
2319.349096613885
 20
-151.3698039414046
 30
0.0000000000000035
 11
-0.2287391421075747
 21
1.762164210926229
 31
1.027504487757010E-16
210
-7.443458355557023E-18
220
5.734303186422371E-17
230
-1.0
 40
0.633858626413942
 41
2.631951070199932
 42
2.705517797080201
  0
ELLIPSE
  5
255E4
330
18
100
AcDbEntity
  8
姿図
100
AcDbEllipse
 10
2319.558762167038
 20
-151.3425881357039
 30
0.0000000000000035
 11
-0.14076371269443
 21
1.0844177097455
 31
4.742367608810951E-17
210
-5.582593766667758E-18
220
4.300727389816784E-17
230
-1.0
 40
0.6338586263885858
 41
3.141592653585752
 42
3.378250081947276
  0
ELLIPSE
  5
255E5
330
18
100
AcDbEntity
  8
姿図
100
AcDbEllipse
 10
2319.558762167038
 20
-151.3425881357039
 30
0.0000000000000035
 11
-0.2111455690441831
 21
1.626626564618221
 31
7.113551413217713E-17
210
-5.582593766667726E-18
220
4.300727389816779E-17
230
-1.0
 40
0.6338586263939806
 41
2.425367404911215
 42
2.905458641273128
  0
ELLIPSE
  5
255E6
330
18
100
AcDbEntity
  8
姿図
100
AcDbEllipse
 10
2319.349076738696
 20
-151.36980652132
 30
0.0000000000000035
 11
-0.2287410330029986
 21
1.762178778387061
 31
1.027512981928730E-16
210
-7.443458355556966E-18
220
5.734303186422371E-17
230
-1.0
 40
0.633858626423758
 41
2.63195107017216
 42
2.705517797050096
  0
ARC
  5
255E7
330
18
100
AcDbEntity
  8
姿図
100
AcDbCircle
 10
2318.685899321432
 20
-153.1220119129789
 30
0.0000000000000026
 40
2.763779877119617
100
AcDbArc
 50
319.1512900024634
 51
4.149031979423785
  0
LINE
  5
255E8
330
18
100
AcDbEntity
  8
姿図
100
AcDbLine
 10
2319.804384705324
 20
-152.4133854456566
 30
0.0000000000000035
 11
2319.699542857858
 21
-152.4269945259609
 31
0.0000000000000035
  0
LINE
  5
255E9
330
18
100
AcDbEntity
  8
姿図
100
AcDbLine
 10
2319.804368593907
 20
-152.4133966526422
 30
0.0000000000000035
 11
2319.699525879735
 21
-152.4270058454497
 31
0.0000000000000035
  0
LINE
  5
255EA
330
18
100
AcDbEntity
  8
姿図
100
AcDbLine
 10
2320.591793657789
 20
-153.5516908021409
 30
0.0000000000000035
 11
2319.124007793272
 21
-153.7422179264006
 31
0.0000000000000035
  0
LINE
  5
255EB
330
18
100
AcDbEntity
  8
姿図
100
AcDbLine
 10
2320.591784055717
 20
-153.5517114192596
 30
0.0000000000000035
 11
2319.123986057321
 21
-153.7422401185665
 31
0.0000000000000035
  0
LINE
  5
255EC
330
18
100
AcDbEntity
  8
姿図
100
AcDbLine
 10
2319.559355574858
 20
-153.7141088508306
 30
0.0000000000000048
 11
2315.447821190818
 21
-157.6437320165014
 31
0.0000000000000048
  0
ARC
  5
255ED
330
18
100
AcDbEntity
  8
姿図
100
AcDbCircle
 10
2309.147280592209
 20
-152.5754665203715
 30
0.0000000000000026
 40
11.86515413592403
100
AcDbArc
 50
305.5986504504083
 51
348.5556650930566
  0
LINE
  5
255EE
330
18
100
AcDbEntity
  8
姿図
100
AcDbLine
 10
2317.481075281123
 20
-150.1940811097156
 30
0.0000000000000048
 11
2313.742789633377
 21
-151.7586621153403
 31
0.0000000000000048
  0
SPLINE
  5
255EF
330
18
100
AcDbEntity
  8
姿図
100
AcDbSpline
210
0.0
220
0.0
230
1.0
 70
     8
 71
     3
 72
     8
 73
     4
 74
     0
 42
0.000000001
 43
0.0000000001
 40
0.0522524473711178
 40
0.0522524473711178
 40
0.0522524473711178
 40
0.0522524473711178
 40
3.974673657107151
 40
3.974673657107151
 40
3.974673657107151
 40
3.974673657107151
 10
2324.731834536607
 20
-147.7727546982144
 30
0.0000000000000048
 10
2324.737292741017
 20
-148.0703360911652
 30
0.0000000000000048
 10
2324.726379929237
 20
-148.3628107246618
 30
0.0000000000000048
 10
2324.698822184422
 20
-148.6482867964385
 30
0.0000000000000048
  0
ELLIPSE
  5
255F0
330
18
100
AcDbEntity
  8
姿図
100
AcDbEllipse
 10
2325.50623773542
 20
-141.3561662159896
 30
0.0000000000000048
 11
-0.05228476964520482
 21
0.1116281975137274
 31
3.563878994237584E-18
210
-1.226338209620105E-17
220
2.618237104390372E-17
230
-1.0
 40
0.7445887407034333
 41
0.0194714738028587
 42
1.456954302896184
  0
ELLIPSE
  5
255F1
330
18
100
AcDbEntity
  8
姿図
100
AcDbEllipse
 10
2320.846149857269
 20
-142.9069895051266
 30
0.0000000000000048
 11
-5.127492779515051
 21
5.091762886143623
 31
2.942922424549431E-16
210
-1.839507314430161E-17
220
3.927355656585553E-17
230
-1.0
 40
0.6510494580119257
 41
1.88482654767138
 42
2.693896839941427
  0
ELLIPSE
  5
255F2
330
18
100
AcDbEntity
  8
姿図
100
AcDbEllipse
 10
2318.824887376557
 20
-151.4378493429251
 30
0.0000000000000035
 11
-0.2991204167161672
 21
2.304368583473515
 31
1.343659714741615E-16
210
-7.443458355557000E-18
220
5.734303186422372E-17
230
-1.0
 40
0.6338586263936181
 41
-1.249552989788636
 42
-0.5274645292532043
  0
ELLIPSE
  5
255F3
330
18
100
AcDbEntity
  8
姿図
100
AcDbEllipse
 10
2318.82486316784
 20
-151.4378524853578
 30
0.0000000000000035
 11
-0.2991228894807637
 21
2.304387633209254
 31
1.343670822496855E-16
210
-7.443458355557011E-18
220
5.734303186422380E-17
230
-1.0
 40
0.6338586263931683
 41
-1.249552989789342
 42
-0.5274645292546232
  0
ELLIPSE
  5
255F4
330
18
100
AcDbEntity
  8
姿図
100
AcDbEllipse
 10
2319.349096613885
 20
-151.3698039414046
 30
0.0000000000000035
 11
-0.2287391422591012
 21
1.762164210898996
 31
1.027504487752671E-16
210
-7.443458355556966E-18
220
5.734303186422369E-17
230
-1.0
 40
0.633858626409089
 41
0.4360748564913792
 42
0.5096415833729382
  0
ELLIPSE
  5
255F5
330
18
100
AcDbEntity
  8
姿図
100
AcDbEllipse
 10
2319.558780308816
 20
-151.3425857807954
 30
0.0000000000000035
 11
-0.1407625490411045
 21
1.084408745164576
 31
4.742328404971851E-17
210
-5.582593766667741E-18
220
4.300727389816782E-17
230
-1.0
 40
0.6338586263982072
 41
-0.2366574283595551
 42
-0.0000000000018734
  0
ELLIPSE
  5
255F6
330
18
100
AcDbEntity
  8
姿図
100
AcDbEllipse
 10
2319.349076738696
 20
-151.36980652132
 30
0.0000000000000035
 11
-0.2287410332444538
 21
1.762178778345462
 31
1.027512981922848E-16
210
-7.443458355556964E-18
220
5.734303186422369E-17
230
-1.0
 40
0.6338586264241365
 41
0.4360748565184052
 42
0.5096415833980092
  0
ELLIPSE
  5
255F7
330
18
100
AcDbEntity
  8
姿図
100
AcDbEllipse
 10
2319.558762167038
 20
-151.3425881357039
 30
0.0000000000000035
 11
-0.1407637126969691
 21
1.08441770974517
 31
4.742367608810948E-17
210
-5.582593766667772E-18
220
4.300727389816783E-17
230
-1.0
 40
0.6338586263940378
 41
-0.2366574283589882
 42
-0.0000000000003468
  0
LINE
  5
255F8
330
18
100
AcDbEntity
  8
姿図
100
AcDbLine
 10
2324.707722184512
 20
-147.7086196252403
 30
0.0000000000000048
 11
2326.903337007953
 21
-146.0518493874633
 31
0.0000000000000048
  0
LINE
  5
255F9
330
18
100
AcDbEntity
  8
姿図
100
AcDbLine
 10
2326.364156449809
 20
-148.4306471386883
 30
0.0000000000000048
 11
2325.078806169014
 21
-147.4373783268973
 31
0.0000000000000048
  0
LINE
  5
255FA
330
18
100
AcDbEntity
  8
姿図
100
AcDbLine
 10
2325.430617947254
 20
-149.0569474133135
 30
0.0000000000000048
 11
2326.364156449809
 21
-148.4306471386883
 31
0.0000000000000048
  0
LINE
  5
255FB
330
18
100
AcDbEntity
  8
姿図
100
AcDbLine
 10
2325.455581187191
 20
-141.2438011898216
 30
0.0000000000000048
 11
2322.957120459823
 21
-142.3353223389493
 31
0.0000000000000048
  0
LINE
  5
255FC
330
18
100
AcDbEntity
  8
姿図
100
AcDbLine
 10
2319.522859607239
 20
-150.2445679553277
 30
0.0000000000000035
 11
2319.418017759774
 21
-150.2581770356321
 31
0.0000000000000035
  0
LINE
  5
255FD
330
18
100
AcDbEntity
  8
姿図
100
AcDbLine
 10
2319.522841168512
 20
-150.2445612331519
 30
0.0000000000000035
 11
2319.41799845434
 21
-150.2581704259594
 31
0.0000000000000035
  0
LINE
  5
255FE
330
18
100
AcDbEntity
  8
姿図
100
AcDbLine
 10
2319.993552824359
 20
-148.942953635192
 30
0.0000000000000035
 11
2319.518212732567
 21
-149.0046555379861
 31
0.0000000000000035
  0
LINE
  5
255FF
330
18
100
AcDbEntity
  8
姿図
100
AcDbLine
 10
2319.993538276755
 20
-148.9429361528425
 30
0.0000000000000035
 11
2319.518194255426
 21
-149.0046385657131
 31
0.0000000000000035
  0
LINE
  5
25600
330
18
100
AcDbEntity
  8
姿図
100
AcDbLine
 10
2314.289113140098
 20
-138.2000117485848
 30
0.0000000000000026
 11
2310.855311287622
 21
-139.9489152618173
 31
0.0000000000000026
  0
ARC
  5
25601
330
18
100
AcDbEntity
  8
姿図
100
AcDbCircle
 10
2321.748727638137
 20
-200.2524569821767
 30
0.0000000000000048
 40
63.61878588667222
100
AcDbArc
 50
96.70523189140651
 51
109.8629148029439
  0
SPLINE
  5
25602
330
18
100
AcDbEntity
  8
姿図
100
AcDbSpline
210
0.0
220
0.0
230
1.0
 70
     8
 71
     3
 72
     8
 73
     4
 74
     0
 42
0.000000001
 43
0.0000000001
 40
0.2696514016814274
 40
0.2696514016814274
 40
0.2696514016814274
 40
0.2696514016814274
 40
1.0
 40
1.0
 40
1.0
 40
1.0
 10
2297.945264322885
 20
-140.4762835525655
 30
0.0000000000000033
 10
2299.844556735019
 20
-130.1615812162488
 30
0.0000000000000033
 10
2301.912106870438
 20
-120.7418493861126
 30
0.0000000000000033
 10
2301.912106870438
 20
-120.7418493861126
 30
0.0000000000000033
  0
LINE
  5
25603
330
18
100
AcDbEntity
  8
姿図
100
AcDbLine
 10
2303.989940466031
 20
-121.2757505742986
 30
0.0000000000000033
 11
2299.878751824699
 21
-140.4866295115612
 31
0.0000000000000033
  0
SPLINE
  5
25604
330
18
100
AcDbEntity
  8
姿図
100
AcDbSpline
210
0.0
220
0.0
230
1.0
 70
     8
 71
     3
 72
     8
 73
     4
 74
     0
 42
0.000000001
 43
0.0000000001
 40
5.0
 40
5.0
 40
5.0
 40
5.0
 40
6.0
 40
6.0
 40
6.0
 40
6.0
 10
2312.222982070413
 20
-120.0364284396776
 30
0.0000000000000033
 10
2312.222982070413
 20
-120.0364284396776
 30
0.0000000000000033
 10
2312.346165938212
 20
-120.0411600127504
 30
0.0000000000000033
 10
2312.438717330333
 20
-120.248667104466
 30
0.0000000000000033
  0
SPLINE
  5
25605
330
18
100
AcDbEntity
  8
姿図
100
AcDbSpline
210
0.0
220
0.0
230
1.0
 70
     8
 71
     3
 72
     8
 73
     4
 74
     0
 42
0.000000001
 43
0.0000000001
 40
5.0
 40
5.0
 40
5.0
 40
5.0
 40
6.0
 40
6.0
 40
6.0
 40
6.0
 10
2312.230091015986
 20
-120.2865872740917
 30
0.0000000000000033
 10
2312.230091015986
 20
-120.2865872740917
 30
0.0000000000000033
 10
2312.353274883787
 20
-120.2913188471646
 30
0.0000000000000033
 10
2312.445826275907
 20
-120.4988259388799
 30
0.0000000000000033
  0
SPLINE
  5
25606
330
18
100
AcDbEntity
  8
姿図
100
AcDbSpline
210
0.0
220
0.0
230
1.0
 70
     8
 71
     3
 72
     8
 73
     4
 74
     0
 42
0.000000001
 43
0.0000000001
 40
4.562871291847087
 40
4.562871291847087
 40
4.562871291847087
 40
4.562871291847087
 40
5.0
 40
5.0
 40
5.0
 40
5.0
 10
2310.799508386954
 20
-120.0682354252458
 30
0.0000000000000033
 10
2311.628842891272
 20
-120.0245055058599
 30
0.0000000000000033
 10
2312.222982070413
 20
-120.0364284396776
 30
0.0000000000000033
 10
2312.222982070413
 20
-120.0364284396776
 30
0.0000000000000033
  0
SPLINE
  5
25607
330
18
100
AcDbEntity
  8
姿図
100
AcDbSpline
210
0.0
220
0.0
230
1.0
 70
     8
 71
     3
 72
     8
 73
     4
 74
     0
 42
0.000000001
 43
0.0000000001
 40
0.0
 40
0.0
 40
0.0
 40
0.0
 40
0.4810436403893932
 40
0.4810436403893932
 40
0.4810436403893932
 40
0.4810436403893932
 10
2312.590221979396
 20
-121.1102586550589
 30
0.0000000000000033
 10
2312.590221979396
 20
-121.1102586550589
 30
0.0000000000000033
 10
2311.753705185513
 20
-121.0007912400067
 30
0.0000000000000033
 10
2310.952291334854
 20
-120.9312747541935
 30
0.0000000000000033
  0
SPLINE
  5
25608
330
18
100
AcDbEntity
  8
姿図
100
AcDbSpline
210
0.0
220
0.0
230
1.0
 70
     8
 71
     3
 72
     8
 73
     4
 74
     0
 42
0.000000001
 43
0.0000000001
 40
0.0
 40
0.0
 40
0.0
 40
0.0
 40
0.4810436403893932
 40
0.4810436403893932
 40
0.4810436403893932
 40
0.4810436403893932
 10
2312.553170842276
 20
-120.9634723854604
 30
0.0000000000000033
 10
2312.553170842276
 20
-120.9634723854604
 30
0.0000000000000033
 10
2311.716654048392
 20
-120.8540049704084
 30
0.0000000000000033
 10
2310.784333692285
 20
-120.8096838387623
 30
0.0000000000000033
  0
SPLINE
  5
25609
330
18
100
AcDbEntity
  8
姿図
100
AcDbSpline
210
0.0
220
0.0
230
1.0
 70
     8
 71
     3
 72
     8
 73
     4
 74
     0
 42
0.000000001
 43
0.0000000001
 40
4.562871291847087
 40
4.562871291847087
 40
4.562871291847087
 40
4.562871291847087
 40
5.0
 40
5.0
 40
5.0
 40
5.0
 10
2310.806617332527
 20
-120.3183942596602
 30
0.0000000000000033
 10
2311.635951836846
 20
-120.2746643402736
 30
0.0000000000000033
 10
2312.230091015986
 20
-120.2865872740917
 30
0.0000000000000033
 10
2312.230091015986
 20
-120.2865872740917
 30
0.0000000000000033
  0
SPLINE
  5
2560A
330
18
100
AcDbEntity
  8
姿図
100
AcDbSpline
210
0.0
220
0.0
230
1.0
 70
     8
 71
     3
 72
     8
 73
     4
 74
     0
 42
0.000000001
 43
0.0000000001
 40
3.357032710531275
 40
3.357032710531275
 40
3.357032710531275
 40
3.357032710531275
 40
4.0
 40
4.0
 40
4.0
 40
4.0
 10
2305.337975006513
 20
-121.1556461157168
 30
0.0000000000000033
 10
2304.794374477919
 20
-121.1739499975617
 30
0.0000000000000033
 10
2304.085083904058
 20
-121.1988079592873
 30
0.0000000000000033
 10
2304.085083904058
 20
-121.1988079592873
 30
0.0000000000000033
  0
SPLINE
  5
2560B
330
18
100
AcDbEntity
  8
姿図
100
AcDbSpline
210
0.0
220
0.0
230
1.0
 70
    24
 71
     3
 72
     8
 73
     4
 74
     0
 42
0.000000001
 43
0.0000000001
 40
1.0
 40
1.0
 40
1.0
 40
1.0
 40
2.0
 40
2.0
 40
2.0
 40
2.0
 10
2302.204753221583
 20
-120.6513012410803
 30
0.0000000000000033
 10
2302.204753221583
 20
-120.6513012410803
 30
0.0000000000000033
 10
2305.206459527586
 20
-120.3947789816987
 30
0.0000000000000033
 10
2305.206459527586
 20
-120.3947789816987
 30
0.0000000000000033
  0
SPLINE
  5
2560C
330
18
100
AcDbEntity
  8
姿図
100
AcDbSpline
210
0.0
220
0.0
230
1.0
 70
    24
 71
     3
 72
     8
 73
     4
 74
     0
 42
0.000000001
 43
0.0000000001
 40
1.0
 40
1.0
 40
1.0
 40
1.0
 40
2.0
 40
2.0
 40
2.0
 40
2.0
 10
2302.388066033369
 20
-120.8243453728926
 30
0.0000000000000033
 10
2302.388066033369
 20
-120.8243453728926
 30
0.0000000000000033
 10
2305.389772339372
 20
-120.5678231135112
 30
0.0000000000000033
 10
2305.389772339372
 20
-120.5678231135112
 30
0.0000000000000033
  0
SPLINE
  5
2560D
330
18
100
AcDbEntity
  8
姿図
100
AcDbSpline
210
0.0
220
0.0
230
1.0
 70
     8
 71
     3
 72
     8
 73
     4
 74
     0
 42
0.000000001
 43
0.0000000001
 40
3.357032710531275
 40
3.357032710531275
 40
3.357032710531275
 40
3.357032710531275
 40
4.0
 40
4.0
 40
4.0
 40
4.0
 10
2305.468892135778
 20
-121.0045387676237
 30
0.0000000000000033
 10
2304.925291607183
 20
-121.0228426494684
 30
0.0000000000000033
 10
2304.216001033323
 20
-121.0477006111939
 30
0.0000000000000033
 10
2304.216001033323
 20
-121.0477006111939
 30
0.0000000000000033
  0
ARC
  5
2560E
330
18
100
AcDbEntity
  8
姿図
100
AcDbCircle
 10
2302.133084034469
 20
-120.937852672869
 30
0.0000000000000033
 40
0.2953780551123366
100
AcDbArc
 50
75.95786092131543
 51
138.4274760917632
  0
ARC
  5
2560F
330
18
100
AcDbEntity
  8
姿図
100
AcDbCircle
 10
2302.316396846255
 20
-121.1108968046817
 30
0.0000000000000033
 40
0.2953780551123366
100
AcDbArc
 50
75.95786092131543
 51
138.4274760917632
  0
SPLINE
  5
25610
330
18
100
AcDbEntity
  8
姿図
100
AcDbSpline
210
0.0
220
0.0
230
1.0
 70
     8
 71
     3
 72
     8
 73
     4
 74
     0
 42
0.000000001
 43
0.0000000001
 40
14.0
 40
14.0
 40
14.0
 40
14.0
 40
15.0
 40
15.0
 40
15.0
 40
15.0
 10
2301.371022661508
 20
-118.1468485770683
 30
0.0000000000000033
 10
2300.927717867347
 20
-118.2664646143817
 30
0.0000000000000033
 10
2300.85862865934
 20
-119.2809859470779
 30
0.0000000000000033
 10
2300.85862865934
 20
-119.2809859470779
 30
0.0000000000000033
  0
ELLIPSE
  5
25611
330
18
100
AcDbEntity
  8
姿図
100
AcDbEllipse
 10
2314.427336849336
 20
-137.3057903277743
 30
0.0000000000000048
 11
-0.3468879042634136
 21
0.1161587325640263
 31
1.459065990102709E-17
210
-2.452676419240198E-17
220
5.236474208780739E-17
230
-1.0
 40
0.5954474281841662
 41
1.067175184772285
 42
2.559533103277989
  0
LINE
  5
25612
330
18
100
AcDbEntity
  8
姿図
100
AcDbLine
 10
2314.755127411474
 20
-137.2892695916855
 30
0.0000000000000048
 11
2314.94791251825
 21
-137.6468211941919
 31
0.0000000000000026
  0
ARC
  5
25613
330
18
100
AcDbEntity
  8
姿図
100
AcDbCircle
 10
2315.354509065035
 20
-142.1109774271151
 30
0.0000000000000026
 40
4.482634451279683
100
AcDbArc
 50
84.71222861638353
 51
95.20415610003253
  0
ELLIPSE
  5
25614
330
18
100
AcDbEntity
  8
姿図
100
AcDbEllipse
 10
2324.018636474502
 20
-139.5390163822201
 30
0.0000000000000048
 11
-0.1102631686521534
 21
0.2354123170481558
 31
3.382133400710607E-17
210
-5.518521943290480E-17
220
1.178206696975666E-16
230
-1.0
 40
0.7445887407032984
 41
0.01947147381301
 42
1.889738879637535
  0
ELLIPSE
  5
25615
330
18
100
AcDbEntity
  8
姿図
100
AcDbEllipse
 10
2321.622750548864
 20
-138.751960974919
 30
0.0000000000000048
 11
-0.1102631686521534
 21
0.2354123170481558
 31
0.0
210
0.0
220
0.0
230
-1.0
 40
0.7445887407032984
 41
0.01947147381301
 42
1.889738879637535
  0
ELLIPSE
  5
25616
330
18
100
AcDbEntity
  8
姿図
100
AcDbEllipse
 10
2320.815716902191
 20
-138.5878237123861
 30
0.0000000000000048
 11
-0.1102631686521534
 21
0.2354123170481558
 31
0.0
210
0.0
220
0.0
230
-1.0
 40
0.7445887407032984
 41
0.01947147381301
 42
1.889738879637535
  0
LINE
  5
25617
330
18
100
AcDbEntity
  8
姿図
100
AcDbLine
 10
2321.823770242859
 20
-138.7478173058346
 30
0.0000000000000048
 11
2322.098749320409
 21
-140.1259560322208
 31
0.0000000000000048
  0
LINE
  5
25618
330
18
100
AcDbEntity
  8
姿図
100
AcDbLine
 10
2323.911807056328
 20
-139.3020501697883
 30
0.0000000000000048
 11
2321.379293288436
 21
-140.4084483243921
 31
0.0000000000000048
  0
LINE
  5
25619
330
18
100
AcDbEntity
  8
姿図
100
AcDbLine
 10
2321.016736596187
 20
-138.5836800433019
 30
0.0000000000000048
 11
2321.043750747071
 21
-138.7190694257458
 31
0.0000000000000048
  0
LINE
  5
2561A
330
18
100
AcDbEntity
  8
姿図
100
AcDbLine
 10
2321.515921130691
 20
-138.5149947624866
 30
0.0000000000000048
 11
2319.850558441559
 21
-139.2347737697669
 31
0.0000000000000048
  0
LINE
  5
2561B
330
18
100
AcDbEntity
  8
姿図
100
AcDbLine
 10
2320.708887484017
 20
-138.3508574999535
 30
0.0000000000000048
 11
2319.37811002135
 21
-138.9260269133438
 31
0.0000000000000048
  0
SPLINE
  5
2561C
330
18
100
AcDbEntity
  8
姿図
100
AcDbSpline
210
0.0
220
0.0
230
1.0
 70
    24
 71
     3
 72
     8
 73
     4
 74
     0
 42
0.000000001
 43
0.0000000001
 40
10.0
 40
10.0
 40
10.0
 40
10.0
 40
10.56265067495566
 40
10.56265067495566
 40
10.56265067495566
 40
10.56265067495566
 10
2314.290740226393
 20
-116.9868107785385
 30
0.0000000000000033
 10
2314.290740226393
 20
-116.9868107785385
 30
0.0000000000000033
 10
2312.385821155635
 20
-117.0981414705855
 30
0.0000000000000033
 10
2310.719591015914
 20
-117.1955222766326
 30
0.0000000000000033
  0
ENDSEC
  0
SECTION
  2
OBJECTS
  0
DICTIONARY
  5
C
330
0
100
AcDbDictionary
281
     1
  3
ACAD_GROUP
350
D
  3
ACAD_IMAGE_VARS
350
258D7
  3
ACAD_LAYOUT
350
40CB
  3
ACAD_MLINESTYLE
350
E
  3
ACAD_PLOTSETTINGS
350
40CC
  3
ACAD_PLOTSTYLENAME
350
40C9
  3
ACAD_SCALELIST
350
18908
  3
AcDbVariableDictionary
350
6377
  3
APPDATA
350
258D6
  3
DWGPROPS
350
258FB
  0
DICTIONARY
  5
15A0E
330
2
100
AcDbDictionary
280
     1
281
     1
  3
ACAD_LAYERFILTERS
360
17D68
  3
ACAD_LAYERSTATES
360
15A0F
  0
DICTIONARY
  5
1893A
330
F
100
AcDbDictionary
280
     1
281
     1
  3
ADSK_XREC_LAYER_RECONCILED
360
1893B
  0
DICTIONARY
  5
18942
330
4C
100
AcDbDictionary
280
     1
281
     1
  3
ADSK_XREC_LAYER_RECONCILED
360
18943
  0
DICTIONARY
  5
18944
330
4D
100
AcDbDictionary
280
     1
281
     1
  3
ADSK_XREC_LAYER_RECONCILED
360
18945
  0
DICTIONARY
  5
18948
330
40D4
100
AcDbDictionary
280
     1
281
     1
  3
ADSK_XREC_LAYER_RECONCILED
360
18949
  0
DICTIONARY
  5
9FD5
330
18
100
AcDbDictionary
280
     1
281
     1
  3
ACAD_SORTENTS
360
1ED48
  0
DICTIONARY
  5
D
102
{ACAD_REACTORS
330
C
102
}
330
C
100
AcDbDictionary
281
     1
  0
RASTERVARIABLES
  5
258D7
102
{ACAD_REACTORS
330
C
102
}
330
C
100
AcDbRasterVariables
 90
        0
 70
     1
 71
     1
 72
     0
  0
DICTIONARY
  5
40CB
102
{ACAD_REACTORS
330
C
102
}
330
C
100
AcDbDictionary
281
     1
  3
Model
350
40CD
  3
ﾚｲｱｳﾄ1
350
40CE
  0
DICTIONARY
  5
E
102
{ACAD_REACTORS
330
C
102
}
330
C
100
AcDbDictionary
281
     1
  3
STANDARD
350
1B
  0
DICTIONARY
  5
40CC
102
{ACAD_REACTORS
330
C
102
}
330
C
100
AcDbDictionary
281
     1
  0
ACDBDICTIONARYWDFLT
  5
40C9
102
{ACAD_REACTORS
330
C
102
}
330
C
100
AcDbDictionary
281
     1
  3
Normal
350
40CA
100
AcDbDictionaryWithDefault
340
40CA
  0
DICTIONARY
  5
18908
102
{ACAD_REACTORS
330
C
102
}
330
C
100
AcDbDictionary
281
     1
  3
A0
350
18909
  3
A1
350
1890A
  3
A2
350
1890B
  3
A3
350
1890C
  3
A4
350
1890D
  3
A5
350
1890E
  3
A6
350
1890F
  3
A7
350
18910
  3
A8
350
18911
  3
A9
350
18912
  3
B0
350
18913
  3
B1
350
18914
  3
B2
350
18915
  3
B3
350
18916
  3
B4
350
18917
  3
B5
350
18918
  3
B6
350
18919
  3
B7
350
1891A
  3
B8
350
1891B
  3
B9
350
1891C
  3
C0
350
1891D
  3
C1
350
1891E
  3
C2
350
1891F
  3
C3
350
18920
  3
C4
350
18921
  3
C5
350
18922
  3
C6
350
18923
  3
C7
350
18924
  3
C8
350
18925
  3
C9
350
18926
  3
D0
350
18927
  3
D1
350
18928
  3
D2
350
18929
  0
DICTIONARY
  5
6377
102
{ACAD_REACTORS
330
C
102
}
330
C
100
AcDbDictionary
281
     1
  3
DIMASSOC
350
73F2
  3
INDEXCTL
350
1896D
  3
PROJECTNAME
350
12C8D
  3
SORTENTS
350
6378
  0
DICTIONARY
  5
258D6
102
{ACAD_REACTORS
330
C
102
}
330
C
100
AcDbDictionary
281
     1
  0
XRECORD
  5
258FB
102
{ACAD_REACTORS
330
C
102
}
330
C
100
AcDbXrecord
280
     1
  1
DWGPROPS COOKIE
  2

  3

  4

  6

  7

  8
SPAX
  9

300
=
301
=
302
=
303
=
304
=
305
=
306
=
307
=
308
=
309
=
 40
0.0
 41
2449505.547222222
 42
2456821.234745509
  1

 90
        0
  0
DICTIONARY
  5
17D68
102
{ACAD_REACTORS
330
15A0E
102
}
330
15A0E
100
AcDbDictionary
281
     1
  0
DICTIONARY
  5
15A0F
102
{ACAD_REACTORS
330
15A0E
102
}
330
15A0E
100
AcDbDictionary
281
     1
  0
XRECORD
  5
1893B
102
{ACAD_REACTORS
330
1893A
102
}
330
1893A
100
AcDbXrecord
280
     1
290
     1
  0
XRECORD
  5
18943
102
{ACAD_REACTORS
330
18942
102
}
330
18942
100
AcDbXrecord
280
     1
290
     1
  0
XRECORD
  5
18945
102
{ACAD_REACTORS
330
18944
102
}
330
18944
100
AcDbXrecord
280
     1
290
     1
  0
XRECORD
  5
18949
102
{ACAD_REACTORS
330
18948
102
}
330
18948
100
AcDbXrecord
280
     1
290
     1
  0
SORTENTSTABLE
  5
1ED48
102
{ACAD_REACTORS
330
9FD5
102
}
330
9FD5
100
AcDbSortentsTable
330
18
331
0
  5
24DD4
331
1412B
  5
1412B
331
24B66
  5
24B68
331
24B67
  5
24B69
331
24B68
  5
24B6A
331
24B69
  5
24B6B
331
24B6A
  5
24B6C
331
24B6C
  5
24B6E
331
24B6D
  5
24B6F
331
24B71
  5
24B73
331
24B72
  5
24B74
331
24B8F
  5
24B91
331
24B90
  5
24B92
331
24B91
  5
24B93
331
24B92
  5
24B94
331
24B93
  5
24B95
331
24B94
  5
24B96
331
24B95
  5
24B97
331
24B96
  5
24B98
331
24B98
  5
24B9A
331
24B99
  5
24B9B
331
24B9A
  5
24B9C
331
24B9B
  5
24B9D
331
24B9C
  5
24B9E
331
24B9D
  5
24B9F
331
24B9E
  5
24BA0
331
24B9F
  5
24BA1
331
24BA0
  5
24BA2
331
24BA1
  5
24BA3
331
24BA2
  5
24BA4
331
24BA3
  5
24BA5
331
24BA4
  5
24BA6
331
24BA5
  5
24BA7
331
24BA6
  5
24BA8
331
24BA7
  5
24BA9
331
24BA8
  5
24BAA
331
24BA9
  5
24BAB
331
24BAA
  5
24BAC
331
24BAB
  5
24BAD
331
24BAC
  5
24BAE
331
24BAD
  5
24BAF
331
24BAE
  5
24BB0
331
24BAF
  5
24BB1
331
24BB0
  5
24BB2
331
24BB1
  5
24BB3
331
24BB2
  5
24BB4
331
24BB3
  5
24BB5
331
24BB4
  5
24BB6
331
24BB5
  5
24BB7
331
24BB6
  5
24BB8
331
24BB7
  5
24BB9
331
24BB8
  5
24BBA
331
24BB9
  5
24BBB
331
24BBA
  5
24BBC
331
24BBB
  5
24BBD
331
24BBC
  5
24BBE
331
24BBD
  5
24BBF
331
24BBE
  5
24BC0
331
24BBF
  5
24BC1
331
24BC0
  5
24BC2
331
24BC1
  5
24BC3
331
24BC2
  5
24BC4
331
24BC3
  5
24BC5
331
24BC4
  5
24BC6
331
24BC5
  5
24BC7
331
24BC6
  5
24BC8
331
24BC7
  5
24BC9
331
24BC8
  5
24BCA
331
24BC9
  5
24BCB
331
24BCA
  5
24BCC
331
24BCB
  5
24BCD
331
24BCC
  5
24BCE
331
24BCD
  5
24BCF
331
24BCE
  5
24BD0
331
24BCF
  5
24BD1
331
24BD0
  5
24BD2
331
24BD1
  5
24BD3
331
24BD2
  5
24BD4
331
24BD3
  5
24BD5
331
24BD4
  5
24BD6
331
24BD5
  5
24BD7
331
24BD6
  5
24BD8
331
24BD7
  5
24BD9
331
24BD8
  5
24BDA
331
24BD9
  5
24BDB
331
24BDA
  5
24BDC
331
24BDB
  5
24BDD
331
24BDC
  5
24BDE
331
24BDD
  5
24BDF
331
24BDE
  5
24BE0
331
24BDF
  5
24BE1
331
24BE0
  5
24BE2
331
24BE1
  5
24BE3
331
24BE2
  5
24BE4
331
24BE3
  5
24BE5
331
24BE4
  5
24BE6
331
24BE5
  5
24BE7
331
24BE6
  5
24BE8
331
24BE7
  5
24BE9
331
24BE8
  5
24BEA
331
24BE9
  5
24BEB
331
24BEA
  5
24BEC
331
24BEB
  5
24BED
331
24BEC
  5
24BEE
331
24BED
  5
24BEF
331
24BEE
  5
24BF0
331
24BEF
  5
24BF1
331
24BF0
  5
24BF2
331
24BF1
  5
24BF3
331
24BF2
  5
24BF4
331
24BF3
  5
24BF5
331
24BF4
  5
24BF6
331
24BF5
  5
24BF7
331
24BF6
  5
24BF8
331
24BF7
  5
24BF9
331
24BF8
  5
24BFA
331
24BF9
  5
24BFB
331
24BFA
  5
24BFC
331
24BFB
  5
24BFD
331
24BFC
  5
24BFE
331
24BFD
  5
24BFF
331
24BFE
  5
24C00
331
24BFF
  5
24C01
331
24C00
  5
24C02
331
24C01
  5
24C03
331
0
  5
24C67
331
24C7E
  5
24C80
331
24C7F
  5
24C81
331
24C80
  5
24C82
331
24C81
  5
24C83
331
24C82
  5
24C84
331
24C83
  5
24C85
331
24C84
  5
24C86
331
24C85
  5
24C87
331
24C86
  5
24C88
331
24CC5
  5
24CC7
331
24CC6
  5
24CC8
331
24CC7
  5
24CC9
331
24CC8
  5
24CCA
331
24CC9
  5
24CCB
331
24CCA
  5
24CCC
331
24CCB
  5
24CCD
331
24CCC
  5
24CCE
331
24CCD
  5
24CCF
331
24CCE
  5
24CD0
331
24CCF
  5
24CD1
331
24CD0
  5
24CD2
331
24CD1
  5
24CD3
331
24CD2
  5
24CD4
331
24CD3
  5
24CD5
331
24CD4
  5
24CD6
331
24CD5
  5
24CD7
331
24CD6
  5
24CD8
331
24CD7
  5
24CD9
331
24CD8
  5
24CDA
331
24CD9
  5
24CDB
331
24CDA
  5
24CDC
331
24CDB
  5
24CDD
331
24CDC
  5
24CDE
331
24CDD
  5
24CDF
331
24CDE
  5
24CE0
331
24CDF
  5
24CE1
331
24CE0
  5
24CE2
331
24CE1
  5
24CE3
331
24CE2
  5
24CE4
331
24CE3
  5
24CE5
331
24CE4
  5
24CE6
331
24CE5
  5
24CE7
331
24CE6
  5
24CE8
331
24CE7
  5
24CE9
331
24CE8
  5
24CEA
331
24CE9
  5
24CEB
331
24CEA
  5
24CEC
331
24CEB
  5
24CED
331
24CEC
  5
24CEE
331
24CED
  5
24CEF
331
24CEE
  5
24CF0
331
24CEF
  5
24CF1
331
24CF0
  5
24CF2
331
24CF1
  5
24CF3
331
24CF2
  5
24CF4
331
24CF3
  5
24CF5
331
24CF4
  5
24CF6
331
24CF5
  5
24CF7
331
24CF6
  5
24CF8
331
24CF7
  5
24CF9
331
24CF8
  5
24CFA
331
24CF9
  5
24CFB
331
24CFA
  5
24CFC
331
24CFB
  5
24CFD
331
24CFC
  5
24CFE
331
24CFD
  5
24CFF
331
24CFE
  5
24D00
331
24CFF
  5
24D01
331
24D00
  5
24D02
331
24D01
  5
24D03
331
24D02
  5
24D04
331
24D03
  5
24D05
331
24D04
  5
24D06
331
24D05
  5
24D07
331
24D06
  5
24D08
331
24D07
  5
24D09
331
24D08
  5
24D0A
331
24D09
  5
24D0B
331
24D0A
  5
24D0C
331
24D0B
  5
24D0D
331
24D0C
  5
24D0E
331
24D0D
  5
24D0F
331
24D0E
  5
24D10
331
24D0F
  5
24D11
331
24D10
  5
24D12
331
24D11
  5
24D13
331
24D12
  5
24D14
331
24D13
  5
24D15
331
24D14
  5
24D16
331
24D15
  5
24D17
331
24D16
  5
24D18
331
24D17
  5
24D19
331
24D18
  5
24D1A
331
24D19
  5
24D1B
331
24D1A
  5
24D1C
331
24D1B
  5
24D1D
331
24D1C
  5
24D1E
331
24D1D
  5
24D1F
331
24D1E
  5
24D20
331
24D1F
  5
24D21
331
24D20
  5
24D22
331
24D21
  5
24D23
331
24D22
  5
24D24
331
24D23
  5
24D25
331
24D24
  5
24D26
331
24D25
  5
24D27
331
24D26
  5
24D28
331
24D27
  5
24D29
331
24D28
  5
24D2A
331
24D29
  5
24D2B
331
24D2A
  5
24D2C
331
24D2B
  5
24D2D
331
25456
  5
2545A
331
25457
  5
2545B
331
25458
  5
2545C
331
25459
  5
2545D
331
2545A
  5
2545E
331
2545C
  5
25460
331
2545D
  5
25461
331
25462
  5
25466
331
25463
  5
25467
331
25480
  5
25484
331
25481
  5
25485
331
25482
  5
25486
331
25483
  5
25487
331
25484
  5
25488
331
25485
  5
25489
331
25486
  5
2548A
331
25487
  5
2548B
331
25489
  5
2548D
331
2548A
  5
2548E
331
2548B
  5
2548F
331
2548C
  5
25490
331
2548D
  5
25491
331
2548E
  5
25492
331
2548F
  5
25493
331
25490
  5
25494
331
25491
  5
25495
331
25492
  5
25496
331
25493
  5
25497
331
25494
  5
25498
331
25495
  5
25499
331
25496
  5
2549A
331
25497
  5
2549B
331
25498
  5
2549C
331
25499
  5
2549D
331
2549A
  5
2549E
331
2549B
  5
2549F
331
2549C
  5
254A0
331
2549D
  5
254A1
331
2549E
  5
254A2
331
2549F
  5
254A3
331
254A0
  5
254A4
331
254A1
  5
254A5
331
254A2
  5
254A6
331
254A3
  5
254A7
331
254A4
  5
254A8
331
254A5
  5
254A9
331
254A6
  5
254AA
331
254A7
  5
254AB
331
254A8
  5
254AC
331
254A9
  5
254AD
331
254AA
  5
254AE
331
254AB
  5
254AF
331
254AC
  5
254B0
331
254AD
  5
254B1
331
254AE
  5
254B2
331
254AF
  5
254B3
331
254B0
  5
254B4
331
254B1
  5
254B5
331
254B2
  5
254B6
331
254B3
  5
254B7
331
254B4
  5
254B8
331
254B5
  5
254B9
331
254B6
  5
254BA
331
254B7
  5
254BB
331
254B8
  5
254BC
331
254B9
  5
254BD
331
254BA
  5
254BE
331
254BB
  5
254BF
331
254BC
  5
254C0
331
254BD
  5
254C1
331
254BE
  5
254C2
331
254BF
  5
254C3
331
254C0
  5
254C4
331
254C1
  5
254C5
331
254C2
  5
254C6
331
254C3
  5
254C7
331
254C4
  5
254C8
331
254C5
  5
254C9
331
254C6
  5
254CA
331
254C7
  5
254CB
331
254C8
  5
254CC
331
254C9
  5
254CD
331
254CA
  5
254CE
331
254CB
  5
254CF
331
254CC
  5
254D0
331
254CD
  5
254D1
331
254CE
  5
254D2
331
254CF
  5
254D3
331
254D0
  5
254D4
331
254D1
  5
254D5
331
254D2
  5
254D6
331
254D3
  5
254D7
331
254D4
  5
254D8
331
254D5
  5
254D9
331
254D6
  5
254DA
331
254D7
  5
254DB
331
254D8
  5
254DC
331
254D9
  5
254DD
331
254DA
  5
254DE
331
254DB
  5
254DF
331
254DC
  5
254E0
331
254DD
  5
254E1
331
254DE
  5
254E2
331
254DF
  5
254E3
331
254E0
  5
254E4
331
254E1
  5
254E5
331
254E2
  5
254E6
331
254E3
  5
254E7
331
254E4
  5
254E8
331
254E5
  5
254E9
331
254E6
  5
254EA
331
254E7
  5
254EB
331
254E8
  5
254EC
331
254E9
  5
254ED
331
254EA
  5
254EE
331
254EB
  5
254EF
331
254EC
  5
254F0
331
254ED
  5
254F1
331
254EE
  5
254F2
331
254EF
  5
254F3
331
254F0
  5
254F4
331
254F1
  5
254F5
331
254F2
  5
254F6
331
0
  5
2555A
331
2556F
  5
25573
331
25570
  5
25574
331
25571
  5
25575
331
25572
  5
25576
331
25573
  5
25577
331
25574
  5
25578
331
25575
  5
25579
331
25576
  5
2557A
331
25577
  5
2557B
331
255B1
  5
255B5
331
255B6
  5
255BA
331
255B7
  5
255BB
331
255B8
  5
255BC
331
255B9
  5
255BD
331
255BA
  5
255BE
331
255BB
  5
255BF
331
255BC
  5
255C0
331
255BD
  5
255C1
331
255BE
  5
255C2
331
255BF
  5
255C3
331
255C0
  5
255C4
331
255C1
  5
255C5
331
255C2
  5
255C6
331
255C3
  5
255C7
331
255C4
  5
255C8
331
255C5
  5
255C9
331
255C6
  5
255CA
331
255C7
  5
255CB
331
255C8
  5
255CC
331
255C9
  5
255CD
331
255CA
  5
255CE
331
255CB
  5
255CF
331
255CC
  5
255D0
331
255CD
  5
255D1
331
255CE
  5
255D2
331
255CF
  5
255D3
331
255D0
  5
255D4
331
255D1
  5
255D5
331
255D2
  5
255D6
331
255D3
  5
255D7
331
255D4
  5
255D8
331
255D5
  5
255D9
331
255D6
  5
255DA
331
255D7
  5
255DB
331
255D8
  5
255DC
331
255D9
  5
255DD
331
255DA
  5
255DE
331
255DB
  5
255DF
331
255DC
  5
255E0
331
255DD
  5
255E1
331
255DE
  5
255E2
331
255DF
  5
255E3
331
255E0
  5
255E4
331
255E1
  5
255E5
331
255E2
  5
255E6
331
255E3
  5
255E7
331
255E4
  5
255E8
331
255E5
  5
255E9
331
255E6
  5
255EA
331
255E7
  5
255EB
331
255E8
  5
255EC
331
255E9
  5
255ED
331
255EA
  5
255EE
331
255EB
  5
255EF
331
255EC
  5
255F0
331
255ED
  5
255F1
331
255EE
  5
255F2
331
255EF
  5
255F3
331
255F0
  5
255F4
331
255F1
  5
255F5
331
255F2
  5
255F6
331
255F3
  5
255F7
331
255F4
  5
255F8
331
255F5
  5
255F9
331
255F6
  5
255FA
331
255F7
  5
255FB
331
255F8
  5
255FC
331
255F9
  5
255FD
331
255FA
  5
255FE
331
255FB
  5
255FF
331
255FC
  5
25600
331
255FD
  5
25601
331
255FE
  5
25602
331
255FF
  5
25603
331
25600
  5
25604
331
25601
  5
25605
331
25602
  5
25606
331
25603
  5
25607
331
25604
  5
25608
331
25605
  5
25609
331
25606
  5
2560A
331
25607
  5
2560B
331
25608
  5
2560C
331
25609
  5
2560D
331
2560A
  5
2560E
331
2560B
  5
2560F
331
2560C
  5
25610
331
2560D
  5
25611
331
2560E
  5
25612
331
2560F
  5
25613
331
25610
  5
25614
331
25611
  5
25615
331
25612
  5
25616
331
25613
  5
25617
331
25614
  5
25618
331
25615
  5
25619
331
25616
  5
2561A
331
25617
  5
2561B
331
25618
  5
2561C
331
25619
  5
2561D
331
2561A
  5
2561E
331
2561B
  5
2561F
331
2561C
  5
25620
  0
LAYOUT
  5
40CD
102
{ACAD_REACTORS
330
40CB
102
}
330
40CB
100
AcDbPlotSettings
  1

  2
JUST PDF 2
  4
A4
  6
CUT1
 40
3.174999952316284
 41
3.174999952316284
 42
3.175003051757812
 43
3.17498779296875
 44
209.8886566162109
 45
297.0530090332031
 46
14.27171755861525
 47
9.855173074625782
 48
2265.608489569066
 49
-600.0
140
2615.598926558878
141
-58.01464972266695
142
1.0
143
2.0
 70
 11956
 72
     1
 73
     0
 74
     4
  7
spax form.ctb
 75
    17
147
0.5
148
-2265.608489569066
149
600.0
100
AcDbLayout
  1
Model
 70
     1
 71
     0
 10
0.0
 20
0.0
 11
12.0
 21
9.0
 12
0.0
 22
0.0
 32
0.0
 14
2280.473875351074
 24
-191.5158139636368
 34
-0.0000000000000127
 15
2333.327200676513
 25
-103.1077116441435
 35
0.0000000000000146
146
0.0
 13
0.0
 23
0.0
 33
0.0
 16
1.0
 26
0.0
 36
0.0
 17
0.0
 27
1.0
 37
0.0
 76
     0
330
18
331
24438
1001
ACAD_PSEXT
1000
JUST PDF 2
1000
JUST PDF 2
1000
JUST PDF 2 Port:
1000

1070
     0
  0
LAYOUT
  5
40CE
102
{ACAD_REACTORS
330
40CB
102
}
330
40CB
100
AcDbPlotSettings
  1

  2
なし
  4

  6

 40
0.0
 41
0.0
 42
0.0
 43
0.0
 44
0.0
 45
0.0
 46
0.0
 47
0.0
 48
0.0
 49
0.0
140
0.0
141
0.0
142
1.0
143
1.0
 70
   688
 72
     0
 73
     0
 74
     5
  7
Aiba.ctb
 75
    16
147
1.0
148
0.0
149
0.0
100
AcDbLayout
  1
ﾚｲｱｳﾄ1
 70
     0
 71
     1
 10
0.0
 20
0.0
 11
12.0
 21
9.0
 12
0.0
 22
0.0
 32
0.0
 14
1.000000000000000E+20
 24
1.000000000000000E+20
 34
1.000000000000000E+20
 15
-1.000000000000000E+20
 25
-1.000000000000000E+20
 35
-1.000000000000000E+20
146
0.0
 13
0.0
 23
0.0
 33
0.0
 16
1.0
 26
0.0
 36
0.0
 17
0.0
 27
1.0
 37
0.0
 76
     0
330
15
  0
MLINESTYLE
  5
1B
102
{ACAD_REACTORS
330
E
102
}
330
E
100
AcDbMlineStyle
  2
STANDARD
 70
     0
  3

 62
     0
 51
90.0
 52
90.0
 71
     2
 49
0.5
 62
   256
  6
BYLAYER
 49
-0.5
 62
   256
  6
BYLAYER
  0
ACDBPLACEHOLDER
  5
40CA
102
{ACAD_REACTORS
330
40C9
102
}
330
40C9
  0
SCALE
  5
18909
102
{ACAD_REACTORS
330
18908
102
}
330
18908
100
AcDbScale
 70
     0
300
1:1
140
1.0
141
1.0
290
     1
1001
ACAD
1000
AcRTDxfName
1000
SCALE
  0
SCALE
  5
1890A
102
{ACAD_REACTORS
330
18908
102
}
330
18908
100
AcDbScale
 70
     0
300
1:2
140
1.0
141
2.0
290
     0
1001
ACAD
1000
AcRTDxfName
1000
SCALE
  0
SCALE
  5
1890B
102
{ACAD_REACTORS
330
18908
102
}
330
18908
100
AcDbScale
 70
     0
300
1:4
140
1.0
141
4.0
290
     0
1001
ACAD
1000
AcRTDxfName
1000
SCALE
  0
SCALE
  5
1890C
102
{ACAD_REACTORS
330
18908
102
}
330
18908
100
AcDbScale
 70
     0
300
1:5
140
1.0
141
5.0
290
     0
1001
ACAD
1000
AcRTDxfName
1000
SCALE
  0
SCALE
  5
1890D
102
{ACAD_REACTORS
330
18908
102
}
330
18908
100
AcDbScale
 70
     0
300
1:8
140
1.0
141
8.0
290
     0
1001
ACAD
1000
AcRTDxfName
1000
SCALE
  0
SCALE
  5
1890E
102
{ACAD_REACTORS
330
18908
102
}
330
18908
100
AcDbScale
 70
     0
300
1:10
140
1.0
141
10.0
290
     0
1001
ACAD
1000
AcRTDxfName
1000
SCALE
  0
SCALE
  5
1890F
102
{ACAD_REACTORS
330
18908
102
}
330
18908
100
AcDbScale
 70
     0
300
1:16
140
1.0
141
16.0
290
     0
1001
ACAD
1000
AcRTDxfName
1000
SCALE
  0
SCALE
  5
18910
102
{ACAD_REACTORS
330
18908
102
}
330
18908
100
AcDbScale
 70
     0
300
1:20
140
1.0
141
20.0
290
     0
1001
ACAD
1000
AcRTDxfName
1000
SCALE
  0
SCALE
  5
18911
102
{ACAD_REACTORS
330
18908
102
}
330
18908
100
AcDbScale
 70
     0
300
1:30
140
1.0
141
30.0
290
     0
1001
ACAD
1000
AcRTDxfName
1000
SCALE
  0
SCALE
  5
18912
102
{ACAD_REACTORS
330
18908
102
}
330
18908
100
AcDbScale
 70
     0
300
1:40
140
1.0
141
40.0
290
     0
1001
ACAD
1000
AcRTDxfName
1000
SCALE
  0
SCALE
  5
18913
102
{ACAD_REACTORS
330
18908
102
}
330
18908
100
AcDbScale
 70
     0
300
1:50
140
1.0
141
50.0
290
     0
1001
ACAD
1000
AcRTDxfName
1000
SCALE
  0
SCALE
  5
18914
102
{ACAD_REACTORS
330
18908
102
}
330
18908
100
AcDbScale
 70
     0
300
1:100
140
1.0
141
100.0
290
     0
1001
ACAD
1000
AcRTDxfName
1000
SCALE
  0
SCALE
  5
18915
102
{ACAD_REACTORS
330
18908
102
}
330
18908
100
AcDbScale
 70
     0
300
2:1
140
2.0
141
1.0
290
     0
1001
ACAD
1000
AcRTDxfName
1000
SCALE
  0
SCALE
  5
18916
102
{ACAD_REACTORS
330
18908
102
}
330
18908
100
AcDbScale
 70
     0
300
4:1
140
4.0
141
1.0
290
     0
1001
ACAD
1000
AcRTDxfName
1000
SCALE
  0
SCALE
  5
18917
102
{ACAD_REACTORS
330
18908
102
}
330
18908
100
AcDbScale
 70
     0
300
8:1
140
8.0
141
1.0
290
     0
1001
ACAD
1000
AcRTDxfName
1000
SCALE
  0
SCALE
  5
18918
102
{ACAD_REACTORS
330
18908
102
}
330
18908
100
AcDbScale
 70
     0
300
10:1
140
10.0
141
1.0
290
     0
1001
ACAD
1000
AcRTDxfName
1000
SCALE
  0
SCALE
  5
18919
102
{ACAD_REACTORS
330
18908
102
}
330
18908
100
AcDbScale
 70
     0
300
100:1
140
100.0
141
1.0
290
     0
1001
ACAD
1000
AcRTDxfName
1000
SCALE
  0
SCALE
  5
1891A
102
{ACAD_REACTORS
330
18908
102
}
330
18908
100
AcDbScale
 70
     0
300
1/128" = 1'-0"
140
0.0078125
141
12.0
290
     0
1001
ACAD
1000
AcRTDxfName
1000
SCALE
  0
SCALE
  5
1891B
102
{ACAD_REACTORS
330
18908
102
}
330
18908
100
AcDbScale
 70
     0
300
1/64" = 1'-0"
140
0.015625
141
12.0
290
     0
1001
ACAD
1000
AcRTDxfName
1000
SCALE
  0
SCALE
  5
1891C
102
{ACAD_REACTORS
330
18908
102
}
330
18908
100
AcDbScale
 70
     0
300
1/32" = 1'-0"
140
0.03125
141
12.0
290
     0
1001
ACAD
1000
AcRTDxfName
1000
SCALE
  0
SCALE
  5
1891D
102
{ACAD_REACTORS
330
18908
102
}
330
18908
100
AcDbScale
 70
     0
300
1/16" = 1'-0"
140
0.0625
141
12.0
290
     0
1001
ACAD
1000
AcRTDxfName
1000
SCALE
  0
SCALE
  5
1891E
102
{ACAD_REACTORS
330
18908
102
}
330
18908
100
AcDbScale
 70
     0
300
3/32" = 1'-0"
140
0.09375
141
12.0
290
     0
1001
ACAD
1000
AcRTDxfName
1000
SCALE
  0
SCALE
  5
1891F
102
{ACAD_REACTORS
330
18908
102
}
330
18908
100
AcDbScale
 70
     0
300
1/8" = 1'-0"
140
0.125
141
12.0
290
     0
1001
ACAD
1000
AcRTDxfName
1000
SCALE
  0
SCALE
  5
18920
102
{ACAD_REACTORS
330
18908
102
}
330
18908
100
AcDbScale
 70
     0
300
3/16" = 1'-0"
140
0.1875
141
12.0
290
     0
1001
ACAD
1000
AcRTDxfName
1000
SCALE
  0
SCALE
  5
18921
102
{ACAD_REACTORS
330
18908
102
}
330
18908
100
AcDbScale
 70
     0
300
1/4" = 1'-0"
140
0.25
141
12.0
290
     0
1001
ACAD
1000
AcRTDxfName
1000
SCALE
  0
SCALE
  5
18922
102
{ACAD_REACTORS
330
18908
102
}
330
18908
100
AcDbScale
 70
     0
300
3/8" = 1'-0"
140
0.375
141
12.0
290
     0
1001
ACAD
1000
AcRTDxfName
1000
SCALE
  0
SCALE
  5
18923
102
{ACAD_REACTORS
330
18908
102
}
330
18908
100
AcDbScale
 70
     0
300
1/2" = 1'-0"
140
0.5
141
12.0
290
     0
1001
ACAD
1000
AcRTDxfName
1000
SCALE
  0
SCALE
  5
18924
102
{ACAD_REACTORS
330
18908
102
}
330
18908
100
AcDbScale
 70
     0
300
3/4" = 1'-0"
140
0.75
141
12.0
290
     0
1001
ACAD
1000
AcRTDxfName
1000
SCALE
  0
SCALE
  5
18925
102
{ACAD_REACTORS
330
18908
102
}
330
18908
100
AcDbScale
 70
     0
300
1" = 1'-0"
140
1.0
141
12.0
290
     0
1001
ACAD
1000
AcRTDxfName
1000
SCALE
  0
SCALE
  5
18926
102
{ACAD_REACTORS
330
18908
102
}
330
18908
100
AcDbScale
 70
     0
300
1-1/2" = 1'-0"
140
1.5
141
12.0
290
     0
1001
ACAD
1000
AcRTDxfName
1000
SCALE
  0
SCALE
  5
18927
102
{ACAD_REACTORS
330
18908
102
}
330
18908
100
AcDbScale
 70
     0
300
3" = 1'-0"
140
3.0
141
12.0
290
     0
1001
ACAD
1000
AcRTDxfName
1000
SCALE
  0
SCALE
  5
18928
102
{ACAD_REACTORS
330
18908
102
}
330
18908
100
AcDbScale
 70
     0
300
6" = 1'-0"
140
6.0
141
12.0
290
     0
1001
ACAD
1000
AcRTDxfName
1000
SCALE
  0
SCALE
  5
18929
102
{ACAD_REACTORS
330
18908
102
}
330
18908
100
AcDbScale
 70
     0
300
1'-0" = 1'-0"
140
12.0
141
12.0
290
     0
1001
ACAD
1000
AcRTDxfName
1000
SCALE
  0
DICTIONARYVAR
  5
73F2
102
{ACAD_REACTORS
330
6377
102
}
330
6377
100
DictionaryVariables
280
     0
  1
1
  0
DICTIONARYVAR
  5
1896D
102
{ACAD_REACTORS
330
6377
102
}
330
6377
100
DictionaryVariables
280
     0
  1
0
  0
DICTIONARYVAR
  5
12C8D
102
{ACAD_REACTORS
330
6377
102
}
330
6377
100
DictionaryVariables
280
     0
  1

  0
DICTIONARYVAR
  5
6378
102
{ACAD_REACTORS
330
6377
102
}
330
6377
100
DictionaryVariables
280
     0
  1
96
  0
ENDSEC
  0
EOF
