  0
SECTION
  2
HEADER
  9
$ACADVER
  1
AC1015
  9
$ACADMAINTVER
 70
     6
  9
$DWGCODEPAGE
  3
ANSI_932
  9
$INSBASE
 10
0.0
 20
0.0
 30
0.0
  9
$EXTMIN
 10
1841.949597442775
 20
-189.2268702635038
 30
-0.0000000000000127
  9
$EXTMAX
 10
1891.203357890721
 20
-101.2402571283137
 30
0.0000000000000146
  9
$LIMMIN
 10
0.0
 20
0.0
  9
$LIMMAX
 10
840.0
 20
594.0
  9
$ORTHOMODE
 70
     1
  9
$REGENMODE
 70
     1
  9
$FILLMODE
 70
     1
  9
$QTEXTMODE
 70
     0
  9
$MIRRTEXT
 70
     1
  9
$LTSCALE
 40
7.0
  9
$ATTMODE
 70
     0
  9
$TEXTSIZE
 40
6.0
  9
$TRACEWID
 40
1.0
  9
$TEXTSTYLE
  7
STANDARD
  9
$CLAYER
  8
寸法線
  9
$CELTYPE
  6
BYLAYER
  9
$CECOLOR
 62
   256
  9
$CELTSCALE
 40
1.0
  9
$DISPSILH
 70
     0
  9
$DIMSCALE
 40
1.0
  9
$DIMASZ
 40
6.0
  9
$DIMEXO
 40
3.0
  9
$DIMDLI
 40
7.149999999999999
  9
$DIMRND
 40
0.0
  9
$DIMDLE
 40
0.0
  9
$DIMEXE
 40
2.0
  9
$DIMTP
 40
0.0
  9
$DIMTM
 40
0.0
  9
$DIMTXT
 40
5.0
  9
$DIMCEN
 40
0.0
  9
$DIMTSZ
 40
0.0
  9
$DIMTOL
 70
     0
  9
$DIMLIM
 70
     0
  9
$DIMTIH
 70
     0
  9
$DIMTOH
 70
     0
  9
$DIMSE1
 70
     0
  9
$DIMSE2
 70
     0
  9
$DIMTAD
 70
     3
  9
$DIMZIN
 70
     8
  9
$DIMBLK
  1
Open30
  9
$DIMASO
 70
     1
  9
$DIMSHO
 70
     0
  9
$DIMPOST
  1

  9
$DIMAPOST
  1

  9
$DIMALT
 70
     0
  9
$DIMALTD
 70
     2
  9
$DIMALTF
 40
25.4
  9
$DIMLFAC
 40
1.0
  9
$DIMTOFL
 70
     0
  9
$DIMTVP
 40
0.0
  9
$DIMTIX
 70
     0
  9
$DIMSOXD
 70
     0
  9
$DIMSAH
 70
     0
  9
$DIMBLK1
  1

  9
$DIMBLK2
  1

  9
$DIMSTYLE
  2
STANDARD
  9
$DIMCLRD
 70
     0
  9
$DIMCLRE
 70
     0
  9
$DIMCLRT
 70
     0
  9
$DIMTFAC
 40
1.0
  9
$DIMGAP
 40
2.0
  9
$DIMJUST
 70
     0
  9
$DIMSD1
 70
     0
  9
$DIMSD2
 70
     0
  9
$DIMTOLJ
 70
     1
  9
$DIMTZIN
 70
     0
  9
$DIMALTZ
 70
     0
  9
$DIMALTTZ
 70
     0
  9
$DIMUPT
 70
     1
  9
$DIMDEC
 70
     2
  9
$DIMTDEC
 70
     2
  9
$DIMALTU
 70
     2
  9
$DIMALTTD
 70
     2
  9
$DIMTXSTY
  7
STANDARD
  9
$DIMAUNIT
 70
     0
  9
$DIMADEC
 70
     2
  9
$DIMALTRND
 40
0.0
  9
$DIMAZIN
 70
     2
  9
$DIMDSEP
 70
    46
  9
$DIMATFIT
 70
     3
  9
$DIMFRAC
 70
     0
  9
$DIMLDRBLK
  1
Open30
  9
$DIMLUNIT
 70
     2
  9
$DIMLWD
 70
    -2
  9
$DIMLWE
 70
    -2
  9
$DIMTMOVE
 70
     0
  9
$LUNITS
 70
     2
  9
$LUPREC
 70
     2
  9
$SKETCHINC
 40
0.1
  9
$FILLETRAD
 40
10.0
  9
$AUNITS
 70
     0
  9
$AUPREC
 70
     2
  9
$MENU
  1
ACAD
  9
$ELEVATION
 40
0.0
  9
$PELEVATION
 40
0.0
  9
$THICKNESS
 40
0.0
  9
$LIMCHECK
 70
     0
  9
$CHAMFERA
 40
0.0
  9
$CHAMFERB
 40
0.0
  9
$CHAMFERC
 40
0.0
  9
$CHAMFERD
 40
0.0
  9
$SKPOLY
 70
     0
  9
$TDCREATE
 40
2449505.922222222
  9
$TDUCREATE
 40
2449505.547222222
  9
$TDUPDATE
 40
2456821.609967118
  9
$TDUUPDATE
 40
2456821.234967118
  9
$TDINDWG
 40
2.3625990625
  9
$TDUSRTIMER
 40
2456821.234808218
  9
$USRTIMER
 70
     1
  9
$ANGBASE
 50
0.0
  9
$ANGDIR
 70
     0
  9
$PDMODE
 70
     3
  9
$PDSIZE
 40
0.0
  9
$PLINEWID
 40
0.0
  9
$SPLFRAME
 70
     0
  9
$SPLINETYPE
 70
     6
  9
$SPLINESEGS
 70
     8
  9
$HANDSEED
  5
1CB15
  9
$SURFTAB1
 70
     6
  9
$SURFTAB2
 70
     6
  9
$SURFTYPE
 70
     6
  9
$SURFU
 70
     6
  9
$SURFV
 70
     6
  9
$UCSBASE
  2

  9
$UCSNAME
  2

  9
$UCSORG
 10
0.0
 20
0.0
 30
0.0
  9
$UCSXDIR
 10
1.0
 20
0.0
 30
0.0
  9
$UCSYDIR
 10
0.0
 20
1.0
 30
0.0
  9
$UCSORTHOREF
  2

  9
$UCSORTHOVIEW
 70
     0
  9
$UCSORGTOP
 10
0.0
 20
0.0
 30
0.0
  9
$UCSORGBOTTOM
 10
0.0
 20
0.0
 30
0.0
  9
$UCSORGLEFT
 10
0.0
 20
0.0
 30
0.0
  9
$UCSORGRIGHT
 10
0.0
 20
0.0
 30
0.0
  9
$UCSORGFRONT
 10
0.0
 20
0.0
 30
0.0
  9
$UCSORGBACK
 10
0.0
 20
0.0
 30
0.0
  9
$PUCSBASE
  2

  9
$PUCSNAME
  2

  9
$PUCSORG
 10
0.0
 20
0.0
 30
0.0
  9
$PUCSXDIR
 10
1.0
 20
0.0
 30
0.0
  9
$PUCSYDIR
 10
0.0
 20
1.0
 30
0.0
  9
$PUCSORTHOREF
  2

  9
$PUCSORTHOVIEW
 70
     0
  9
$PUCSORGTOP
 10
0.0
 20
0.0
 30
0.0
  9
$PUCSORGBOTTOM
 10
0.0
 20
0.0
 30
0.0
  9
$PUCSORGLEFT
 10
0.0
 20
0.0
 30
0.0
  9
$PUCSORGRIGHT
 10
0.0
 20
0.0
 30
0.0
  9
$PUCSORGFRONT
 10
0.0
 20
0.0
 30
0.0
  9
$PUCSORGBACK
 10
0.0
 20
0.0
 30
0.0
  9
$USERI1
 70
     0
  9
$USERI2
 70
     0
  9
$USERI3
 70
     0
  9
$USERI4
 70
     0
  9
$USERI5
 70
     0
  9
$USERR1
 40
0.0
  9
$USERR2
 40
0.0
  9
$USERR3
 40
0.0
  9
$USERR4
 40
0.0
  9
$USERR5
 40
0.0
  9
$WORLDVIEW
 70
     0
  9
$SHADEDGE
 70
     3
  9
$SHADEDIF
 70
    70
  9
$TILEMODE
 70
     1
  9
$MAXACTVP
 70
    16
  9
$PINSBASE
 10
0.0
 20
0.0
 30
0.0
  9
$PLIMCHECK
 70
     0
  9
$PEXTMIN
 10
1.000000000000000E+20
 20
1.000000000000000E+20
 30
1.000000000000000E+20
  9
$PEXTMAX
 10
-1.000000000000000E+20
 20
-1.000000000000000E+20
 30
-1.000000000000000E+20
  9
$PLIMMIN
 10
0.0
 20
0.0
  9
$PLIMMAX
 10
0.0
 20
0.0
  9
$UNITMODE
 70
     0
  9
$VISRETAIN
 70
     0
  9
$PLINEGEN
 70
     0
  9
$PSLTSCALE
 70
     0
  9
$TREEDEPTH
 70
  3020
  9
$CMLSTYLE
  2
STANDARD
  9
$CMLJUST
 70
     0
  9
$CMLSCALE
 40
1.0
  9
$PROXYGRAPHICS
 70
     1
  9
$MEASUREMENT
 70
     0
  9
$CELWEIGHT
370
    -1
  9
$ENDCAPS
280
     0
  9
$JOINSTYLE
280
     0
  9
$LWDISPLAY
290
     0
  9
$INSUNITS
 70
     0
  9
$HYPERLINKBASE
  1

  9
$STYLESHEET
  1
spax form.ctb
  9
$XEDIT
290
     1
  9
$CEPSNTYPE
380
     0
  9
$PSTYLEMODE
290
     1
  9
$FINGERPRINTGUID
  2
{C1CFCF3E-DF91-11D3-B30C-0060B0FA8DFC}
  9
$VERSIONGUID
  2
{E0F3D7CB-FBA8-4C9F-8C72-D32E3CEA5CD0}
  9
$EXTNAMES
290
     1
  9
$PSVPSCALE
 40
0.0
  9
$OLESTARTUP
290
     0
  0
ENDSEC
  0
SECTION
  2
CLASSES
  0
CLASS
  1
LWPOLYLINE
  2
AcDbPolyline
  3
ObjectDBX Classes
 90
        0
280
     0
281
     1
  0
CLASS
  1
ACDBDICTIONARYWDFLT
  2
AcDbDictionaryWithDefault
  3
ObjectDBX Classes
 90
        0
280
     0
281
     0
  0
CLASS
  1
ACDBPLACEHOLDER
  2
AcDbPlaceHolder
  3
ObjectDBX Classes
 90
        0
280
     0
281
     0
  0
CLASS
  1
LAYOUT
  2
AcDbLayout
  3
ObjectDBX Classes
 90
        0
280
     0
281
     0
  0
CLASS
  1
DICTIONARYVAR
  2
AcDbDictionaryVar
  3
ObjectDBX Classes
 90
        0
280
     0
281
     0
  0
CLASS
  1
LONG_TRANSACTION
  2
AcDbLongTransaction
  3
ObjectDBX Classes
 90
        0
280
     0
281
     0
  0
CLASS
  1
LWPOLYLINE
  2
AcDbPolyline
  3
ObjectDBX Classes
 90
        0
280
     0
281
     1
  0
CLASS
  1
HATCH
  2
AcDbHatch
  3
ObjectDBX Classes
 90
        0
280
     0
281
     1
  0
CLASS
  1
XRECORD
  2
AcDbXrecord
  3
ObjectDBX Classes
 90
        0
280
     0
281
     0
  0
CLASS
  1
MATERIAL
  2
AcDbMaterial
  3
ObjectDBX Classes
 90
     1153
280
     0
281
     0
  0
CLASS
  1
VISUALSTYLE
  2
AcDbVisualStyle
  3
ObjectDBX Classes
 90
     4095
280
     0
281
     0
  0
CLASS
  1
TABLESTYLE
  2
AcDbTableStyle
  3
ObjectDBX Classes
 90
     4095
280
     0
281
     0
  0
CLASS
  1
SCALE
  2
AcDbScale
  3
ObjectDBX Classes
 90
     1153
280
     0
281
     0
  0
CLASS
  1
MLEADERSTYLE
  2
AcDbMLeaderStyle
  3
ACDB_MLEADERSTYLE_CLASS
 90
     4095
280
     0
281
     0
  0
CLASS
  1
CELLSTYLEMAP
  2
AcDbCellStyleMap
  3
ObjectDBX Classes
 90
     1152
280
     0
281
     0
  0
CLASS
  1
RASTERVARIABLES
  2
AcDbRasterVariables
  3
ISM
 90
        0
280
     0
281
     0
  0
CLASS
  1
SUN
  2
AcDbSun
  3
SCENEOE
 90
     1153
280
     0
281
     0
  0
ENDSEC
  0
SECTION
  2
TABLES
  0
TABLE
  2
VPORT
  5
8
330
0
100
AcDbSymbolTable
 70
     1
  0
VPORT
  5
1BF7F
330
8
100
AcDbSymbolTableRecord
100
AcDbViewportTableRecord
  2
*Active
 70
     0
 10
0.0
 20
0.0
 11
1.0
 21
1.0
 12
1866.576477666748
 22
-145.2335636959088
 13
0.0
 23
0.0
 14
1.0
 24
1.0
 15
20.0
 25
20.0
 16
0.0
 26
0.0
 36
1.0
 17
0.0
 27
0.0
 37
0.0
 40
89.74634539789392
 41
1.731829573934837
 42
50.0
 43
0.0
 44
0.0
 50
0.0
 51
0.0
 71
    16
 72
  2000
 73
     1
 74
     0
 75
     0
 76
     0
 77
     0
 78
     1
281
     0
 65
     1
110
0.0
120
0.0
130
0.0
111
1.0
121
0.0
131
0.0
112
0.0
122
1.0
132
0.0
 79
     0
146
0.0
  0
ENDTAB
  0
TABLE
  2
LTYPE
  5
5
330
0
100
AcDbSymbolTable
 70
     5
  0
LTYPE
  5
12
330
5
100
AcDbSymbolTableRecord
100
AcDbLinetypeTableRecord
  2
BYBLOCK
 70
     0
  3

 72
    65
 73
     0
 40
0.0
  0
LTYPE
  5
13
330
5
100
AcDbSymbolTableRecord
100
AcDbLinetypeTableRecord
  2
BYLAYER
 70
     0
  3

 72
    65
 73
     0
 40
0.0
  0
LTYPE
  5
14
330
5
100
AcDbSymbolTableRecord
100
AcDbLinetypeTableRecord
  2
CONTINUOUS
 70
     0
  3
Solid line
 72
    65
 73
     0
 40
0.0
  0
LTYPE
  5
3D
330
5
100
AcDbSymbolTableRecord
100
AcDbLinetypeTableRecord
  2
PHANTOM
 70
     0
  3
_____ _ _ _____ _ _ _____ _ _ _____ _ _ ____
 72
    65
 73
     6
 40
2.5
 49
1.25
 74
     0
 49
-0.25
 74
     0
 49
0.25
 74
     0
 49
-0.25
 74
     0
 49
0.25
 74
     0
 49
-0.25
 74
     0
  0
LTYPE
  5
40D2
330
5
100
AcDbSymbolTableRecord
100
AcDbLinetypeTableRecord
  2
CENTER
 70
     0
  3
____ _ ____ _ ____ _ ____ _ ____ _ ____ _ ____ 
 72
    65
 73
     4
 40
2.0
 49
1.25
 74
     0
 49
-0.25
 74
     0
 49
0.25
 74
     0
 49
-0.25
 74
     0
  0
LTYPE
  5
A244
330
5
100
AcDbSymbolTableRecord
100
AcDbLinetypeTableRecord
  2
HIDDEN
 70
     0
  3
_ _ _ _ _ _ _ _ _ _ _ _ _ _ _ _ _ _ _ _ _ _ _
 72
    65
 73
     2
 40
0.375
 49
0.25
 74
     0
 49
-0.125
 74
     0
  0
ENDTAB
  0
TABLE
  2
LAYER
  5
2
102
{ACAD_XDICTIONARY
360
1846C
102
}
330
0
100
AcDbSymbolTable
 70
    23
  0
LAYER
  5
F
102
{ACAD_XDICTIONARY
360
17894
102
}
330
2
100
AcDbSymbolTableRecord
100
AcDbLayerTableRecord
  2
0
 70
     0
 62
     7
  6
CONTINUOUS
370
    -3
390
40CA
  0
LAYER
  5
4C
102
{ACAD_XDICTIONARY
360
1789C
102
}
330
2
100
AcDbSymbolTableRecord
100
AcDbLayerTableRecord
  2
寸法線
 70
     0
 62
     7
  6
CONTINUOUS
370
    -3
390
40CA
  0
LAYER
  5
4D
102
{ACAD_XDICTIONARY
360
1789E
102
}
330
2
100
AcDbSymbolTableRecord
100
AcDbLayerTableRecord
  2
姿図
 70
     0
 62
     8
  6
CONTINUOUS
370
    -3
390
40CA
  0
LAYER
  5
40D4
102
{ACAD_XDICTIONARY
360
178A2
102
}
330
2
100
AcDbSymbolTableRecord
100
AcDbLayerTableRecord
  2
文字
 70
     0
 62
     7
  6
CONTINUOUS
370
    -3
390
40CA
  0
ENDTAB
  0
TABLE
  2
STYLE
  5
3
330
0
100
AcDbSymbolTable
 70
     1
  0
STYLE
  5
10
330
3
100
AcDbSymbolTableRecord
100
AcDbTextStyleTableRecord
  2
STANDARD
 70
     0
 40
0.0
 41
1.0
 50
0.0
 71
     0
 42
6.0
  3
MONOTXT
  4
BIGFONT
  0
ENDTAB
  0
TABLE
  2
VIEW
  5
6
330
0
100
AcDbSymbolTable
 70
     1
  0
VIEW
  5
41
330
6
100
AcDbSymbolTableRecord
100
AcDbViewTableRecord
  2
CUT1
 70
     0
 40
612.7795527156796
 10
420.0000000000169
 20
306.3897763578398
 41
840.0000000000338
 11
0.0
 21
0.0
 31
1.0
 12
0.0
 22
0.0
 32
0.0
 42
50.0
 43
0.0
 44
0.0
 50
0.0
 71
     0
281
     0
 72
     0
  0
ENDTAB
  0
TABLE
  2
UCS
  5
7
330
0
100
AcDbSymbolTable
 70
     0
  0
ENDTAB
  0
TABLE
  2
APPID
  5
9
330
0
100
AcDbSymbolTable
 70
     7
  0
APPID
  5
11
330
9
100
AcDbSymbolTableRecord
100
AcDbRegAppTableRecord
  2
ACAD
 70
     0
  0
APPID
  5
1788F
330
9
100
AcDbSymbolTableRecord
100
AcDbRegAppTableRecord
  2
ACAD_MLEADERVER
 70
     0
  0
APPID
  5
18468
330
9
100
AcDbSymbolTableRecord
100
AcDbRegAppTableRecord
  2
ACAD_PSEXT
 70
     0
  0
APPID
  5
18469
330
9
100
AcDbSymbolTableRecord
100
AcDbRegAppTableRecord
  2
AcadAnnotative
 70
     0
  0
APPID
  5
1846A
330
9
100
AcDbSymbolTableRecord
100
AcDbRegAppTableRecord
  2
ACAD_DSTYLE_DIMJAG
 70
     0
  0
APPID
  5
1846B
330
9
100
AcDbSymbolTableRecord
100
AcDbRegAppTableRecord
  2
ACAD_DSTYLE_DIMTALN
 70
     0
  0
APPID
  5
1847D
330
9
100
AcDbSymbolTableRecord
100
AcDbRegAppTableRecord
  2
ACAD_EXEMPT_FROM_CAD_STANDARDS
 70
     0
  0
ENDTAB
  0
TABLE
  2
DIMSTYLE
  5
A
330
0
100
AcDbSymbolTable
 70
     2
100
AcDbDimStyleTable
  0
DIMSTYLE
105
1B3A
330
A
100
AcDbSymbolTableRecord
100
AcDbDimStyleTableRecord
  2
STANDARD
 70
     0
 41
4.0
 42
3.0
 43
7.149999999999999
 44
2.0
 73
     0
 74
     0
 77
     3
 78
     8
 79
     2
140
5.0
141
0.0
147
2.0
178
     0
179
     2
271
     2
272
     2
288
     1
340
10
341
49C3
342
49C3
  0
ENDTAB
  0
TABLE
  2
BLOCK_RECORD
  5
1
330
0
100
AcDbSymbolTable
 70
    72
  0
BLOCK_RECORD
  5
18
330
1
100
AcDbSymbolTableRecord
100
AcDbBlockTableRecord
  2
*MODEL_SPACE
340
40CD
  0
BLOCK_RECORD
  5
15
330
1
100
AcDbSymbolTableRecord
100
AcDbBlockTableRecord
  2
*PAPER_SPACE
340
40CE
  0
BLOCK_RECORD
  5
49C3
330
1
100
AcDbSymbolTableRecord
100
AcDbBlockTableRecord
  2
_OPEN
340
0
  0
BLOCK_RECORD
  5
FD36
330
1
100
AcDbSymbolTableRecord
100
AcDbBlockTableRecord
  2
_Open30
340
0
102
{BLKREFS
331
1554C
331
1554D
331
15554
331
15555
331
1555D
331
1555E
331
15566
331
15567
331
15570
331
15571
331
15579
331
1557A
331
15581
331
15582
331
1558A
331
1558B
331
15593
331
15594
331
1559D
331
1559E
331
155A6
331
155A7
331
155AE
331
155AF
331
155B8
331
155B9
331
155C0
331
155C1
331
155C9
331
155CA
331
155D2
331
155D3
331
155E4
331
155E5
331
155EE
331
155EF
331
155F6
331
155F7
331
155FF
331
15600
331
15608
331
15609
331
1561B
331
1561C
331
15623
331
15624
331
1562C
331
1562D
331
15635
331
15636
331
16C85
331
16C86
331
16C9A
331
16C9B
331
16CA2
331
16CA3
331
177FD
331
177FE
331
17805
331
17806
331
1780F
331
17810
331
17817
331
17818
331
17820
331
17821
331
17829
331
1782A
331
17832
331
17833
331
1842A
331
1842B
331
18433
331
18434
331
1843C
331
1843D
331
18445
331
18446
331
1844F
331
18450
331
18458
331
18459
331
18460
331
18461
331
19016
331
19017
331
19020
331
19021
331
19028
331
19029
331
19032
331
19033
331
1903A
331
1903B
331
19043
331
19044
331
1904C
331
1904D
331
1B374
331
1B375
331
1B387
331
1B388
331
1B38F
331
1B390
331
1B399
331
1B39A
331
1B3A1
331
1B3A2
331
1B3AA
331
1B3AB
331
1B3D6
331
1B3D7
331
1BF3A
331
1BF3B
331
1BF43
331
1BF44
331
1BF4D
331
1BF4E
331
1BF55
331
1BF56
331
1BF5E
331
1BF5F
331
1BF67
331
1BF68
331
1BF71
331
1BF72
331
1CAA1
331
1CAA2
331
1CAAA
331
1CAAB
331
1CAB4
331
1CAB5
331
1CABC
331
1CABD
331
1CAC6
331
1CAC7
331
1CACE
331
1CACF
331
1CAD7
331
1CAD8
102
}
  0
ENDTAB
  0
ENDSEC
  0
SECTION
  2
BLOCKS
  0
BLOCK
  5
52
330
18
100
AcDbEntity
  8
0
100
AcDbBlockBegin
  2
*MODEL_SPACE
 70
     0
 10
0.0
 20
0.0
 30
0.0
  3
*MODEL_SPACE
  1
*MODEL_SPACE
  0
ENDBLK
  5
53
330
18
100
AcDbEntity
  8
0
100
AcDbBlockEnd
  0
BLOCK
  5
50
330
15
100
AcDbEntity
 67
     1
  8
0
100
AcDbBlockBegin
  2
*PAPER_SPACE
 70
     0
 10
0.0
 20
0.0
 30
0.0
  3
*PAPER_SPACE
  1
*PAPER_SPACE
  0
ENDBLK
  5
51
330
15
100
AcDbEntity
 67
     1
  8
0
100
AcDbBlockEnd
  0
BLOCK
  5
49C7
330
49C3
100
AcDbEntity
  8
0
100
AcDbBlockBegin
  2
_OPEN
 70
     0
 10
0.0
 20
0.0
 30
0.0
  3
_OPEN
  1
_OPEN
  0
LINE
  5
49C4
330
49C3
100
AcDbEntity
  8
0
  6
ByBlock
 62
     0
100
AcDbLine
 10
-1.0
 20
0.1666666666666667
 30
0.0
 11
0.0
 21
0.0
 31
0.0
  0
LINE
  5
49C5
330
49C3
100
AcDbEntity
  8
0
  6
ByBlock
 62
     0
100
AcDbLine
 10
0.0
 20
0.0
 30
0.0
 11
-1.0
 21
-0.1666666666666667
 31
0.0
  0
LINE
  5
49C6
330
49C3
100
AcDbEntity
  8
0
  6
ByBlock
 62
     0
100
AcDbLine
 10
0.0
 20
0.0
 30
0.0
 11
-1.0
 21
0.0
 31
0.0
  0
ENDBLK
  5
49C8
330
49C3
100
AcDbEntity
  8
0
100
AcDbBlockEnd
  0
BLOCK
  5
FD3A
330
FD36
100
AcDbEntity
  8
0
100
AcDbBlockBegin
  2
_Open30
 70
     0
 10
0.0
 20
0.0
 30
0.0
  3
_Open30
  1
_Open30
  0
LINE
  5
FD37
330
FD36
100
AcDbEntity
  8
寸法線
 62
     0
370
    -2
100
AcDbLine
 10
-1.0
 20
0.26794919
 30
0.0
 11
0.0
 21
0.0
 31
0.0
  0
LINE
  5
FD38
330
FD36
100
AcDbEntity
  8
寸法線
 62
     0
370
    -2
100
AcDbLine
 10
0.0
 20
0.0
 30
0.0
 11
-1.0
 21
-0.26794919
 31
0.0
  0
LINE
  5
FD39
330
FD36
100
AcDbEntity
  8
寸法線
 62
     0
370
    -2
100
AcDbLine
 10
0.0
 20
0.0
 30
0.0
 11
-1.0
 21
0.0
 31
0.0
  0
ENDBLK
  5
FD3B
330
FD36
100
AcDbEntity
  8
0
100
AcDbBlockEnd
  0
ENDSEC
  0
SECTION
  2
ENTITIES
  0
TEXT
  5
12FB5
330
18
100
AcDbEntity
  8
文字
100
AcDbText
 10
2317.197133686364
 20
1518.060006404568
 30
0.0
 40
4.5
  1

 11
2317.197133686364
 21
1520.310006404568
 31
0.0
100
AcDbText
 73
     2
  0
SPLINE
  5
1C732
330
18
100
AcDbEntity
  8
姿図
100
AcDbSpline
210
0.0
220
0.0
230
1.0
 70
     8
 71
     3
 72
     8
 73
     4
 74
     0
 42
0.000000001
 43
0.0000000001
 40
13.0
 40
13.0
 40
13.0
 40
13.0
 40
14.0
 40
14.0
 40
14.0
 40
14.0
 10
1869.367989730848
 20
-113.1589332859508
 30
0.0
 10
1869.367989730848
 20
-113.1589332859508
 30
0.0
 10
1866.069688592818
 20
-113.6514634104715
 30
0.0000000000000033
 10
1865.626334587913
 20
-113.7693477560006
 30
0.0000000000000033
  0
SPLINE
  5
1C733
330
18
100
AcDbEntity
  8
姿図
100
AcDbSpline
210
0.0
220
0.0
230
1.0
 70
     8
 71
     3
 72
    14
 73
    10
 74
     0
 42
0.000000001
 43
0.0000000001
 40
-17.67097520731171
 40
-17.67097520731171
 40
-17.67097520731171
 40
-17.67097520731171
 40
-15.46329434907155
 40
-15.46329434907155
 40
-11.48389074227961
 40
-11.48389074227961
 40
-5.954339038219556
 40
-5.954339038219556
 40
-0.5047492958822968
 40
-0.5047492958822968
 40
-0.5047492958822968
 40
-0.5047492958822968
 10
1887.700991433579
 20
-138.744161669252
 30
0.0000000000000048
 10
1887.818619525002
 20
-138.9667400346234
 30
0.0
 10
1887.928963777377
 20
-139.1911594577425
 30
0.0
 10
1888.215215764981
 20
-139.8200142484127
 30
0.0
 10
1888.370841783479
 20
-140.2202597770552
 30
0.0
 10
1888.687224596808
 20
-141.1987669260047
 30
0.0000000000000048
 10
1888.798975538764
 20
-141.6940744593994
 30
0.0
 10
1888.940442741999
 20
-142.5577486637615
 30
0.0000000000000097
 10
1888.97958815257
 20
-142.9817172228181
 30
0.0000000000000097
 10
1888.987152899401
 20
-143.3952495776643
 30
0.0
  0
SPLINE
  5
1C734
330
18
100
AcDbEntity
  8
姿図
100
AcDbSpline
210
0.0
220
0.0
230
1.0
 70
     8
 71
     3
 72
     8
 73
     4
 74
     0
 42
0.000000001
 43
0.0000000001
 40
8.0
 40
8.0
 40
8.0
 40
8.0
 40
9.0
 40
9.0
 40
9.0
 40
9.0
 10
1883.839136327652
 20
-144.6622635534204
 30
-0.0000000000000097
 10
1883.839136327652
 20
-144.6622635534204
 30
-0.0000000000000097
 10
1880.512842865321
 20
-114.5057443936912
 30
0.0000000000000033
 10
1880.296094533492
 20
-113.4802819216229
 30
0.0000000000000033
  0
SPLINE
  5
1C735
330
18
100
AcDbEntity
  8
姿図
100
AcDbSpline
210
0.0
220
0.0
230
1.0
 70
     8
 71
     3
 72
     8
 73
     4
 74
     0
 42
0.000000001
 43
0.0000000001
 40
-29.73791167171498
 40
-29.73791167171498
 40
-29.73791167171498
 40
-29.73791167171498
 40
-21.81652578453031
 40
-21.81652578453031
 40
-21.81652578453031
 40
-21.81652578453031
 10
1874.270036349255
 20
-136.0130129681945
 30
0.0
 10
1877.209788079399
 20
-136.0722148760271
 30
0.0000000000000044
 10
1878.611961395595
 20
-136.8432658495537
 30
0.0000000000000048
 10
1881.115123064508
 20
-140.2869025508849
 30
0.0000000000000048
  0
SPLINE
  5
1C736
330
18
100
AcDbEntity
  8
姿図
100
AcDbSpline
210
0.0
220
0.0
230
1.0
 70
     8
 71
     3
 72
    20
 73
    16
 74
     0
 42
0.000000001
 43
0.0000000001
 40
61.91009950387845
 40
61.91009950387845
 40
61.91009950387845
 40
61.91009950387845
 40
63.27662545801321
 40
63.27662545801321
 40
65.63207741714923
 40
65.63207741714923
 40
66.46294226239624
 40
66.46294226239624
 40
68.78483332584179
 40
68.78483332584179
 40
78.37384755292882
 40
78.37384755292882
 40
82.12808435629299
 40
82.12808435629299
 40
85.66477676586585
 40
85.66477676586585
 40
85.66477676586585
 40
85.66477676586585
 10
1877.329734005727
 20
-163.184030776453
 30
-0.0000000000000016
 10
1877.512044850773
 20
-163.0068206562757
 30
-0.0000000000000024
 10
1877.674867081887
 20
-162.8353031196737
 30
-0.0000000000000028
 10
1878.065032709866
 20
-162.3992867189213
 30
0.0
 10
1878.283801258063
 20
-162.1212571635031
 30
-0.0000000000000049
 10
1878.477889345064
 20
-161.8589682832771
 30
0.0
 10
1878.531122248547
 20
-161.7850680833415
 30
-0.0000000000000049
 10
1878.736089440597
 20
-161.4928248159611
 30
0.0000000000000048
 10
1878.861972844339
 20
-161.2977241799763
 30
-0.0000000000000049
 10
1879.505885055084
 20
-160.2307060779376
 30
-0.0000000000000049
 10
1880.150274812635
 20
-158.9010387193011
 30
-0.0000000000000049
 10
1880.64134090716
 20
-156.362095719529
 30
-0.0000000000000049
 10
1880.723792499708
 20
-155.6297735109408
 30
0.0000000000000048
 10
1880.779541885101
 20
-154.1633094344813
 30
0.0000000000000048
 10
1880.659428310012
 20
-152.3880227335399
 30
-0.0000000000000049
 10
1880.659428310012
 20
-152.3880227335399
 30
-0.0000000000000049
  0
LINE
  5
1C8AC
330
18
100
AcDbEntity
  8
姿図
100
AcDbLine
 10
1858.288731585766
 20
-141.3294839128396
 30
0.0
 11
1859.442422524838
 21
-140.1083045570142
 31
0.0
  0
LINE
  5
1C8AD
330
18
100
AcDbEntity
  8
姿図
100
AcDbLine
 10
1857.580690647725
 20
-141.2598506749903
 30
0.0
 11
1858.67678485774
 21
-140.0996373319031
 31
0.0
  0
ARC
  5
1C8AE
330
18
100
AcDbEntity
  8
姿図
100
AcDbCircle
 10
1882.193477367753
 20
-175.2429387992267
 30
0.0
 40
43.97799551346176
100
AcDbArc
 50
118.0581559460046
 51
129.4391471832856
  0
ELLIPSE
  5
1C8AF
330
18
100
AcDbEntity
  8
姿図
100
AcDbEllipse
 10
1860.889582141957
 20
-154.8706733238866
 30
0.0
 11
-7.28242352521681
 21
12.73200189802586
 31
0.0
210
0.0
220
0.0
230
1.0
 40
0.6660508930180213
 41
0.0
 42
6.283185307179586
  0
ELLIPSE
  5
1C8B0
330
18
100
AcDbEntity
  8
姿図
100
AcDbEllipse
 10
1860.628985896719
 20
-155.1638611442638
 30
0.0
 11
-6.74863655959689
 21
11.79877182209287
 31
0.0
210
0.0
220
0.0
230
1.0
 40
0.662162193431699
 41
0.0
 42
6.283185307179586
  0
LINE
  5
1C8B1
330
18
100
AcDbEntity
  8
姿図
100
AcDbLine
 10
1854.987690409934
 20
-141.547256697065
 30
0.0
 11
1855.884442005928
 21
-140.5980470784027
 31
0.0
  0
LINE
  5
1C8B2
330
18
100
AcDbEntity
  8
姿図
100
AcDbLine
 10
1856.815037551007
 20
-141.2511997820984
 30
0.0
 11
1857.84941317387
 21
-140.1563154295995
 31
0.0
  0
LINE
  5
1C8B3
330
18
100
AcDbEntity
  8
姿図
100
AcDbLine
 10
1855.967757675465
 20
-141.3289506574852
 30
0.0
 11
1856.935603486027
 21
-140.3044879669569
 31
0.0
  0
LINE
  5
1C8B4
330
18
100
AcDbEntity
  8
姿図
100
AcDbLine
 10
1853.709055151408
 20
-142.0815963094208
 30
0.0
 11
1854.544942798639
 21
-141.1968110484654
 31
0.0
  0
LWPOLYLINE
  5
1C8B8
330
18
100
AcDbEntity
  8
姿図
100
AcDbPolyline
 90
        3
 70
     0
 43
0.0
 10
1888.58717237672
 20
-144.9939784600097
 10
1887.687972681906
 20
-146.9937573402356
 10
1886.024894996531
 20
-149.349397707454
  0
SPLINE
  5
1C8B9
330
18
100
AcDbEntity
  8
姿図
100
AcDbSpline
210
0.0
220
0.0
230
1.0
 70
     8
 71
     1
 72
    95
 73
    93
 74
     0
 42
0.000000001
 43
0.0000000001
 40
4.868828357704044
 40
4.868828357704044
 40
4.899304006515187
 40
4.929779655326332
 40
4.960255304137476
 40
4.99073095294862
 40
5.021206601759763
 40
5.051682250570908
 40
5.082157899382052
 40
5.112633548193195
 40
5.141866847195869
 40
5.171100146198544
 40
5.200333445201219
 40
5.229566744203892
 40
5.258800043206566
 40
5.288033342209241
 40
5.317266641211915
 40
5.346499940214589
 40
5.375733239217263
 40
5.410288874003569
 40
5.444844508789874
 40
5.479400143576179
 40
5.513955778362485
 40
5.548511413148789
 40
5.583067047935096
 40
5.617622682721401
 40
5.652178317507706
 40
5.686733952294011
 40
5.721773394811629
 40
5.756812837329247
 40
5.791852279846864
 40
5.826891722364483
 40
5.861931164882101
 40
5.896970607399719
 40
5.932010049917338
 40
5.967049492434954
 40
6.002088934952573
 40
6.037128377470191
 40
6.072869040478575
 40
6.108609703486958
 40
6.144350366495342
 40
6.180091029503725
 40
6.215831692512109
 40
6.251572355520493
 40
6.287313018528875
 40
6.323053681537259
 40
6.358794344545643
 40
6.394535007554026
 40
6.434056964704096
 40
6.473578921854168
 40
6.51310087900424
 40
6.55262283615431
 40
6.59214479330438
 40
6.631666750454452
 40
6.671188707604522
 40
6.710710664754592
 40
6.750232621904663
 40
6.785926488730394
 40
6.821620355556124
 40
6.857314222381854
 40
6.893008089207585
 40
6.928701956033316
 40
6.964395822859046
 40
7.000089689684777
 40
7.035783556510507
 40
7.071477423336238
 40
7.107171290161968
 40
7.142623453249049
 40
7.178075616336131
 40
7.213527779423211
 40
7.248979942510293
 40
7.284432105597374
 40
7.319884268684455
 40
7.355336431771536
 40
7.390788594858618
 40
7.426240757945699
 40
7.46169292103278
 40
7.497078312165116
 40
7.532463703297453
 40
7.567849094429789
 40
7.603234485562125
 40
7.638619876694462
 40
7.674005267826798
 40
7.709390658959135
 40
7.74477605009147
 40
7.780161441223807
 40
7.808943887482561
 40
7.837726333741315
 40
7.866508780000069
 40
7.895291226258823
 40
7.924073672517576
 40
7.952856118776331
 40
7.981638565035084
 40
8.010421011293838
 40
8.010421011293838
 10
1884.059696631728
 20
-148.0358846245881
 30
-0.0000000000000046
 10
1884.088338856893
 20
-148.031464406936
 30
-0.0000000000000046
 10
1884.116722003094
 20
-148.0256778273576
 30
-0.0000000000000046
 10
1884.144769060384
 20
-148.018548479002
 30
-0.0000000000000046
 10
1884.172407248917
 20
-148.0101079136641
 30
-0.0000000000000046
 10
1884.199569271784
 20
-148.0003946893069
 30
-0.0000000000000046
 10
1884.22619430054
 20
-147.9894532211058
 30
-0.0000000000000127
 10
1884.252228659788
 20
-147.9773325124927
 30
-0.0000000000000127
 10
1884.277626201988
 20
-147.9640848445217
 30
-0.0000000000000046
 10
1884.301354204356
 20
-147.9503685397744
 30
-0.0000000000000046
 10
1884.324433151306
 20
-147.9357138510666
 30
-0.0000000000000046
 10
1884.346841413638
 20
-147.9201692350655
 30
-0.0000000000000046
 10
1884.368562870383
 20
-147.9037822522052
 30
-0.0000000000000046
 10
1884.389586363099
 20
-147.8865989820683
 30
-0.0000000000000046
 10
1884.409905097002
 20
-147.8686635803376
 30
-0.0000000000000127
 10
1884.429516022294
 20
-147.850017970128
 30
-0.0000000000000127
 10
1884.448419223282
 20
-147.8307016547999
 30
-0.0000000000000127
 10
1884.466617336646
 20
-147.8107516358468
 30
-0.0000000000000046
 10
1884.487225806927
 20
-147.7863992131013
 30
-0.0000000000000046
 10
1884.506866018478
 20
-147.761262074928
 30
-0.0000000000000046
 10
1884.525550375947
 20
-147.7353884358301
 30
-0.0000000000000046
 10
1884.543292512938
 20
-147.7088224700135
 30
-0.0000000000000046
 10
1884.560106645318
 20
-147.6816047518391
 30
-0.0000000000000046
 10
1884.576007067293
 20
-147.6537727161885
 30
-0.0000000000000127
 10
1884.591007773125
 20
-147.6253611146981
 30
-0.0000000000000127
 10
1884.605122186046
 20
-147.5964024509362
 30
-0.0000000000000046
 10
1884.618362976172
 20
-147.5669273834344
 30
-0.0000000000000127
 10
1884.630909201838
 20
-147.5365422692064
 30
-0.0000000000000046
 10
1884.642580655691
 20
-147.5056853954432
 30
-0.0000000000000046
 10
1884.653387706546
 20
-147.474385047102
 30
-0.0000000000000046
 10
1884.66333976974
 20
-147.4426688437943
 30
-0.0000000000000046
 10
1884.672445357572
 20
-147.4105639560453
 30
-0.0000000000000046
 10
1884.680712146841
 20
-147.3780972839604
 30
-0.0000000000000046
 10
1884.688147057036
 20
-147.3452956020983
 30
-0.0000000000000046
 10
1884.694756334199
 20
-147.3121856744285
 30
-0.0000000000000127
 10
1884.700545636595
 20
-147.2787943430853
 30
-0.0000000000000127
 10
1884.705520119355
 20
-147.2451485944364
 30
-0.0000000000000046
 10
1884.709759617785
 20
-147.2105955971988
 30
-0.0000000000000046
 10
1884.713160935565
 20
-147.1758352529191
 30
-0.0000000000000127
 10
1884.715728432389
 20
-147.140896896505
 30
-0.0000000000000046
 10
1884.717466244333
 20
-147.1058101235521
 30
-0.0000000000000046
 10
1884.718378347391
 20
-147.0706047837155
 30
-0.0000000000000046
 10
1884.718468613052
 20
-147.0353109651708
 30
-0.0000000000000046
 10
1884.717740855804
 20
-146.9999589718673
 30
-0.0000000000000046
 10
1884.716198872557
 20
-146.964579295113
 30
-0.0000000000000046
 10
1884.713846474079
 20
-146.9292025808081
 30
-0.0000000000000046
 10
1884.710687508514
 20
-146.8938595935324
 30
-0.0000000000000127
 10
1884.706259953732
 20
-146.8548538346172
 30
-0.0000000000000127
 10
1884.700856271557
 20
-146.8159687988443
 30
-0.0000000000000127
 10
1884.694481915978
 20
-146.7772462474159
 30
-0.0000000000000046
 10
1884.687142419359
 20
-146.7387278754975
 30
-0.0000000000000046
 10
1884.678843366049
 20
-146.7004552521691
 30
-0.0000000000000046
 10
1884.669590352945
 20
-146.6624697655363
 30
-0.0000000000000046
 10
1884.659388937261
 20
-146.6248125749751
 30
-0.0000000000000127
 10
1884.648244571831
 20
-146.5875245726688
 30
-0.0000000000000046
 10
1884.636162528335
 20
-146.5506463568174
 30
-0.0000000000000046
 10
1884.6244490751
 20
-146.5177258448905
 30
-0.0000000000000127
 10
1884.611978308569
 20
-146.4852019178702
 30
-0.0000000000000046
 10
1884.598753349577
 20
-146.4531038589769
 30
-0.0000000000000046
 10
1884.584776940334
 20
-146.4214607934832
 30
-0.0000000000000127
 10
1884.570051372382
 20
-146.3903017322723
 30
-0.0000000000000127
 10
1884.554578413142
 20
-146.3596556332297
 30
-0.0000000000000046
 10
1884.538359233194
 20
-146.3295514830943
 30
-0.0000000000000046
 10
1884.521394337121
 20
-146.300018402588
 30
-0.0000000000000046
 10
1884.503683501594
 20
-146.2710857778168
 30
-0.0000000000000046
 10
1884.485225725407
 20
-146.2427834209464
 30
-0.0000000000000046
 10
1884.466151779256
 20
-146.2153266495111
 30
-0.0000000000000046
 10
1884.446336616256
 20
-146.1885523014271
 30
-0.0000000000000046
 10
1884.425776896234
 20
-146.1624920988229
 30
-0.0000000000000046
 10
1884.404468581291
 20
-146.137179134372
 30
-0.0000000000000127
 10
1884.382407062246
 20
-146.1126481977076
 30
-0.0000000000000127
 10
1884.35958735553
 20
-146.0889361336544
 30
-0.0000000000000127
 10
1884.336004386677
 20
-146.0660822257362
 30
-0.0000000000000127
 10
1884.311653377794
 20
-146.0441285941049
 30
-0.0000000000000046
 10
1884.286530356818
 20
-146.0231205915163
 30
-0.0000000000000046
 10
1884.260632805355
 20
-146.0031071742862
 30
-0.0000000000000127
 10
1884.234011421524
 20
-145.984175919016
 30
-0.0000000000000127
 10
1884.206621086028
 20
-145.966344869026
 30
-0.0000000000000046
 10
1884.178469024916
 20
-145.9496748971324
 30
-0.0000000000000046
 10
1884.149568010496
 20
-145.9342309430499
 30
-0.0000000000000046
 10
1884.119937717891
 20
-145.9200816433556
 30
-0.0000000000000046
 10
1884.089606133902
 20
-145.9072986527801
 30
-0.0000000000000127
 10
1884.058610938096
 20
-145.8959556089885
 30
-0.0000000000000046
 10
1884.027000751496
 20
-145.8861267110801
 30
-0.0000000000000127
 10
1883.994836127625
 20
-145.8778849107771
 30
-0.0000000000000127
 10
1883.96831468612
 20
-145.8723998050559
 30
-0.0000000000000046
 10
1883.941520031712
 20
-145.8680455727927
 30
-0.0000000000000046
 10
1883.914503013123
 20
-145.8648534539464
 30
-0.0000000000000127
 10
1883.887319449579
 20
-145.8628503195209
 30
-0.0000000000000046
 10
1883.860029539366
 20
-145.8620578114433
 30
-0.0000000000000046
 10
1883.832697066834
 20
-145.8624915819528
 30
-0.0000000000000127
 10
1883.805388431004
 20
-145.8641606810452
 30
-0.0000000000000127
 10
1883.778171533643
 20
-145.8670671342591
 30
-0.0000000000000046
  0
LINE
  5
1C8BA
330
18
100
AcDbEntity
  8
姿図
100
AcDbLine
 10
1866.714897454662
 20
-146.3349872098008
 30
0.0
 11
1868.541832573787
 21
-144.4011803501371
 31
0.0
  0
LINE
  5
1C8BB
330
18
100
AcDbEntity
  8
姿図
100
AcDbLine
 10
1868.138125561959
 20
-148.1048754842964
 30
0.0
 11
1870.079358816668
 21
-146.0500842961142
 31
0.0
  0
LINE
  5
1C8BC
330
18
100
AcDbEntity
  8
姿図
100
AcDbLine
 10
1867.798260550569
 20
-147.6455288269249
 30
0.0
 11
1869.711858270092
 21
-145.6199897927745
 31
0.0
  0
LINE
  5
1C8BD
330
18
100
AcDbEntity
  8
姿図
100
AcDbLine
 10
1867.447788718013
 20
-147.1974094667437
 30
0.0
 11
1869.333155068479
 21
-145.201753275486
 31
0.0
  0
LINE
  5
1C8BE
330
18
100
AcDbEntity
  8
姿図
100
AcDbLine
 10
1867.086690711828
 20
-146.7605378882929
 30
0.0
 11
1868.943184562278
 21
-144.7954431756571
 31
0.0
  0
ARC
  5
1C8BF
330
18
100
AcDbEntity
  8
姿図
100
AcDbCircle
 10
1853.855541365002
 20
-128.4828425092669
 30
0.0
 40
40.50125572339087
100
AcDbArc
 50
309.6951363314269
 51
335.3347933007474
  0
SPLINE
  5
1C8C0
330
18
100
AcDbEntity
  8
姿図
100
AcDbSpline
210
0.0
220
0.0
230
1.0
 70
     8
 71
     3
 72
    20
 73
    16
 74
     0
 42
0.000000001
 43
0.0000000001
 40
0.0507684683112425
 40
0.0507684683112425
 40
0.0507684683112425
 40
0.0507684683112425
 40
16.17239265914957
 40
16.17239265914957
 40
33.44137084920912
 40
33.44137084920912
 40
41.29196149669883
 40
41.29196149669883
 40
50.54402678597219
 40
50.54402678597219
 40
58.56297097631615
 40
58.56297097631615
 40
66.12555618457822
 40
66.12555618457822
 40
66.75214355035303
 40
66.75214355035303
 40
66.75214355035303
 40
66.75214355035303
 10
1878.050372623459
 20
-147.2601577556202
 30
-0.0000000000000046
 10
1877.429120923426
 20
-145.9363308597192
 30
-0.0000000000000046
 10
1876.664309473782
 20
-144.6611475418722
 30
-0.0000000000000046
 10
1874.830450237289
 20
-142.2281600207591
 30
-0.0000000000000046
 10
1873.409856582968
 20
-140.645426061888
 30
-0.0000000000000046
 10
1870.636522823991
 20
-138.6715100248553
 30
-0.0000000000000046
 10
1869.729818269695
 20
-138.142728540063
 30
-0.0000000000000046
 10
1867.733933874295
 20
-137.2239619018051
 30
-0.0000000000000046
 10
1866.645897101643
 20
-136.8785232421872
 30
-0.0000000000000046
 10
1864.62380913347
 20
-136.5113757582299
 30
-0.0000000000000046
 10
1863.806926488972
 20
-136.4723566722671
 30
0.0000000000000035
 10
1862.456615751722
 20
-136.5274311985181
 30
-0.0000000000000046
 10
1861.64780144193
 20
-136.6250828769266
 30
-0.0000000000000046
 10
1860.746197392029
 20
-136.8840105536792
 30
-0.0000000000000046
 10
1860.677498325585
 20
-136.9046548929766
 30
-0.0000000000000046
 10
1860.609110668198
 20
-136.9261121618183
 30
-0.0000000000000046
  0
SPLINE
  5
1C8C2
330
18
100
AcDbEntity
  8
姿図
100
AcDbSpline
210
0.0
220
0.0
230
1.0
 70
     8
 71
     3
 72
    20
 73
    16
 74
     0
 42
0.000000001
 43
0.0000000001
 40
60.97286850367482
 40
60.97286850367482
 40
60.97286850367482
 40
60.97286850367482
 40
63.27662545801321
 40
63.27662545801321
 40
65.63207741714923
 40
65.63207741714923
 40
66.46294226239624
 40
66.46294226239624
 40
68.78483332584179
 40
68.78483332584179
 40
78.37384755292882
 40
78.37384755292882
 40
82.12808435629299
 40
82.12808435629299
 40
84.32250915659358
 40
84.32250915659358
 40
84.32250915659358
 40
84.32250915659358
 10
1876.947067924433
 20
-163.4292567375292
 30
-0.000000000000005
 10
1877.255119484123
 20
-163.1043789093449
 30
-0.0000000000000056
 10
1877.511604196909
 20
-162.7871194984825
 30
-0.0000000000000068
 10
1877.929503696155
 20
-162.216710173569
 30
-0.0000000000000127
 10
1878.114135537221
 20
-161.9275729240171
 30
-0.0000000000000046
 10
1878.276749392638
 20
-161.6553879801936
 30
-0.0000000000000046
 10
1878.321200563869
 20
-161.5787683595352
 30
-0.0000000000000046
 10
1878.491769013056
 20
-161.2760338319868
 30
-0.0000000000000046
 10
1878.595338041144
 20
-161.0744483829874
 30
-0.0000000000000127
 10
1879.119856100462
 20
-159.9740761638309
 30
-0.0000000000000046
 10
1879.624842771869
 20
-158.6103346661582
 30
-0.0000000000000127
 10
1879.893613513924
 20
-156.0413740874785
 30
-0.0000000000000046
 10
1879.9154606397
 20
-155.3031992708716
 30
-0.0000000000000046
 10
1879.867225825684
 20
-154.1013798386628
 30
-0.0000000000000046
 10
1879.831506419881
 20
-153.6495379552082
 30
-0.0000000000000046
 10
1879.777684382335
 20
-153.1949783853991
 30
-0.0000000000000046
  0
LINE
  5
1C8C3
330
18
100
AcDbEntity
  8
姿図
100
AcDbLine
 10
1865.707007267901
 20
-153.2099977205071
 30
0.0
 11
1861.156338205395
 21
-158.6371309796359
 31
0.0
  0
LINE
  5
1C8C4
330
18
100
AcDbEntity
  8
姿図
100
AcDbLine
 10
1872.0675263701
 20
-159.5083809103962
 30
0.0
 11
1874.564608467374
 21
-156.8652249283925
 31
0.0
  0
LINE
  5
1C8C5
330
18
100
AcDbEntity
  8
姿図
100
AcDbLine
 10
1872.047517427763
 20
-158.7104672979301
 30
0.0
 11
1874.494319148976
 21
-156.120532984892
 31
0.0
  0
LINE
  5
1C8C6
330
18
100
AcDbEntity
  8
姿図
100
AcDbLine
 10
1872.041141720413
 20
-160.3554020393603
 30
0.0
 11
1874.601057684084
 21
-157.6457365461063
 31
0.0
  0
LINE
  5
1C8C7
330
18
100
AcDbEntity
  8
姿図
100
AcDbLine
 10
1871.446872325823
 20
-163.4417140076905
 30
0.0
 11
1874.417806171736
 21
-160.2969869778751
 31
0.0
  0
LINE
  5
1C8C8
330
18
100
AcDbEntity
  8
姿図
100
AcDbLine
 10
1871.775947096186
 20
-162.2742960427422
 30
0.0
 11
1874.541163785117
 21
-159.3473201772449
 31
0.0
  0
LINE
  5
1C8C9
330
18
100
AcDbEntity
  8
姿図
100
AcDbLine
 10
1871.953176173077
 20
-161.2676064148732
 30
0.0
 11
1874.596696745593
 21
-158.469445624555
 31
0.0
  0
ARC
  5
1C8CA
330
18
100
AcDbEntity
  8
姿図
100
AcDbCircle
 10
1865.39617636799
 20
-158.1992507225759
 30
-0.0000000000000033
 40
10.19977863332881
100
AcDbArc
 50
273.4181627137714
 51
284.7582780585445
  0
LINE
  5
1C8CB
330
18
100
AcDbEntity
  8
姿図
100
AcDbLine
 10
1870.463366428022
 20
-166.9293425027631
 30
0.0
 11
1868.813776009178
 21
-167.1692312313858
 31
0.0
  0
LINE
  5
1C8CC
330
18
100
AcDbEntity
  8
姿図
100
AcDbLine
 10
1871.401108562316
 20
-166.1980408999148
 30
0.0
 11
1869.317287121203
 21
-166.7285898556563
 31
0.0
  0
SPLINE
  5
1C8CD
330
18
100
AcDbEntity
  8
姿図
100
AcDbSpline
210
-2.784766238851488E-10
220
9.163450001013155E-10
230
-1.0
 70
     8
 71
     3
 72
     8
 73
     4
 74
     0
 42
0.000000001
 43
0.0000000001
 40
104.4616887805064
 40
104.4616887805064
 40
104.4616887805064
 40
104.4616887805064
 40
104.5558158786619
 40
104.5558158786619
 40
104.5558158786619
 40
104.5558158786619
 10
1868.2359304491
 20
-167.9903348736789
 30
-0.0000000000000033
 10
1868.231420082918
 20
-167.9917114500088
 30
-0.0000000000000033
 10
1868.226912382758
 20
-167.9930842904498
 30
-0.0000000000000114
 10
1868.22240737963
 20
-167.9944533578441
 30
-0.0000000000000114
  0
SPLINE
  5
1C8CE
330
18
100
AcDbEntity
  8
姿図
100
AcDbSpline
210
0.0
220
0.0
230
1.0
 70
     8
 71
     3
 72
    12
 73
     8
 74
     0
 42
0.000000001
 43
0.0000000001
 40
-1.090507445860422
 40
-1.090507445860422
 40
-1.090507445860422
 40
-1.090507445860422
 40
-0.9471425154221369
 40
-0.9471425154221369
 40
-0.7528206779009274
 40
-0.7528206779009274
 40
-0.6501188551225207
 40
-0.6501188551225207
 40
-0.6501188551225207
 40
-0.6501188551225207
 10
1868.205703972208
 20
-167.9995247886054
 30
-0.0000000000000114
 10
1868.198364331502
 20
-168.0017528203966
 30
-0.0000000000000114
 10
1868.189841114765
 20
-168.0043402239367
 30
-0.0000000000000114
 10
1868.167596777226
 20
-168.0110868129054
 30
-0.0000000000000114
 10
1868.153722071049
 20
-168.0152899603445
 30
-0.0000000000000114
 10
1868.132406092159
 20
-168.0217255639984
 30
-0.0000000000000114
 10
1868.124783763873
 20
-168.0240230513862
 30
-0.0000000000000114
 10
1868.116965920637
 20
-168.0263735935732
 30
-0.0000000000000114
  0
SPLINE
  5
1C8CF
330
18
100
AcDbEntity
  8
姿図
100
AcDbSpline
210
0.0
220
0.0
230
1.0
 70
     8
 71
     3
 72
     8
 73
     4
 74
     0
 42
0.000000001
 43
0.0000000001
 40
211.7706370983692
 40
211.7706370983692
 40
211.7706370983692
 40
211.7706370983692
 40
212.1566911252955
 40
212.1566911252955
 40
212.1566911252955
 40
212.1566911252955
 10
1868.152908892098
 20
-168.0153384183063
 30
-0.0000000000000114
 10
1868.171270545456
 20
-168.0098831421424
 30
-0.0000000000000114
 10
1868.189678650898
 20
-168.0043641200721
 30
-0.0000000000000033
 10
1868.208132106427
 20
-167.9987817089466
 30
-0.0000000000000114
  0
SPLINE
  5
1C8D0
330
18
100
AcDbEntity
  8
姿図
100
AcDbSpline
210
0.0
220
0.0
230
1.0
 70
     8
 71
     3
 72
     8
 73
     4
 74
     0
 42
0.000000001
 43
0.0000000001
 40
-0.691446024632862
 40
-0.691446024632862
 40
-0.691446024632862
 40
-0.691446024632862
 40
-0.6779385051869151
 40
-0.6779385051869151
 40
-0.6779385051869151
 40
-0.6779385051869151
 10
1868.208170538448
 20
-167.9988214282184
 30
-0.0000000000000114
 10
1868.207356726168
 20
-167.9990703664942
 30
-0.0000000000000114
 10
1868.206534459366
 20
-167.9993048331569
 30
-0.0000000000000114
 10
1868.205703972208
 20
-167.9995247886054
 30
-0.0000000000000114
  0
SPLINE
  5
1C8D1
330
18
100
AcDbEntity
  8
姿図
100
AcDbSpline
210
0.0
220
0.0
230
1.0
 70
     8
 71
     1
 72
     8
 73
     6
 74
     0
 42
0.000000001
 43
0.0000000001
 40
4.584727753645457
 40
4.584727753645457
 40
4.584891353986822
 40
4.585054954328187
 40
4.585218554669551
 40
4.585382155010916
 40
4.585545755352282
 40
4.585545755352282
 10
1868.116965920637
 20
-168.0263735935732
 30
-0.0000000000000114
 10
1868.110850994708
 20
-168.0282114555432
 30
-0.0000000000000114
 10
1868.104736251058
 20
-168.0300478393519
 30
-0.0000000000000114
 10
1868.098621690476
 20
-168.0318827450976
 30
-0.0000000000000114
 10
1868.092507313752
 20
-168.0337161728787
 30
-0.0000000000000114
 10
1868.086393121676
 20
-168.0355481227946
 30
-0.0000000000000114
  0
SPLINE
  5
1C8D2
330
18
100
AcDbEntity
  8
姿図
100
AcDbSpline
210
0.0
220
0.0
230
1.0
 70
     8
 71
     1
 72
     8
 73
     6
 74
     0
 42
0.000000001
 43
0.0000000001
 40
4.553485832398614
 40
4.553485832398614
 40
4.559001824165762
 40
4.564517815932909
 40
4.570033807700057
 40
4.575549799467204
 40
4.581065791234352
 40
4.581065791234352
 10
1868.509958295017
 20
-167.9005158077105
 30
-0.0000000000000114
 10
1868.449971981217
 20
-167.9210219831914
 30
-0.0000000000000114
 10
1868.389798146216
 20
-167.9411062274321
 30
-0.0000000000000033
 10
1868.329438689897
 20
-167.9607679387984
 30
-0.0000000000000114
 10
1868.268895517283
 20
-167.9800065300237
 30
-0.0000000000000114
 10
1868.208170538448
 20
-167.9988214282184
 30
-0.0000000000000114
  0
LINE
  5
1C8D3
330
18
100
AcDbEntity
  8
姿図
100
AcDbLine
 10
1872.209123024622
 20
-165.3605476276648
 30
0.0
 11
1869.784087990348
 21
-166.3299836308308
 31
0.0
  0
LINE
  5
1C8D4
330
18
100
AcDbEntity
  8
姿図
100
AcDbLine
 10
1870.101765613469
 20
-165.8838666042359
 30
0.0
 11
1873.006388775562
 21
-164.2482483329015
 31
0.0
  0
LINE
  5
1C8D5
330
18
100
AcDbEntity
  8
姿図
100
AcDbLine
 10
1870.755545799891
 20
-164.9950566244265
 30
0.0
 11
1873.497899913259
 21
-163.2304896362205
 31
0.0
  0
LINE
  5
1C8D6
330
18
100
AcDbEntity
  8
姿図
100
AcDbLine
 10
1871.086156461234
 20
-164.2945730657082
 30
0.0
 11
1874.015379976236
 21
-161.9782338363395
 31
0.0
  0
ARC
  5
1C8D7
330
18
100
AcDbEntity
  8
姿図
100
AcDbCircle
 10
1838.911201795343
 20
-103.6545072500944
 30
0.0
 40
70.85017846467
100
AcDbArc
 50
295.2712329144035
 51
302.8369599190622
  0
SPLINE
  5
1C8D8
330
18
100
AcDbEntity
  8
姿図
100
AcDbSpline
210
0.0
220
0.0
230
1.0
 70
     8
 71
     3
 72
     8
 73
     4
 74
     0
 42
0.000000001
 43
0.0000000001
 40
20.17474574740567
 40
20.17474574740567
 40
20.17474574740567
 40
20.17474574740567
 40
20.51051228626665
 40
20.51051228626665
 40
20.51051228626665
 40
20.51051228626665
 10
1878.089068236259
 20
-147.3430891008743
 30
-0.0000000000000046
 10
1878.076243775968
 20
-147.3154587506142
 30
-0.0000000000000046
 10
1878.063339890929
 20
-147.2878161204471
 30
-0.0000000000000046
 10
1878.05035578944
 20
-147.2601599407742
 30
-0.0000000000000046
  0
LINE
  5
1C8D9
330
18
100
AcDbEntity
  8
姿図
100
AcDbLine
 10
1869.09352871272
 20
-149.5508624257229
 30
0.0
 11
1871.114570179385
 21
-147.4115944183452
 31
0.0
  0
LINE
  5
1C8DA
330
18
100
AcDbEntity
  8
姿図
100
AcDbLine
 10
1868.785865467141
 20
-149.0574302691091
 30
0.0
 11
1870.780770249707
 21
-146.9458278851409
 31
0.0
  0
LINE
  5
1C8DB
330
18
100
AcDbEntity
  8
姿図
100
AcDbLine
 10
1868.467353831787
 20
-148.5754811095335
 30
0.0
 11
1870.435673228214
 21
-146.4920192991103
 31
0.0
  0
LINE
  5
1C8DC
330
18
100
AcDbEntity
  8
姿図
100
AcDbLine
 10
1870.211025271498
 20
-151.6443668809761
 30
0.0
 11
1872.333378848497
 21
-149.3978602246291
 31
0.0
  0
LINE
  5
1C8DD
330
18
100
AcDbEntity
  8
姿図
100
AcDbLine
 10
1869.94925507553
 20
-151.1023570309244
 30
0.0
 11
1872.046619132549
 21
-148.8823017272548
 31
0.0
  0
LINE
  5
1C8DE
330
18
100
AcDbEntity
  8
姿図
100
AcDbLine
 10
1869.675503105795
 20
-150.5730298624076
 30
0.0
 11
1871.74770618208
 21
-148.3796074022516
 31
0.0
  0
LINE
  5
1C8DF
330
18
100
AcDbEntity
  8
姿図
100
AcDbLine
 10
1869.390156764903
 20
-150.0559753106036
 30
0.0
 11
1871.436943136871
 21
-147.8894563768213
 31
0.0
  0
LINE
  5
1C8E0
330
18
100
AcDbEntity
  8
姿図
100
AcDbLine
 10
1871.990525774155
 20
-157.9516998051001
 30
0.0
 11
1874.395142781239
 21
-155.4064179204395
 31
0.0
  0
LINE
  5
1C8E1
330
18
100
AcDbEntity
  8
姿図
100
AcDbLine
 10
1871.902862737588
 20
-157.2253979045843
 30
0.0
 11
1874.270744850722
 21
-154.7189998254657
 31
0.0
  0
LINE
  5
1C8E2
330
18
100
AcDbEntity
  8
姿図
100
AcDbLine
 10
1871.789002381116
 20
-156.5268258103488
 30
0.0
 11
1874.123923286443
 21
-154.0553170981768
 31
0.0
  0
LINE
  5
1C8E3
330
18
100
AcDbEntity
  8
姿図
100
AcDbLine
 10
1871.652248548751
 20
-155.8524864106723
 30
0.0
 11
1873.956865892746
 21
-153.4130539524199
 31
0.0
  0
LINE
  5
1C8E4
330
18
100
AcDbEntity
  8
姿図
100
AcDbLine
 10
1871.495117788113
 20
-155.1997159453599
 30
0.0
 11
1873.771316110686
 21
-152.790364959623
 31
0.0
  0
LINE
  5
1C8E5
330
18
100
AcDbEntity
  8
姿図
100
AcDbLine
 10
1864.532639702217
 20
-148.0762211528017
 30
0.0
 11
1859.981970639712
 21
-153.5033544119306
 31
0.0
  0
LINE
  5
1C8E6
330
18
100
AcDbEntity
  8
姿図
100
AcDbLine
 10
1864.239048363904
 20
-150.7164492478028
 30
0.0
 11
1859.688379301398
 21
-156.1435825069316
 31
0.0
  0
LWPOLYLINE
  5
1C8E7
330
18
100
AcDbEntity
  8
姿図
100
AcDbPolyline
 90
        4
 70
     0
 43
0.0
 10
1880.753854335886
 20
-154.8339726026168
 10
1881.934565026698
 20
-154.0608958312619
 10
1882.319781785508
 20
-153.6941554340567
 10
1884.804300200589
 20
-149.2354326933619
  0
LWPOLYLINE
  5
1C8E8
330
18
100
AcDbEntity
  8
姿図
100
AcDbPolyline
 90
        4
 70
     0
 43
0.0
 10
1880.747235525159
 20
-155.4387453578222
 10
1882.262045766511
 20
-154.4469150816062
 10
1882.647262525321
 20
-154.0801746844015
 10
1885.131780940401
 20
-149.6214519437062
  0
LINE
  5
1C8E9
330
18
100
AcDbEntity
  8
姿図
100
AcDbLine
 10
1871.31957348601
 20
-154.5664361737379
 30
0.0
 11
1873.568684088509
 21
-152.1857574809264
 31
0.0
  0
LINE
  5
1C8EA
330
18
100
AcDbEntity
  8
姿図
100
AcDbLine
 10
1871.127176320153
 20
-153.9509951218331
 30
0.0
 11
1873.350123578708
 21
-151.5980102718174
 31
0.0
  0
LINE
  5
1C8EB
330
18
100
AcDbEntity
  8
姿図
100
AcDbLine
 10
1870.919184883284
 20
-153.3520605719589
 30
0.0
 11
1873.116586637144
 21
-151.0261155832363
 31
0.0
  0
LINE
  5
1C8EC
330
18
100
AcDbEntity
  8
姿図
100
AcDbLine
 10
1870.696625218899
 20
-152.7685464593017
 30
0.0
 11
1872.8688634161
 21
-150.4692370407051
 31
0.0
  0
LINE
  5
1C8ED
330
18
100
AcDbEntity
  8
姿図
100
AcDbLine
 10
1870.460340183796
 20
-152.1995606217693
 30
0.0
 11
1872.607611653001
 21
-149.9266784305862
 31
0.0
  0
LINE
  5
1C8F1
330
18
100
AcDbEntity
  8
姿図
100
AcDbLine
 10
1876.395975984104
 20
-137.4002790366196
 30
0.0
 11
1874.878642885531
 21
-138.1339157780478
 31
0.0
  0
LWPOLYLINE
  5
1C8F2
330
18
100
AcDbEntity
  8
姿図
100
AcDbPolyline
 90
        4
 70
     0
 43
0.0
 10
1873.96378524182
 20
-139.9824408541183
 10
1874.424592527509
 20
-139.7243226570945
 10
1874.800096637567
 20
-139.602278063187
 10
1879.005049802323
 20
-138.5249674419811
  0
LWPOLYLINE
  5
1C8F3
330
18
100
AcDbEntity
  8
姿図
100
AcDbPolyline
 90
        4
 70
     0
 43
0.0
 10
1873.626733192792
 20
-139.6636484311055
 10
1874.087540478481
 20
-139.4055302340819
 10
1874.463044588539
 20
-139.2834856401744
 10
1878.667997753294
 20
-138.2061750189685
  0
ARC
  5
1C8F4
330
18
100
AcDbEntity
  8
姿図
100
AcDbCircle
 10
1873.333693852149
 20
-152.2487166778517
 30
0.0
 40
16.26268158145045
100
AcDbArc
 50
86.69930458944697
 51
107.0828459404596
  0
ARC
  5
1C8F5
330
18
100
AcDbEntity
  8
姿図
100
AcDbCircle
 10
1875.517525254749
 20
-146.7401780634168
 30
0.0
 40
9.620582517572863
100
AcDbArc
 50
87.54452681587186
 51
115.8684151450544
  0
ARC
  5
1C8F6
330
18
100
AcDbEntity
  8
姿図
100
AcDbCircle
 10
1875.983801613646
 20
-147.0120281108402
 30
0.0
 40
9.620582517572863
100
AcDbArc
 50
87.54452681587186
 51
115.8684151450544
  0
LINE
  5
1C8F7
330
18
100
AcDbEntity
  8
姿図
100
AcDbLine
 10
1881.472767809927
 20
-142.3353377521091
 30
0.0
 11
1879.454439083503
 21
-144.865366243233
 31
0.0
  0
LWPOLYLINE
  5
1C8F8
330
18
100
AcDbEntity
  8
姿図
100
AcDbPolyline
 90
        4
 70
     0
 43
0.0
 10
1877.531688411585
 20
-143.9114119401077
 10
1878.875334107776
 20
-142.9933855026616
 10
1879.198421043988
 20
-142.886443006465
 10
1881.576495210841
 20
-141.9695934754968
  0
LWPOLYLINE
  5
1C8F9
330
18
100
AcDbEntity
  8
姿図
100
AcDbPolyline
 90
        4
 70
     0
 43
0.0
 10
1877.131755005935
 20
-143.4649665125007
 10
1878.475400702127
 20
-142.5469400750546
 10
1878.798487638339
 20
-142.4399975788581
 10
1881.347825656018
 20
-141.4877081056395
  0
SPLINE
  5
1C8FA
330
18
100
AcDbEntity
  8
姿図
100
AcDbSpline
210
0.0
220
0.0
230
1.0
 70
     8
 71
     3
 72
     8
 73
     4
 74
     0
 42
0.000000001
 43
0.0000000001
 40
-5.558709854342928
 40
-5.558709854342928
 40
-5.558709854342928
 40
-5.558709854342928
 40
-5.251204385375416
 40
-5.251204385375416
 40
-5.251204385375416
 40
-5.251204385375416
 10
1882.086494610456
 20
-145.1645972897779
 30
-0.0000000000000046
 10
1882.100305162395
 20
-145.1481507700355
 30
-0.0000000000000046
 10
1882.114334330452
 20
-145.1320829197905
 30
-0.0000000000000127
 10
1882.128575690791
 20
-145.1164257145949
 30
-0.0000000000000127
  0
SPLINE
  5
1C8FB
330
18
100
AcDbEntity
  8
姿図
100
AcDbSpline
210
5.962451751547868E-6
220
-1.669879625547234E-5
230
-0.9999999998427997
 70
     8
 71
     3
 72
     8
 73
     4
 74
     0
 42
0.000000001
 43
0.0000000001
 40
110.2937215201613
 40
110.2937215201613
 40
110.2937215201613
 40
110.2937215201613
 40
110.302956437032
 40
110.302956437032
 40
110.302956437032
 40
110.302956437032
 10
1882.128840328698
 20
-145.1163312237923
 30
-0.0000000000000046
 10
1882.128752113511
 20
-145.1163627219594
 30
-0.0000000000000127
 10
1882.128663900943
 20
-145.1163942188705
 30
-0.0000000000000046
 10
1882.128575690791
 20
-145.1164257145949
 30
-0.0000000000000127
  0
SPLINE
  5
1C8FC
330
18
100
AcDbEntity
  8
姿図
100
AcDbSpline
210
0.0
220
0.0
230
1.0
 70
     8
 71
     3
 72
     8
 73
     4
 74
     0
 42
0.000000001
 43
0.0000000001
 40
-5.558709854342928
 40
-5.558709854342928
 40
-5.558709854342928
 40
-5.558709854342928
 40
-5.251204385375416
 40
-5.251204385375416
 40
-5.251204385375416
 40
-5.251204385375416
 10
1882.086527033654
 20
-145.1646098190215
 30
-0.0000000000000046
 10
1882.100337471426
 20
-145.1481634352383
 30
-0.0000000000000046
 10
1882.114366523507
 20
-145.132095717822
 30
-0.0000000000000127
 10
1882.128607766118
 20
-145.1164386420598
 30
-0.0000000000000127
  0
SPLINE
  5
1C8FD
330
18
100
AcDbEntity
  8
姿図
100
AcDbSpline
210
5.970203157749642E-6
220
-1.672050541387989E-5
230
-0.9999999998423907
 70
     8
 71
     3
 72
     8
 73
     4
 74
     0
 42
0.000000001
 43
0.0000000001
 40
110.2937215201613
 40
110.2937215201613
 40
110.2937215201613
 40
110.2937215201613
 40
110.302956437032
 40
110.302956437032
 40
110.302956437032
 40
110.302956437032
 10
1882.128872401836
 20
-145.1163441520387
 30
-0.0000000000000046
 10
1882.128784187378
 20
-145.1163756499452
 30
-0.0000000000000127
 10
1882.12869597554
 20
-145.1164071465957
 30
-0.0000000000000046
 10
1882.128607766118
 20
-145.1164386420598
 30
-0.0000000000000127
  0
SPLINE
  5
1C8FE
330
18
100
AcDbEntity
  8
姿図
100
AcDbSpline
210
0.0
220
0.0
230
1.0
 70
     8
 71
     3
 72
    14
 73
    10
 74
     0
 42
0.000000001
 43
0.0000000001
 40
-12.4176878319165
 40
-12.4176878319165
 40
-12.4176878319165
 40
-12.4176878319165
 40
-9.929941621284126
 40
-9.929941621284126
 40
-7.882361304732088
 40
-7.882361304732088
 40
-6.55536423551068
 40
-6.55536423551068
 40
-6.54232051596743
 40
-6.54232051596743
 40
-6.54232051596743
 40
-6.54232051596743
 10
1882.128840328698
 20
-145.1163312237923
 30
-0.0000000000000046
 10
1882.327578826497
 20
-145.0453695357826
 30
-0.0000000000000046
 10
1882.566336679894
 20
-144.9591300225468
 30
-0.0000000000000046
 10
1882.985555686282
 20
-144.8193205103455
 30
-0.0000000000000046
 10
1883.178966205562
 20
-144.7582564904537
 30
-0.0000000000000127
 10
1883.493586162
 20
-144.6770007297923
 30
-0.0000000000000046
 10
1883.636006027779
 20
-144.645244301169
 30
-0.0000000000000127
 10
1883.770886614663
 20
-144.6274790315201
 30
-0.0000000000000046
 10
1883.772197429805
 20
-144.627307601351
 30
-0.0000000000000127
 10
1883.773506181831
 20
-144.6271377446449
 30
-0.0000000000000046
  0
SPLINE
  5
1C8FF
330
18
100
AcDbEntity
  8
姿図
100
AcDbSpline
210
0.0
220
0.0
230
1.0
 70
     8
 71
     3
 72
    14
 73
    10
 74
     0
 42
0.000000001
 43
0.0000000001
 40
-12.4176878319165
 40
-12.4176878319165
 40
-12.4176878319165
 40
-12.4176878319165
 40
-9.929941621284126
 40
-9.929941621284126
 40
-7.882361304732088
 40
-7.882361304732088
 40
-6.55536423551068
 40
-6.55536423551068
 40
-6.54232051596743
 40
-6.54232051596743
 40
-6.54232051596743
 40
-6.54232051596743
 10
1882.128872401836
 20
-145.1163441520387
 30
-0.0000000000000046
 10
1882.327609256719
 20
-145.0453830506488
 30
-0.0000000000000046
 10
1882.566365136372
 20
-144.9591442503313
 30
-0.0000000000000046
 10
1882.985580677192
 20
-144.8193358938972
 30
-0.0000000000000046
 10
1883.178989597601
 20
-144.7582723788039
 30
-0.0000000000000127
 10
1883.493606953161
 20
-144.6770172898619
 30
-0.0000000000000046
 10
1883.636025641597
 20
-144.6452611237603
 30
-0.0000000000000127
 10
1883.770905113459
 20
-144.6274960009719
 30
-0.0000000000000046
 10
1883.772215917765
 20
-144.6273245722193
 30
-0.0000000000000127
 10
1883.773524658972
 20
-144.6271547169176
 30
-0.0000000000000046
  0
ARC
  5
1C900
330
18
100
AcDbEntity
  8
姿図
100
AcDbCircle
 10
1861.51064986499
 20
-155.3395990185504
 30
0.0
 40
20.05365414378541
100
AcDbArc
 50
37.17842849425494
 51
45.47237121298995
  0
LINE
  5
1C901
330
18
100
AcDbEntity
  8
姿図
100
AcDbLine
 10
1866.332288515695
 20
-145.9208849070253
 30
0.0
 11
1868.128932883007
 21
-144.0191407424354
 31
0.0
  0
LINE
  5
1C902
330
18
100
AcDbEntity
  8
姿図
100
AcDbLine
 10
1865.938689214765
 20
-145.5184158785441
 30
0.0
 11
1867.70426346633
 21
-143.6495593640591
 31
0.0
  0
LINE
  5
1C903
330
18
100
AcDbEntity
  8
姿図
100
AcDbLine
 10
1865.533866293236
 20
-145.1278270281146
 30
0.0
 11
1867.267541283559
 21
-143.2927358124412
 31
0.0
  0
LINE
  5
1C904
330
18
100
AcDbEntity
  8
姿図
100
AcDbLine
 10
1865.117521893045
 20
-144.7494336378497
 30
0.0
 11
1866.818415315215
 21
-142.9490416409394
 31
0.0
  0
LINE
  5
1C905
330
18
100
AcDbEntity
  8
姿図
100
AcDbLine
 10
1864.689285463772
 20
-144.3836279345662
 30
0.0
 11
1866.356457426515
 21
-142.6189300292936
 31
0.0
  0
LINE
  5
1C906
330
18
100
AcDbEntity
  8
姿図
100
AcDbLine
 10
1864.248703050852
 20
-144.0308904281858
 30
0.0
 11
1865.881150459742
 21
-142.3029483878231
 31
0.0
  0
LINE
  5
1C907
330
18
100
AcDbEntity
  8
姿図
100
AcDbLine
 10
1863.795223180464
 20
-143.6918048525508
 30
0.0
 11
1865.391872706564
 21
-142.0017547934513
 31
0.0
  0
LINE
  5
1C908
330
18
100
AcDbEntity
  8
姿図
100
AcDbLine
 10
1863.328178207742
 20
-143.3670779083052
 30
0.0
 11
1864.887877543655
 21
-141.716139545347
 31
0.0
  0
LINE
  5
1C909
330
18
100
AcDbEntity
  8
姿図
100
AcDbLine
 10
1862.846759467367
 20
-143.057565565932
 30
0.0
 11
1864.368266458765
 21
-141.4470537167758
 31
0.0
  0
LINE
  5
1C90A
330
18
100
AcDbEntity
  8
姿図
100
AcDbLine
 10
1862.349983744363
 20
-142.7643085563523
 30
0.0
 11
1863.831952830499
 21
-141.1956474941303
 31
0.0
  0
LINE
  5
1C90B
330
18
100
AcDbEntity
  8
姿図
100
AcDbLine
 10
1861.836647264216
 20
-142.4885810722758
 30
0.0
 11
1863.277612442825
 21
-140.9633225572045
 31
0.0
  0
LINE
  5
1C90C
330
18
100
AcDbEntity
  8
姿図
100
AcDbLine
 10
1861.305261210066
 20
-142.2319590231189
 30
0.0
 11
1862.703614428533
 21
-140.7518051754014
 31
0.0
  0
LINE
  5
1C90D
330
18
100
AcDbEntity
  8
姿図
100
AcDbLine
 10
1860.753958988
 20
-141.9964181944888
 30
0.0
 11
1862.107922405511
 21
-140.5632508547703
 31
0.0
  0
LINE
  5
1C90E
330
18
100
AcDbEntity
  8
姿図
100
AcDbLine
 10
1860.180358614832
 20
-141.7844799104203
 30
0.0
 11
1861.487948509156
 21
-140.4003988443767
 31
0.0
  0
LINE
  5
1C90F
330
18
100
AcDbEntity
  8
姿図
100
AcDbLine
 10
1859.581350542073
 20
-141.5994356212393
 30
0.0
 11
1860.840329660193
 21
-140.2668089563379
 31
0.0
  0
LINE
  5
1C910
330
18
100
AcDbEntity
  8
姿図
100
AcDbLine
 10
1858.952754652167
 20
-141.4457099723127
 30
0.0
 11
1860.160568470328
 21
-140.1672416664037
 31
0.0
  0
LINE
  5
1C911
330
18
100
AcDbEntity
  8
姿図
100
AcDbLine
 10
1879.005049802323
 20
-138.5249674419811
 30
0.0
 11
1876.08984313555
 21
-141.0580363213505
 31
0.0
  0
LWPOLYLINE
  5
1C912
330
18
100
AcDbEntity
  8
姿図
100
AcDbPolyline
 90
        3
 70
     0
 43
0.0
 10
1888.939190974883
 20
-144.2635531646972
 10
1889.494359255075
 20
-144.5322669793923
 10
1890.661533919058
 20
-145.384636120662
  0
TEXT
  5
1C943
330
18
100
AcDbEntity
  8
文字
100
AcDbText
 10
1841.949597442775
 20
-189.2268702635038
 30
0.0
 40
6.5
  1
SX-504P
100
AcDbText
  0
LINE
  5
1C97D
330
18
100
AcDbEntity
  8
姿図
  6
Continuous
100
AcDbLine
 10
1876.978883036777
 20
-110.8173328652674
 30
0.0
 11
1876.947907372604
 21
-108.8321955220761
 31
0.0
  0
ELLIPSE
  5
1C97E
330
18
100
AcDbEntity
  8
姿図
  6
Continuous
100
AcDbEllipse
 10
1872.456725693682
 20
-110.0121361204428
 30
0.0
 11
-4.508656897998035
 21
-0.06000625978837151
 31
0.0
210
0.0
220
0.0
230
1.0
 40
0.2772698421531005
 41
5.023298979783986
 42
6.284457527303843
  0
ELLIPSE
  5
1C97F
330
18
100
AcDbEntity
  8
姿図
  6
Continuous
100
AcDbEllipse
 10
1872.470226138778
 20
-110.8773391250552
 30
0.0
 11
4.514294991931459
 21
0.05954390657080749
 31
0.0
210
0.0
220
0.0
230
1.0
 40
0.2768241080109854
 41
-0.7603777596257293
 42
3.940404045631552
  0
LINE
  5
1C980
330
18
100
AcDbEntity
  8
姿図
100
AcDbLine
 10
1875.341479996173
 20
-102.4700639684427
 30
0.0
 11
1875.457251806632
 21
-109.8895318105954
 31
0.0
  0
LINE
  5
1C981
330
18
100
AcDbEntity
  8
姿図
100
AcDbLine
 10
1873.06762938197
 20
-116.2358385369093
 30
0.0
 11
1873.638102799519
 21
-115.6319936621996
 31
0.0
  0
LINE
  5
1C982
330
18
100
AcDbEntity
  8
姿図
100
AcDbLine
 10
1872.644024818158
 20
-116.3565858347959
 30
0.0
 11
1873.522201476967
 21
-115.4270377468411
 31
0.0
  0
LINE
  5
1C983
330
18
100
AcDbEntity
  8
姿図
100
AcDbLine
 10
1875.798944708305
 20
-111.6726371800187
 30
0.0
 11
1875.814009823264
 21
-112.8478466356737
 31
0.0
  0
LINE
  5
1C984
330
18
100
AcDbEntity
  8
姿図
100
AcDbLine
 10
1869.333050273269
 20
-111.8142943006067
 30
0.0
 11
1869.436941282212
 21
-113.1394185062907
 31
0.0
  0
LWPOLYLINE
  5
1C985
330
18
100
AcDbEntity
  8
姿図
100
AcDbPolyline
 90
        3
 70
     0
 43
0.0
 10
1868.348029720865
 20
-116.8210902004025
 10
1868.265140750781
 20
-116.861615538334
 10
1868.251175494411
 20
-116.9078150491334
  0
LWPOLYLINE
  5
1C986
330
18
100
AcDbEntity
  8
姿図
100
AcDbPolyline
 90
        3
 70
     0
 43
0.0
 10
1868.478946850129
 20
-116.6699828523092
 10
1868.396057880046
 20
-116.7105081902409
 10
1868.382092623676
 20
-116.7567077010403
  0
LINE
  5
1C987
330
18
100
AcDbEntity
  8
姿図
  6
Continuous
100
AcDbLine
 10
1867.961569240781
 20
-110.9373453848441
 30
0.0
 11
1867.948093611511
 21
-110.0737327521751
 31
0.0
  0
LINE
  5
1C988
330
18
100
AcDbEntity
  8
姿図
100
AcDbLine
 10
1871.436230315928
 20
-116.3244848396071
 30
0.0
 11
1872.431532488341
 21
-115.2709596496327
 31
0.0
  0
LINE
  5
1C989
330
18
100
AcDbEntity
  8
姿図
100
AcDbLine
 10
1871.209107108241
 20
-116.2372570483444
 30
0.0
 11
1872.113327662158
 21
-115.2801415539252
 31
0.0
  0
LINE
  5
1C98A
330
18
100
AcDbEntity
  8
姿図
100
AcDbLine
 10
1871.01999249528
 20
-116.1097972420305
 30
0.0
 11
1871.779180566663
 21
-115.3061983156952
 31
0.0
  0
LINE
  5
1C98B
330
18
100
AcDbEntity
  8
姿図
100
AcDbLine
 10
1870.898434615662
 20
-115.9108287800543
 30
0.0
 11
1871.425166711269
 21
-115.3532839997131
 31
0.0
  0
ELLIPSE
  5
1C98C
330
18
100
AcDbEntity
  8
姿図
100
AcDbEllipse
 10
1872.611335852954
 20
-112.1801000281173
 30
0.0
 11
-3.398522913634069
 21
-0.01447515538427792
 31
0.0
210
0.0
220
0.0
230
1.0
 40
0.421073713534917
 41
3.493959631008393
 42
6.014590545856733
  0
ELLIPSE
  5
1C98D
330
18
100
AcDbEntity
  8
姿図
100
AcDbEllipse
 10
1872.268253263675
 20
-113.3921641649838
 30
0.0
 11
-2.977322425633557
 21
-0.0651525036592447
 31
0.0
210
0.0
220
0.0
230
1.0
 40
0.423425259805966
 41
3.562126164169125
 42
6.045724500716436
  0
LINE
  5
1C98E
330
18
100
AcDbEntity
  8
姿図
100
AcDbLine
 10
1872.291220752258
 20
-116.4023909592602
 30
0.0
 11
1873.30951582648
 21
-115.3245278326074
 31
0.0
  0
LINE
  5
1C98F
330
18
100
AcDbEntity
  8
姿図
100
AcDbLine
 10
1871.977168280049
 20
-116.4071776058813
 30
0.0
 11
1873.028489666715
 21
-115.2943561991647
 31
0.0
  0
LINE
  5
1C990
330
18
100
AcDbEntity
  8
姿図
100
AcDbLine
 10
1871.692933413998
 20
-116.3804023810801
 30
0.0
 11
1872.736112537184
 21
-115.276199542591
 31
0.0
  0
ELLIPSE
  5
1C991
330
18
100
AcDbEntity
  8
姿図
100
AcDbEllipse
 10
1872.266922551107
 20
-115.7644169218115
 30
0.0
 11
-1.374390620266722
 21
-0.1061948148059822
 31
0.0
210
0.0
220
0.0
230
1.0
 40
0.4628655777425251
 41
5.477092832877411
 42
9.981255930046515
  0
ELLIPSE
  5
1C992
330
18
100
AcDbEntity
  8
姿図
100
AcDbEllipse
 10
1872.342981330134
 20
-116.021792681483
 30
0.0
 11
2.908257364162413
 21
0.09033739870748021
 31
0.0
210
0.0
220
0.0
230
1.0
 40
0.4346217930958619
 41
3.572038920501568
 42
5.869050530619732
  0
ELLIPSE
  5
1C993
330
18
100
AcDbEntity
  8
姿図
100
AcDbEllipse
 10
1872.42319912273
 20
-116.5306353352221
 30
0.0
 11
-2.922366604295876
 21
-0.02352774701720397
 31
0.0
210
0.0
220
0.0
230
1.0
 40
0.4310041458033451
 41
3.612298197460502
 42
5.991115740086309
  0
ELLIPSE
  5
1C994
330
18
100
AcDbEntity
  8
姿図
100
AcDbEllipse
 10
1872.349511343497
 20
-116.2515792953636
 30
0.0
 11
-2.977322425633557
 21
-0.0651525036592447
 31
0.0
210
0.0
220
0.0
230
1.0
 40
0.423425259805966
 41
3.551025708286839
 42
6.045724500716436
  0
ELLIPSE
  5
1C995
330
18
100
AcDbEntity
  8
姿図
100
AcDbEllipse
 10
1872.349511343497
 20
-116.2515792953636
 30
0.0
 11
-2.977322425633557
 21
-0.0651525036592447
 31
0.0
210
0.0
220
0.0
230
1.0
 40
0.423425259805966
 41
0.3786499284263661
 42
2.848220962939281
  0
LINE
  5
1C996
330
18
100
AcDbEntity
  8
姿図
  6
Continuous
100
AcDbLine
 10
1876.878041532294
 20
-104.3547035196216
 30
0.0
 11
1876.862858677934
 21
-103.3816799552105
 31
0.0
  0
LINE
  5
1C997
330
18
100
AcDbEntity
  8
姿図
  6
Continuous
100
AcDbLine
 10
1876.874277987948
 20
-104.1135092587583
 30
0.0
 11
1877.972274187424
 21
-104.3894299221731
 31
0.0
  0
LINE
  5
1C998
330
18
100
AcDbEntity
  8
姿図
  6
Continuous
100
AcDbLine
 10
1873.440677513494
 20
-102.0858281774283
 30
0.0
 11
1874.223189998145
 21
-102.2824694444903
 31
0.0
  0
LINE
  5
1C999
330
18
100
AcDbEntity
  8
姿図
  6
Continuous
100
AcDbLine
 10
1873.429849986057
 20
-101.3919244428205
 30
0.0
 11
1875.261625440329
 21
-101.8522399692404
 31
0.0
  0
LINE
  5
1C99A
330
18
100
AcDbEntity
  8
姿図
  6
Continuous
100
AcDbLine
 10
1873.429849986057
 20
-101.3919244428205
 30
0.0
 11
1873.440677513494
 21
-102.0858281774283
 31
0.0
  0
LINE
  5
1C99B
330
18
100
AcDbEntity
  8
姿図
  6
Continuous
100
AcDbLine
 10
1873.440677513494
 20
-102.0858281774283
 30
0.0
 11
1873.042687524272
 21
-102.1991532400932
 31
0.0
  0
LINE
  5
1C99C
330
18
100
AcDbEntity
  8
姿図
  6
Continuous
100
AcDbLine
 10
1875.261625440329
 20
-101.8522399692404
 30
0.0
 11
1875.271015195539
 21
-102.4540011972551
 31
0.0
  0
LINE
  5
1C99D
330
18
100
AcDbEntity
  8
姿図
  6
Continuous
100
AcDbLine
 10
1870.35778962725
 20
-102.2666736629001
 30
0.0
 11
1869.331346745616
 21
-102.5589466020017
 31
0.0
  0
ELLIPSE
  5
1C99E
330
18
100
AcDbEntity
  8
姿図
  6
Continuous
100
AcDbEllipse
 10
1872.376326801291
 20
-104.8596124251005
 30
0.0
 11
-4.508656897998035
 21
-0.06000625978837151
 31
0.0
210
0.0
220
0.0
230
1.0
 40
0.2772698421531005
 41
5.023298979783986
 42
6.284457527303843
  0
ELLIPSE
  5
1C99F
330
18
100
AcDbEntity
  8
姿図
  6
Continuous
100
AcDbEllipse
 10
1872.365289106442
 20
-104.1522396919936
 30
0.0
 11
-4.508656897998035
 21
-0.06000625978837151
 31
0.0
210
0.0
220
0.0
230
1.0
 40
0.2772698421531005
 41
5.023298979783986
 42
6.284457527303843
  0
ELLIPSE
  5
1C9A0
330
18
100
AcDbEntity
  8
姿図
  6
Continuous
100
AcDbEllipse
 10
1872.387364496139
 20
-105.5669851582072
 30
0.0
 11
-4.508656897998035
 21
-0.06000625978837151
 31
0.0
210
0.0
220
0.0
230
1.0
 40
0.2772698421531005
 41
5.023298979783986
 42
6.284457527303843
  0
LINE
  5
1C9A1
330
18
100
AcDbEntity
  8
姿図
  6
Continuous
100
AcDbLine
 10
1872.026922638202
 20
-101.7913988866887
 30
0.0
 11
1872.018322738513
 21
-101.2402571283137
 31
0.0
  0
ARC
  5
1C9A2
330
18
100
AcDbEntity
  8
姿図
  6
Continuous
100
AcDbCircle
 10
1871.228166746934
 20
-104.037709766015
 30
0.0
 40
0.428308076877285
100
AcDbArc
 50
125.2165394192185
 51
236.5713779883786
  0
ARC
  5
1C9A3
330
18
100
AcDbEntity
  8
姿図
  6
Continuous
100
AcDbCircle
 10
1871.239204441782
 20
-104.7450824991224
 30
0.0
 40
0.428308076877285
100
AcDbArc
 50
125.2165394192185
 51
236.5713779883786
  0
ARC
  5
1C9A4
330
18
100
AcDbEntity
  8
姿図
  6
Continuous
100
AcDbCircle
 10
1871.217129052085
 20
-103.3303370329081
 30
0.0
 40
0.428308076877285
100
AcDbArc
 50
125.2165394192185
 51
236.5713779883786
  0
ARC
  5
1C9A5
330
18
100
AcDbEntity
  8
姿図
  6
Continuous
100
AcDbCircle
 10
1871.206091357236
 20
-102.6229642998023
 30
0.0
 40
0.428308076877285
100
AcDbArc
 50
125.2165394192185
 51
236.5713779883786
  0
LINE
  5
1C9A6
330
18
100
AcDbEntity
  8
姿図
  6
Continuous
100
AcDbLine
 10
1870.35778962725
 20
-102.2666736629001
 30
0.0
 11
1870.34918972756
 21
-101.7155319045253
 31
0.0
  0
LINE
  5
1C9A7
330
18
100
AcDbEntity
  8
姿図
  6
Continuous
100
AcDbLine
 10
1872.018322738513
 20
-101.2402571283137
 30
0.0
 11
1870.34918972756
 21
-101.7155319045253
 31
0.0
  0
LINE
  5
1C9A8
330
18
100
AcDbEntity
  8
姿図
  6
Continuous
100
AcDbLine
 10
1872.018322738513
 20
-101.2402571283137
 30
0.0
 11
1873.051067210571
 21
-101.4997803762126
 31
0.0
  0
LINE
  5
1C9A9
330
18
100
AcDbEntity
  8
姿図
  6
Continuous
100
AcDbLine
 10
1873.429849986057
 20
-101.3919244428205
 30
0.0
 11
1872.026922638202
 21
-101.7913988866887
 31
0.0
  0
ELLIPSE
  5
1C9AA
330
18
100
AcDbEntity
  8
姿図
  6
Continuous
100
AcDbEllipse
 10
1872.354226595765
 20
-103.4432765869424
 30
0.0
 11
-4.508656897998035
 21
-0.06000625978837151
 31
0.0
210
0.0
220
0.0
230
1.0
 40
0.2772698421531005
 41
3.141592653589793
 42
6.284457527303843
  0
LINE
  5
1C9AB
330
18
100
AcDbEntity
  8
姿図
  6
Continuous
100
AcDbLine
 10
1878.051191543921
 20
-109.4470064288041
 30
0.0
 11
1876.953195344443
 21
-109.1710857653895
 31
0.0
  0
LINE
  5
1C9AC
330
18
100
AcDbEntity
  8
姿図
  6
Continuous
100
AcDbLine
 10
1878.051191543921
 20
-109.4470064288041
 30
0.0
 11
1876.962338610207
 21
-109.7570502245967
 31
0.0
  0
ELLIPSE
  5
1C9AD
330
18
100
AcDbEntity
  8
姿図
  6
Continuous
100
AcDbEllipse
 10
1872.409439885836
 20
-106.9817306244208
 30
0.0
 11
-4.508656897998035
 21
-0.06000625978837151
 31
0.0
210
0.0
220
0.0
230
1.0
 40
0.2772698421531005
 41
5.023298979783986
 42
6.284457527303843
  0
ELLIPSE
  5
1C9AE
330
18
100
AcDbEntity
  8
姿図
  6
Continuous
100
AcDbEllipse
 10
1872.420477580684
 20
-107.6891033575275
 30
0.0
 11
-4.508656897998035
 21
-0.06000625978837151
 31
0.0
210
0.0
220
0.0
230
1.0
 40
0.2772698421531005
 41
5.023298979783986
 42
6.284457527303843
  0
ELLIPSE
  5
1C9AF
330
18
100
AcDbEntity
  8
姿図
  6
Continuous
100
AcDbEllipse
 10
1872.431515275533
 20
-108.3964760906335
 30
0.0
 11
-4.508656897998035
 21
-0.06000625978837151
 31
0.0
210
0.0
220
0.0
230
1.0
 40
0.2772698421531005
 41
5.023298979783986
 42
6.284457527303843
  0
ELLIPSE
  5
1C9B0
330
18
100
AcDbEntity
  8
姿図
  6
Continuous
100
AcDbEllipse
 10
1872.431515275533
 20
-108.3964760906335
 30
0.0
 11
-4.057791208198227
 21
-0.0540056338095343
 31
0.0
210
0.0
220
0.0
230
1.0
 40
0.2772698421531006
 41
5.059138046656052
 42
6.284457527303843
  0
LINE
  5
1C9B1
330
18
100
AcDbEntity
  8
姿図
  6
Continuous
100
AcDbLine
 10
1868.37374640158
 20
-108.4519130591934
 30
0.0
 11
1868.390443209842
 21
-109.5219613850547
 31
0.0
  0
ELLIPSE
  5
1C9B2
330
18
100
AcDbEntity
  8
姿図
  6
Continuous
100
AcDbEllipse
 10
1872.431515275533
 20
-108.3964760906335
 30
0.0
 11
-4.508656897998883
 21
-0.06000625972474936
 31
0.0
210
0.0
220
0.0
230
-1.0
 40
0.2772698421531006
 41
5.831521967583216
 42
6.284457527303843
  0
ARC
  5
1C9B3
330
18
100
AcDbEntity
  8
姿図
  6
Continuous
100
AcDbCircle
 10
1871.272317526327
 20
-106.867200698442
 30
0.0
 40
0.428308076877285
100
AcDbArc
 50
125.2165394192185
 51
236.5713779883786
  0
ARC
  5
1C9B4
330
18
100
AcDbEntity
  8
姿図
  6
Continuous
100
AcDbCircle
 10
1871.261279831479
 20
-106.1598279653354
 30
0.0
 40
0.428308076877285
100
AcDbArc
 50
125.2165394192185
 51
236.5713779883786
  0
LINE
  5
1C9B5
330
18
100
AcDbEntity
  8
姿図
  6
Continuous
100
AcDbLine
 10
1877.972274187424
 20
-104.3894299221731
 30
0.0
 11
1878.051191543921
 21
-109.4470064288041
 31
0.0
  0
ELLIPSE
  5
1C9B6
330
18
100
AcDbEntity
  8
姿図
  6
Continuous
100
AcDbEllipse
 10
1872.398402190988
 20
-106.2743578913141
 30
0.0
 11
-4.508656897998035
 21
-0.06000625978837151
 31
0.0
210
0.0
220
0.0
230
1.0
 40
0.2772698421531005
 41
5.023298979783986
 42
6.284457527303843
  0
LINE
  5
1C9B7
330
18
100
AcDbEntity
  8
姿図
  6
Continuous
100
AcDbLine
 10
1867.922940105889
 20
-108.4617200753241
 30
0.0
 11
1867.845569697768
 21
-103.5032828467306
 31
0.0
  0
LINE
  5
1C9B8
330
18
100
AcDbEntity
  8
姿図
  6
Continuous
100
AcDbLine
 10
1871.061574002217
 20
-108.8403149852556
 30
0.0
 11
1870.959074904301
 21
-102.2714554517561
 31
0.0
  0
ARC
  5
1C9B9
330
18
100
AcDbEntity
  8
姿図
  6
Continuous
100
AcDbCircle
 10
1871.250242136631
 20
-105.4524552322287
 30
0.0
 40
0.428308076877285
100
AcDbArc
 50
125.2165394192185
 51
236.5713779883786
  0
LINE
  5
1C9E1
330
18
100
AcDbEntity
  8
姿図
100
AcDbLine
 10
1868.245252392436
 20
-116.8982497532309
 30
0.0000000000000033
 11
1864.134063751103
 21
-136.1091286904934
 31
0.0000000000000033
  0
SPLINE
  5
1C9E2
330
18
100
AcDbEntity
  8
姿図
100
AcDbSpline
210
0.0
220
0.0
230
1.0
 70
     8
 71
     3
 72
     8
 73
     4
 74
     0
 42
0.000000001
 43
0.0000000001
 40
0.2696514016814274
 40
0.2696514016814274
 40
0.2696514016814274
 40
0.2696514016814274
 40
1.0
 40
1.0
 40
1.0
 40
1.0
 10
1862.200576249289
 20
-136.0987827314977
 30
0.0000000000000033
 10
1864.099868661423
 20
-125.784080395181
 30
0.0000000000000033
 10
1866.167418796843
 20
-116.3643485650448
 30
0.0000000000000033
 10
1866.167418796843
 20
-116.3643485650448
 30
0.0000000000000033
  0
SPLINE
  5
1C9E3
330
18
100
AcDbEntity
  8
姿図
100
AcDbSpline
210
0.0
220
0.0
230
1.0
 70
     8
 71
     3
 72
     8
 73
     4
 74
     0
 42
0.000000001
 43
0.0000000001
 40
15.0
 40
15.0
 40
15.0
 40
15.0
 40
15.72631331981369
 40
15.72631331981369
 40
15.72631331981369
 40
15.72631331981369
 10
1865.113940585745
 20
-114.9034851260101
 30
0.0000000000000033
 10
1865.113940585745
 20
-114.9034851260101
 30
0.0000000000000033
 10
1863.357701412611
 20
-125.3452291919118
 30
0.0000000000000033
 10
1861.602203194736
 20
-136.3092633890151
 30
0.0000000000000033
  0
SPLINE
  5
1C9E4
330
18
100
AcDbEntity
  8
姿図
100
AcDbSpline
210
0.0
220
0.0
230
1.0
 70
     8
 71
     3
 72
     8
 73
     4
 74
     0
 42
0.000000001
 43
0.0000000001
 40
6.0
 40
6.0
 40
6.0
 40
6.0
 40
6.981114317255776
 40
6.981114317255776
 40
6.981114317255776
 40
6.981114317255776
 10
1876.694029256737
 20
-115.8711662833982
 30
0.0000000000000033
 10
1876.866639781578
 20
-116.4601274127704
 30
0.0000000000000033
 10
1881.765870981258
 20
-144.1706011194792
 30
0.0000000000000033
 10
1881.950889263941
 20
-145.33050563856
 30
0.0000000000000033
  0
ELLIPSE
  5
1C9E5
330
18
100
AcDbEntity
  8
姿図
100
AcDbEllipse
 10
1866.451387795988
 20
-152.2384659812435
 30
0.0000000000000048
 11
-7.362188164839183
 21
12.10263477568438
 31
2.047841201604088E-16
210
-7.512918126812984E-18
220
1.235041840179202E-17
230
-1.0
 40
0.7445887407023684
 41
4.327427167059906
 42
4.752891862258899
  0
ELLIPSE
  5
1C9E6
330
18
100
AcDbEntity
  8
姿図
100
AcDbEllipse
 10
1864.626198668712
 20
-152.9356006853268
 30
0.0000000000000048
 11
-7.444693544853399
 21
11.8886404268406
 31
1.216566339489824E-15
210
-4.507750876087802E-17
220
7.410251041075204E-17
230
-1.0
 40
0.7056022756695942
 41
3.486045950244612
 42
5.025651057886404
  0
ELLIPSE
  5
1C9E7
330
18
100
AcDbEntity
  8
姿図
100
AcDbEllipse
 10
1865.995175589249
 20
-152.4424663599882
 30
0.0000000000000048
 11
-7.060164574590121
 21
11.81984014879487
 31
1.990224096906372E-16
210
-7.512918126813000E-18
220
1.235041840179201E-17
230
-1.0
 40
0.7210291192186467
 41
3.53225784205633
 42
5.995539524716994
  0
ELLIPSE
  5
1C9E8
330
18
100
AcDbEntity
  8
姿図
100
AcDbEllipse
 10
1862.264078808991
 20
-154.1692174928039
 30
0.0000000000000048
 11
-7.884575982221855
 21
12.96138340089481
 31
4.386293637723232E-16
210
-1.502583625362599E-17
220
2.470083680358400E-17
230
-1.0
 40
0.7445887407027094
 41
-0.1600394095497162
 42
3.301632058444431
  0
ELLIPSE
  5
1C9E9
330
18
100
AcDbEntity
  8
姿図
100
AcDbEllipse
 10
1862.142497617573
 20
-154.3251234697395
 30
0.0000000000000048
 11
-7.884575982221196
 21
12.9613834008953
 31
4.386293637723255E-16
210
-1.502583625362600E-17
220
2.470083680358401E-17
230
-1.0
 40
0.7445887407027151
 41
-0.1600394095497866
 42
2.858287793139493
  0
ELLIPSE
  5
1C9EA
330
18
100
AcDbEntity
  8
姿図
100
AcDbEllipse
 10
1864.571293186315
 20
-153.1209437051207
 30
0.0000000000000048
 11
-7.82701416331038
 21
11.75310932543846
 31
4.079190685550499E-16
210
-1.502583625362602E-17
220
2.470083680358398E-17
230
-1.0
 40
0.7569365384830131
 41
3.552643368148212
 42
5.078668158851188
  0
ELLIPSE
  5
1C9EB
330
18
100
AcDbEntity
  8
姿図
100
AcDbEllipse
 10
1863.713807372084
 20
-153.6425633383701
 30
0.0000000000000048
 11
-8.208672799841843
 21
11.462383986619
 31
6.097089743752613E-16
210
-2.253875438043899E-17
220
3.705125520537601E-17
230
-1.0
 40
0.7212488145120979
 41
3.547863408263944
 42
6.141197072414606
  0
ELLIPSE
  5
1C9EC
330
18
100
AcDbEntity
  8
姿図
100
AcDbEllipse
 10
1862.664869830286
 20
-153.9254111673022
 30
0.0000000000000048
 11
-7.672174073519265
 21
12.61221781735697
 31
1.280439496127413E-15
210
-4.507750876087800E-17
220
7.410251041075201E-17
230
-1.0
 40
0.7445887407026809
 41
3.636283805279289
 42
5.673615026347025
  0
ELLIPSE
  5
1C9ED
330
18
100
AcDbEntity
  8
姿図
100
AcDbEllipse
 10
1866.724055286415
 20
-152.2815746735353
 30
0.0000000000000048
 11
-8.699597329939271
 21
11.81675478891425
 31
6.339036848116352E-16
210
-2.253875438043897E-17
220
3.705125520537603E-17
230
-1.0
 40
0.7846158028914395
 41
-0.5798433882892109
 42
-0.2849668007484034
  0
ELLIPSE
  5
1C9EE
330
18
100
AcDbEntity
  8
姿図
100
AcDbEllipse
 10
1866.451387795988
 20
-152.2384659812435
 30
0.0000000000000048
 11
-7.362188164834699
 21
12.10263477567932
 31
4.095682403206245E-16
210
-1.502583625362597E-17
220
2.470083680358399E-17
230
-1.0
 40
0.7445887407026627
 41
-0.6754224664350246
 42
-0.3300486139800427
  0
ELLIPSE
  5
1C9EF
330
18
100
AcDbEntity
  8
姿図
100
AcDbEllipse
 10
1864.626198668712
 20
-152.9356006853268
 30
0.0000000000000048
 11
-6.171736332991535
 21
12.71299744546082
 31
1.220271524174379E-15
210
-4.507750876087799E-17
220
7.410251041075202E-17
230
-1.0
 40
0.7148769796037835
 41
-1.336025501013204
 42
-0.3740805824015643
  0
ELLIPSE
  5
1C9F0
330
18
100
AcDbEntity
  8
姿図
100
AcDbEllipse
 10
1864.571293186315
 20
-153.1209437051207
 30
0.0000000000000048
 11
-8.829979100642742
 21
10.98552652668503
 31
4.040295180262875E-16
210
-1.502583625362599E-17
220
2.470083680358400E-17
230
-1.0
 40
0.7419878916066797
 41
-1.136589550032924
 42
-0.125843033866976
  0
LINE
  5
1C9F1
330
18
100
AcDbEntity
  8
姿図
100
AcDbLine
 10
1854.367884415803
 20
-146.130763507326
 30
0.0000000000000048
 11
1855.07244542835
 21
-146.2278533696331
 31
0.0000000000000048
  0
ELLIPSE
  5
1C9F2
330
18
100
AcDbEntity
  8
姿図
100
AcDbEllipse
 10
1866.451387795988
 20
-152.2384659812435
 30
0.0000000000000048
 11
-7.3621881648323
 21
12.1026347756822
 31
8.191364806413193E-16
210
-3.005167250725200E-17
220
4.940167360716794E-17
230
-1.0
 40
0.7445887407026724
 41
-1.020444988477155
 42
-0.675422466435305
  0
ELLIPSE
  5
1C9F3
330
18
100
AcDbEntity
  8
姿図
100
AcDbEllipse
 10
1865.94062653708
 20
-152.4317457034922
 30
0.0000000000000048
 11
-8.500228564433543
 21
9.951939267751863
 31
5.603164053892366E-16
210
-2.253875438043900E-17
220
3.705125520537602E-17
230
-1.0
 40
0.8394320487860444
 41
-1.376701961562133
 42
-0.9346820271856128
  0
LINE
  5
1C9F4
330
18
100
AcDbEntity
  8
姿図
100
AcDbLine
 10
1856.104007532073
 20
-157.5136174656129
 30
0.000000000000005
 11
1857.149184480175
 21
-157.2257150348471
 31
0.0000000000000048
  0
ELLIPSE
  5
1C9F5
330
18
100
AcDbEntity
  8
姿図
100
AcDbEllipse
 10
1866.451387795988
 20
-152.2384659812435
 30
0.0000000000000048
 11
-7.362188164830537
 21
12.10263477569337
 31
2.047841201604545E-16
210
-7.512918126813013E-18
220
1.235041840179197E-17
230
-1.0
 40
0.7445887407022102
 41
-1.530293444921352
 42
-1.020444988477903
  0
LINE
  5
1C9F6
330
18
100
AcDbEntity
  8
姿図
100
AcDbLine
 10
1855.164554277247
 20
-152.0533415723132
 30
0.0000000000000048
 11
1854.170835453563
 21
-152.2593149211145
 31
0.0000000000000051
  0
LINE
  5
1C9F7
330
18
100
AcDbEntity
  8
姿図
100
AcDbLine
 10
1856.162161925044
 20
-143.1551778526139
 30
0.0000000000000048
 11
1855.768816578539
 21
-142.8602966885719
 31
0.0000000000000054
  0
ELLIPSE
  5
1C9F8
330
18
100
AcDbEntity
  8
姿図
100
AcDbEllipse
 10
1862.976682853642
 20
-153.7357313006657
 30
0.0000000000000048
 11
-7.530096776584824
 21
12.37865822770092
 31
2.094546089343517E-16
210
-7.512918126813005E-18
220
1.235041840179200E-17
230
-1.0
 40
0.7445887400054914
 41
-0.0197153658459095
 42
-0.0169158929493971
  0
LINE
  5
1C9F9
330
18
100
AcDbEntity
  8
姿図
100
AcDbLine
 10
1881.736387207528
 20
-145.8165802886479
 30
0.0000000000000048
 11
1877.998101559781
 21
-147.3811612942725
 31
0.0000000000000048
  0
ELLIPSE
  5
1C9FA
330
18
100
AcDbEntity
  8
姿図
100
AcDbEllipse
 10
1883.080175094245
 20
-147.06035166429
 30
0.0000000000000035
 11
-0.2991228894807637
 21
2.304387633209254
 31
1.343670822496855E-16
210
-7.443458355557006E-18
220
5.734303186422380E-17
230
-1.0
 40
0.6338586263931683
 41
-1.249552989789342
 42
-0.5274645292546232
  0
ELLIPSE
  5
1C9FB
330
18
100
AcDbEntity
  8
姿図
100
AcDbEllipse
 10
1883.080199302962
 20
-147.0603485218573
 30
0.0000000000000035
 11
-0.2991204167161672
 21
2.304368583473515
 31
1.343659714741615E-16
210
-7.443458355556991E-18
220
5.734303186422372E-17
230
-1.0
 40
0.6338586263936181
 41
-1.249552989788636
 42
-0.5274645292532043
  0
ELLIPSE
  5
1C9FC
330
18
100
AcDbEntity
  8
姿図
100
AcDbEllipse
 10
1884.547985167479
 20
-146.8698213975986
 30
0.0000000000000035
 11
-0.2991204167153053
 21
2.304368583474418
 31
1.343659714742069E-16
210
-7.443458355556967E-18
220
5.734303186422374E-17
230
-1.0
 40
0.6338586263934506
 41
4.868828357704045
 42
11.15201366488363
  0
ELLIPSE
  5
1C9FD
330
18
100
AcDbEntity
  8
姿図
100
AcDbEllipse
 10
1884.547985167479
 20
-146.8698213975986
 30
0.0000000000000035
 11
-0.2287391421940569
 21
1.762164210892201
 31
1.027504487743933E-16
210
-7.443458355556960E-18
220
5.734303186422367E-17
230
-1.0
 40
0.6338586263934508
 41
4.868828357704053
 42
11.15201366488364
  0
ELLIPSE
  5
1C9FE
330
18
100
AcDbEntity
  8
姿図
100
AcDbEllipse
 10
1883.81409223522
 20
-146.9650849597276
 30
0.0000000000000035
 11
-0.2111438235632067
 21
1.6266131177468
 31
7.113492607458361E-17
210
-5.582593766667742E-18
220
4.300727389816779E-17
230
-1.0
 40
0.6338586263932079
 41
0.236134012315081
 42
2.425367404911594
  0
ELLIPSE
  5
1C9FF
330
18
100
AcDbEntity
  8
姿図
100
AcDbEllipse
 10
1866.796394501458
 20
-151.4121513704961
 30
0.0000000000000035
 11
-8.240481708337285
 21
13.54645361661168
 31
1.375286606555164E-15
210
-4.507750876087788E-17
220
7.410251041075196E-17
230
-1.0
 40
0.7445887407027103
 41
0.1816174140285645
 42
1.721396946041356
  0
SPLINE
  5
1CA00
330
18
100
AcDbEntity
  8
姿図
100
AcDbSpline
210
0.0
220
0.0
230
1.0
 70
     8
 71
     3
 72
    10
 73
     6
 74
     0
 42
0.000000001
 43
0.0000000001
 40
0.0507684683112425
 40
0.0507684683112425
 40
0.0507684683112425
 40
0.0507684683112425
 40
16.17239265914957
 40
16.17239265914957
 40
28.35901754380262
 40
28.35901754380262
 40
28.35901754380262
 40
28.35901754380262
 10
1879.071387329287
 20
-146.8824076155302
 30
0.0000000000000048
 10
1878.776296393291
 20
-146.1340580120266
 30
0.0000000000000097
 10
1878.068781797308
 20
-144.8288047275068
 30
0.0000000000000048
 10
1876.58797551588
 20
-142.7015990499926
 30
0.0000000000000007
 10
1875.714452302832
 20
-141.6135396338245
 30
0.0000000000000026
 10
1874.475474997442
 20
-140.4430521758532
 30
0.000000000000004
  0
ELLIPSE
  5
1CA01
330
18
100
AcDbEntity
  8
姿図
100
AcDbEllipse
 10
1866.796394501458
 20
-151.4121513704961
 30
0.0000000000000035
 11
-8.240481708336526
 21
13.54645361661212
 31
1.375286606555164E-15
210
-4.507750876087789E-17
220
7.410251041075211E-17
230
-1.0
 40
0.7445887407026952
 41
2.121095593057874
 42
2.942897457598217
  0
ARC
  5
1CA02
330
18
100
AcDbEntity
  8
姿図
100
AcDbCircle
 10
1873.402592518614
 20
-148.1979656993037
 30
0.0000000000000026
 40
11.86515413592403
100
AcDbArc
 50
305.5986504504084
 51
348.5556650930565
  0
LINE
  5
1CA03
330
18
100
AcDbEntity
  8
姿図
100
AcDbLine
 10
1860.864104319216
 20
-161.8638972167885
 30
0.0000000000000048
 11
1860.509148718956
 21
-162.6877081334455
 31
0.0000000000000046
  0
ELLIPSE
  5
1CA04
330
18
100
AcDbEntity
  8
姿図
100
AcDbEllipse
 10
1866.451387795988
 20
-152.2384659812435
 30
0.0000000000000048
 11
-7.245890988991941
 21
12.14575907608555
 31
1.022214960765639E-15
210
-3.756459063406504E-17
220
6.175209200896002E-17
230
-1.0
 40
0.7430302579573002
 41
3.587432645584389
 42
4.013845773911165
  0
LINE
  5
1CA05
330
18
100
AcDbEntity
  8
姿図
100
AcDbLine
 10
1864.200332568222
 20
-164.172332165138
 30
0.0000000000000042
 11
1863.75134964404
 21
-164.7803918268714
 31
0.0000000000000044
  0
ELLIPSE
  5
1CA06
330
18
100
AcDbEntity
  8
姿図
100
AcDbEllipse
 10
1864.068028435389
 20
-153.07185176744
 30
0.0000000000000048
 11
-7.13486450601208
 21
11.72893942405067
 31
1.984609621758720E-16
210
-7.512918126813008E-18
220
1.235041840179200E-17
230
-1.0
 40
0.7445887418889435
 41
3.384599287400112
 42
3.389850227392116
  0
ELLIPSE
  5
1CA07
330
18
100
AcDbEntity
  8
姿図
100
AcDbEllipse
 10
1862.260195186246
 20
-154.1715799503959
 30
0.0000000000000048
 11
-7.883976894925901
 21
12.96040266558285
 31
4.385961370018242E-16
210
-1.502583625362601E-17
220
2.470083680358399E-17
230
-1.0
 40
0.7445885816862141
 41
3.329004700455244
 42
3.329226432330678
  0
ELLIPSE
  5
1CA08
330
18
100
AcDbEntity
  8
姿図
100
AcDbEllipse
 10
1862.197150295251
 20
-154.2099309672558
 30
0.0000000000000048
 11
-7.874212555822768
 21
12.94434706054504
 31
8.761056655230284E-16
210
-3.005167250725200E-17
220
4.940167360716802E-17
230
-1.0
 40
0.7445887405939735
 41
3.327615434085498
 42
3.342055807832923
  0
ELLIPSE
  5
1CA09
330
18
100
AcDbEntity
  8
姿図
100
AcDbEllipse
 10
1880.483925050888
 20
-132.7730212694864
 30
0.0000000000000052
 11
17.59358850054388
 21
31.5635918245737
 31
7.729331260063255E-16
210
-2.253875438043897E-17
220
3.705125520537600E-17
230
-1.0
 40
0.6410056557820725
 41
3.099784278963601
 42
3.266368125798948
  0
LINE
  5
1CA0A
330
18
100
AcDbEntity
  8
姿図
100
AcDbLine
 10
1884.847095982122
 20
-149.1742105981918
 30
0.0000000000000035
 11
1883.379297983725
 21
-149.3647392974988
 31
0.0000000000000035
  0
LINE
  5
1CA0B
330
18
100
AcDbEntity
  8
姿図
100
AcDbLine
 10
1884.847105584194
 20
-149.1741899810731
 30
0.0000000000000035
 11
1883.379319719677
 21
-149.3647171053328
 31
0.0000000000000035
  0
LINE
  5
1CA0C
330
18
100
AcDbEntity
  8
姿図
100
AcDbLine
 10
1884.059680520311
 20
-148.0358958315744
 30
0.0000000000000035
 11
1883.954837806139
 21
-148.0495050243819
 31
0.0000000000000035
  0
LINE
  5
1CA0D
330
18
100
AcDbEntity
  8
姿図
100
AcDbLine
 10
1884.059696631728
 20
-148.0358846245888
 30
0.0000000000000035
 11
1883.954854784263
 21
-148.0494937048932
 31
0.0000000000000035
  0
ARC
  5
1CA0E
330
18
100
AcDbEntity
  8
姿図
100
AcDbCircle
 10
1882.941211247837
 20
-148.7445110919111
 30
0.0000000000000026
 40
2.763779877119617
100
AcDbArc
 50
319.1512900024634
 51
4.149031979423785
  0
ELLIPSE
  5
1CA0F
330
18
100
AcDbEntity
  8
姿図
100
AcDbEllipse
 10
1883.6043886651
 20
-146.9923057002522
 30
0.0000000000000035
 11
-0.2287410330029986
 21
1.762178778387061
 31
1.027512981928730E-16
210
-7.443458355556966E-18
220
5.734303186422371E-17
230
-1.0
 40
0.633858626423758
 41
2.63195107017216
 42
2.705517797050096
  0
ELLIPSE
  5
1CA10
330
18
100
AcDbEntity
  8
姿図
100
AcDbEllipse
 10
1883.814074093443
 20
-146.9650873146361
 30
0.0000000000000035
 11
-0.2111455690441831
 21
1.626626564618221
 31
7.113551413217713E-17
210
-5.582593766667726E-18
220
4.300727389816779E-17
230
-1.0
 40
0.6338586263939806
 41
2.425367404911215
 42
2.905458641273128
  0
ELLIPSE
  5
1CA11
330
18
100
AcDbEntity
  8
姿図
100
AcDbEllipse
 10
1883.814074093443
 20
-146.9650873146361
 30
0.0000000000000035
 11
-0.14076371269443
 21
1.0844177097455
 31
4.742367608810951E-17
210
-5.582593766667758E-18
220
4.300727389816784E-17
230
-1.0
 40
0.6338586263885858
 41
3.141592653585752
 42
3.378250081947276
  0
ELLIPSE
  5
1CA12
330
18
100
AcDbEntity
  8
姿図
100
AcDbEllipse
 10
1883.60440854029
 20
-146.9923031203368
 30
0.0000000000000035
 11
-0.2287391421075747
 21
1.762164210926229
 31
1.027504487757010E-16
210
-7.443458355557023E-18
220
5.734303186422371E-17
230
-1.0
 40
0.633858626413942
 41
2.631951070199932
 42
2.705517797080201
  0
ELLIPSE
  5
1CA13
330
18
100
AcDbEntity
  8
姿図
100
AcDbEllipse
 10
1883.81409223522
 20
-146.9650849597276
 30
0.0000000000000035
 11
-0.2111438235688974
 21
1.626613117745057
 31
7.113492607454053E-17
210
-5.582593766667730E-18
220
4.300727389816784E-17
230
-1.0
 40
0.6338586263916414
 41
2.425367404914558
 42
2.905458641278822
  0
ELLIPSE
  5
1CA14
330
18
100
AcDbEntity
  8
姿図
100
AcDbEllipse
 10
1883.81409223522
 20
-146.9650849597276
 30
0.0000000000000035
 11
-0.1407625490449988
 21
1.084408745164072
 31
4.742328404971855E-17
210
-5.582593766667744E-18
220
4.300727389816780E-17
230
-1.0
 40
0.6338586263981275
 41
3.141592653593585
 42
3.378250081950879
  0
ELLIPSE
  5
1CA15
330
18
100
AcDbEntity
  8
姿図
100
AcDbEllipse
 10
1883.080175094245
 20
-147.06035166429
 30
0.0000000000000035
 11
-0.2991228894817231
 21
2.304387633208462
 31
1.343670822496472E-16
210
-7.443458355556994E-18
220
5.734303186422380E-17
230
-1.0
 40
0.6338586263936772
 41
3.141592653590172
 42
3.809748048093252
  0
ELLIPSE
  5
1CA16
330
18
100
AcDbEntity
  8
姿図
100
AcDbEllipse
 10
1883.080199302962
 20
-147.0603485218573
 30
0.0000000000000035
 11
-0.2991204167146964
 21
2.304368583474401
 31
1.343659714742013E-16
210
-7.443458355556932E-18
220
5.734303186422374E-17
230
-1.0
 40
0.6338586263934446
 41
3.141592653589488
 42
5.180284413960835
  0
LINE
  5
1CA17
330
18
100
AcDbEntity
  8
姿図
100
AcDbLine
 10
1883.814667501263
 20
-149.3366080297628
 30
0.0000000000000048
 11
1879.703133117222
 21
-153.2662311954336
 31
0.0000000000000048
  0
LINE
  5
1CA18
330
18
100
AcDbEntity
  8
姿図
100
AcDbLine
 10
1884.964199410422
 20
-133.9733566788857
 30
0.0000000000000048
 11
1883.633421947754
 21
-134.548526092276
 31
0.0000000000000048
  0
ARC
  5
1CA19
330
18
100
AcDbEntity
  8
姿図
100
AcDbCircle
 10
1877.29590511073
 20
-144.7621228225878
 30
0.0000000000000048
 40
12.02005315416621
100
AcDbArc
 50
30.04368224852425
 51
63.15055502810431
  0
ELLIPSE
  5
1CA1A
330
18
100
AcDbEntity
  8
姿図
100
AcDbEllipse
 10
1885.071028828596
 20
-134.2103228913184
 30
0.0000000000000048
 11
-0.1102631686521535
 21
0.2354123170481559
 31
0.0
210
0.0
220
0.0
230
-1.0
 40
0.7445887407032984
 41
0.01947147381301
 42
1.889738879637535
  0
LINE
  5
1CA1B
330
18
100
AcDbEntity
  8
姿図
100
AcDbLine
 10
1878.544425066503
 20
-133.822510927517
 30
0.0000000000000026
 11
1875.110623214027
 21
-135.5714144407495
 31
0.0000000000000026
  0
ARC
  5
1CA1C
330
18
100
AcDbEntity
  8
姿図
100
AcDbCircle
 10
1886.004039564541
 20
-195.8749561611089
 30
0.0000000000000048
 40
63.61878588667222
100
AcDbArc
 50
96.70523189140651
 51
109.8629148029439
  0
LINE
  5
1CA1D
330
18
100
AcDbEntity
  8
姿図
100
AcDbLine
 10
1888.167118982733
 20
-134.9245493487206
 30
0.0000000000000048
 11
1885.63460521484
 21
-136.0309475033243
 31
0.0000000000000048
  0
LINE
  5
1CA1E
330
18
100
AcDbEntity
  8
姿図
100
AcDbLine
 10
1885.771233057096
 20
-134.1374939414188
 30
0.0000000000000048
 11
1884.105870367964
 21
-134.8572729486991
 31
0.0000000000000048
  0
LINE
  5
1CA1F
330
18
100
AcDbEntity
  8
姿図
100
AcDbLine
 10
1885.272048522592
 20
-134.2061792222341
 30
0.0000000000000048
 11
1885.299062673475
 21
-134.3415686046781
 31
0.0000000000000048
  0
LINE
  5
1CA20
330
18
100
AcDbEntity
  8
姿図
100
AcDbLine
 10
1886.079082169264
 20
-134.3703164847668
 30
0.0000000000000048
 11
1886.354061246814
 21
-135.748455211153
 31
0.0000000000000048
  0
ELLIPSE
  5
1CA21
330
18
100
AcDbEntity
  8
姿図
100
AcDbEllipse
 10
1885.878062475269
 20
-134.3744601538513
 30
0.0000000000000048
 11
-0.1102631686521535
 21
0.2354123170481559
 31
0.0
210
0.0
220
0.0
230
-1.0
 40
0.7445887407032984
 41
0.01947147381301
 42
1.889738879637535
  0
SPLINE
  5
1CA22
330
18
100
AcDbEntity
  8
姿図
100
AcDbSpline
210
0.0
220
0.0
230
1.0
 70
    24
 71
     1
 72
     4
 73
     2
 74
     0
 42
0.000000001
 43
0.0000000001
 40
0.0
 40
0.0
 40
0.500003153875532
 40
0.500003153875532
 10
1861.727977440179
 20
-136.3300094329136
 30
0.0000000000000049
 10
1861.616620615026
 20
-136.3729411681334
 30
0.0000000000000049
  0
SPLINE
  5
1CA23
330
18
100
AcDbEntity
  8
姿図
100
AcDbSpline
210
0.0
220
0.0
230
1.0
 70
    24
 71
     1
 72
     4
 73
     2
 74
     0
 42
0.000000001
 43
0.0000000001
 40
0.500003153875532
 40
0.500003153875532
 40
1.000006307751064
 40
1.000006307751064
 10
1861.616620615026
 20
-136.3729411681334
 30
0.0000000000000049
 10
1861.503872873571
 20
-136.4358215622624
 30
0.0000000000000146
  0
SPLINE
  5
1CA24
330
18
100
AcDbEntity
  8
姿図
100
AcDbSpline
210
0.0
220
0.0
230
1.0
 70
     8
 71
     3
 72
    18
 73
    14
 74
     0
 42
0.000000001
 43
0.0000000001
 40
28.74698734064234
 40
28.74698734064234
 40
28.74698734064234
 40
28.74698734064234
 40
33.44137084920912
 40
33.44137084920912
 40
41.29196149669883
 40
41.29196149669883
 40
50.54402678597219
 40
50.54402678597219
 40
58.56297097631615
 40
58.56297097631615
 40
66.12555618457822
 40
66.12555618457822
 40
66.63663448405963
 40
66.63663448405963
 40
66.63663448405963
 40
66.63663448405963
 10
1874.475474997442
 20
-140.4430521758532
 30
0.000000000000004
 10
1874.033789410121
 20
-140.032010821385
 30
0.0000000000000045
 10
1873.553911795039
 20
-139.6247776153291
 30
0.0000000000000048
 10
1872.16629544779
 20
-138.5759961209035
 30
0.0000000000000048
 10
1871.24853267373
 20
-138.0052288510299
 30
0.0
 10
1869.208602770128
 20
-136.9924601259672
 30
0.0000000000000048
 10
1868.084066789906
 20
-136.594775213506
 30
0.0
 10
1865.972061795214
 20
-136.1287576018772
 30
0.0000000000000048
 10
1865.110071868502
 20
-136.0490923486391
 30
0.0000000000000048
 10
1863.675590569911
 20
-136.0362077177019
 30
0.0000000000000048
 10
1862.81116362179
 20
-136.0927360943447
 30
0.0000000000000048
 10
1861.849269831954
 20
-136.3018632319026
 30
0.0000000000000048
 10
1861.788537381462
 20
-136.3156613435403
 30
0.0000000000000049
 10
1861.727977440179
 20
-136.3300094329136
 30
0.0000000000000049
  0
LINE
  5
1CA25
330
18
100
AcDbEntity
  8
姿図
100
AcDbLine
 10
1884.248850203159
 20
-144.5654353317748
 30
0.0000000000000035
 11
1883.773506181831
 21
-144.6271377446453
 31
0.0000000000000035
  0
LINE
  5
1CA26
330
18
100
AcDbEntity
  8
姿図
100
AcDbLine
 10
1884.248864750764
 20
-144.5654528141242
 30
0.0000000000000035
 11
1883.773524658972
 21
-144.6271547169183
 31
0.0000000000000035
  0
LINE
  5
1CA27
330
18
100
AcDbEntity
  8
姿図
100
AcDbLine
 10
1883.778153094916
 20
-145.8670604120841
 30
0.0000000000000035
 11
1883.673310380745
 21
-145.8806696048916
 31
0.0000000000000035
  0
LINE
  5
1CA28
330
18
100
AcDbEntity
  8
姿図
100
AcDbLine
 10
1883.778171533643
 20
-145.86706713426
 30
0.0000000000000035
 11
1883.673329686178
 21
-145.8806762145643
 31
0.0000000000000035
  0
ELLIPSE
  5
1CA29
330
18
100
AcDbEntity
  8
姿図
100
AcDbEllipse
 10
1883.814074093443
 20
-146.9650873146361
 30
0.0000000000000035
 11
-0.1407637126969691
 21
1.08441770974517
 31
4.742367608810947E-17
210
-5.582593766667779E-18
220
4.300727389816782E-17
230
-1.0
 40
0.6338586263940376
 41
-0.2366574283589882
 42
-0.0000000000003468
  0
ELLIPSE
  5
1CA2A
330
18
100
AcDbEntity
  8
姿図
100
AcDbEllipse
 10
1883.6043886651
 20
-146.9923057002522
 30
0.0000000000000035
 11
-0.2287410332444538
 21
1.762178778345462
 31
1.027512981922848E-16
210
-7.443458355556964E-18
220
5.734303186422369E-17
230
-1.0
 40
0.6338586264241365
 41
0.4360748565184052
 42
0.5096415833980092
  0
ELLIPSE
  5
1CA2B
330
18
100
AcDbEntity
  8
姿図
100
AcDbEllipse
 10
1883.81409223522
 20
-146.9650849597276
 30
0.0000000000000035
 11
-0.1407625490411046
 21
1.084408745164576
 31
4.742328404971853E-17
210
-5.582593766667740E-18
220
4.300727389816782E-17
230
-1.0
 40
0.633858626398207
 41
-0.2366574283595551
 42
-0.0000000000018734
  0
ELLIPSE
  5
1CA2C
330
18
100
AcDbEntity
  8
姿図
100
AcDbEllipse
 10
1883.60440854029
 20
-146.9923031203368
 30
0.0000000000000035
 11
-0.2287391422591012
 21
1.762164210898996
 31
1.027504487752671E-16
210
-7.443458355556963E-18
220
5.734303186422369E-17
230
-1.0
 40
0.633858626409089
 41
0.4360748564913792
 42
0.5096415833729382
  0
LINE
  5
1CA2D
330
18
100
AcDbEntity
  8
姿図
100
AcDbLine
 10
1888.474968094903
 20
-135.1573718920683
 30
0.0000000000000048
 11
1888.887706486962
 21
-137.2259320422907
 31
0.0000000000000048
  0
LINE
  5
1CA2E
330
18
100
AcDbEntity
  8
姿図
100
AcDbLine
 10
1889.710893113595
 20
-136.8663003687539
 30
0.0000000000000048
 11
1887.212432386227
 21
-137.9578215178815
 31
0.0000000000000048
  0
ELLIPSE
  5
1CA2F
330
18
100
AcDbEntity
  8
姿図
100
AcDbEllipse
 10
1888.273948400907
 20
-135.1615155611523
 30
0.0000000000000048
 11
-0.1102631686521535
 21
0.2354123170481559
 31
3.382133400710607E-17
210
-5.518521943290480E-17
220
1.178206696975666E-16
230
-1.0
 40
0.7445887407032984
 41
0.01947147381301
 42
1.889738879637535
  0
ELLIPSE
  5
1CA30
330
18
100
AcDbEntity
  8
姿図
100
AcDbEllipse
 10
1889.761549661825
 20
-136.9786653949218
 30
0.0000000000000048
 11
-0.05228476964520482
 21
0.1116281975137274
 31
3.563878994237584E-18
210
-1.226338209620105E-17
220
2.618237104390372E-17
230
-1.0
 40
0.7445887407034333
 41
0.0194714738028587
 42
1.456954302896184
  0
LINE
  5
1CA31
330
18
100
AcDbEntity
  8
姿図
100
AcDbLine
 10
1889.685929873658
 20
-144.6794465922458
 30
0.0000000000000048
 11
1890.619468376214
 21
-144.0531463176205
 31
0.0000000000000048
  0
LINE
  5
1CA32
330
18
100
AcDbEntity
  8
姿図
100
AcDbLine
 10
1890.619468376214
 20
-144.0531463176205
 30
0.0000000000000048
 11
1889.334118095419
 21
-143.0598775058295
 31
0.0000000000000048
  0
LINE
  5
1CA33
330
18
100
AcDbEntity
  8
姿図
100
AcDbLine
 10
1888.963034110917
 20
-143.3311188041725
 30
0.0000000000000048
 11
1891.158648934358
 21
-141.6743485663956
 31
0.0000000000000048
  0
SPLINE
  5
1CA34
330
18
100
AcDbEntity
  8
姿図
100
AcDbSpline
210
0.0
220
0.0
230
1.0
 70
     8
 71
     3
 72
     8
 73
     4
 74
     0
 42
0.000000001
 43
0.0000000001
 40
0.0522524473711178
 40
0.0522524473711178
 40
0.0522524473711178
 40
0.0522524473711178
 40
3.974673657107151
 40
3.974673657107151
 40
3.974673657107151
 40
3.974673657107151
 10
1888.987146463012
 20
-143.3952538771466
 30
0.0000000000000048
 10
1888.992604667421
 20
-143.6928352700975
 30
0.0000000000000048
 10
1888.981691855642
 20
-143.985309903594
 30
0.0000000000000048
 10
1888.954134110827
 20
-144.2707859753707
 30
0.0000000000000048
  0
ELLIPSE
  5
1CA35
330
18
100
AcDbEntity
  8
姿図
100
AcDbEllipse
 10
1885.101461783674
 20
-138.5294886840588
 30
0.0000000000000048
 11
-5.127492779515051
 21
5.091762886143623
 31
2.942922424549431E-16
210
-1.839507314430161E-17
220
3.927355656585553E-17
230
-1.0
 40
0.6510494580119257
 41
1.88482654767138
 42
2.693896839941427
  0
ARC
  5
1CA36
330
18
100
AcDbEntity
  8
姿図
100
AcDbCircle
 10
1879.609820991439
 20
-137.7334766060474
 30
0.0000000000000026
 40
4.482634451279683
100
AcDbArc
 50
84.71222861638353
 51
95.20415610003253
  0
LINE
  5
1CA37
330
18
100
AcDbEntity
  8
姿図
100
AcDbLine
 10
1879.010439337879
 20
-132.9117687706178
 30
0.0000000000000048
 11
1879.203224444655
 21
-133.2693203731242
 31
0.0000000000000026
  0
ELLIPSE
  5
1CA38
330
18
100
AcDbEntity
  8
姿図
100
AcDbEllipse
 10
1878.682648775741
 20
-132.9282895067065
 30
0.0000000000000048
 11
-0.3468879042634136
 21
0.1161587325640263
 31
1.459065990102709E-17
210
-2.452676419240198E-17
220
5.236474208780739E-17
230
-1.0
 40
0.5954474281841662
 41
1.067175184772285
 42
2.559533103277989
  0
SPLINE
  5
1CA39
330
18
100
AcDbEntity
  8
姿図
100
AcDbSpline
210
0.0
220
0.0
230
1.0
 70
     8
 71
     3
 72
     8
 73
     4
 74
     0
 42
0.000000001
 43
0.0000000001
 40
9.0
 40
9.0
 40
9.0
 40
9.0
 40
10.0
 40
10.0
 40
10.0
 40
10.0
 10
1880.296094533492
 20
-113.4802819216229
 30
0.0000000000000033
 10
1880.078492658457
 20
-112.4552769778736
 30
0.0000000000000033
 10
1878.546052152798
 20
-112.6093099574707
 30
0.0000000000000033
 10
1878.546052152798
 20
-112.6093099574707
 30
0.0000000000000033
  0
SPLINE
  5
1CA3A
330
18
100
AcDbEntity
  8
姿図
100
AcDbSpline
210
0.0
220
0.0
230
1.0
 70
     8
 71
     3
 72
     8
 73
     4
 74
     0
 42
0.000000001
 43
0.0000000001
 40
5.0
 40
5.0
 40
5.0
 40
5.0
 40
6.0
 40
6.0
 40
6.0
 40
6.0
 10
1876.48540294239
 20
-115.909086453024
 30
0.0000000000000033
 10
1876.48540294239
 20
-115.909086453024
 30
0.0000000000000033
 10
1876.608586810191
 20
-115.9138180260968
 30
0.0000000000000033
 10
1876.701138202311
 20
-116.1213251178121
 30
0.0000000000000033
  0
SPLINE
  5
1CA3B
330
18
100
AcDbEntity
  8
姿図
100
AcDbSpline
210
0.0
220
0.0
230
1.0
 70
     8
 71
     3
 72
     8
 73
     4
 74
     0
 42
0.000000001
 43
0.0000000001
 40
5.0
 40
5.0
 40
5.0
 40
5.0
 40
6.0
 40
6.0
 40
6.0
 40
6.0
 10
1876.478293996817
 20
-115.6589276186098
 30
0.0000000000000033
 10
1876.478293996817
 20
-115.6589276186098
 30
0.0000000000000033
 10
1876.601477864617
 20
-115.6636591916827
 30
0.0000000000000033
 10
1876.694029256737
 20
-115.8711662833982
 30
0.0000000000000033
  0
SPLINE
  5
1CA3C
330
18
100
AcDbEntity
  8
姿図
100
AcDbSpline
210
0.0
220
0.0
230
1.0
 70
    24
 71
     3
 72
     8
 73
     4
 74
     0
 42
0.000000001
 43
0.0000000001
 40
10.0
 40
10.0
 40
10.0
 40
10.0
 40
10.56265067495566
 40
10.56265067495566
 40
10.56265067495566
 40
10.56265067495566
 10
1878.546052152798
 20
-112.6093099574707
 30
0.0000000000000033
 10
1878.546052152798
 20
-112.6093099574707
 30
0.0000000000000033
 10
1876.64113308204
 20
-112.7206406495177
 30
0.0000000000000033
 10
1874.974902942318
 20
-112.8180214555648
 30
0.0000000000000033
  0
SPLINE
  5
1CA3D
330
18
100
AcDbEntity
  8
姿図
100
AcDbSpline
210
0.0
220
0.0
230
1.0
 70
     8
 71
     3
 72
     8
 73
     4
 74
     0
 42
0.000000001
 43
0.0000000001
 40
4.562871291847087
 40
4.562871291847087
 40
4.562871291847087
 40
4.562871291847087
 40
5.0
 40
5.0
 40
5.0
 40
5.0
 10
1875.061929258932
 20
-115.9408934385924
 30
0.0000000000000033
 10
1875.89126376325
 20
-115.8971635192058
 30
0.0000000000000033
 10
1876.48540294239
 20
-115.909086453024
 30
0.0000000000000033
 10
1876.48540294239
 20
-115.909086453024
 30
0.0000000000000033
  0
SPLINE
  5
1CA3E
330
18
100
AcDbEntity
  8
姿図
100
AcDbSpline
210
0.0
220
0.0
230
1.0
 70
     8
 71
     3
 72
     8
 73
     4
 74
     0
 42
0.000000001
 43
0.0000000001
 40
0.0
 40
0.0
 40
0.0
 40
0.0
 40
0.4810436403893932
 40
0.4810436403893932
 40
0.4810436403893932
 40
0.4810436403893932
 10
1876.808482768681
 20
-116.5859715643926
 30
0.0000000000000033
 10
1876.808482768681
 20
-116.5859715643926
 30
0.0000000000000033
 10
1875.971965974797
 20
-116.4765041493406
 30
0.0000000000000033
 10
1875.03964561869
 20
-116.4321830176946
 30
0.0000000000000033
  0
SPLINE
  5
1CA3F
330
18
100
AcDbEntity
  8
姿図
100
AcDbSpline
210
0.0
220
0.0
230
1.0
 70
     8
 71
     3
 72
     8
 73
     4
 74
     0
 42
0.000000001
 43
0.0000000001
 40
0.0
 40
0.0
 40
0.0
 40
0.0
 40
0.4810436403893932
 40
0.4810436403893932
 40
0.4810436403893932
 40
0.4810436403893932
 10
1876.8455339058
 20
-116.7327578339912
 30
0.0000000000000033
 10
1876.8455339058
 20
-116.7327578339912
 30
0.0000000000000033
 10
1876.009017111917
 20
-116.623290418939
 30
0.0000000000000033
 10
1875.207603261259
 20
-116.5537739331257
 30
0.0000000000000033
  0
SPLINE
  5
1CA40
330
18
100
AcDbEntity
  8
姿図
100
AcDbSpline
210
0.0
220
0.0
230
1.0
 70
     8
 71
     3
 72
     8
 73
     4
 74
     0
 42
0.000000001
 43
0.0000000001
 40
4.562871291847087
 40
4.562871291847087
 40
4.562871291847087
 40
4.562871291847087
 40
5.0
 40
5.0
 40
5.0
 40
5.0
 10
1875.054820313359
 20
-115.690734604178
 30
0.0000000000000033
 10
1875.884154817677
 20
-115.6470046847921
 30
0.0000000000000033
 10
1876.478293996817
 20
-115.6589276186098
 30
0.0000000000000033
 10
1876.478293996817
 20
-115.6589276186098
 30
0.0000000000000033
  0
SPLINE
  5
1CA41
330
18
100
AcDbEntity
  8
姿図
100
AcDbSpline
210
0.0
220
0.0
230
1.0
 70
    24
 71
     3
 72
     8
 73
     4
 74
     0
 42
0.000000001
 43
0.0000000001
 40
1.0
 40
1.0
 40
1.0
 40
1.0
 40
2.0
 40
2.0
 40
2.0
 40
2.0
 10
1866.643377959774
 20
-116.4468445518248
 30
0.0000000000000033
 10
1866.643377959774
 20
-116.4468445518248
 30
0.0000000000000033
 10
1869.645084265776
 20
-116.1903222924434
 30
0.0000000000000033
 10
1869.645084265776
 20
-116.1903222924434
 30
0.0000000000000033
  0
SPLINE
  5
1CA42
330
18
100
AcDbEntity
  8
姿図
100
AcDbSpline
210
0.0
220
0.0
230
1.0
 70
    24
 71
     3
 72
     8
 73
     4
 74
     0
 42
0.000000001
 43
0.0000000001
 40
1.0
 40
1.0
 40
1.0
 40
1.0
 40
2.0
 40
2.0
 40
2.0
 40
2.0
 10
1866.460065147988
 20
-116.2738004200125
 30
0.0000000000000033
 10
1866.460065147988
 20
-116.2738004200125
 30
0.0000000000000033
 10
1869.46177145399
 20
-116.0172781606309
 30
0.0000000000000033
 10
1869.46177145399
 20
-116.0172781606309
 30
0.0000000000000033
  0
ARC
  5
1CA43
330
18
100
AcDbEntity
  8
姿図
100
AcDbCircle
 10
1866.571708772659
 20
-116.7333959836139
 30
0.0000000000000033
 40
0.2953780551123366
100
AcDbArc
 50
75.95786092131543
 51
138.4274760917632
  0
ARC
  5
1CA44
330
18
100
AcDbEntity
  8
姿図
100
AcDbCircle
 10
1866.388395960873
 20
-116.5603518518012
 30
0.0000000000000033
 40
0.2953780551123366
100
AcDbArc
 50
75.95786092131543
 51
138.4274760917632
  0
SPLINE
  5
1CA45
330
18
100
AcDbEntity
  8
姿図
100
AcDbSpline
210
0.0
220
0.0
230
1.0
 70
     8
 71
     3
 72
     8
 73
     4
 74
     0
 42
0.000000001
 43
0.0000000001
 40
14.0
 40
14.0
 40
14.0
 40
14.0
 40
15.0
 40
15.0
 40
15.0
 40
15.0
 10
1865.626334587913
 20
-113.7693477560006
 30
0.0000000000000033
 10
1865.183029793752
 20
-113.8889637933139
 30
0.0000000000000033
 10
1865.113940585745
 20
-114.9034851260101
 30
0.0000000000000033
 10
1865.113940585745
 20
-114.9034851260101
 30
0.0000000000000033
  0
SPLINE
  5
1CA46
330
18
100
AcDbEntity
  8
姿図
100
AcDbSpline
210
0.0
220
0.0
230
1.0
 70
     8
 71
     3
 72
     8
 73
     4
 74
     0
 42
0.000000001
 43
0.0000000001
 40
3.357032710531275
 40
3.357032710531275
 40
3.357032710531275
 40
3.357032710531275
 40
4.0
 40
4.0
 40
4.0
 40
4.0
 10
1869.724204062182
 20
-116.6270379465559
 30
0.0000000000000033
 10
1869.180603533588
 20
-116.6453418284007
 30
0.0000000000000033
 10
1868.471312959728
 20
-116.6701997901262
 30
0.0000000000000033
 10
1868.471312959728
 20
-116.6701997901262
 30
0.0000000000000033
  0
SPLINE
  5
1CA47
330
18
100
AcDbEntity
  8
姿図
100
AcDbSpline
210
0.0
220
0.0
230
1.0
 70
     8
 71
     3
 72
     8
 73
     4
 74
     0
 42
0.000000001
 43
0.0000000001
 40
3.357032710531275
 40
3.357032710531275
 40
3.357032710531275
 40
3.357032710531275
 40
4.0
 40
4.0
 40
4.0
 40
4.0
 10
1869.593286932918
 20
-116.778145294649
 30
0.0000000000000033
 10
1869.049686404324
 20
-116.796449176494
 30
0.0000000000000033
 10
1868.340395830463
 20
-116.8213071382195
 30
0.0000000000000033
 10
1868.340395830463
 20
-116.8213071382195
 30
0.0000000000000033
  0
ENDSEC
  0
SECTION
  2
OBJECTS
  0
DICTIONARY
  5
C
330
0
100
AcDbDictionary
281
     1
  3
ACAD_GROUP
350
D
  3
ACAD_IMAGE_VARS
350
1CAF0
  3
ACAD_LAYOUT
350
40CB
  3
ACAD_MLINESTYLE
350
E
  3
ACAD_PLOTSETTINGS
350
40CC
  3
ACAD_PLOTSTYLENAME
350
40C9
  3
ACAD_SCALELIST
350
1786B
  3
AcDbVariableDictionary
350
6377
  3
APPDATA
350
1CAEF
  3
DWGPROPS
350
1CB14
  0
DICTIONARY
  5
1846C
330
2
100
AcDbDictionary
280
     1
281
     1
  3
ACAD_LAYERSTATES
360
1846D
  0
DICTIONARY
  5
17894
330
F
100
AcDbDictionary
280
     1
281
     1
  3
ADSK_XREC_LAYER_RECONCILED
360
17895
  0
DICTIONARY
  5
1789C
330
4C
100
AcDbDictionary
280
     1
281
     1
  3
ADSK_XREC_LAYER_RECONCILED
360
1789D
  0
DICTIONARY
  5
1789E
330
4D
100
AcDbDictionary
280
     1
281
     1
  3
ADSK_XREC_LAYER_RECONCILED
360
1789F
  0
DICTIONARY
  5
178A2
330
40D4
100
AcDbDictionary
280
     1
281
     1
  3
ADSK_XREC_LAYER_RECONCILED
360
178A3
  0
DICTIONARY
  5
D
102
{ACAD_REACTORS
330
C
102
}
330
C
100
AcDbDictionary
281
     1
  0
RASTERVARIABLES
  5
1CAF0
102
{ACAD_REACTORS
330
C
102
}
330
C
100
AcDbRasterVariables
 90
        0
 70
     1
 71
     1
 72
     0
  0
DICTIONARY
  5
40CB
102
{ACAD_REACTORS
330
C
102
}
330
C
100
AcDbDictionary
281
     1
  3
Model
350
40CD
  3
ﾚｲｱｳﾄ1
350
40CE
  0
DICTIONARY
  5
E
102
{ACAD_REACTORS
330
C
102
}
330
C
100
AcDbDictionary
281
     1
  3
STANDARD
350
1B
  0
DICTIONARY
  5
40CC
102
{ACAD_REACTORS
330
C
102
}
330
C
100
AcDbDictionary
281
     1
  0
ACDBDICTIONARYWDFLT
  5
40C9
102
{ACAD_REACTORS
330
C
102
}
330
C
100
AcDbDictionary
281
     1
  3
Normal
350
40CA
100
AcDbDictionaryWithDefault
340
40CA
  0
DICTIONARY
  5
1786B
102
{ACAD_REACTORS
330
C
102
}
330
C
100
AcDbDictionary
281
     1
  3
A0
350
1786C
  3
A1
350
1786D
  3
A2
350
1786E
  3
A3
350
1786F
  3
A4
350
17870
  3
A5
350
17871
  3
A6
350
17872
  3
A7
350
17873
  3
A8
350
17874
  3
A9
350
17875
  3
B0
350
17876
  3
B1
350
17877
  3
B2
350
17878
  3
B3
350
17879
  3
B4
350
1787A
  3
B5
350
1787B
  3
B6
350
1787C
  3
B7
350
1787D
  3
B8
350
1787E
  3
B9
350
1787F
  3
C0
350
17880
  3
C1
350
17881
  3
C2
350
17882
  3
C3
350
17883
  3
C4
350
17884
  3
C5
350
17885
  3
C6
350
17886
  3
C7
350
17887
  3
C8
350
17888
  3
C9
350
17889
  3
D0
350
1788A
  3
D1
350
1788B
  3
D2
350
1788C
  0
DICTIONARY
  5
6377
102
{ACAD_REACTORS
330
C
102
}
330
C
100
AcDbDictionary
281
     1
  3
DIMASSOC
350
73F2
  3
INDEXCTL
350
178DF
  3
PROJECTNAME
350
12C8D
  3
SORTENTS
350
6378
  0
DICTIONARY
  5
1CAEF
102
{ACAD_REACTORS
330
C
102
}
330
C
100
AcDbDictionary
281
     1
  0
XRECORD
  5
1CB14
102
{ACAD_REACTORS
330
C
102
}
330
C
100
AcDbXrecord
280
     1
  1
DWGPROPS COOKIE
  2

  3

  4

  6

  7

  8
SPAX
  9

300
=
301
=
302
=
303
=
304
=
305
=
306
=
307
=
308
=
309
=
 40
0.0
 41
2449505.547222222
 42
2456821.234967118
  1

 90
        0
  0
DICTIONARY
  5
1846D
102
{ACAD_REACTORS
330
1846C
102
}
330
1846C
100
AcDbDictionary
281
     1
  0
XRECORD
  5
17895
102
{ACAD_REACTORS
330
17894
102
}
330
17894
100
AcDbXrecord
280
     1
290
     1
  0
XRECORD
  5
1789D
102
{ACAD_REACTORS
330
1789C
102
}
330
1789C
100
AcDbXrecord
280
     1
290
     1
  0
XRECORD
  5
1789F
102
{ACAD_REACTORS
330
1789E
102
}
330
1789E
100
AcDbXrecord
280
     1
290
     1
  0
XRECORD
  5
178A3
102
{ACAD_REACTORS
330
178A2
102
}
330
178A2
100
AcDbXrecord
280
     1
290
     1
  0
LAYOUT
  5
40CD
102
{ACAD_REACTORS
330
40CB
102
}
330
40CB
100
AcDbPlotSettings
  1

  2
JUST PDF 2
  4
A4
  6
CUT1
 40
3.174999952316284
 41
3.174999952316284
 42
3.175003051757812
 43
3.17498779296875
 44
209.8886566162109
 45
297.0530090332031
 46
14.27171755861525
 47
9.855173074625782
 48
1823.759462002715
 49
-600.0
140
2173.749898992528
141
-58.01464972266695
142
1.0
143
2.0
 70
 11956
 72
     1
 73
     0
 74
     4
  7
spax form.ctb
 75
    17
147
0.5
148
-1823.759462002715
149
600.0
100
AcDbLayout
  1
Model
 70
     1
 71
     0
 10
0.0
 20
0.0
 11
12.0
 21
9.0
 12
0.0
 22
0.0
 32
0.0
 14
1841.949597442775
 24
-189.2268702635038
 34
-0.0000000000000127
 15
1891.203357890721
 25
-101.2402571283137
 35
0.0000000000000146
146
0.0
 13
0.0
 23
0.0
 33
0.0
 16
1.0
 26
0.0
 36
0.0
 17
0.0
 27
1.0
 37
0.0
 76
     0
330
18
331
1BF7F
1001
ACAD_PSEXT
1000
JUST PDF 2
1000
JUST PDF 2
1000
JUST PDF 2 Port:
1000

1070
     0
  0
LAYOUT
  5
40CE
102
{ACAD_REACTORS
330
40CB
102
}
330
40CB
100
AcDbPlotSettings
  1

  2
なし
  4

  6

 40
0.0
 41
0.0
 42
0.0
 43
0.0
 44
0.0
 45
0.0
 46
0.0
 47
0.0
 48
0.0
 49
0.0
140
0.0
141
0.0
142
1.0
143
1.0
 70
   688
 72
     0
 73
     0
 74
     5
  7
Aiba.ctb
 75
    16
147
1.0
148
0.0
149
0.0
100
AcDbLayout
  1
ﾚｲｱｳﾄ1
 70
     0
 71
     1
 10
0.0
 20
0.0
 11
12.0
 21
9.0
 12
0.0
 22
0.0
 32
0.0
 14
1.000000000000000E+20
 24
1.000000000000000E+20
 34
1.000000000000000E+20
 15
-1.000000000000000E+20
 25
-1.000000000000000E+20
 35
-1.000000000000000E+20
146
0.0
 13
0.0
 23
0.0
 33
0.0
 16
1.0
 26
0.0
 36
0.0
 17
0.0
 27
1.0
 37
0.0
 76
     0
330
15
  0
MLINESTYLE
  5
1B
102
{ACAD_REACTORS
330
E
102
}
330
E
100
AcDbMlineStyle
  2
STANDARD
 70
     0
  3

 62
     0
 51
90.0
 52
90.0
 71
     2
 49
0.5
 62
   256
  6
BYLAYER
 49
-0.5
 62
   256
  6
BYLAYER
  0
ACDBPLACEHOLDER
  5
40CA
102
{ACAD_REACTORS
330
40C9
102
}
330
40C9
  0
SCALE
  5
1786C
102
{ACAD_REACTORS
330
1786B
102
}
330
1786B
100
AcDbScale
 70
     0
300
1:1
140
1.0
141
1.0
290
     1
1001
ACAD
1000
AcRTDxfName
1000
SCALE
  0
SCALE
  5
1786D
102
{ACAD_REACTORS
330
1786B
102
}
330
1786B
100
AcDbScale
 70
     0
300
1:2
140
1.0
141
2.0
290
     0
1001
ACAD
1000
AcRTDxfName
1000
SCALE
  0
SCALE
  5
1786E
102
{ACAD_REACTORS
330
1786B
102
}
330
1786B
100
AcDbScale
 70
     0
300
1:4
140
1.0
141
4.0
290
     0
1001
ACAD
1000
AcRTDxfName
1000
SCALE
  0
SCALE
  5
1786F
102
{ACAD_REACTORS
330
1786B
102
}
330
1786B
100
AcDbScale
 70
     0
300
1:5
140
1.0
141
5.0
290
     0
1001
ACAD
1000
AcRTDxfName
1000
SCALE
  0
SCALE
  5
17870
102
{ACAD_REACTORS
330
1786B
102
}
330
1786B
100
AcDbScale
 70
     0
300
1:8
140
1.0
141
8.0
290
     0
1001
ACAD
1000
AcRTDxfName
1000
SCALE
  0
SCALE
  5
17871
102
{ACAD_REACTORS
330
1786B
102
}
330
1786B
100
AcDbScale
 70
     0
300
1:10
140
1.0
141
10.0
290
     0
1001
ACAD
1000
AcRTDxfName
1000
SCALE
  0
SCALE
  5
17872
102
{ACAD_REACTORS
330
1786B
102
}
330
1786B
100
AcDbScale
 70
     0
300
1:16
140
1.0
141
16.0
290
     0
1001
ACAD
1000
AcRTDxfName
1000
SCALE
  0
SCALE
  5
17873
102
{ACAD_REACTORS
330
1786B
102
}
330
1786B
100
AcDbScale
 70
     0
300
1:20
140
1.0
141
20.0
290
     0
1001
ACAD
1000
AcRTDxfName
1000
SCALE
  0
SCALE
  5
17874
102
{ACAD_REACTORS
330
1786B
102
}
330
1786B
100
AcDbScale
 70
     0
300
1:30
140
1.0
141
30.0
290
     0
1001
ACAD
1000
AcRTDxfName
1000
SCALE
  0
SCALE
  5
17875
102
{ACAD_REACTORS
330
1786B
102
}
330
1786B
100
AcDbScale
 70
     0
300
1:40
140
1.0
141
40.0
290
     0
1001
ACAD
1000
AcRTDxfName
1000
SCALE
  0
SCALE
  5
17876
102
{ACAD_REACTORS
330
1786B
102
}
330
1786B
100
AcDbScale
 70
     0
300
1:50
140
1.0
141
50.0
290
     0
1001
ACAD
1000
AcRTDxfName
1000
SCALE
  0
SCALE
  5
17877
102
{ACAD_REACTORS
330
1786B
102
}
330
1786B
100
AcDbScale
 70
     0
300
1:100
140
1.0
141
100.0
290
     0
1001
ACAD
1000
AcRTDxfName
1000
SCALE
  0
SCALE
  5
17878
102
{ACAD_REACTORS
330
1786B
102
}
330
1786B
100
AcDbScale
 70
     0
300
2:1
140
2.0
141
1.0
290
     0
1001
ACAD
1000
AcRTDxfName
1000
SCALE
  0
SCALE
  5
17879
102
{ACAD_REACTORS
330
1786B
102
}
330
1786B
100
AcDbScale
 70
     0
300
4:1
140
4.0
141
1.0
290
     0
1001
ACAD
1000
AcRTDxfName
1000
SCALE
  0
SCALE
  5
1787A
102
{ACAD_REACTORS
330
1786B
102
}
330
1786B
100
AcDbScale
 70
     0
300
8:1
140
8.0
141
1.0
290
     0
1001
ACAD
1000
AcRTDxfName
1000
SCALE
  0
SCALE
  5
1787B
102
{ACAD_REACTORS
330
1786B
102
}
330
1786B
100
AcDbScale
 70
     0
300
10:1
140
10.0
141
1.0
290
     0
1001
ACAD
1000
AcRTDxfName
1000
SCALE
  0
SCALE
  5
1787C
102
{ACAD_REACTORS
330
1786B
102
}
330
1786B
100
AcDbScale
 70
     0
300
100:1
140
100.0
141
1.0
290
     0
1001
ACAD
1000
AcRTDxfName
1000
SCALE
  0
SCALE
  5
1787D
102
{ACAD_REACTORS
330
1786B
102
}
330
1786B
100
AcDbScale
 70
     0
300
1/128" = 1'-0"
140
0.0078125
141
12.0
290
     0
1001
ACAD
1000
AcRTDxfName
1000
SCALE
  0
SCALE
  5
1787E
102
{ACAD_REACTORS
330
1786B
102
}
330
1786B
100
AcDbScale
 70
     0
300
1/64" = 1'-0"
140
0.015625
141
12.0
290
     0
1001
ACAD
1000
AcRTDxfName
1000
SCALE
  0
SCALE
  5
1787F
102
{ACAD_REACTORS
330
1786B
102
}
330
1786B
100
AcDbScale
 70
     0
300
1/32" = 1'-0"
140
0.03125
141
12.0
290
     0
1001
ACAD
1000
AcRTDxfName
1000
SCALE
  0
SCALE
  5
17880
102
{ACAD_REACTORS
330
1786B
102
}
330
1786B
100
AcDbScale
 70
     0
300
1/16" = 1'-0"
140
0.0625
141
12.0
290
     0
1001
ACAD
1000
AcRTDxfName
1000
SCALE
  0
SCALE
  5
17881
102
{ACAD_REACTORS
330
1786B
102
}
330
1786B
100
AcDbScale
 70
     0
300
3/32" = 1'-0"
140
0.09375
141
12.0
290
     0
1001
ACAD
1000
AcRTDxfName
1000
SCALE
  0
SCALE
  5
17882
102
{ACAD_REACTORS
330
1786B
102
}
330
1786B
100
AcDbScale
 70
     0
300
1/8" = 1'-0"
140
0.125
141
12.0
290
     0
1001
ACAD
1000
AcRTDxfName
1000
SCALE
  0
SCALE
  5
17883
102
{ACAD_REACTORS
330
1786B
102
}
330
1786B
100
AcDbScale
 70
     0
300
3/16" = 1'-0"
140
0.1875
141
12.0
290
     0
1001
ACAD
1000
AcRTDxfName
1000
SCALE
  0
SCALE
  5
17884
102
{ACAD_REACTORS
330
1786B
102
}
330
1786B
100
AcDbScale
 70
     0
300
1/4" = 1'-0"
140
0.25
141
12.0
290
     0
1001
ACAD
1000
AcRTDxfName
1000
SCALE
  0
SCALE
  5
17885
102
{ACAD_REACTORS
330
1786B
102
}
330
1786B
100
AcDbScale
 70
     0
300
3/8" = 1'-0"
140
0.375
141
12.0
290
     0
1001
ACAD
1000
AcRTDxfName
1000
SCALE
  0
SCALE
  5
17886
102
{ACAD_REACTORS
330
1786B
102
}
330
1786B
100
AcDbScale
 70
     0
300
1/2" = 1'-0"
140
0.5
141
12.0
290
     0
1001
ACAD
1000
AcRTDxfName
1000
SCALE
  0
SCALE
  5
17887
102
{ACAD_REACTORS
330
1786B
102
}
330
1786B
100
AcDbScale
 70
     0
300
3/4" = 1'-0"
140
0.75
141
12.0
290
     0
1001
ACAD
1000
AcRTDxfName
1000
SCALE
  0
SCALE
  5
17888
102
{ACAD_REACTORS
330
1786B
102
}
330
1786B
100
AcDbScale
 70
     0
300
1" = 1'-0"
140
1.0
141
12.0
290
     0
1001
ACAD
1000
AcRTDxfName
1000
SCALE
  0
SCALE
  5
17889
102
{ACAD_REACTORS
330
1786B
102
}
330
1786B
100
AcDbScale
 70
     0
300
1-1/2" = 1'-0"
140
1.5
141
12.0
290
     0
1001
ACAD
1000
AcRTDxfName
1000
SCALE
  0
SCALE
  5
1788A
102
{ACAD_REACTORS
330
1786B
102
}
330
1786B
100
AcDbScale
 70
     0
300
3" = 1'-0"
140
3.0
141
12.0
290
     0
1001
ACAD
1000
AcRTDxfName
1000
SCALE
  0
SCALE
  5
1788B
102
{ACAD_REACTORS
330
1786B
102
}
330
1786B
100
AcDbScale
 70
     0
300
6" = 1'-0"
140
6.0
141
12.0
290
     0
1001
ACAD
1000
AcRTDxfName
1000
SCALE
  0
SCALE
  5
1788C
102
{ACAD_REACTORS
330
1786B
102
}
330
1786B
100
AcDbScale
 70
     0
300
1'-0" = 1'-0"
140
12.0
141
12.0
290
     0
1001
ACAD
1000
AcRTDxfName
1000
SCALE
  0
DICTIONARYVAR
  5
73F2
102
{ACAD_REACTORS
330
6377
102
}
330
6377
100
DictionaryVariables
280
     0
  1
1
  0
DICTIONARYVAR
  5
178DF
102
{ACAD_REACTORS
330
6377
102
}
330
6377
100
DictionaryVariables
280
     0
  1
0
  0
DICTIONARYVAR
  5
12C8D
102
{ACAD_REACTORS
330
6377
102
}
330
6377
100
DictionaryVariables
280
     0
  1

  0
DICTIONARYVAR
  5
6378
102
{ACAD_REACTORS
330
6377
102
}
330
6377
100
DictionaryVariables
280
     0
  1
96
  0
ENDSEC
  0
EOF
