  0
SECTION
  2
HEADER
  9
$ACADVER
  1
AC1015
  9
$ACADMAINTVER
 70
     6
  9
$DWGCODEPAGE
  3
ANSI_932
  9
$INSBASE
 10
0.0
 20
0.0
 30
0.0
  9
$EXTMIN
 10
-3962.875989866481
 20
-18322.57112245013
 30
-0.0000000000000128
  9
$EXTMAX
 10
-3900.875989866481
 20
-18233.58499244603
 30
0.0000000000000242
  9
$LIMMIN
 10
0.0
 20
0.0
  9
$LIMMAX
 10
420.0
 20
297.0
  9
$ORTHOMODE
 70
     1
  9
$REGENMODE
 70
     1
  9
$FILLMODE
 70
     1
  9
$QTEXTMODE
 70
     0
  9
$MIRRTEXT
 70
     1
  9
$LTSCALE
 40
5.0
  9
$ATTMODE
 70
     0
  9
$TEXTSIZE
 40
2.5
  9
$TRACEWID
 40
1.0
  9
$TEXTSTYLE
  7
STANDARD
  9
$CLAYER
  8
寸法線
  9
$CELTYPE
  6
BYLAYER
  9
$CECOLOR
 62
   256
  9
$CELTSCALE
 40
1.0
  9
$DISPSILH
 70
     0
  9
$DIMSCALE
 40
1.0
  9
$DIMASZ
 40
3.0
  9
$DIMEXO
 40
0.2999999999999999
  9
$DIMDLI
 40
0.6300000000000001
  9
$DIMRND
 40
0.0
  9
$DIMDLE
 40
0.0
  9
$DIMEXE
 40
0.4999999999999996
  9
$DIMTP
 40
0.0
  9
$DIMTM
 40
0.0
  9
$DIMTXT
 40
2.5
  9
$DIMCEN
 40
0.0
  9
$DIMTSZ
 40
0.0
  9
$DIMTOL
 70
     0
  9
$DIMLIM
 70
     0
  9
$DIMTIH
 70
     0
  9
$DIMTOH
 70
     0
  9
$DIMSE1
 70
     0
  9
$DIMSE2
 70
     0
  9
$DIMTAD
 70
     3
  9
$DIMZIN
 70
     8
  9
$DIMBLK
  1

  9
$DIMASO
 70
     1
  9
$DIMSHO
 70
     0
  9
$DIMPOST
  1

  9
$DIMAPOST
  1

  9
$DIMALT
 70
     0
  9
$DIMALTD
 70
     0
  9
$DIMALTF
 40
25.4
  9
$DIMLFAC
 40
1.0
  9
$DIMTOFL
 70
     1
  9
$DIMTVP
 40
0.0
  9
$DIMTIX
 70
     0
  9
$DIMSOXD
 70
     0
  9
$DIMSAH
 70
     1
  9
$DIMBLK1
  1
OPEN
  9
$DIMBLK2
  1
OPEN
  9
$DIMSTYLE
  2
STANDARD
  9
$DIMCLRD
 70
     8
  9
$DIMCLRE
 70
     8
  9
$DIMCLRT
 70
   256
  9
$DIMTFAC
 40
1.0
  9
$DIMGAP
 40
0.7999999999999998
  9
$DIMJUST
 70
     0
  9
$DIMSD1
 70
     0
  9
$DIMSD2
 70
     0
  9
$DIMTOLJ
 70
     1
  9
$DIMTZIN
 70
     0
  9
$DIMALTZ
 70
     0
  9
$DIMALTTZ
 70
     0
  9
$DIMUPT
 70
     0
  9
$DIMDEC
 70
     2
  9
$DIMTDEC
 70
     2
  9
$DIMALTU
 70
     2
  9
$DIMALTTD
 70
     0
  9
$DIMTXSTY
  7
STANDARD
  9
$DIMAUNIT
 70
     0
  9
$DIMADEC
 70
     2
  9
$DIMALTRND
 40
0.0
  9
$DIMAZIN
 70
     2
  9
$DIMDSEP
 70
    46
  9
$DIMATFIT
 70
     0
  9
$DIMFRAC
 70
     0
  9
$DIMLDRBLK
  1
OPEN
  9
$DIMLUNIT
 70
     2
  9
$DIMLWD
 70
    -1
  9
$DIMLWE
 70
    -1
  9
$DIMTMOVE
 70
     0
  9
$LUNITS
 70
     2
  9
$LUPREC
 70
     2
  9
$SKETCHINC
 40
0.1
  9
$FILLETRAD
 40
9.0
  9
$AUNITS
 70
     0
  9
$AUPREC
 70
     1
  9
$MENU
  1
FM
  9
$ELEVATION
 40
0.0
  9
$PELEVATION
 40
0.0
  9
$THICKNESS
 40
0.0
  9
$LIMCHECK
 70
     0
  9
$CHAMFERA
 40
1.3
  9
$CHAMFERB
 40
0.8
  9
$CHAMFERC
 40
0.0
  9
$CHAMFERD
 40
0.0
  9
$SKPOLY
 70
     0
  9
$TDCREATE
 40
2448636.619629629
  9
$TDUCREATE
 40
2448636.244629629
  9
$TDUPDATE
 40
2456821.605645775
  9
$TDUUPDATE
 40
2456821.230645775
  9
$TDINDWG
 40
42.1154172338
  9
$TDUSRTIMER
 40
2456821.230480093
  9
$USRTIMER
 70
     1
  9
$ANGBASE
 50
0.0
  9
$ANGDIR
 70
     0
  9
$PDMODE
 70
     3
  9
$PDSIZE
 40
0.0
  9
$PLINEWID
 40
0.0
  9
$SPLFRAME
 70
     0
  9
$SPLINETYPE
 70
     6
  9
$SPLINESEGS
 70
     8
  9
$HANDSEED
  5
271A8A
  9
$SURFTAB1
 70
     6
  9
$SURFTAB2
 70
     6
  9
$SURFTYPE
 70
     6
  9
$SURFU
 70
     6
  9
$SURFV
 70
     6
  9
$UCSBASE
  2

  9
$UCSNAME
  2

  9
$UCSORG
 10
0.0
 20
0.0
 30
0.0
  9
$UCSXDIR
 10
1.0
 20
0.0
 30
0.0
  9
$UCSYDIR
 10
0.0
 20
1.0
 30
0.0
  9
$UCSORTHOREF
  2

  9
$UCSORTHOVIEW
 70
     0
  9
$UCSORGTOP
 10
0.0
 20
0.0
 30
0.0
  9
$UCSORGBOTTOM
 10
0.0
 20
0.0
 30
0.0
  9
$UCSORGLEFT
 10
0.0
 20
0.0
 30
0.0
  9
$UCSORGRIGHT
 10
0.0
 20
0.0
 30
0.0
  9
$UCSORGFRONT
 10
0.0
 20
0.0
 30
0.0
  9
$UCSORGBACK
 10
0.0
 20
0.0
 30
0.0
  9
$PUCSBASE
  2

  9
$PUCSNAME
  2

  9
$PUCSORG
 10
0.0
 20
0.0
 30
0.0
  9
$PUCSXDIR
 10
1.0
 20
0.0
 30
0.0
  9
$PUCSYDIR
 10
0.0
 20
1.0
 30
0.0
  9
$PUCSORTHOREF
  2

  9
$PUCSORTHOVIEW
 70
     0
  9
$PUCSORGTOP
 10
0.0
 20
0.0
 30
0.0
  9
$PUCSORGBOTTOM
 10
0.0
 20
0.0
 30
0.0
  9
$PUCSORGLEFT
 10
0.0
 20
0.0
 30
0.0
  9
$PUCSORGRIGHT
 10
0.0
 20
0.0
 30
0.0
  9
$PUCSORGFRONT
 10
0.0
 20
0.0
 30
0.0
  9
$PUCSORGBACK
 10
0.0
 20
0.0
 30
0.0
  9
$USERI1
 70
     0
  9
$USERI2
 70
     0
  9
$USERI3
 70
     0
  9
$USERI4
 70
     0
  9
$USERI5
 70
     0
  9
$USERR1
 40
0.0
  9
$USERR2
 40
0.0
  9
$USERR3
 40
0.0
  9
$USERR4
 40
0.0
  9
$USERR5
 40
0.0
  9
$WORLDVIEW
 70
     0
  9
$SHADEDGE
 70
     3
  9
$SHADEDIF
 70
    70
  9
$TILEMODE
 70
     1
  9
$MAXACTVP
 70
    16
  9
$PINSBASE
 10
0.0
 20
0.0
 30
0.0
  9
$PLIMCHECK
 70
     0
  9
$PEXTMIN
 10
1.000000000000000E+20
 20
1.000000000000000E+20
 30
1.000000000000000E+20
  9
$PEXTMAX
 10
-1.000000000000000E+20
 20
-1.000000000000000E+20
 30
-1.000000000000000E+20
  9
$PLIMMIN
 10
0.0
 20
0.0
  9
$PLIMMAX
 10
0.0
 20
0.0
  9
$UNITMODE
 70
     0
  9
$VISRETAIN
 70
     0
  9
$PLINEGEN
 70
     0
  9
$PSLTSCALE
 70
     0
  9
$TREEDEPTH
 70
  3020
  9
$CMLSTYLE
  2
STANDARD
  9
$CMLJUST
 70
     0
  9
$CMLSCALE
 40
1.0
  9
$PROXYGRAPHICS
 70
     1
  9
$MEASUREMENT
 70
     0
  9
$CELWEIGHT
370
    -1
  9
$ENDCAPS
280
     0
  9
$JOINSTYLE
280
     0
  9
$LWDISPLAY
290
     0
  9
$INSUNITS
 70
     0
  9
$HYPERLINKBASE
  1

  9
$STYLESHEET
  1
spax form.ctb
  9
$XEDIT
290
     1
  9
$CEPSNTYPE
380
     0
  9
$PSTYLEMODE
290
     1
  9
$FINGERPRINTGUID
  2
{E5B35D22-A717-11D3-9160-00E0294F7E09}
  9
$VERSIONGUID
  2
{30FE1922-2FCD-4CC3-9E54-9E7BA5B47579}
  9
$EXTNAMES
290
     1
  9
$PSVPSCALE
 40
0.0
  9
$OLESTARTUP
290
     0
  0
ENDSEC
  0
SECTION
  2
CLASSES
  0
CLASS
  1
LWPOLYLINE
  2
AcDbPolyline
  3
ObjectDBX Classes
 90
        0
280
     0
281
     1
  0
CLASS
  1
ACDBDICTIONARYWDFLT
  2
AcDbDictionaryWithDefault
  3
ObjectDBX Classes
 90
        0
280
     0
281
     0
  0
CLASS
  1
ACDBPLACEHOLDER
  2
AcDbPlaceHolder
  3
ObjectDBX Classes
 90
        0
280
     0
281
     0
  0
CLASS
  1
LAYOUT
  2
AcDbLayout
  3
ObjectDBX Classes
 90
        0
280
     0
281
     0
  0
CLASS
  1
DICTIONARYVAR
  2
AcDbDictionaryVar
  3
ObjectDBX Classes
 90
        0
280
     0
281
     0
  0
CLASS
  1
SORTENTSTABLE
  2
AcDbSortentsTable
  3
ObjectDBX Classes
 90
        0
280
     0
281
     0
  0
CLASS
  1
MATERIAL
  2
AcDbMaterial
  3
ObjectDBX Classes
 90
     1153
280
     0
281
     0
  0
CLASS
  1
VISUALSTYLE
  2
AcDbVisualStyle
  3
ObjectDBX Classes
 90
     4095
280
     0
281
     0
  0
CLASS
  1
TABLESTYLE
  2
AcDbTableStyle
  3
ObjectDBX Classes
 90
     4095
280
     0
281
     0
  0
CLASS
  1
SCALE
  2
AcDbScale
  3
ObjectDBX Classes
 90
     1153
280
     0
281
     0
  0
CLASS
  1
MLEADERSTYLE
  2
AcDbMLeaderStyle
  3
ACDB_MLEADERSTYLE_CLASS
 90
     4095
280
     0
281
     0
  0
CLASS
  1
CELLSTYLEMAP
  2
AcDbCellStyleMap
  3
ObjectDBX Classes
 90
     1152
280
     0
281
     0
  0
CLASS
  1
RASTERVARIABLES
  2
AcDbRasterVariables
  3
ISM
 90
        0
280
     0
281
     0
  0
CLASS
  1
SUN
  2
AcDbSun
  3
SCENEOE
 90
     1153
280
     0
281
     0
  0
ENDSEC
  0
SECTION
  2
TABLES
  0
TABLE
  2
VPORT
  5
8
330
0
100
AcDbSymbolTable
 70
     1
  0
VPORT
  5
270AC1
330
8
100
AcDbSymbolTableRecord
100
AcDbViewportTableRecord
  2
*Active
 70
     0
 10
0.0
 20
0.0
 11
1.0
 21
1.0
 12
-3931.875989866481
 22
-18278.07805744808
 13
0.0
 23
0.0
 14
1.0
 24
1.0
 15
20.0
 25
20.0
 16
0.0
 26
0.0
 36
1.0
 17
0.0
 27
0.0
 37
0.0
 40
90.76585260417946
 41
1.731829573934837
 42
50.0
 43
0.0
 44
0.0
 50
0.0
 51
0.0
 71
    16
 72
   100
 73
     1
 74
     0
 75
     0
 76
     0
 77
     0
 78
     0
281
     0
 65
     1
110
0.0
120
0.0
130
0.0
111
1.0
121
0.0
131
0.0
112
0.0
122
1.0
132
0.0
 79
     0
146
0.0
  0
ENDTAB
  0
TABLE
  2
LTYPE
  5
5
330
0
100
AcDbSymbolTable
 70
     4
  0
LTYPE
  5
12
330
5
100
AcDbSymbolTableRecord
100
AcDbLinetypeTableRecord
  2
BYBLOCK
 70
     0
  3

 72
    65
 73
     0
 40
0.0
  0
LTYPE
  5
13
330
5
100
AcDbSymbolTableRecord
100
AcDbLinetypeTableRecord
  2
BYLAYER
 70
     0
  3

 72
    65
 73
     0
 40
0.0
  0
LTYPE
  5
14
330
5
100
AcDbSymbolTableRecord
100
AcDbLinetypeTableRecord
  2
CONTINUOUS
 70
     0
  3
Solid line
 72
    65
 73
     0
 40
0.0
  0
LTYPE
  5
25
330
5
100
AcDbSymbolTableRecord
100
AcDbLinetypeTableRecord
  2
CENTER
 70
     0
  3
____ _ ____ _ ____ _ ____ _ ____ _ ____ _ ____
 72
    65
 73
     4
 40
2.0
 49
1.25
 74
     0
 49
-0.25
 74
     0
 49
0.25
 74
     0
 49
-0.25
 74
     0
  0
LTYPE
  5
26
330
5
100
AcDbSymbolTableRecord
100
AcDbLinetypeTableRecord
  2
PHANTOM
 70
     0
  3
_____ _ _ _____ _ _ _____ _ _ _____ _ _ ____
 72
    65
 73
     6
 40
2.5
 49
1.25
 74
     0
 49
-0.25
 74
     0
 49
0.25
 74
     0
 49
-0.25
 74
     0
 49
0.25
 74
     0
 49
-0.25
 74
     0
  0
ENDTAB
  0
TABLE
  2
LAYER
  5
2
102
{ACAD_XDICTIONARY
360
1339DB
102
}
330
0
100
AcDbSymbolTable
 70
    16
  0
LAYER
  5
F
102
{ACAD_XDICTIONARY
360
26A941
102
}
330
2
100
AcDbSymbolTableRecord
100
AcDbLayerTableRecord
  2
0
 70
     0
 62
     7
  6
CONTINUOUS
370
    -3
390
352
  0
LAYER
  5
34
102
{ACAD_XDICTIONARY
360
26A945
102
}
330
2
100
AcDbSymbolTableRecord
100
AcDbLayerTableRecord
  2
寸法線
 70
     0
 62
     7
  6
CONTINUOUS
370
    -3
390
352
  0
LAYER
  5
2F4
102
{ACAD_XDICTIONARY
360
26A94D
102
}
330
2
100
AcDbSymbolTableRecord
100
AcDbLayerTableRecord
  2
文字
 70
     0
 62
     7
  6
CONTINUOUS
370
    -3
390
352
  0
LAYER
  5
305
102
{ACAD_XDICTIONARY
360
26A951
102
}
330
2
100
AcDbSymbolTableRecord
100
AcDbLayerTableRecord
  2
姿図
 70
     0
 62
     8
  6
CONTINUOUS
370
    -3
390
352
  0
LAYER
  5
1ACBD9
102
{ACAD_XDICTIONARY
360
26A953
102
}
330
2
100
AcDbSymbolTableRecord
100
AcDbLayerTableRecord
  2
CONT-2
 70
     0
 62
     3
  6
CONTINUOUS
370
    -3
390
352
  0
LAYER
  5
1ACBDC
102
{ACAD_XDICTIONARY
360
26A955
102
}
330
2
100
AcDbSymbolTableRecord
100
AcDbLayerTableRecord
  2
C-SUNPO
 70
     0
 62
     7
  6
CONTINUOUS
370
    -3
390
352
  0
ENDTAB
  0
TABLE
  2
STYLE
  5
3
330
0
100
AcDbSymbolTable
 70
     2
  0
STYLE
  5
10
330
3
100
AcDbSymbolTableRecord
100
AcDbTextStyleTableRecord
  2
STANDARD
 70
     0
 40
0.0
 41
1.0
 50
0.0
 71
     0
 42
2.5
  3
MONOTXT
  4
BIGFONT
  0
STYLE
  5
B3427
330
3
100
AcDbSymbolTableRecord
100
AcDbTextStyleTableRecord
  2
EXTFONT
 70
     0
 40
4.5
 41
1.0
 50
0.0
 71
     0
 42
4.5
  3
txt.shx
  4
extfont
  0
ENDTAB
  0
TABLE
  2
VIEW
  5
6
330
0
100
AcDbSymbolTable
 70
     0
  0
ENDTAB
  0
TABLE
  2
UCS
  5
7
330
0
100
AcDbSymbolTable
 70
     0
  0
ENDTAB
  0
TABLE
  2
APPID
  5
9
330
0
100
AcDbSymbolTable
 70
    11
  0
APPID
  5
11
330
9
100
AcDbSymbolTableRecord
100
AcDbRegAppTableRecord
  2
ACAD
 70
     0
  0
APPID
  5
7DDF6
330
9
100
AcDbSymbolTableRecord
100
AcDbRegAppTableRecord
  2
GENIUS_GENODEF_13
 70
     0
  0
APPID
  5
7DDF7
330
9
100
AcDbSymbolTableRecord
100
AcDbRegAppTableRecord
  2
GENIUS_GENREC_14
 70
     0
  0
APPID
  5
7DDF8
330
9
100
AcDbSymbolTableRecord
100
AcDbRegAppTableRecord
  2
GENIUS_GENOBJ-N-REC_13
 70
     0
  0
APPID
  5
7E5F3
330
9
100
AcDbSymbolTableRecord
100
AcDbRegAppTableRecord
  2
GENIUS_GENOBJ-N-FIL_13
 70
     0
  0
APPID
  5
1CF1BD
330
9
100
AcDbSymbolTableRecord
100
AcDbRegAppTableRecord
  2
ACAD_PSEXT
 70
     0
  0
APPID
  5
26A887
330
9
100
AcDbSymbolTableRecord
100
AcDbRegAppTableRecord
  2
ACAD_MLEADERVER
 70
     0
  0
APPID
  5
26A88F
330
9
100
AcDbSymbolTableRecord
100
AcDbRegAppTableRecord
  2
ACAD_DSTYLE_DIMJAG
 70
     0
  0
APPID
  5
26A890
330
9
100
AcDbSymbolTableRecord
100
AcDbRegAppTableRecord
  2
ACAD_DSTYLE_DIMTALN
 70
     0
  0
APPID
  5
26A927
330
9
100
AcDbSymbolTableRecord
100
AcDbRegAppTableRecord
  2
ACAD_EXEMPT_FROM_CAD_STANDARDS
 70
     0
  0
APPID
  5
26B968
330
9
100
AcDbSymbolTableRecord
100
AcDbRegAppTableRecord
  2
AcadAnnotative
 70
     0
  0
ENDTAB
  0
TABLE
  2
DIMSTYLE
  5
A
330
0
100
AcDbSymbolTable
 70
     2
100
AcDbDimStyleTable
  0
DIMSTYLE
105
1CC
330
A
100
AcDbSymbolTableRecord
100
AcDbDimStyleTableRecord
  2
STANDARD
 70
     0
 41
3.0
 42
0.2999999999999999
 43
0.6300000000000001
 44
0.4999999999999996
 73
     0
 74
     0
 77
     3
 78
     8
 79
     2
140
2.5
141
0.0
147
0.7999999999999998
171
     0
172
     1
173
     1
176
     8
177
     8
271
     2
178
   256
179
     2
271
     2
272
     2
274
     0
289
     0
340
10
341
33F
343
33F
344
33F
371
    -1
372
    -1
1001
ACAD_DSTYLE_DIMJAG
1070
   388
1040
1.5
1001
ACAD_DSTYLE_DIMTALN
1070
   392
1070
     0
  0
ENDTAB
  0
TABLE
  2
BLOCK_RECORD
  5
1
330
0
100
AcDbSymbolTable
 70
    53
  0
BLOCK_RECORD
  5
18
102
{ACAD_XDICTIONARY
360
26A936
102
}
330
1
100
AcDbSymbolTableRecord
100
AcDbBlockTableRecord
  2
*MODEL_SPACE
340
355
  0
BLOCK_RECORD
  5
15
330
1
100
AcDbSymbolTableRecord
100
AcDbBlockTableRecord
  2
*PAPER_SPACE
340
356
  0
BLOCK_RECORD
  5
33F
330
1
100
AcDbSymbolTableRecord
100
AcDbBlockTableRecord
  2
_OPEN
340
0
102
{BLKREFS
331
26A8E0
331
26A8E1
331
26A8EB
331
26A8EC
331
26A8F3
331
26A8F4
331
26A8FC
331
26A8FD
331
26A905
331
26A906
331
26A90F
331
26A910
331
26A917
331
26A918
331
26A920
331
26A921
331
26B91E
331
26B91F
331
26B927
331
26B928
331
26B930
331
26B931
331
26B939
331
26B93A
331
26B945
331
26B946
331
26B94F
331
26B950
331
26B957
331
26B958
331
26B961
331
26B962
331
26D738
331
26D739
331
26E3D0
331
26E3D1
331
26E3D9
331
26E3DA
331
26E3E3
331
26E3E4
331
26E3EB
331
26E3EC
331
26E3F6
331
26E3F7
331
26E401
331
26E402
331
26E409
331
26E40A
331
26FAAF
331
26FAB0
331
26FAB8
331
26FAB9
331
26FAC1
331
26FAC2
331
26FACA
331
26FACB
331
26FADC
331
26FADD
331
26FAE8
331
26FAE9
331
26FAF2
331
26FAF3
331
26FAFE
331
26FAFF
331
270A43
331
270A44
331
270A4F
331
270A50
331
270A61
331
270A62
331
270A6A
331
270A6B
331
270A7C
331
270A7D
331
270A86
331
270A87
331
270A99
331
270A9A
331
2719FC
331
2719FD
331
271A04
331
271A05
331
271A10
331
271A11
331
271A20
331
271A21
331
271A29
331
271A2A
331
271A32
331
271A33
331
271A3B
331
271A3C
331
271A50
331
271A51
102
}
  0
BLOCK_RECORD
  5
1ACB0D
330
1
100
AcDbSymbolTableRecord
100
AcDbBlockTableRecord
  2
YA
340
0
102
{BLKREFS
331
1ACB14
102
}
  0
BLOCK_RECORD
  5
1ACB12
330
1
100
AcDbSymbolTableRecord
100
AcDbBlockTableRecord
  2
SUN
340
0
  0
ENDTAB
  0
ENDSEC
  0
SECTION
  2
BLOCKS
  0
BLOCK
  5
39
330
18
100
AcDbEntity
  8
0
100
AcDbBlockBegin
  2
*MODEL_SPACE
 70
     0
 10
0.0
 20
0.0
 30
0.0
  3
*MODEL_SPACE
  1
*MODEL_SPACE
  0
ENDBLK
  5
3A
330
18
100
AcDbEntity
  8
0
100
AcDbBlockEnd
  0
BLOCK
  5
37
330
15
100
AcDbEntity
 67
     1
  8
0
100
AcDbBlockBegin
  2
*PAPER_SPACE
 70
     0
 10
0.0
 20
0.0
 30
0.0
  3
*PAPER_SPACE
  1
*PAPER_SPACE
  0
ENDBLK
  5
38
330
15
100
AcDbEntity
 67
     1
  8
0
100
AcDbBlockEnd
  0
BLOCK
  5
340
330
33F
100
AcDbEntity
  8
0
100
AcDbBlockBegin
  2
_OPEN
 70
     0
 10
0.0
 20
0.0
 30
0.0
  3
_OPEN
  1
_OPEN
  0
LINE
  5
341
330
33F
100
AcDbEntity
  8
0
  6
ByBlock
 62
     0
100
AcDbLine
 10
-1.0
 20
0.1666666666666667
 30
0.0
 11
0.0
 21
0.0
 31
0.0
  0
LINE
  5
342
330
33F
100
AcDbEntity
  8
0
  6
ByBlock
 62
     0
100
AcDbLine
 10
0.0
 20
0.0
 30
0.0
 11
-1.0
 21
-0.1666666666666667
 31
0.0
  0
LINE
  5
343
330
33F
100
AcDbEntity
  8
0
  6
ByBlock
 62
     0
100
AcDbLine
 10
0.0
 20
0.0
 30
0.0
 11
-1.0
 21
0.0
 31
0.0
  0
ENDBLK
  5
344
330
33F
100
AcDbEntity
  8
0
100
AcDbBlockEnd
  0
BLOCK
  5
1ACB0E
330
1ACB0D
100
AcDbEntity
  8
0
100
AcDbBlockBegin
  2
YA
 70
     0
 10
0.0
 20
0.0
 30
0.0
  3
YA
  1
YA
  0
LINE
  5
1ACB0F
330
1ACB0D
100
AcDbEntity
  8
C-SUNPO
100
AcDbLine
 10
0.0
 20
0.0
 30
0.0
 11
-10.92357602975926
 21
2.926963375633989
 31
0.0
  0
LINE
  5
1ACB10
330
1ACB0D
100
AcDbEntity
  8
C-SUNPO
100
AcDbLine
 10
0.0
 20
0.0
 30
0.0
 11
-10.92357602975926
 21
-2.926963375633989
 31
0.0
  0
ENDBLK
  5
1ACB11
330
1ACB0D
100
AcDbEntity
  8
0
100
AcDbBlockEnd
  0
BLOCK
  5
1ACB13
330
1ACB12
100
AcDbEntity
  8
0
100
AcDbBlockBegin
  2
SUN
 70
     0
 10
0.0
 20
0.0
 30
0.0
  3
SUN
  1
SUN
  0
INSERT
  5
1ACB14
330
1ACB12
100
AcDbEntity
  8
CONT-2
100
AcDbBlockReference
  2
YA
 10
0.0
 20
0.0
 30
0.0
 41
0.4753510464194477
 42
-0.4753510464194477
 43
0.4753510464194477
  0
ENDBLK
  5
1ACB15
330
1ACB12
100
AcDbEntity
  8
0
100
AcDbBlockEnd
  0
ENDSEC
  0
SECTION
  2
ENTITIES
  0
MTEXT
  5
1CADCE
330
18
100
AcDbEntity
  8
寸法線
100
AcDbMText
 10
-8190.898993724017
 20
-12886.90737958262
 30
-0.0000000000000001
 40
3.0
 41
0.0
 71
     9
 72
     1
  1
\A1;
 73
     1
 44
1.0
  0
MTEXT
  5
1CADD6
330
18
100
AcDbEntity
  8
寸法線
100
AcDbMText
 10
-8188.398993724017
 20
-12886.90737958262
 30
0.0000000000000001
 40
3.0
 41
0.0
 71
     9
 72
     1
  1
\A1;
 73
     1
 44
1.0
  0
MTEXT
  5
1CADDC
330
18
100
AcDbEntity
  8
寸法線
100
AcDbMText
 10
-8188.398993724017
 20
-12886.90737958262
 30
0.0000000000000001
 40
3.0
 41
0.0
 71
     9
 72
     1
  1
\A1;
 73
     1
 44
1.0
  0
MTEXT
  5
1CADE4
330
18
100
AcDbEntity
  8
寸法線
100
AcDbMText
 10
-8121.238459237466
 20
-12907.96180382428
 30
0.0
 40
3.0
 41
0.0
 71
     7
 72
     1
  1
\A1;
 73
     1
 44
1.0
  0
SPLINE
  5
270AC9
330
18
100
AcDbEntity
  8
姿図
100
AcDbSpline
210
0.0
220
0.0
230
1.0
 70
    24
 71
     1
 72
     4
 73
     2
 74
     0
 42
0.000000001
 43
0.0000000001
 40
0.500003153875532
 40
0.500003153875532
 40
1.000006307751064
 40
1.000006307751064
 10
-3940.833837166471
 20
-18272.11807753803
 30
0.0000000000000049
 10
-3940.946584907927
 20
-18272.18095793216
 30
0.0000000000000146
  0
SPLINE
  5
270ACA
330
18
100
AcDbEntity
  8
姿図
100
AcDbSpline
210
0.0
220
0.0
230
1.0
 70
     8
 71
     3
 72
    14
 73
    10
 74
     0
 42
0.000000001
 43
0.0000000001
 40
-17.67097520731171
 40
-17.67097520731171
 40
-17.67097520731171
 40
-17.67097520731171
 40
-15.46329434907155
 40
-15.46329434907155
 40
-11.48389074227961
 40
-11.48389074227961
 40
-5.954339038219556
 40
-5.954339038219556
 40
-0.5047492958822968
 40
-0.5047492958822968
 40
-0.5047492958822968
 40
-0.5047492958822968
 10
-3914.74946634792
 20
-18274.48929803915
 30
0.0000000000000048
 10
-3914.631838256496
 20
-18274.71187640452
 30
0.0
 10
-3914.521494004121
 20
-18274.93629582764
 30
0.0
 10
-3914.235242016516
 20
-18275.56515061831
 30
0.0
 10
-3914.079615998019
 20
-18275.96539614695
 30
0.0
 10
-3913.76323318469
 20
-18276.9439032959
 30
0.0000000000000048
 10
-3913.651482242733
 20
-18277.4392108293
 30
0.0
 10
-3913.510015039498
 20
-18278.30288503366
 30
0.0000000000000097
 10
-3913.470869628928
 20
-18278.72685359271
 30
0.0000000000000097
 10
-3913.463304882097
 20
-18279.14038594756
 30
0.0
  0
SPLINE
  5
270ACB
330
18
100
AcDbEntity
  8
姿図
100
AcDbSpline
210
0.0
220
0.0
230
1.0
 70
     8
 71
     3
 72
     8
 73
     4
 74
     0
 42
0.000000001
 43
0.0000000001
 40
6.0
 40
6.0
 40
6.0
 40
6.0
 40
6.981114317255776
 40
6.981114317255776
 40
6.981114317255776
 40
6.981114317255776
 10
-3925.756428524762
 20
-18251.6163026533
 30
0.0000000000000033
 10
-3925.58381799992
 20
-18252.20526378267
 30
0.0000000000000033
 10
-3920.684586800239
 20
-18279.91573748938
 30
0.0000000000000033
 10
-3920.499568517557
 20
-18281.07564200846
 30
0.0000000000000033
  0
SPLINE
  5
270ACC
330
18
100
AcDbEntity
  8
姿図
100
AcDbSpline
210
0.0
220
0.0
230
1.0
 70
     8
 71
     3
 72
     8
 73
     4
 74
     0
 42
0.000000001
 43
0.0000000001
 40
8.0
 40
8.0
 40
8.0
 40
8.0
 40
9.0
 40
9.0
 40
9.0
 40
9.0
 10
-3918.611321453846
 20
-18280.40739992332
 30
-0.0000000000000097
 10
-3918.611321453846
 20
-18280.40739992332
 30
-0.0000000000000097
 10
-3921.937614916177
 20
-18250.25088076359
 30
0.0000000000000033
 10
-3922.154363248005
 20
-18249.22541829152
 30
0.0000000000000033
  0
ELLIPSE
  5
270ACD
330
18
100
AcDbEntity
  8
姿図
100
AcDbEllipse
 10
-3917.348995997824
 20
-18274.27462505396
 30
0.0000000000000048
 11
-5.127492779515051
 21
5.091762886143623
 31
2.942922424549431E-16
210
-1.839507314430161E-17
220
3.927355656585553E-17
230
-1.0
 40
0.6510494580119257
 41
1.88482654767138
 42
2.693896839941427
  0
ARC
  5
270ACE
330
18
100
AcDbEntity
  8
姿図
100
AcDbCircle
 10
-3920.256980413745
 20
-18310.98807516912
 30
0.0
 40
43.97799551346176
100
AcDbArc
 50
118.0581559459496
 51
129.4391471833064
  0
SPLINE
  5
270ACF
330
18
100
AcDbEntity
  8
姿図
100
AcDbSpline
210
0.0
220
0.0
230
1.0
 70
     8
 71
     3
 72
    18
 73
    14
 74
     0
 42
0.000000001
 43
0.0000000001
 40
28.74698734064234
 40
28.74698734064234
 40
28.74698734064234
 40
28.74698734064234
 40
33.44137084920912
 40
33.44137084920912
 40
41.29196149669883
 40
41.29196149669883
 40
50.54402678597219
 40
50.54402678597219
 40
58.56297097631615
 40
58.56297097631615
 40
66.12555618457822
 40
66.12555618457822
 40
66.63663448405963
 40
66.63663448405963
 40
66.63663448405963
 40
66.63663448405963
 10
-3927.974982784056
 20
-18276.18818854575
 30
0.000000000000004
 10
-3928.416668371377
 20
-18275.77714719128
 30
0.0000000000000045
 10
-3928.896545986458
 20
-18275.36991398523
 30
0.0000000000000048
 10
-3930.284162333709
 20
-18274.3211324908
 30
0.0000000000000048
 10
-3931.201925107768
 20
-18273.75036522093
 30
0.0
 10
-3933.24185501137
 20
-18272.73759649586
 30
0.0000000000000048
 10
-3934.366390991591
 20
-18272.3399115834
 30
0.0
 10
-3936.478395986284
 20
-18271.87389397177
 30
0.0000000000000048
 10
-3937.340385912995
 20
-18271.79422871854
 30
0.0000000000000048
 10
-3938.774867211588
 20
-18271.7813440876
 30
0.0000000000000048
 10
-3939.639294159709
 20
-18271.83787246424
 30
0.0000000000000048
 10
-3940.601187949545
 20
-18272.0469996018
 30
0.0000000000000048
 10
-3940.661920400035
 20
-18272.06079771344
 30
0.0000000000000049
 10
-3940.72248034132
 20
-18272.07514580281
 30
0.0000000000000049
  0
SPLINE
  5
270AD0
330
18
100
AcDbEntity
  8
姿図
100
AcDbSpline
210
0.0
220
0.0
230
1.0
 70
     8
 71
     3
 72
    20
 73
    16
 74
     0
 42
0.000000001
 43
0.0000000001
 40
0.0507684683112425
 40
0.0507684683112425
 40
0.0507684683112425
 40
0.0507684683112425
 40
16.17239265914957
 40
16.17239265914957
 40
33.44137084920912
 40
33.44137084920912
 40
41.29196149669883
 40
41.29196149669883
 40
50.54402678597219
 40
50.54402678597219
 40
58.56297097631615
 40
58.56297097631615
 40
66.12555618457822
 40
66.12555618457822
 40
66.75214355035303
 40
66.75214355035303
 40
66.75214355035303
 40
66.75214355035303
 10
-3924.400085158039
 20
-18283.00529412552
 30
-0.0000000000000046
 10
-3925.021336858073
 20
-18281.68146722962
 30
-0.0000000000000046
 10
-3925.786148307717
 20
-18280.40628391177
 30
-0.0000000000000046
 10
-3927.620007544209
 20
-18277.97329639066
 30
-0.0000000000000046
 10
-3929.04060119853
 20
-18276.39056243178
 30
-0.0000000000000046
 10
-3931.813934957508
 20
-18274.41664639475
 30
-0.0000000000000046
 10
-3932.720639511804
 20
-18273.88786490996
 30
-0.0000000000000046
 10
-3934.716523907203
 20
-18272.9690982717
 30
-0.0000000000000046
 10
-3935.804560679854
 20
-18272.62365961208
 30
-0.0000000000000046
 10
-3937.826648648027
 20
-18272.25651212813
 30
-0.0000000000000046
 10
-3938.643531292527
 20
-18272.21749304216
 30
0.0000000000000035
 10
-3939.993842029776
 20
-18272.27256756842
 30
-0.0000000000000046
 10
-3940.802656339568
 20
-18272.37021924682
 30
-0.0000000000000046
 10
-3941.704260389469
 20
-18272.62914692358
 30
-0.0000000000000046
 10
-3941.772959455912
 20
-18272.64979126287
 30
-0.0000000000000046
 10
-3941.8413471133
 20
-18272.67124853171
 30
-0.0000000000000046
  0
ELLIPSE
  5
270AD1
330
18
100
AcDbEntity
  8
姿図
100
AcDbEllipse
 10
-3935.65406328004
 20
-18287.15728774039
 30
0.0000000000000035
 11
-8.240481708337285
 21
13.54645361661168
 31
1.375286606555164E-15
210
-4.507750876087788E-17
220
7.410251041075196E-17
230
-1.0
 40
0.7445887407027104
 41
0.1816174140285645
 42
1.721396946041356
  0
SPLINE
  5
270AD2
330
18
100
AcDbEntity
  8
姿図
100
AcDbSpline
210
0.0
220
0.0
230
1.0
 70
     8
 71
     3
 72
     8
 73
     4
 74
     0
 42
0.000000001
 43
0.0000000001
 40
-29.73791167171498
 40
-29.73791167171498
 40
-29.73791167171498
 40
-29.73791167171498
 40
-21.81652578453031
 40
-21.81652578453031
 40
-21.81652578453031
 40
-21.81652578453031
 10
-3928.180421432243
 20
-18271.75814933809
 30
0.0
 10
-3925.240669702099
 20
-18271.81735124593
 30
0.0000000000000044
 10
-3923.838496385903
 20
-18272.58840221945
 30
0.0000000000000048
 10
-3921.33533471699
 20
-18276.03203892078
 30
0.0000000000000048
  0
LWPOLYLINE
  5
270AD3
330
18
100
AcDbEntity
  8
姿図
100
AcDbPolyline
 90
        4
 70
     0
 43
0.0
 10
-3928.823724588706
 20
-18275.408784801
 10
-3928.362917303018
 20
-18275.15066660398
 10
-3927.987413192958
 20
-18275.02862201007
 10
-3923.782460028203
 20
-18273.95131138886
  0
LWPOLYLINE
  5
270AD4
330
18
100
AcDbEntity
  8
姿図
100
AcDbPolyline
 90
        4
 70
     0
 43
0.0
 10
-3928.486672539678
 20
-18275.72757722401
 10
-3928.02586525399
 20
-18275.46945902699
 10
-3927.65036114393
 20
-18275.34741443308
 10
-3923.445407979175
 20
-18274.27010381188
  0
LINE
  5
270AD5
330
18
100
AcDbEntity
  8
姿図
100
AcDbLine
 10
-3923.445407979175
 20
-18274.27010381188
 30
0.0
 11
-3926.360614645949
 21
-18276.80317269125
 31
0.0
  0
SPLINE
  5
270AD6
330
18
100
AcDbEntity
  8
姿図
100
AcDbSpline
210
0.0
220
0.0
230
1.0
 70
     8
 71
     3
 72
    20
 73
    16
 74
     0
 42
0.000000001
 43
0.0000000001
 40
60.97286850367482
 40
60.97286850367482
 40
60.97286850367482
 40
60.97286850367482
 40
63.27662545801321
 40
63.27662545801321
 40
65.63207741714923
 40
65.63207741714923
 40
66.46294226239624
 40
66.46294226239624
 40
68.78483332584179
 40
68.78483332584179
 40
78.37384755292882
 40
78.37384755292882
 40
82.12808435629299
 40
82.12808435629299
 40
84.32250915659358
 40
84.32250915659358
 40
84.32250915659358
 40
84.32250915659358
 10
-3925.503389857065
 20
-18299.17439310743
 30
-0.000000000000005
 10
-3925.195338297376
 20
-18298.84951527924
 30
-0.0000000000000056
 10
-3924.938853584589
 20
-18298.53225586838
 30
-0.0000000000000068
 10
-3924.520954085344
 20
-18297.96184654347
 30
-0.0000000000000127
 10
-3924.336322244278
 20
-18297.67270929391
 30
-0.0000000000000046
 10
-3924.173708388859
 20
-18297.40052435009
 30
-0.0000000000000046
 10
-3924.129257217629
 20
-18297.32390472943
 30
-0.0000000000000046
 10
-3923.958688768443
 20
-18297.02117020188
 30
-0.0000000000000046
 10
-3923.855119740353
 20
-18296.81958475288
 30
-0.0000000000000127
 10
-3923.330601681036
 20
-18295.71921253373
 30
-0.0000000000000046
 10
-3922.825615009629
 20
-18294.35547103605
 30
-0.0000000000000127
 10
-3922.556844267575
 20
-18291.78651045738
 30
-0.0000000000000046
 10
-3922.534997141797
 20
-18291.04833564077
 30
-0.0000000000000046
 10
-3922.583231955813
 20
-18289.84651620856
 30
-0.0000000000000046
 10
-3922.618951361616
 20
-18289.3946743251
 30
-0.0000000000000046
 10
-3922.672773399162
 20
-18288.9401147553
 30
-0.0000000000000046
  0
SPLINE
  5
270AD7
330
18
100
AcDbEntity
  8
姿図
100
AcDbSpline
210
0.0
220
0.0
230
1.0
 70
     8
 71
     3
 72
    20
 73
    16
 74
     0
 42
0.000000001
 43
0.0000000001
 40
61.91009950387845
 40
61.91009950387845
 40
61.91009950387845
 40
61.91009950387845
 40
63.27662545801321
 40
63.27662545801321
 40
65.63207741714923
 40
65.63207741714923
 40
66.46294226239624
 40
66.46294226239624
 40
68.78483332584179
 40
68.78483332584179
 40
78.37384755292882
 40
78.37384755292882
 40
82.12808435629299
 40
82.12808435629299
 40
85.66477676586585
 40
85.66477676586585
 40
85.66477676586585
 40
85.66477676586585
 10
-3925.120723775771
 20
-18298.92916714635
 30
-0.0000000000000016
 10
-3924.938412930725
 20
-18298.75195702617
 30
-0.0000000000000024
 10
-3924.775590699611
 20
-18298.58043948957
 30
-0.0000000000000028
 10
-3924.385425071633
 20
-18298.14442308882
 30
0.0
 10
-3924.166656523435
 20
-18297.8663935334
 30
-0.0000000000000049
 10
-3923.972568436434
 20
-18297.60410465318
 30
0.0
 10
-3923.919335532951
 20
-18297.53020445324
 30
-0.0000000000000049
 10
-3923.714368340902
 20
-18297.23796118586
 30
0.0000000000000048
 10
-3923.588484937159
 20
-18297.04286054987
 30
-0.0000000000000049
 10
-3922.944572726415
 20
-18295.97584244784
 30
-0.0000000000000049
 10
-3922.300182968863
 20
-18294.6461750892
 30
-0.0000000000000049
 10
-3921.809116874339
 20
-18292.10723208943
 30
-0.0000000000000049
 10
-3921.72666528179
 20
-18291.37490988084
 30
0.0000000000000048
 10
-3921.670915896396
 20
-18289.90844580438
 30
0.0000000000000048
 10
-3921.791029471487
 20
-18288.13315910344
 30
-0.0000000000000049
 10
-3921.791029471487
 20
-18288.13315910344
 30
-0.0000000000000049
  0
ELLIPSE
  5
270AD8
330
18
100
AcDbEntity
  8
姿図
100
AcDbEllipse
 10
-3935.65406328004
 20
-18287.15728774039
 30
0.0000000000000035
 11
-8.240481708336526
 21
13.54645361661212
 31
1.375286606555164E-15
210
-4.507750876087789E-17
220
7.410251041075211E-17
230
-1.0
 40
0.7445887407026947
 41
2.121095593057874
 42
2.942897457598217
  0
LINE
  5
270AD9
330
18
100
AcDbEntity
  8
姿図
100
AcDbLine
 10
-3931.003585455675
 20
-18299.18685037759
 30
0.0
 11
-3928.032651609762
 21
-18296.04212334777
 31
0.0
  0
LINE
  5
270ADA
330
18
100
AcDbEntity
  8
姿図
100
AcDbLine
 10
-3931.364301320265
 20
-18300.0397094356
 30
0.0
 11
-3928.435077805262
 21
-18297.72337020624
 31
0.0
  0
ELLIPSE
  5
270ADB
330
18
100
AcDbEntity
  8
姿図
100
AcDbEllipse
 10
-3940.307960163925
 20
-18290.07025983964
 30
0.0000000000000048
 11
-7.884575982221196
 21
12.9613834008953
 31
4.386293637723255E-16
210
-1.502583625362600E-17
220
2.470083680358401E-17
230
-1.0
 40
0.7445887407027151
 41
-0.1600394095497866
 42
2.858287793139493
  0
ELLIPSE
  5
270ADC
330
18
100
AcDbEntity
  8
姿図
100
AcDbEllipse
 10
-3941.56087563954
 20
-18290.61580969378
 30
0.0
 11
-7.28242352521681
 21
12.73200189802586
 31
0.0
210
0.0
220
0.0
230
1.0
 40
0.6660508930180213
 41
0.0
 42
6.283185307179586
  0
ELLIPSE
  5
270ADD
330
18
100
AcDbEntity
  8
姿図
100
AcDbEllipse
 10
-3940.186378972508
 20
-18289.9143538627
 30
0.0000000000000048
 11
-7.884575982221855
 21
12.96138340089481
 31
4.386293637723232E-16
210
-1.502583625362599E-17
220
2.470083680358400E-17
230
-1.0
 40
0.7445887407027094
 41
-0.1600394095497162
 42
3.301632058444431
  0
ELLIPSE
  5
270ADE
330
18
100
AcDbEntity
  8
姿図
100
AcDbEllipse
 10
-3937.879164595183
 20
-18288.86608007502
 30
0.0000000000000048
 11
-7.82701416331038
 21
11.75310932543846
 31
4.079190685550499E-16
210
-1.502583625362602E-17
220
2.470083680358398E-17
230
-1.0
 40
0.7569365384830131
 41
3.552643368148212
 42
5.078668158851188
  0
ELLIPSE
  5
270ADF
330
18
100
AcDbEntity
  8
姿図
100
AcDbEllipse
 10
-3937.824259112786
 20
-18288.68073705522
 30
0.0000000000000048
 11
-7.444693544853399
 21
11.8886404268406
 31
1.216566339489824E-15
210
-4.507750876087802E-17
220
7.410251041075204E-17
230
-1.0
 40
0.7056022756695939
 41
3.486045950244612
 42
5.025651057886404
  0
ELLIPSE
  5
270AE0
330
18
100
AcDbEntity
  8
姿図
100
AcDbEllipse
 10
-3921.966532730609
 20
-18268.51815763938
 30
0.0000000000000052
 11
17.59358850054388
 21
31.5635918245737
 31
7.729331260063255E-16
210
-2.253875438043893E-17
220
3.705125520537598E-17
230
-1.0
 40
0.6410056557820725
 41
3.099784278963601
 42
3.266368125798948
  0
ELLIPSE
  5
270AE1
330
18
100
AcDbEntity
  8
姿図
100
AcDbEllipse
 10
-3939.785587951213
 20
-18289.6705475372
 30
0.0000000000000048
 11
-7.672174073519265
 21
12.61221781735697
 31
1.280439496127413E-15
210
-4.507750876087800E-17
220
7.410251041075201E-17
230
-1.0
 40
0.7445887407026809
 41
3.636283805279289
 42
5.673615026347025
  0
ELLIPSE
  5
270AE2
330
18
100
AcDbEntity
  8
姿図
100
AcDbEllipse
 10
-3941.821471884778
 20
-18290.90899751416
 30
0.0
 11
-6.74863655959689
 21
11.79877182209287
 31
0.0
210
0.0
220
0.0
230
1.0
 40
0.662162193431699
 41
0.0
 42
6.283185307179586
  0
ELLIPSE
  5
270AE3
330
18
100
AcDbEntity
  8
姿図
100
AcDbEllipse
 10
-3936.455282192249
 20
-18288.18760272989
 30
0.0000000000000048
 11
-7.060164574590121
 21
11.81984014879487
 31
1.990224096906372E-16
210
-7.512918126813000E-18
220
1.235041840179201E-17
230
-1.0
 40
0.7210291192186467
 41
3.53225784205633
 42
5.995539524716994
  0
ELLIPSE
  5
270AE4
330
18
100
AcDbEntity
  8
姿図
100
AcDbEllipse
 10
-3938.736650409414
 20
-18289.38769970827
 30
0.0000000000000048
 11
-8.208672799841843
 21
11.462383986619
 31
6.097089743752613E-16
210
-2.253875438043901E-17
220
3.705125520537599E-17
230
-1.0
 40
0.7212488145120978
 41
3.547863408263944
 42
6.141197072414606
  0
ELLIPSE
  5
270AE5
330
18
100
AcDbEntity
  8
姿図
100
AcDbEllipse
 10
-3935.999069985511
 20
-18287.98360235114
 30
0.0000000000000048
 11
-7.245890988991941
 21
12.14575907608555
 31
1.022214960765639E-15
210
-3.756459063406504E-17
220
6.175209200896002E-17
230
-1.0
 40
0.7430302579573002
 41
3.587432645584389
 42
4.013845773911165
  0
LINE
  5
270AE6
330
18
100
AcDbEntity
  8
姿図
100
AcDbLine
 10
-3938.250125213276
 20
-18299.91746853503
 30
0.0000000000000042
 11
-3938.699108137457
 21
-18300.52552819677
 31
0.0000000000000044
  0
LINE
  5
270AE7
330
18
100
AcDbEntity
  8
姿図
100
AcDbLine
 10
-3932.34869216803
 20
-18301.62900297413
 30
0.0
 11
-3929.444069005935
 21
-18299.9933847028
 31
0.0
  0
LINE
  5
270AE8
330
18
100
AcDbEntity
  8
姿図
100
AcDbLine
 10
-3930.241334756875
 20
-18301.10568399756
 30
0.0
 11
-3932.666369791149
 21
-18302.07512000073
 31
0.0
  0
LINE
  5
270AE9
330
18
100
AcDbEntity
  8
姿図
100
AcDbLine
 10
-3931.694911981606
 20
-18300.74019299432
 30
0.0
 11
-3928.95255786824
 21
-18298.97562600612
 31
0.0
  0
SPLINE
  5
270AEA
330
18
100
AcDbEntity
  8
姿図
100
AcDbSpline
210
0.0
220
0.0
230
1.0
 70
     8
 71
     1
 72
     8
 73
     6
 74
     0
 42
0.000000001
 43
0.0000000001
 40
4.553485832398614
 40
4.553485832398614
 40
4.559001824165762
 40
4.564517815932909
 40
4.570033807700057
 40
4.575549799467204
 40
4.581065791234352
 40
4.581065791234352
 10
-3933.940499486481
 20
-18303.64565217761
 30
-0.0000000000000114
 10
-3934.00048580028
 20
-18303.66615835309
 30
-0.0000000000000114
 10
-3934.060659635282
 20
-18303.68624259733
 30
-0.0000000000000033
 10
-3934.1210190916
 20
-18303.7059043087
 30
-0.0000000000000114
 10
-3934.181562264214
 20
-18303.72514289992
 30
-0.0000000000000114
 10
-3934.24228724305
 20
-18303.74395779812
 30
-0.0000000000000114
  0
SPLINE
  5
270AEB
330
18
100
AcDbEntity
  8
姿図
100
AcDbSpline
210
0.0
220
0.0
230
1.0
 70
     8
 71
     1
 72
     8
 73
     6
 74
     0
 42
0.000000001
 43
0.0000000001
 40
4.584727753645457
 40
4.584727753645457
 40
4.584891353986822
 40
4.585054954328187
 40
4.585218554669551
 40
4.585382155010916
 40
4.585545755352282
 40
4.585545755352282
 10
-3934.333491860861
 20
-18303.77150996347
 30
-0.0000000000000114
 10
-3934.33960678679
 20
-18303.77334782544
 30
-0.0000000000000114
 10
-3934.34572153044
 20
-18303.77518420925
 30
-0.0000000000000114
 10
-3934.351836091021
 20
-18303.77701911499
 30
-0.0000000000000114
 10
-3934.357950467746
 20
-18303.77885254277
 30
-0.0000000000000114
 10
-3934.364064659822
 20
-18303.78068449269
 30
-0.0000000000000114
  0
ELLIPSE
  5
270AEC
330
18
100
AcDbEntity
  8
姿図
100
AcDbEllipse
 10
-3940.253307486247
 20
-18289.95506733715
 30
0.0000000000000048
 11
-7.874212555822768
 21
12.94434706054504
 31
8.761056655230284E-16
210
-3.005167250725200E-17
220
4.940167360716802E-17
230
-1.0
 40
0.7445887405939735
 41
3.327615434085498
 42
3.342055807832923
  0
SPLINE
  5
270AED
330
18
100
AcDbEntity
  8
姿図
100
AcDbSpline
210
0.0
220
0.0
230
1.0
 70
     8
 71
     3
 72
     8
 73
     4
 74
     0
 42
0.000000001
 43
0.0000000001
 40
-0.691446024632862
 40
-0.691446024632862
 40
-0.691446024632862
 40
-0.691446024632862
 40
-0.6779385051869151
 40
-0.6779385051869151
 40
-0.6779385051869151
 40
-0.6779385051869151
 10
-3934.24228724305
 20
-18303.74395779812
 30
-0.0000000000000114
 10
-3934.243101055331
 20
-18303.74420673639
 30
-0.0000000000000114
 10
-3934.243923322131
 20
-18303.74444120305
 30
-0.0000000000000114
 10
-3934.24475380929
 20
-18303.7446611585
 30
-0.0000000000000114
  0
SPLINE
  5
270AEE
330
18
100
AcDbEntity
  8
姿図
100
AcDbSpline
210
0.0
220
0.0
230
1.0
 70
     8
 71
     3
 72
     8
 73
     4
 74
     0
 42
0.000000001
 43
0.0000000001
 40
211.7706370983692
 40
211.7706370983692
 40
211.7706370983692
 40
211.7706370983692
 40
212.1566911252955
 40
212.1566911252955
 40
212.1566911252955
 40
212.1566911252955
 10
-3934.2975488894
 20
-18303.7604747882
 30
-0.0000000000000114
 10
-3934.279187236042
 20
-18303.75501951204
 30
-0.0000000000000114
 10
-3934.260779130599
 20
-18303.74950048997
 30
-0.0000000000000033
 10
-3934.242325675071
 20
-18303.74391807884
 30
-0.0000000000000114
  0
SPLINE
  5
270AEF
330
18
100
AcDbEntity
  8
姿図
100
AcDbSpline
210
0.0
220
0.0
230
1.0
 70
     8
 71
     3
 72
    12
 73
     8
 74
     0
 42
0.000000001
 43
0.0000000001
 40
-1.090507445860422
 40
-1.090507445860422
 40
-1.090507445860422
 40
-1.090507445860422
 40
-0.9471425154221369
 40
-0.9471425154221369
 40
-0.7528206779009274
 40
-0.7528206779009274
 40
-0.6501188551225207
 40
-0.6501188551225207
 40
-0.6501188551225207
 40
-0.6501188551225207
 10
-3934.24475380929
 20
-18303.7446611585
 30
-0.0000000000000114
 10
-3934.252093449996
 20
-18303.74688919029
 30
-0.0000000000000114
 10
-3934.260616666733
 20
-18303.74947659383
 30
-0.0000000000000114
 10
-3934.282861004272
 20
-18303.7562231828
 30
-0.0000000000000114
 10
-3934.296735710449
 20
-18303.76042633024
 30
-0.0000000000000114
 10
-3934.31805168934
 20
-18303.76686193389
 30
-0.0000000000000114
 10
-3934.325674017625
 20
-18303.76915942128
 30
-0.0000000000000114
 10
-3934.333491860861
 20
-18303.77150996347
 30
-0.0000000000000114
  0
ELLIPSE
  5
270AF0
330
18
100
AcDbEntity
  8
姿図
100
AcDbEllipse
 10
-3940.190262595253
 20
-18289.91671632029
 30
0.0000000000000048
 11
-7.883976894925901
 21
12.96040266558285
 31
4.385961370018242E-16
210
-1.502583625362601E-17
220
2.470083680358399E-17
230
-1.0
 40
0.7445885816862141
 41
3.329004700455244
 42
3.329226432330678
  0
SPLINE
  5
270AF1
330
18
100
AcDbEntity
  8
姿図
100
AcDbSpline
210
-2.784767072759282E-10
220
9.163452740474085E-10
230
-1.0
 70
     8
 71
     3
 72
     8
 73
     4
 74
     0
 42
0.000000001
 43
0.0000000001
 40
104.4616887805064
 40
104.4616887805064
 40
104.4616887805064
 40
104.4616887805064
 40
104.5558158786619
 40
104.5558158786619
 40
104.5558158786619
 40
104.5558158786619
 10
-3934.214527332398
 20
-18303.73547124358
 30
-0.0000000000000033
 10
-3934.219037698579
 20
-18303.73684781991
 30
-0.0000000000000033
 10
-3934.22354539874
 20
-18303.73822066035
 30
-0.0000000000000114
 10
-3934.228050401868
 20
-18303.73958972774
 30
-0.0000000000000114
  0
ELLIPSE
  5
270AF2
330
18
100
AcDbEntity
  8
姿図
100
AcDbEllipse
 10
-3938.382429346108
 20
-18288.81698813734
 30
0.0000000000000048
 11
-7.13486450601208
 21
11.72893942405067
 31
1.984609621758720E-16
210
-7.512918126813008E-18
220
1.235041840179200E-17
230
-1.0
 40
0.7445887418889435
 41
3.384599287400112
 42
3.389850227392116
  0
LINE
  5
270AF3
330
18
100
AcDbEntity
  8
姿図
100
AcDbLine
 10
-3931.049349219183
 20
-18301.94317726981
 30
0.0
 11
-3933.133170660295
 21
-18302.47372622555
 31
0.0
  0
LINE
  5
270AF4
330
18
100
AcDbEntity
  8
姿図
100
AcDbLine
 10
-3931.987091353475
 20
-18302.67447887266
 30
0.0
 11
-3933.63668177232
 21
-18302.91436760128
 31
0.0
  0
ARC
  5
270AF5
330
18
100
AcDbEntity
  8
姿図
100
AcDbCircle
 10
-3937.054281413509
 20
-18293.94438709247
 30
-0.0000000000000033
 40
10.19977863332881
100
AcDbArc
 50
273.418162713804
 51
284.7582780585444
  0
ARC
  5
270AF6
330
18
100
AcDbEntity
  8
姿図
100
AcDbCircle
 10
-3963.539255986155
 20
-18239.39964361999
 30
0.0
 40
70.85017846467
100
AcDbArc
 50
295.2712329143715
 51
302.8369599190648
  0
LINE
  5
270AF7
330
18
100
AcDbEntity
  8
姿図
100
AcDbLine
 10
-3939.122279573757
 20
-18279.1122142782
 30
0.0
 11
-3937.562580237843
 21
-18277.46127591524
 31
0.0
  0
LINE
  5
270AF8
330
18
100
AcDbEntity
  8
姿図
100
AcDbLine
 10
-3938.655234601033
 20
-18279.43694122245
 30
0.0
 11
-3937.058585074935
 21
-18277.74689116335
 31
0.0
  0
LINE
  5
270AF9
330
18
100
AcDbEntity
  8
姿図
100
AcDbLine
 10
-3938.201754730645
 20
-18279.77602679808
 30
0.0
 11
-3936.569307321756
 21
-18278.04808475772
 31
0.0
  0
LINE
  5
270AFA
330
18
100
AcDbEntity
  8
姿図
100
AcDbLine
 10
-3937.761172317726
 20
-18280.12876430446
 30
0.0
 11
-3936.094000354983
 21
-18278.36406639919
 31
0.0
  0
LINE
  5
270AFB
330
18
100
AcDbEntity
  8
姿図
100
AcDbLine
 10
-3936.743450513598
 20
-18288.9551340904
 30
0.0
 11
-3941.294119576104
 21
-18294.38226734953
 31
0.0
  0
LINE
  5
270AFC
330
18
100
AcDbEntity
  8
姿図
100
AcDbLine
 10
-3943.49770312933
 20
-18277.19084634221
 30
0.0
 11
-3942.28988931117
 21
-18275.9123780363
 31
0.0
  0
LINE
  5
270AFD
330
18
100
AcDbEntity
  8
姿図
100
AcDbLine
 10
-3942.869107239424
 20
-18277.34457199114
 30
0.0
 11
-3941.610128121306
 21
-18276.01194532623
 31
0.0
  0
LINE
  5
270AFE
330
18
100
AcDbEntity
  8
姿図
100
AcDbLine
 10
-3942.270099166667
 20
-18277.52961628032
 30
0.0
 11
-3940.962509272341
 21
-18276.14553521427
 31
0.0
  0
LINE
  5
270AFF
330
18
100
AcDbEntity
  8
姿図
100
AcDbLine
 10
-3941.696498793498
 20
-18277.74155456439
 30
0.0
 11
-3940.342535375988
 21
-18276.30838722467
 31
0.0
  0
LINE
  5
270B00
330
18
100
AcDbEntity
  8
姿図
100
AcDbLine
 10
-3941.145196571432
 20
-18277.97709539302
 30
0.0
 11
-3939.746843352966
 21
-18276.4969415453
 31
0.0
  0
LINE
  5
270B01
330
18
100
AcDbEntity
  8
姿図
100
AcDbLine
 10
-3940.613810517282
 20
-18278.23371744217
 30
0.0
 11
-3939.172845338674
 21
-18276.7084589271
 31
0.0
  0
LINE
  5
270B02
330
18
100
AcDbEntity
  8
姿図
100
AcDbLine
 10
-3940.100474037135
 20
-18278.50944492625
 30
0.0
 11
-3938.618504951
 21
-18276.94078386403
 31
0.0
  0
LINE
  5
270B03
330
18
100
AcDbEntity
  8
姿図
100
AcDbLine
 10
-3939.60369831413
 20
-18278.80270193583
 30
0.0
 11
-3938.082191322733
 21
-18277.19219008667
 31
0.0
  0
ELLIPSE
  5
270B04
330
18
100
AcDbEntity
  8
姿図
100
AcDbEllipse
 10
-3939.473774927857
 20
-18289.48086767056
 30
0.0000000000000048
 11
-7.530096776584824
 21
12.37865822770092
 31
2.094546089343517E-16
210
-7.512918126813005E-18
220
1.235041840179200E-17
230
-1.0
 40
0.7445887400054914
 41
-0.0197153658459095
 42
-0.0169158929493971
  0
ELLIPSE
  5
270B05
330
18
100
AcDbEntity
  8
姿図
100
AcDbEllipse
 10
-3935.999069985511
 20
-18287.98360235114
 30
0.0000000000000048
 11
-7.362188164834699
 21
12.10263477567932
 31
4.095682403206245E-16
210
-1.502583625362597E-17
220
2.470083680358399E-17
230
-1.0
 40
0.7445887407026627
 41
-0.6754224664350246
 42
-0.3300486139800427
  0
ELLIPSE
  5
270B06
330
18
100
AcDbEntity
  8
姿図
100
AcDbEllipse
 10
-3935.726402495083
 20
-18288.02671104343
 30
0.0000000000000048
 11
-8.699597329939269
 21
11.81675478891425
 31
6.339036848116349E-16
210
-2.253875438043899E-17
220
3.705125520537601E-17
230
-1.0
 40
0.7846158028914396
 41
-0.5798433882892109
 42
-0.2849668007484034
  0
LINE
  5
270B07
330
18
100
AcDbEntity
  8
姿図
100
AcDbLine
 10
-3944.869767133773
 20
-18277.00498704489
 30
0.0
 11
-3943.773672923758
 21
-18275.8447737018
 31
0.0
  0
LINE
  5
270B08
330
18
100
AcDbEntity
  8
姿図
100
AcDbLine
 10
-3944.161726195732
 20
-18277.07462028274
 30
0.0
 11
-3943.008035256661
 21
-18275.85344092691
 31
0.0
  0
LINE
  5
270B09
330
18
100
AcDbEntity
  8
姿図
100
AcDbLine
 10
-3948.741402630089
 20
-18277.82673267932
 30
0.0
 11
-3947.905514982859
 21
-18276.94194741836
 31
0.0
  0
LINE
  5
270B0A
330
18
100
AcDbEntity
  8
姿図
100
AcDbLine
 10
-3947.462767371563
 20
-18277.29239306696
 30
0.0
 11
-3946.566015775571
 21
-18276.3431834483
 31
0.0
  0
LINE
  5
270B0B
330
18
100
AcDbEntity
  8
姿図
100
AcDbLine
 10
-3946.482700106034
 20
-18277.07408702738
 30
0.0
 11
-3945.514854295471
 21
-18276.04962433685
 31
0.0
  0
LINE
  5
270B0C
330
18
100
AcDbEntity
  8
姿図
100
AcDbLine
 10
-3946.288295856454
 20
-18278.90031422251
 30
0.0000000000000048
 11
-3946.681641202959
 21
-18278.60543305847
 31
0.0000000000000054
  0
LINE
  5
270B0D
330
18
100
AcDbEntity
  8
姿図
100
AcDbLine
 10
-3948.082573365696
 20
-18281.87589987722
 30
0.0000000000000048
 11
-3947.378012353148
 21
-18281.97298973953
 31
0.0000000000000048
  0
LINE
  5
270B0E
330
18
100
AcDbEntity
  8
姿図
100
AcDbLine
 10
-3945.635420230491
 20
-18276.99633615199
 30
0.0
 11
-3944.601044607628
 21
-18275.90145179949
 31
0.0
  0
ELLIPSE
  5
270B0F
330
18
100
AcDbEntity
  8
姿図
100
AcDbEllipse
 10
-3935.999069985511
 20
-18287.98360235114
 30
0.0000000000000048
 11
-7.3621881648323
 21
12.1026347756822
 31
8.191364806413193E-16
210
-3.005167250725200E-17
220
4.940167360716794E-17
230
-1.0
 40
0.7445887407026724
 41
-1.020444988477155
 42
-0.675422466435305
  0
ELLIPSE
  5
270B10
330
18
100
AcDbEntity
  8
姿図
100
AcDbEllipse
 10
-3935.999069985511
 20
-18287.98360235114
 30
0.0000000000000048
 11
-7.362188164839183
 21
12.10263477568438
 31
2.047841201604088E-16
210
-7.512918126812984E-18
220
1.235041840179202E-17
230
-1.0
 40
0.7445887407023684
 41
4.327427167059906
 42
4.752891862258899
  0
ELLIPSE
  5
270B11
330
18
100
AcDbEntity
  8
姿図
100
AcDbEllipse
 10
-3936.509831244418
 20
-18288.17688207339
 30
0.0000000000000048
 11
-8.500228564433543
 21
9.951939267751863
 31
5.603164053892366E-16
210
-2.253875438043901E-17
220
3.705125520537601E-17
230
-1.0
 40
0.8394320487860444
 41
-1.376701961562133
 42
-0.9346820271856128
  0
LINE
  5
270B12
330
18
100
AcDbEntity
  8
姿図
100
AcDbLine
 10
-3946.346450249425
 20
-18293.25875383551
 30
0.000000000000005
 11
-3945.301273301323
 21
-18292.97085140475
 31
0.0000000000000048
  0
LINE
  5
270B13
330
18
100
AcDbEntity
  8
姿図
100
AcDbLine
 10
-3947.28590350425
 20
-18287.79847794221
 30
0.0000000000000048
 11
-3948.279622327936
 21
-18288.00445129101
 31
0.0000000000000051
  0
LINE
  5
270B14
330
18
100
AcDbEntity
  8
姿図
100
AcDbLine
 10
-3941.586353462283
 20
-18297.60903358669
 30
0.0000000000000048
 11
-3941.941309062543
 21
-18298.43284450334
 31
0.0000000000000046
  0
LINE
  5
270B15
330
18
100
AcDbEntity
  8
姿図
100
AcDbLine
 10
-3938.211409417595
 20
-18286.4615856177
 30
0.0
 11
-3942.762078480101
 21
-18291.88871887683
 31
0.0
  0
LINE
  5
270B16
330
18
100
AcDbEntity
  8
姿図
100
AcDbLine
 10
-3937.917818079281
 20
-18283.8213575227
 30
0.0
 11
-3942.468487141788
 21
-18289.24849078183
 31
0.0
  0
ELLIPSE
  5
270B17
330
18
100
AcDbEntity
  8
姿図
100
AcDbEllipse
 10
-3935.999069985511
 20
-18287.98360235114
 30
0.0000000000000048
 11
-7.362188164830537
 21
12.10263477569337
 31
2.047841201604545E-16
210
-7.512918126813013E-18
220
1.235041840179197E-17
230
-1.0
 40
0.7445887407022102
 41
-1.530293444921352
 42
-1.020444988477903
  0
ELLIPSE
  5
270B18
330
18
100
AcDbEntity
  8
姿図
100
AcDbEllipse
 10
-3937.879164595183
 20
-18288.86608007502
 30
0.0000000000000048
 11
-8.829979100642742
 21
10.98552652668503
 31
4.040295180262875E-16
210
-1.502583625362599E-17
220
2.470083680358400E-17
230
-1.0
 40
0.7419878916066797
 41
-1.136589550032924
 42
-0.125843033866976
  0
ELLIPSE
  5
270B19
330
18
100
AcDbEntity
  8
姿図
100
AcDbEllipse
 10
-3937.824259112786
 20
-18288.68073705522
 30
0.0000000000000048
 11
-6.171736332991535
 21
12.71299744546082
 31
1.220271524174379E-15
210
-4.507750876087797E-17
220
7.410251041075204E-17
230
-1.0
 40
0.7148769796037835
 41
-1.336025501013204
 42
-0.3740805824015643
  0
SPLINE
  5
270B1A
330
18
100
AcDbEntity
  8
姿図
100
AcDbSpline
210
0.0
220
0.0
230
1.0
 70
     8
 71
     3
 72
     8
 73
     4
 74
     0
 42
0.000000001
 43
0.0000000001
 40
20.17474574740567
 40
20.17474574740567
 40
20.17474574740567
 40
20.17474574740567
 40
20.51051228626665
 40
20.51051228626665
 40
20.51051228626665
 40
20.51051228626665
 10
-3924.361389545239
 20
-18283.08822547077
 30
-0.0000000000000046
 10
-3924.37421400553
 20
-18283.06059512051
 30
-0.0000000000000046
 10
-3924.387117890569
 20
-18283.03295249034
 30
-0.0000000000000046
 10
-3924.400101992059
 20
-18283.00529631067
 30
-0.0000000000000046
  0
LWPOLYLINE
  5
270B1B
330
18
100
AcDbEntity
  8
姿図
100
AcDbPolyline
 90
        4
 70
     0
 43
0.0
 10
-3925.318702775564
 20
-18279.2101028824
 10
-3923.975057079372
 20
-18278.29207644495
 10
-3923.65197014316
 20
-18278.18513394875
 10
-3921.10263212548
 20
-18277.23284447554
  0
LINE
  5
270B1C
330
18
100
AcDbEntity
  8
姿図
100
AcDbLine
 10
-3920.71407057397
 20
-18281.56171665854
 30
0.0000000000000048
 11
-3924.452356221717
 21
-18283.12629766417
 31
0.0000000000000048
  0
LWPOLYLINE
  5
270B1D
330
18
100
AcDbEntity
  8
姿図
100
AcDbPolyline
 90
        4
 70
     0
 43
0.0
 10
-3924.918769369914
 20
-18279.65654831001
 10
-3923.575123673722
 20
-18278.73852187256
 10
-3923.25203673751
 20
-18278.63157937636
 10
-3920.873962570658
 20
-18277.71472984539
  0
LINE
  5
270B1E
330
18
100
AcDbEntity
  8
姿図
100
AcDbLine
 10
-3920.977689971572
 20
-18278.08047412201
 30
0.0
 11
-3922.996018697996
 21
-18280.61050261313
 31
0.0
  0
SPLINE
  5
270B1F
330
18
100
AcDbEntity
  8
姿図
100
AcDbSpline
210
0.0
220
0.0
230
1.0
 70
     8
 71
     3
 72
     8
 73
     4
 74
     0
 42
0.000000001
 43
0.0000000001
 40
0.0522524473711178
 40
0.0522524473711178
 40
0.0522524473711178
 40
0.0522524473711178
 40
3.974673657107151
 40
3.974673657107151
 40
3.974673657107151
 40
3.974673657107151
 10
-3913.463311318485
 20
-18279.14039024704
 30
0.0000000000000048
 10
-3913.457853114077
 20
-18279.43797163999
 30
0.0000000000000048
 10
-3913.468765925855
 20
-18279.73044627349
 30
0.0000000000000048
 10
-3913.496323670671
 20
-18280.01592234527
 30
0.0000000000000048
  0
SPLINE
  5
270B20
330
18
100
AcDbEntity
  8
姿図
100
AcDbSpline
210
0.0
220
0.0
230
1.0
 70
     8
 71
     1
 72
    95
 73
    93
 74
     0
 42
0.000000001
 43
0.0000000001
 40
4.868828357704044
 40
4.868828357704044
 40
4.899304006515187
 40
4.929779655326332
 40
4.960255304137476
 40
4.99073095294862
 40
5.021206601759763
 40
5.051682250570908
 40
5.082157899382052
 40
5.112633548193195
 40
5.141866847195869
 40
5.171100146198544
 40
5.200333445201219
 40
5.229566744203892
 40
5.258800043206566
 40
5.288033342209241
 40
5.317266641211915
 40
5.346499940214589
 40
5.375733239217263
 40
5.410288874003569
 40
5.444844508789874
 40
5.479400143576179
 40
5.513955778362485
 40
5.548511413148789
 40
5.583067047935096
 40
5.617622682721401
 40
5.652178317507706
 40
5.686733952294011
 40
5.721773394811629
 40
5.756812837329247
 40
5.791852279846864
 40
5.826891722364483
 40
5.861931164882101
 40
5.896970607399719
 40
5.932010049917338
 40
5.967049492434954
 40
6.002088934952573
 40
6.037128377470191
 40
6.072869040478575
 40
6.108609703486958
 40
6.144350366495342
 40
6.180091029503725
 40
6.215831692512109
 40
6.251572355520493
 40
6.287313018528875
 40
6.323053681537259
 40
6.358794344545643
 40
6.394535007554026
 40
6.434056964704096
 40
6.473578921854168
 40
6.51310087900424
 40
6.55262283615431
 40
6.59214479330438
 40
6.631666750454452
 40
6.671188707604522
 40
6.710710664754592
 40
6.750232621904663
 40
6.785926488730394
 40
6.821620355556124
 40
6.857314222381854
 40
6.893008089207585
 40
6.928701956033316
 40
6.964395822859046
 40
7.000089689684777
 40
7.035783556510507
 40
7.071477423336238
 40
7.107171290161968
 40
7.142623453249049
 40
7.178075616336131
 40
7.213527779423211
 40
7.248979942510293
 40
7.284432105597374
 40
7.319884268684455
 40
7.355336431771536
 40
7.390788594858618
 40
7.426240757945699
 40
7.46169292103278
 40
7.497078312165116
 40
7.532463703297453
 40
7.567849094429789
 40
7.603234485562125
 40
7.638619876694462
 40
7.674005267826798
 40
7.709390658959135
 40
7.74477605009147
 40
7.780161441223807
 40
7.808943887482561
 40
7.837726333741315
 40
7.866508780000069
 40
7.895291226258823
 40
7.924073672517576
 40
7.952856118776331
 40
7.981638565035084
 40
8.010421011293838
 40
8.010421011293838
 10
-3918.39076114977
 20
-18283.78102099448
 30
-0.0000000000000046
 10
-3918.362118924605
 20
-18283.77660077683
 30
-0.0000000000000046
 10
-3918.333735778403
 20
-18283.77081419725
 30
-0.0000000000000046
 10
-3918.305688721114
 20
-18283.7636848489
 30
-0.0000000000000046
 10
-3918.27805053258
 20
-18283.75524428356
 30
-0.0000000000000046
 10
-3918.250888509715
 20
-18283.7455310592
 30
-0.0000000000000046
 10
-3918.224263480958
 20
-18283.734589591
 30
-0.0000000000000127
 10
-3918.198229121709
 20
-18283.72246888239
 30
-0.0000000000000127
 10
-3918.172831579511
 20
-18283.70922121442
 30
-0.0000000000000046
 10
-3918.149103577142
 20
-18283.69550490967
 30
-0.0000000000000046
 10
-3918.126024630193
 20
-18283.68085022096
 30
-0.0000000000000046
 10
-3918.103616367861
 20
-18283.66530560496
 30
-0.0000000000000046
 10
-3918.081894911115
 20
-18283.6489186221
 30
-0.0000000000000046
 10
-3918.060871418399
 20
-18283.63173535197
 30
-0.0000000000000046
 10
-3918.040552684496
 20
-18283.61379995024
 30
-0.0000000000000127
 10
-3918.020941759204
 20
-18283.59515434003
 30
-0.0000000000000127
 10
-3918.002038558217
 20
-18283.5758380247
 30
-0.0000000000000127
 10
-3917.983840444852
 20
-18283.55588800574
 30
-0.0000000000000046
 10
-3917.963231974571
 20
-18283.531535583
 30
-0.0000000000000046
 10
-3917.943591763021
 20
-18283.50639844482
 30
-0.0000000000000046
 10
-3917.924907405551
 20
-18283.48052480573
 30
-0.0000000000000046
 10
-3917.907165268561
 20
-18283.45395883991
 30
-0.0000000000000046
 10
-3917.89035113618
 20
-18283.42674112174
 30
-0.0000000000000046
 10
-3917.874450714205
 20
-18283.39890908609
 30
-0.0000000000000127
 10
-3917.859450008374
 20
-18283.3704974846
 30
-0.0000000000000127
 10
-3917.845335595453
 20
-18283.34153882083
 30
-0.0000000000000046
 10
-3917.832094805325
 20
-18283.31206375333
 30
-0.0000000000000127
 10
-3917.81954857966
 20
-18283.2816786391
 30
-0.0000000000000046
 10
-3917.807877125807
 20
-18283.25082176534
 30
-0.0000000000000046
 10
-3917.797070074953
 20
-18283.219521417
 30
-0.0000000000000046
 10
-3917.787118011759
 20
-18283.18780521369
 30
-0.0000000000000046
 10
-3917.778012423926
 20
-18283.15570032594
 30
-0.0000000000000046
 10
-3917.769745634657
 20
-18283.12323365386
 30
-0.0000000000000046
 10
-3917.762310724463
 20
-18283.090431972
 30
-0.0000000000000046
 10
-3917.7557014473
 20
-18283.05732204433
 30
-0.0000000000000127
 10
-3917.749912144903
 20
-18283.02393071298
 30
-0.0000000000000127
 10
-3917.744937662143
 20
-18282.99028496433
 30
-0.0000000000000046
 10
-3917.740698163713
 20
-18282.9557319671
 30
-0.0000000000000046
 10
-3917.737296845932
 20
-18282.92097162281
 30
-0.0000000000000127
 10
-3917.734729349108
 20
-18282.8860332664
 30
-0.0000000000000046
 10
-3917.732991537166
 20
-18282.85094649345
 30
-0.0000000000000046
 10
-3917.732079434108
 20
-18282.81574115361
 30
-0.0000000000000046
 10
-3917.731989168446
 20
-18282.78044733507
 30
-0.0000000000000046
 10
-3917.732716925694
 20
-18282.74509534176
 30
-0.0000000000000046
 10
-3917.734258908941
 20
-18282.70971566501
 30
-0.0000000000000046
 10
-3917.736611307419
 20
-18282.67433895071
 30
-0.0000000000000046
 10
-3917.739770272984
 20
-18282.63899596343
 30
-0.0000000000000127
 10
-3917.744197827767
 20
-18282.59999020452
 30
-0.0000000000000127
 10
-3917.749601509941
 20
-18282.56110516874
 30
-0.0000000000000127
 10
-3917.75597586552
 20
-18282.52238261731
 30
-0.0000000000000046
 10
-3917.76331536214
 20
-18282.48386424539
 30
-0.0000000000000046
 10
-3917.771614415448
 20
-18282.44559162206
 30
-0.0000000000000046
 10
-3917.780867428552
 20
-18282.40760613543
 30
-0.0000000000000046
 10
-3917.791068844238
 20
-18282.36994894487
 30
-0.0000000000000127
 10
-3917.802213209668
 20
-18282.33266094256
 30
-0.0000000000000046
 10
-3917.814295253163
 20
-18282.29578272671
 30
-0.0000000000000046
 10
-3917.826008706398
 20
-18282.26286221479
 30
-0.0000000000000127
 10
-3917.838479472929
 20
-18282.23033828777
 30
-0.0000000000000046
 10
-3917.851704431921
 20
-18282.19824022887
 30
-0.0000000000000046
 10
-3917.865680841164
 20
-18282.16659716338
 30
-0.0000000000000127
 10
-3917.880406409115
 20
-18282.13543810217
 30
-0.0000000000000127
 10
-3917.895879368355
 20
-18282.10479200313
 30
-0.0000000000000046
 10
-3917.912098548303
 20
-18282.07468785299
 30
-0.0000000000000046
 10
-3917.929063444378
 20
-18282.04515477248
 30
-0.0000000000000046
 10
-3917.946774279903
 20
-18282.01622214771
 30
-0.0000000000000046
 10
-3917.965232056092
 20
-18281.98791979084
 30
-0.0000000000000046
 10
-3917.984306002242
 20
-18281.96046301941
 30
-0.0000000000000046
 10
-3918.004121165241
 20
-18281.93368867132
 30
-0.0000000000000046
 10
-3918.024680885263
 20
-18281.90762846872
 30
-0.0000000000000046
 10
-3918.045989200206
 20
-18281.88231550427
 30
-0.0000000000000127
 10
-3918.068050719253
 20
-18281.8577845676
 30
-0.0000000000000127
 10
-3918.090870425968
 20
-18281.83407250355
 30
-0.0000000000000127
 10
-3918.11445339482
 20
-18281.81121859563
 30
-0.0000000000000127
 10
-3918.138804403704
 20
-18281.789264964
 30
-0.0000000000000046
 10
-3918.16392742468
 20
-18281.76825696141
 30
-0.0000000000000046
 10
-3918.189824976143
 20
-18281.74824354418
 30
-0.0000000000000127
 10
-3918.216446359974
 20
-18281.72931228891
 30
-0.0000000000000127
 10
-3918.243836695471
 20
-18281.71148123892
 30
-0.0000000000000046
 10
-3918.271988756583
 20
-18281.69481126703
 30
-0.0000000000000046
 10
-3918.300889771001
 20
-18281.67936731295
 30
-0.0000000000000046
 10
-3918.330520063607
 20
-18281.66521801325
 30
-0.0000000000000046
 10
-3918.360851647597
 20
-18281.65243502268
 30
-0.0000000000000127
 10
-3918.391846843401
 20
-18281.64109197889
 30
-0.0000000000000046
 10
-3918.423457030002
 20
-18281.63126308098
 30
-0.0000000000000127
 10
-3918.455621653874
 20
-18281.62302128067
 30
-0.0000000000000127
 10
-3918.482143095379
 20
-18281.61753617495
 30
-0.0000000000000046
 10
-3918.508937749785
 20
-18281.61318194269
 30
-0.0000000000000046
 10
-3918.535954768376
 20
-18281.60998982384
 30
-0.0000000000000127
 10
-3918.563138331919
 20
-18281.60798668942
 30
-0.0000000000000046
 10
-3918.590428242132
 20
-18281.60719418134
 30
-0.0000000000000046
 10
-3918.617760714665
 20
-18281.60762795185
 30
-0.0000000000000127
 10
-3918.645069350495
 20
-18281.60929705094
 30
-0.0000000000000127
 10
-3918.672286247855
 20
-18281.61220350416
 30
-0.0000000000000046
  0
ELLIPSE
  5
270B21
330
18
100
AcDbEntity
  8
姿図
100
AcDbEllipse
 10
-3918.636365546278
 20
-18282.71022132962
 30
0.0000000000000035
 11
-0.2111438235632067
 21
1.6266131177468
 31
7.113492607458361E-17
210
-5.582593766667742E-18
220
4.300727389816779E-17
230
-1.0
 40
0.6338586263932079
 41
0.236134012315081
 42
2.425367404911594
  0
ELLIPSE
  5
270B22
330
18
100
AcDbEntity
  8
姿図
100
AcDbEllipse
 10
-3917.902472614019
 20
-18282.6149577675
 30
0.0000000000000035
 11
-0.2287391421940569
 21
1.762164210892201
 31
1.027504487743933E-16
210
-7.443458355556960E-18
220
5.734303186422367E-17
230
-1.0
 40
0.6338586263934508
 41
4.868828357704053
 42
11.15201366488364
  0
ELLIPSE
  5
270B23
330
18
100
AcDbEntity
  8
姿図
100
AcDbEllipse
 10
-3918.636365546278
 20
-18282.71022132962
 30
0.0000000000000035
 11
-0.1407625490449988
 21
1.084408745164072
 31
4.742328404971855E-17
210
-5.582593766667744E-18
220
4.300727389816780E-17
230
-1.0
 40
0.6338586263981275
 41
3.141592653593585
 42
3.378250081950879
  0
ELLIPSE
  5
270B24
330
18
100
AcDbEntity
  8
姿図
100
AcDbEllipse
 10
-3918.636365546278
 20
-18282.71022132962
 30
0.0000000000000035
 11
-0.2111438235688974
 21
1.626613117745057
 31
7.113492607454048E-17
210
-5.582593766667774E-18
220
4.300727389816779E-17
230
-1.0
 40
0.6338586263916416
 41
2.425367404914558
 42
2.905458641278822
  0
ELLIPSE
  5
270B25
330
18
100
AcDbEntity
  8
姿図
100
AcDbEllipse
 10
-3918.846049241208
 20
-18282.73743949023
 30
0.0000000000000035
 11
-0.2287391421075747
 21
1.76216421092623
 31
1.027504487757009E-16
210
-7.443458355557017E-18
220
5.734303186422370E-17
230
-1.0
 40
0.633858626413942
 41
2.631951070199932
 42
2.705517797080201
  0
ELLIPSE
  5
270B26
330
18
100
AcDbEntity
  8
姿図
100
AcDbEllipse
 10
-3918.636383688055
 20
-18282.71022368453
 30
0.0000000000000035
 11
-0.14076371269443
 21
1.0844177097455
 31
4.742367608810951E-17
210
-5.582593766667759E-18
220
4.300727389816784E-17
230
-1.0
 40
0.6338586263885858
 41
3.141592653585752
 42
3.378250081947276
  0
ELLIPSE
  5
270B27
330
18
100
AcDbEntity
  8
姿図
100
AcDbEllipse
 10
-3918.636383688055
 20
-18282.71022368453
 30
0.0000000000000035
 11
-0.2111455690441831
 21
1.626626564618221
 31
7.113551413217713E-17
210
-5.582593766667726E-18
220
4.300727389816779E-17
230
-1.0
 40
0.6338586263939806
 41
2.425367404911215
 42
2.905458641273128
  0
ELLIPSE
  5
270B28
330
18
100
AcDbEntity
  8
姿図
100
AcDbEllipse
 10
-3918.846069116397
 20
-18282.73744207015
 30
0.0000000000000035
 11
-0.2287410330029986
 21
1.762178778387061
 31
1.027512981928730E-16
210
-7.443458355556966E-18
220
5.734303186422371E-17
230
-1.0
 40
0.633858626423758
 41
2.63195107017216
 42
2.705517797050096
  0
SPLINE
  5
270B29
330
18
100
AcDbEntity
  8
姿図
100
AcDbSpline
210
0.0
220
0.0
230
1.0
 70
     8
 71
     3
 72
    14
 73
    10
 74
     0
 42
0.000000001
 43
0.0000000001
 40
-12.4176878319165
 40
-12.4176878319165
 40
-12.4176878319165
 40
-12.4176878319165
 40
-9.929941621284126
 40
-9.929941621284126
 40
-7.882361304732088
 40
-7.882361304732088
 40
-6.55536423551068
 40
-6.55536423551068
 40
-6.54232051596743
 40
-6.54232051596743
 40
-6.54232051596743
 40
-6.54232051596743
 10
-3920.321585379662
 20
-18280.86148052194
 30
-0.0000000000000046
 10
-3920.122848524778
 20
-18280.79051942055
 30
-0.0000000000000046
 10
-3919.884092645126
 20
-18280.70428062023
 30
-0.0000000000000046
 10
-3919.464877104306
 20
-18280.5644722638
 30
-0.0000000000000046
 10
-3919.271468183898
 20
-18280.5034087487
 30
-0.0000000000000127
 10
-3918.956850828336
 20
-18280.42215365976
 30
-0.0000000000000046
 10
-3918.8144321399
 20
-18280.39039749366
 30
-0.0000000000000127
 10
-3918.679552668039
 20
-18280.37263237087
 30
-0.0000000000000046
 10
-3918.678241863733
 20
-18280.37246094212
 30
-0.0000000000000127
 10
-3918.676933122525
 20
-18280.37229108682
 30
-0.0000000000000046
  0
SPLINE
  5
270B2A
330
18
100
AcDbEntity
  8
姿図
100
AcDbSpline
210
0.0
220
0.0
230
1.0
 70
     8
 71
     3
 72
    14
 73
    10
 74
     0
 42
0.000000001
 43
0.0000000001
 40
-12.4176878319165
 40
-12.4176878319165
 40
-12.4176878319165
 40
-12.4176878319165
 40
-9.929941621284126
 40
-9.929941621284126
 40
-7.882361304732088
 40
-7.882361304732088
 40
-6.55536423551068
 40
-6.55536423551068
 40
-6.54232051596743
 40
-6.54232051596743
 40
-6.54232051596743
 40
-6.54232051596743
 10
-3920.3216174528
 20
-18280.86146759369
 30
-0.0000000000000046
 10
-3920.122878955001
 20
-18280.79050590568
 30
-0.0000000000000046
 10
-3919.884121101603
 20
-18280.70426639244
 30
-0.0000000000000046
 10
-3919.464902095216
 20
-18280.56445688024
 30
-0.0000000000000046
 10
-3919.271491575936
 20
-18280.50339286035
 30
-0.0000000000000127
 10
-3918.956871619498
 20
-18280.42213709969
 30
-0.0000000000000046
 10
-3918.814451753719
 20
-18280.39038067107
 30
-0.0000000000000127
 10
-3918.679571166836
 20
-18280.37261540142
 30
-0.0000000000000046
 10
-3918.678260351692
 20
-18280.37244397125
 30
-0.0000000000000127
 10
-3918.676951599667
 20
-18280.37227411454
 30
-0.0000000000000046
  0
SPLINE
  5
270B2B
330
18
100
AcDbEntity
  8
姿図
100
AcDbSpline
210
5.956015457154707E-6
220
-1.668077045427603E-5
230
-0.999999999843139
 70
     8
 71
     3
 72
     8
 73
     4
 74
     0
 42
0.000000001
 43
0.0000000001
 40
110.2937215201613
 40
110.2937215201613
 40
110.2937215201613
 40
110.2937215201613
 40
110.302956437032
 40
110.302956437032
 40
110.302956437032
 40
110.302956437032
 10
-3920.321585379662
 20
-18280.86148052194
 30
-0.0000000000000046
 10
-3920.32167359412
 20
-18280.86151201984
 30
-0.0000000000000127
 10
-3920.321761805958
 20
-18280.86154351649
 30
-0.0000000000000046
 10
-3920.321850015381
 20
-18280.86157501196
 30
-0.0000000000000127
  0
SPLINE
  5
270B2C
330
18
100
AcDbEntity
  8
姿図
100
AcDbSpline
210
0.0
220
0.0
230
1.0
 70
     8
 71
     3
 72
     8
 73
     4
 74
     0
 42
0.000000001
 43
0.0000000001
 40
-5.558709854342928
 40
-5.558709854342928
 40
-5.558709854342928
 40
-5.558709854342928
 40
-5.251204385375416
 40
-5.251204385375416
 40
-5.251204385375416
 40
-5.251204385375416
 10
-3920.363930747843
 20
-18280.90974618892
 30
-0.0000000000000046
 10
-3920.350120310072
 20
-18280.89329980514
 30
-0.0000000000000046
 10
-3920.336091257991
 20
-18280.87723208772
 30
-0.0000000000000127
 10
-3920.321850015381
 20
-18280.86157501196
 30
-0.0000000000000127
  0
ELLIPSE
  5
270B2D
330
18
100
AcDbEntity
  8
姿図
100
AcDbEllipse
 10
-3919.370258478536
 20
-18282.80548489175
 30
0.0000000000000035
 11
-0.2991204167161672
 21
2.304368583473515
 31
1.343659714741615E-16
210
-7.443458355557000E-18
220
5.734303186422372E-17
230
-1.0
 40
0.6338586263936181
 41
-1.249552989788636
 42
-0.5274645292532043
  0
ELLIPSE
  5
270B2E
330
18
100
AcDbEntity
  8
姿図
100
AcDbEllipse
 10
-3919.370282687253
 20
-18282.80548803419
 30
0.0000000000000035
 11
-0.2991228894807637
 21
2.304387633209254
 31
1.343670822496855E-16
210
-7.443458355557017E-18
220
5.734303186422380E-17
230
-1.0
 40
0.6338586263931683
 41
-1.249552989789342
 42
-0.5274645292546232
  0
SPLINE
  5
270B2F
330
18
100
AcDbEntity
  8
姿図
100
AcDbSpline
210
5.911740482249348E-6
220
-1.655677054777043E-5
230
-0.9999999998454624
 70
     8
 71
     3
 72
     8
 73
     4
 74
     0
 42
0.000000001
 43
0.0000000001
 40
110.2937215201613
 40
110.2937215201613
 40
110.2937215201613
 40
110.2937215201613
 40
110.302956437032
 40
110.302956437032
 40
110.302956437032
 40
110.302956437032
 10
-3920.3216174528
 20
-18280.86146759369
 30
-0.0000000000000046
 10
-3920.321705667987
 20
-18280.86149909186
 30
-0.0000000000000127
 10
-3920.321793880555
 20
-18280.86153058877
 30
-0.0000000000000046
 10
-3920.321882090707
 20
-18280.86156208449
 30
-0.0000000000000127
  0
SPLINE
  5
270B30
330
18
100
AcDbEntity
  8
姿図
100
AcDbSpline
210
0.0
220
0.0
230
1.0
 70
     8
 71
     3
 72
     8
 73
     4
 74
     0
 42
0.000000001
 43
0.0000000001
 40
-5.558709854342928
 40
-5.558709854342928
 40
-5.558709854342928
 40
-5.558709854342928
 40
-5.251204385375416
 40
-5.251204385375416
 40
-5.251204385375416
 40
-5.251204385375416
 10
-3920.363963171042
 20
-18280.90973365968
 30
-0.0000000000000046
 10
-3920.350152619102
 20
-18280.89328713993
 30
-0.0000000000000046
 10
-3920.336123451046
 20
-18280.87721928969
 30
-0.0000000000000127
 10
-3920.321882090707
 20
-18280.86156208449
 30
-0.0000000000000127
  0
ELLIPSE
  5
270B31
330
18
100
AcDbEntity
  8
姿図
100
AcDbEllipse
 10
-3918.846049241208
 20
-18282.73743949023
 30
0.0000000000000035
 11
-0.2287391422591012
 21
1.762164210898996
 31
1.027504487752671E-16
210
-7.443458355556975E-18
220
5.734303186422369E-17
230
-1.0
 40
0.633858626409089
 41
0.4360748564913792
 42
0.5096415833729382
  0
ELLIPSE
  5
270B32
330
18
100
AcDbEntity
  8
姿図
100
AcDbEllipse
 10
-3918.636365546278
 20
-18282.71022132962
 30
0.0000000000000035
 11
-0.1407625490411046
 21
1.084408745164576
 31
4.742328404971853E-17
210
-5.582593766667747E-18
220
4.300727389816783E-17
230
-1.0
 40
0.6338586263982071
 41
-0.2366574283595551
 42
-0.0000000000018734
  0
ELLIPSE
  5
270B33
330
18
100
AcDbEntity
  8
姿図
100
AcDbEllipse
 10
-3918.846069116397
 20
-18282.73744207015
 30
0.0000000000000035
 11
-0.2287410332444538
 21
1.762178778345462
 31
1.027512981922848E-16
210
-7.443458355556964E-18
220
5.734303186422369E-17
230
-1.0
 40
0.6338586264241365
 41
0.4360748565184052
 42
0.5096415833980092
  0
ELLIPSE
  5
270B34
330
18
100
AcDbEntity
  8
姿図
100
AcDbEllipse
 10
-3918.636383688055
 20
-18282.71022368453
 30
0.0000000000000035
 11
-0.1407637126969691
 21
1.08441770974517
 31
4.742367608810947E-17
210
-5.582593766667817E-18
220
4.300727389816781E-17
230
-1.0
 40
0.6338586263940376
 41
-0.2366574283589882
 42
-0.0000000000003468
  0
LINE
  5
270B35
330
18
100
AcDbEntity
  8
姿図
100
AcDbLine
 10
-3913.487423670581
 20
-18279.07625517407
 30
0.0000000000000048
 11
-3911.291808847141
 21
-18277.41948493629
 31
0.0000000000000048
  0
LINE
  5
270B36
330
18
100
AcDbEntity
  8
姿図
100
AcDbLine
 10
-3911.830989405285
 20
-18279.79828268752
 30
0.0000000000000048
 11
-3913.116339686078
 21
-18278.80501387573
 31
0.0000000000000048
  0
LINE
  5
270B37
330
18
100
AcDbEntity
  8
姿図
100
AcDbLine
 10
-3912.76452790784
 20
-18280.42458296214
 30
0.0000000000000048
 11
-3911.830989405285
 21
-18279.79828268752
 31
0.0000000000000048
  0
LWPOLYLINE
  5
270B38
330
18
100
AcDbEntity
  8
姿図
100
AcDbPolyline
 90
        3
 70
     0
 43
0.0
 10
-3913.511266806615
 20
-18280.0086895346
 10
-3912.956098526422
 20
-18280.27740334929
 10
-3911.78892386244
 20
-18281.12977249056
  0
LINE
  5
270B39
330
18
100
AcDbEntity
  8
姿図
100
AcDbLine
 10
-3918.39076114977
 20
-18283.78102099449
 30
0.0000000000000035
 11
-3918.495602997235
 21
-18283.79463007479
 31
0.0000000000000035
  0
LINE
  5
270B3A
330
18
100
AcDbEntity
  8
姿図
100
AcDbLine
 10
-3918.390777261186
 20
-18283.78103220147
 30
0.0000000000000035
 11
-3918.495619975359
 21
-18283.79464139428
 31
0.0000000000000035
  0
LINE
  5
270B3B
330
18
100
AcDbEntity
  8
姿図
100
AcDbLine
 10
-3918.672286247855
 20
-18281.61220350416
 30
0.0000000000000035
 11
-3918.777128095319
 21
-18281.62581258446
 31
0.0000000000000035
  0
LINE
  5
270B3C
330
18
100
AcDbEntity
  8
姿図
100
AcDbLine
 10
-3918.672304686582
 20
-18281.61219678198
 30
0.0000000000000035
 11
-3918.777147400752
 21
-18281.62580597479
 31
0.0000000000000035
  0
LINE
  5
270B3D
330
18
100
AcDbEntity
  8
姿図
100
AcDbLine
 10
-3918.201593030734
 20
-18280.31058918402
 30
0.0000000000000035
 11
-3918.676933122525
 21
-18280.37229108682
 31
0.0000000000000035
  0
LINE
  5
270B3E
330
18
100
AcDbEntity
  8
姿図
100
AcDbLine
 10
-3918.201607578339
 20
-18280.31057170167
 30
0.0000000000000035
 11
-3918.676951599667
 21
-18280.37227411454
 31
0.0000000000000035
  0
ELLIPSE
  5
270B3F
330
18
100
AcDbEntity
  8
姿図
100
AcDbEllipse
 10
-3919.370282687253
 20
-18282.80548803419
 30
0.0000000000000035
 11
-0.2991228894817231
 21
2.304387633208462
 31
1.343670822496472E-16
210
-7.443458355556995E-18
220
5.734303186422380E-17
230
-1.0
 40
0.6338586263936772
 41
3.141592653590172
 42
3.809748048093252
  0
LINE
  5
270B40
330
18
100
AcDbEntity
  8
姿図
100
AcDbLine
 10
-3917.603352197303
 20
-18284.91932635097
 30
0.0000000000000035
 11
-3919.07113806182
 21
-18285.10985347523
 31
0.0000000000000035
  0
LINE
  5
270B41
330
18
100
AcDbEntity
  8
姿図
100
AcDbLine
 10
-3917.603361799375
 20
-18284.91934696809
 30
0.0000000000000035
 11
-3919.071159797772
 21
-18285.1098756674
 31
0.0000000000000035
  0
ELLIPSE
  5
270B42
330
18
100
AcDbEntity
  8
姿図
100
AcDbEllipse
 10
-3917.902472614019
 20
-18282.6149577675
 30
0.0000000000000035
 11
-0.2991204167153053
 21
2.304368583474418
 31
1.343659714742069E-16
210
-7.443458355556967E-18
220
5.734303186422374E-17
230
-1.0
 40
0.6338586263934506
 41
4.868828357704045
 42
11.15201366488363
  0
ELLIPSE
  5
270B43
330
18
100
AcDbEntity
  8
姿図
100
AcDbEllipse
 10
-3919.370258478536
 20
-18282.80548489175
 30
0.0000000000000035
 11
-0.2991204167146964
 21
2.304368583474401
 31
1.343659714742013E-16
210
-7.443458355556932E-18
220
5.734303186422374E-17
230
-1.0
 40
0.6338586263934446
 41
3.141592653589488
 42
5.180284413960835
  0
LWPOLYLINE
  5
270B44
330
18
100
AcDbEntity
  8
姿図
100
AcDbPolyline
 90
        3
 70
     0
 43
0.0
 10
-3913.863285404778
 20
-18280.73911482991
 10
-3914.762485099592
 20
-18282.73889371013
 10
-3916.425562784966
 20
-18285.09453407735
  0
ARC
  5
270B45
330
18
100
AcDbEntity
  8
姿図
100
AcDbCircle
 10
-3919.509246533661
 20
-18284.48964746181
 30
0.0000000000000026
 40
2.763779877119617
100
AcDbArc
 50
319.1512900025141
 51
4.149031979351955
  0
LINE
  5
270B46
330
18
100
AcDbEntity
  8
姿図
100
AcDbLine
 10
-3918.635790280235
 20
-18285.08174439966
 30
0.0000000000000048
 11
-3922.747324664276
 21
-18289.01136756533
 31
0.0000000000000048
  0
LWPOLYLINE
  5
270B47
330
18
100
AcDbEntity
  8
姿図
100
AcDbPolyline
 90
        4
 70
     0
 43
0.0
 10
-3921.703222256338
 20
-18291.18388172772
 10
-3920.188412014987
 20
-18290.1920514515
 10
-3919.803195256177
 20
-18289.8253110543
 10
-3917.318676841097
 20
-18285.3665883136
  0
ARC
  5
270B48
330
18
100
AcDbEntity
  8
姿図
100
AcDbCircle
 10
-3929.047865262884
 20
-18283.9431020692
 30
0.0000000000000026
 40
11.86515413592403
100
AcDbArc
 50
305.5986504503642
 51
348.5556650931363
  0
ARC
  5
270B49
330
18
100
AcDbEntity
  8
姿図
100
AcDbCircle
 10
-3948.594916416497
 20
-18264.22797887916
 30
0.0
 40
40.50125572339087
100
AcDbArc
 50
309.6951363314269
 51
335.3347933006401
  0
LWPOLYLINE
  5
270B4A
330
18
100
AcDbEntity
  8
姿図
100
AcDbPolyline
 90
        4
 70
     0
 43
0.0
 10
-3921.696603445612
 20
-18290.57910897251
 10
-3920.515892754799
 20
-18289.80603220116
 10
-3920.130675995989
 20
-18289.43929180395
 10
-3917.646157580909
 20
-18284.98056906326
  0
LINE
  5
270B4B
330
18
100
AcDbEntity
  8
姿図
100
AcDbLine
 10
-3932.501202705968
 20
-18286.84749340082
 30
0.0
 11
-3930.403838648949
 21
-18284.62743809715
 31
0.0
  0
LINE
  5
270B4C
330
18
100
AcDbEntity
  8
姿図
100
AcDbLine
 10
-3931.323281461345
 20
-18289.69613149173
 30
0.0
 11
-3929.10033420279
 21
-18287.34314664171
 31
0.0
  0
LINE
  5
270B4D
330
18
100
AcDbEntity
  8
姿図
100
AcDbLine
 10
-3931.130884295489
 20
-18290.31157254364
 30
0.0
 11
-3928.88177369299
 21
-18287.93089385082
 31
0.0
  0
LINE
  5
270B4E
330
18
100
AcDbEntity
  8
姿図
100
AcDbLine
 10
-3930.955339993384
 20
-18290.94485231526
 30
0.0
 11
-3928.679141670812
 21
-18288.53550132952
 31
0.0
  0
LINE
  5
270B4F
330
18
100
AcDbEntity
  8
姿図
100
AcDbLine
 10
-3930.798209232747
 20
-18291.59762278057
 30
0.0
 11
-3928.493591888752
 21
-18289.15819032232
 31
0.0
  0
LINE
  5
270B50
330
18
100
AcDbEntity
  8
姿図
100
AcDbLine
 10
-3930.661455400382
 20
-18292.27196218025
 30
0.0
 11
-3928.326534495055
 21
-18289.80045346807
 31
0.0
  0
LINE
  5
270B51
330
18
100
AcDbEntity
  8
姿図
100
AcDbLine
 10
-3930.547595043909
 20
-18292.97053427448
 30
0.0
 11
-3928.179712930777
 21
-18290.46413619536
 31
0.0
  0
LINE
  5
270B52
330
18
100
AcDbEntity
  8
姿図
100
AcDbLine
 10
-3930.49728160842
 20
-18297.01274278477
 30
0.0
 11
-3927.853761035904
 21
-18294.21458199445
 31
0.0
  0
LINE
  5
270B53
330
18
100
AcDbEntity
  8
姿図
100
AcDbLine
 10
-3930.674510685313
 20
-18298.01943241264
 30
0.0
 11
-3927.90929399638
 21
-18295.09245654714
 31
0.0
  0
LINE
  5
270B54
330
18
100
AcDbEntity
  8
姿図
100
AcDbLine
 10
-3931.990117597702
 20
-18287.94469699167
 30
0.0
 11
-3929.842846128498
 21
-18285.67181480048
 31
0.0
  0
LINE
  5
270B55
330
18
100
AcDbEntity
  8
姿図
100
AcDbLine
 10
-3931.753832562598
 20
-18288.5136828292
 30
0.0
 11
-3929.581594365397
 21
-18286.2143734106
 31
0.0
  0
LINE
  5
270B56
330
18
100
AcDbEntity
  8
姿図
100
AcDbLine
 10
-3931.531272898214
 20
-18289.09719694186
 30
0.0
 11
-3929.333871144353
 21
-18286.77125195313
 31
0.0
  0
LINE
  5
270B57
330
18
100
AcDbEntity
  8
姿図
100
AcDbLine
 10
-3932.23943251
 20
-18287.38950325087
 30
0.0
 11
-3930.117078933002
 21
-18285.14299659452
 31
0.0
  0
LINE
  5
270B58
330
18
100
AcDbEntity
  8
姿図
100
AcDbLine
 10
-3934.652197230928
 20
-18283.39066519682
 30
0.0
 11
-3932.738599511406
 21
-18281.36512616267
 31
0.0
  0
LINE
  5
270B59
330
18
100
AcDbEntity
  8
姿図
100
AcDbLine
 10
-3934.312332219538
 20
-18283.85001185419
 30
0.0
 11
-3932.371098964831
 21
-18281.79522066601
 31
0.0
  0
LINE
  5
270B5A
330
18
100
AcDbEntity
  8
姿図
100
AcDbLine
 10
-3933.98310394971
 20
-18284.32061747943
 30
0.0
 11
-3932.014784553284
 21
-18282.23715566901
 31
0.0
  0
LINE
  5
270B5B
330
18
100
AcDbEntity
  8
姿図
100
AcDbLine
 10
-3933.664592314358
 20
-18284.80256663901
 30
0.0
 11
-3931.669687531791
 21
-18282.69096425504
 31
0.0
  0
LINE
  5
270B5C
330
18
100
AcDbEntity
  8
姿図
100
AcDbLine
 10
-3933.356929068778
 20
-18285.29599879562
 30
0.0
 11
-3931.335887602113
 21
-18283.15673078824
 31
0.0
  0
LINE
  5
270B5D
330
18
100
AcDbEntity
  8
姿図
100
AcDbLine
 10
-3933.060301016595
 20
-18285.8011116805
 30
0.0
 11
-3931.013514644627
 21
-18283.63459274672
 31
0.0
  0
LINE
  5
270B5E
330
18
100
AcDbEntity
  8
姿図
100
AcDbLine
 10
-3932.774954675703
 20
-18286.3181662323
 30
0.0
 11
-3930.702751599417
 21
-18284.12474377215
 31
0.0
  0
LINE
  5
270B5F
330
18
100
AcDbEntity
  8
姿図
100
AcDbLine
 10
-3937.332935888454
 20
-18280.49457000775
 30
0.0
 11
-3935.632042466284
 21
-18278.69417801084
 31
0.0
  0
LINE
  5
270B60
330
18
100
AcDbEntity
  8
姿図
100
AcDbLine
 10
-3936.916591488262
 20
-18280.87296339801
 30
0.0
 11
-3935.18291649794
 21
-18279.03787218234
 31
0.0
  0
LINE
  5
270B61
330
18
100
AcDbEntity
  8
姿図
100
AcDbLine
 10
-3936.511768566733
 20
-18281.26355224844
 30
0.0
 11
-3934.746194315167
 21
-18279.39469573396
 31
0.0
  0
LINE
  5
270B62
330
18
100
AcDbEntity
  8
姿図
100
AcDbLine
 10
-3936.118169265802
 20
-18281.66602127692
 30
0.0
 11
-3934.321524898492
 21
-18279.76427711233
 31
0.0
  0
LINE
  5
270B63
330
18
100
AcDbEntity
  8
姿図
100
AcDbLine
 10
-3935.735560326836
 20
-18282.0801235797
 30
0.0
 11
-3933.908625207711
 21
-18280.14631672003
 31
0.0
  0
LINE
  5
270B64
330
18
100
AcDbEntity
  8
姿図
100
AcDbLine
 10
-3935.363767069669
 20
-18282.50567425819
 30
0.0
 11
-3933.507273219219
 21
-18280.54057954556
 31
0.0
  0
LINE
  5
270B65
330
18
100
AcDbEntity
  8
姿図
100
AcDbLine
 10
-3935.002669063485
 20
-18282.94254583664
 30
0.0
 11
-3933.11730271302
 21
-18280.94688964538
 31
0.0
  0
LINE
  5
270B66
330
18
100
AcDbEntity
  8
姿図
100
AcDbLine
 10
-3930.459932007344
 20
-18293.696836175
 30
0.0
 11
-3928.055315000259
 21
-18291.15155429034
 31
0.0
  0
LINE
  5
270B67
330
18
100
AcDbEntity
  8
姿図
100
AcDbLine
 10
-3930.402940353736
 20
-18294.45560366783
 30
0.0
 11
-3927.956138632523
 21
-18291.86566935479
 31
0.0
  0
LINE
  5
270B68
330
18
100
AcDbEntity
  8
姿図
100
AcDbLine
 10
-3930.382931411398
 20
-18295.25351728029
 30
0.0
 11
-3927.885849314124
 21
-18292.61036129829
 31
0.0
  0
LINE
  5
270B69
330
18
100
AcDbEntity
  8
姿図
100
AcDbLine
 10
-3930.409316061086
 20
-18296.10053840926
 30
0.0
 11
-3927.849400097414
 21
-18293.390872916
 31
0.0
  0
ARC
  5
270B6A
330
18
100
AcDbEntity
  8
姿図
100
AcDbCircle
 10
-3940.939807916508
 20
-18291.08473538845
 30
0.0
 40
20.05365414378541
100
AcDbArc
 50
37.17842849426401
 51
45.47237121312143
  0
SPLINE
  5
270B6B
330
18
100
AcDbEntity
  8
姿図
100
AcDbSpline
210
0.0
220
0.0
230
1.0
 70
     8
 71
     3
 72
    10
 73
     6
 74
     0
 42
0.000000001
 43
0.0000000001
 40
0.0507684683112425
 40
0.0507684683112425
 40
0.0507684683112425
 40
0.0507684683112425
 40
16.17239265914957
 40
16.17239265914957
 40
28.35901754380262
 40
28.35901754380262
 40
28.35901754380262
 40
28.35901754380262
 10
-3923.379070452212
 20
-18282.62754398543
 30
0.0000000000000048
 10
-3923.674161388207
 20
-18281.87919438192
 30
0.0000000000000097
 10
-3924.381675984191
 20
-18280.57394109741
 30
0.0000000000000048
 10
-3925.862482265617
 20
-18278.44673541989
 30
0.0000000000000007
 10
-3926.736005478667
 20
-18277.35867600372
 30
0.0000000000000026
 10
-3927.974982784056
 20
-18276.18818854575
 30
0.000000000000004
  0
SPLINE
  5
270B6C
330
18
100
AcDbEntity
  8
姿図
100
AcDbSpline
210
0.0
220
0.0
230
1.0
 70
     8
 71
     3
 72
     8
 73
     4
 74
     0
 42
0.000000001
 43
0.0000000001
 40
14.0
 40
14.0
 40
14.0
 40
14.0
 40
15.0
 40
15.0
 40
15.0
 40
15.0
 10
-3936.824123193585
 20
-18249.5144841259
 30
0.0000000000000033
 10
-3937.267427987746
 20
-18249.63410016321
 30
0.0000000000000033
 10
-3937.336517195753
 20
-18250.64862149591
 30
0.0000000000000033
 10
-3937.336517195753
 20
-18250.64862149591
 30
0.0000000000000033
  0
SPLINE
  5
270B6D
330
18
100
AcDbEntity
  8
姿図
100
AcDbSpline
210
0.0
220
0.0
230
1.0
 70
     8
 71
     3
 72
     8
 73
     4
 74
     0
 42
0.000000001
 43
0.0000000001
 40
15.0
 40
15.0
 40
15.0
 40
15.0
 40
15.72631331981369
 40
15.72631331981369
 40
15.72631331981369
 40
15.72631331981369
 10
-3937.336517195753
 20
-18250.64862149591
 30
0.0000000000000033
 10
-3937.336517195753
 20
-18250.64862149591
 30
0.0000000000000033
 10
-3939.092756368887
 20
-18261.09036556181
 30
0.0000000000000033
 10
-3940.848254586762
 20
-18272.05439975891
 30
0.0000000000000033
  0
SPLINE
  5
270B6E
330
18
100
AcDbEntity
  8
姿図
100
AcDbSpline
210
0.0
220
0.0
230
1.0
 70
     8
 71
     3
 72
     8
 73
     4
 74
     0
 42
0.000000001
 43
0.0000000001
 40
0.2696514016814274
 40
0.2696514016814274
 40
0.2696514016814274
 40
0.2696514016814274
 40
1.0
 40
1.0
 40
1.0
 40
1.0
 10
-3940.249881532208
 20
-18271.84391910139
 30
0.0000000000000033
 10
-3938.350589120076
 20
-18261.52921676508
 30
0.0000000000000033
 10
-3936.283038984656
 20
-18252.10948493494
 30
0.0000000000000033
 10
-3936.283038984656
 20
-18252.10948493494
 30
0.0000000000000033
  0
LINE
  5
270B6F
330
18
100
AcDbEntity
  8
姿図
100
AcDbLine
 10
-3934.205205389063
 20
-18252.64338612313
 30
0.0000000000000033
 11
-3938.316394030396
 21
-18271.85426506039
 31
0.0000000000000033
  0
ARC
  5
270B70
330
18
100
AcDbEntity
  8
姿図
100
AcDbCircle
 10
-3916.446418216957
 20
-18331.620092531
 30
0.0000000000000048
 40
63.61878588667222
100
AcDbArc
 50
96.70523189140971
 51
109.8629148030376
  0
SPLINE
  5
270B71
330
18
100
AcDbEntity
  8
姿図
100
AcDbSpline
210
0.0
220
0.0
230
1.0
 70
    24
 71
     1
 72
     4
 73
     2
 74
     0
 42
0.000000001
 43
0.0000000001
 40
0.0
 40
0.0
 40
0.500003153875532
 40
0.500003153875532
 10
-3940.72248034132
 20
-18272.07514580281
 30
0.0000000000000049
 10
-3940.833837166471
 20
-18272.11807753803
 30
0.0000000000000049
  0
ARC
  5
270B72
330
18
100
AcDbEntity
  8
姿図
100
AcDbCircle
 10
-3925.154552670768
 20
-18280.50725919248
 30
0.0000000000000048
 40
12.02005315416621
100
AcDbArc
 50
30.04368224853913
 51
63.1505550280868
  0
LINE
  5
270B73
330
18
100
AcDbEntity
  8
姿図
100
AcDbLine
 10
-3916.371375612233
 20
-18270.11545285466
 30
0.0000000000000048
 11
-3916.096396534685
 21
-18271.49359158105
 31
0.0000000000000048
  0
LINE
  5
270B74
330
18
100
AcDbEntity
  8
姿図
100
AcDbLine
 10
-3913.975489686595
 20
-18270.90250826197
 30
0.0000000000000048
 11
-3913.562751294537
 21
-18272.97106841219
 31
0.0000000000000048
  0
LINE
  5
270B75
330
18
100
AcDbEntity
  8
姿図
100
AcDbLine
 10
-3914.283338798766
 20
-18270.66968571862
 30
0.0000000000000048
 11
-3916.815852566658
 21
-18271.77608387322
 31
0.0000000000000048
  0
SPLINE
  5
270B76
330
18
100
AcDbEntity
  8
姿図
100
AcDbSpline
210
0.0
220
0.0
230
1.0
 70
     8
 71
     3
 72
     8
 73
     4
 74
     0
 42
0.000000001
 43
0.0000000001
 40
5.0
 40
5.0
 40
5.0
 40
5.0
 40
6.0
 40
6.0
 40
6.0
 40
6.0
 10
-3925.972163784681
 20
-18251.40406398851
 30
0.0000000000000033
 10
-3925.972163784681
 20
-18251.40406398851
 30
0.0000000000000033
 10
-3925.848979916881
 20
-18251.40879556158
 30
0.0000000000000033
 10
-3925.756428524762
 20
-18251.6163026533
 30
0.0000000000000033
  0
SPLINE
  5
270B77
330
18
100
AcDbEntity
  8
姿図
100
AcDbSpline
210
0.0
220
0.0
230
1.0
 70
     8
 71
     3
 72
     8
 73
     4
 74
     0
 42
0.000000001
 43
0.0000000001
 40
5.0
 40
5.0
 40
5.0
 40
5.0
 40
6.0
 40
6.0
 40
6.0
 40
6.0
 10
-3925.965054839108
 20
-18251.65422282292
 30
0.0000000000000033
 10
-3925.965054839108
 20
-18251.65422282292
 30
0.0000000000000033
 10
-3925.841870971307
 20
-18251.65895439599
 30
0.0000000000000033
 10
-3925.749319579188
 20
-18251.86646148771
 30
0.0000000000000033
  0
ELLIPSE
  5
270B78
330
18
100
AcDbEntity
  8
姿図
100
AcDbEllipse
 10
-3914.176509380591
 20
-18270.90665193105
 30
0.0000000000000048
 11
-0.1102631686521534
 21
0.2354123170481558
 31
3.382133400710607E-17
210
-5.518521943290480E-17
220
1.178206696975666E-16
230
-1.0
 40
0.7445887407032984
 41
0.01947147381301
 42
1.889738879637535
  0
ELLIPSE
  5
270B79
330
18
100
AcDbEntity
  8
姿図
100
AcDbEllipse
 10
-3916.572395306229
 20
-18270.11959652375
 30
0.0000000000000048
 11
-0.1102631686521534
 21
0.2354123170481558
 31
0.0
210
0.0
220
0.0
230
-1.0
 40
0.7445887407032984
 41
0.01947147381301
 42
1.889738879637535
  0
ELLIPSE
  5
270B7A
330
18
100
AcDbEntity
  8
姿図
100
AcDbEllipse
 10
-3917.379428952902
 20
-18269.95545926121
 30
0.0000000000000048
 11
-0.1102631686521534
 21
0.2354123170481558
 31
0.0
210
0.0
220
0.0
230
-1.0
 40
0.7445887407032984
 41
0.01947147381301
 42
1.889738879637535
  0
LINE
  5
270B7B
330
18
100
AcDbEntity
  8
姿図
100
AcDbLine
 10
-3917.178409258907
 20
-18269.95131559213
 30
0.0000000000000048
 11
-3917.151395108022
 21
-18270.08670497458
 31
0.0000000000000048
  0
LINE
  5
270B7C
330
18
100
AcDbEntity
  8
姿図
100
AcDbLine
 10
-3916.679224724402
 20
-18269.88263031132
 30
0.0000000000000048
 11
-3918.344587413535
 21
-18270.6024093186
 31
0.0000000000000048
  0
LINE
  5
270B7D
330
18
100
AcDbEntity
  8
姿図
100
AcDbLine
 10
-3917.486258371076
 20
-18269.71849304878
 30
0.0000000000000048
 11
-3918.817035833744
 21
-18270.29366246217
 31
0.0000000000000048
  0
ELLIPSE
  5
270B7E
330
18
100
AcDbEntity
  8
姿図
100
AcDbEllipse
 10
-3923.767809005757
 20
-18268.6734258766
 30
0.0000000000000048
 11
-0.3468879042634136
 21
0.1161587325640263
 31
1.459065990102709E-17
210
-2.452676419240198E-17
220
5.236474208780739E-17
230
-1.0
 40
0.5954474281841662
 41
1.067175184772285
 42
2.559533103277989
  0
LINE
  5
270B7F
330
18
100
AcDbEntity
  8
姿図
100
AcDbLine
 10
-3923.440018443619
 20
-18268.65690514051
 30
0.0000000000000048
 11
-3923.247233336843
 21
-18269.01445674302
 31
0.0000000000000026
  0
ARC
  5
270B80
330
18
100
AcDbEntity
  8
姿図
100
AcDbCircle
 10
-3922.840636790058
 20
-18273.47861297594
 30
0.0000000000000026
 40
4.482634451279683
100
AcDbArc
 50
84.71222861638356
 51
95.20415610003903
  0
ELLIPSE
  5
270B81
330
18
100
AcDbEntity
  8
姿図
100
AcDbEllipse
 10
-3912.688908119674
 20
-18272.72380176482
 30
0.0000000000000048
 11
-0.05228476964520482
 21
0.1116281975137274
 31
3.563878994237584E-18
210
-1.226338209620105E-17
220
2.618237104390372E-17
230
-1.0
 40
0.7445887407034333
 41
0.0194714738028587
 42
1.456954302896184
  0
LINE
  5
270B82
330
18
100
AcDbEntity
  8
姿図
100
AcDbLine
 10
-3912.739564667902
 20
-18272.61143673865
 30
0.0000000000000048
 11
-3915.238025395272
 21
-18273.70295788778
 31
0.0000000000000048
  0
ARC
  5
270B83
330
18
100
AcDbEntity
  8
姿図
100
AcDbCircle
 10
-3929.116763929348
 20
-18287.99385304775
 30
0.0
 40
16.26268158145045
100
AcDbArc
 50
86.69930458940469
 51
107.0828459404719
  0
ARC
  5
270B84
330
18
100
AcDbEntity
  8
姿図
100
AcDbCircle
 10
-3926.932932526749
 20
-18282.48531443331
 30
0.0
 40
9.620582517572863
100
AcDbArc
 50
87.54452681585234
 51
115.8684151450313
  0
ELLIPSE
  5
270B85
330
18
100
AcDbEntity
  8
姿図
100
AcDbEllipse
 10
-3930.100946438001
 20
-18251.99671566526
 30
0.0
 11
-2.977322425633557
 21
-0.0651525036592447
 31
0.0
210
0.0
220
0.0
230
1.0
 40
0.423425259805966
 41
0.3786499284263661
 42
2.848220962939281
  0
ELLIPSE
  5
270B86
330
18
100
AcDbEntity
  8
姿図
100
AcDbEllipse
 10
-3930.100946438001
 20
-18251.99671566526
 30
0.0
 11
-2.977322425633557
 21
-0.0651525036592447
 31
0.0
210
0.0
220
0.0
230
1.0
 40
0.423425259805966
 41
3.551025708286839
 42
6.045724500716436
  0
ELLIPSE
  5
270B87
330
18
100
AcDbEntity
  8
姿図
100
AcDbEllipse
 10
-3930.027258658768
 20
-18252.27577170512
 30
0.0
 11
-2.922366604295876
 21
-0.02352774701720397
 31
0.0
210
0.0
220
0.0
230
1.0
 40
0.4310041458033451
 41
3.612298197460502
 42
5.991115740086309
  0
ELLIPSE
  5
270B88
330
18
100
AcDbEntity
  8
姿図
100
AcDbEllipse
 10
-3930.107476451364
 20
-18251.76692905138
 30
0.0
 11
2.908257364162413
 21
0.09033739870748021
 31
0.0
210
0.0
220
0.0
230
1.0
 40
0.4346217930958619
 41
3.572038920501568
 42
5.869050530619732
  0
SPLINE
  5
270B89
330
18
100
AcDbEntity
  8
姿図
100
AcDbSpline
210
0.0
220
0.0
230
1.0
 70
     8
 71
     3
 72
     8
 73
     4
 74
     0
 42
0.000000001
 43
0.0000000001
 40
3.357032710531275
 40
3.357032710531275
 40
3.357032710531275
 40
3.357032710531275
 40
4.0
 40
4.0
 40
4.0
 40
4.0
 10
-3932.857170848581
 20
-18252.52328166455
 30
0.0000000000000033
 10
-3933.400771377174
 20
-18252.54158554639
 30
0.0000000000000033
 10
-3934.110061951035
 20
-18252.56644350812
 30
0.0000000000000033
 10
-3934.110061951035
 20
-18252.56644350812
 30
0.0000000000000033
  0
SPLINE
  5
270B8A
330
18
100
AcDbEntity
  8
姿図
100
AcDbSpline
210
0.0
220
0.0
230
1.0
 70
     8
 71
     3
 72
     8
 73
     4
 74
     0
 42
0.000000001
 43
0.0000000001
 40
3.357032710531275
 40
3.357032710531275
 40
3.357032710531275
 40
3.357032710531275
 40
4.0
 40
4.0
 40
4.0
 40
4.0
 10
-3932.726253719316
 20
-18252.37217431645
 30
0.0000000000000033
 10
-3933.269854247911
 20
-18252.3904781983
 30
0.0000000000000033
 10
-3933.97914482177
 20
-18252.41533616002
 30
0.0000000000000033
 10
-3933.97914482177
 20
-18252.41533616002
 30
0.0000000000000033
  0
LWPOLYLINE
  5
270B8B
330
18
100
AcDbEntity
  8
姿図
100
AcDbPolyline
 90
        3
 70
     0
 43
0.0
 10
-3933.971510931368
 20
-18252.41511922221
 10
-3934.054399901453
 20
-18252.45564456014
 10
-3934.068365157823
 20
-18252.50184407094
  0
LWPOLYLINE
  5
270B8C
330
18
100
AcDbEntity
  8
姿図
100
AcDbPolyline
 90
        3
 70
     0
 43
0.0
 10
-3934.102428060633
 20
-18252.5662265703
 10
-3934.185317030716
 20
-18252.60675190823
 10
-3934.199282287086
 20
-18252.65295141903
  0
ARC
  5
270B8D
330
18
100
AcDbEntity
  8
姿図
100
AcDbCircle
 10
-3936.062061820626
 20
-18252.3054882217
 30
0.0000000000000033
 40
0.2953780551123366
100
AcDbArc
 50
75.9578609212885
 51
138.4274760918253
  0
ARC
  5
270B8E
330
18
100
AcDbEntity
  8
姿図
100
AcDbCircle
 10
-3935.878749008839
 20
-18252.47853235351
 30
0.0000000000000033
 40
0.2953780551123366
100
AcDbArc
 50
75.9578609212885
 51
138.4274760918253
  0
SPLINE
  5
270B8F
330
18
100
AcDbEntity
  8
姿図
100
AcDbSpline
210
0.0
220
0.0
230
1.0
 70
    24
 71
     3
 72
     8
 73
     4
 74
     0
 42
0.000000001
 43
0.0000000001
 40
1.0
 40
1.0
 40
1.0
 40
1.0
 40
2.0
 40
2.0
 40
2.0
 40
2.0
 10
-3935.990392633509
 20
-18252.01893678991
 30
0.0000000000000033
 10
-3935.990392633509
 20
-18252.01893678991
 30
0.0000000000000033
 10
-3932.988686327507
 20
-18251.76241453053
 30
0.0000000000000033
 10
-3932.988686327507
 20
-18251.76241453053
 30
0.0000000000000033
  0
SPLINE
  5
270B90
330
18
100
AcDbEntity
  8
姿図
100
AcDbSpline
210
0.0
220
0.0
230
1.0
 70
    24
 71
     3
 72
     8
 73
     4
 74
     0
 42
0.000000001
 43
0.0000000001
 40
1.0
 40
1.0
 40
1.0
 40
1.0
 40
2.0
 40
2.0
 40
2.0
 40
2.0
 10
-3935.807079821724
 20
-18252.19198092172
 30
0.0000000000000033
 10
-3935.807079821724
 20
-18252.19198092172
 30
0.0000000000000033
 10
-3932.805373515722
 20
-18251.93545866234
 30
0.0000000000000033
 10
-3932.805373515722
 20
-18251.93545866234
 30
0.0000000000000033
  0
ARC
  5
270B91
330
18
100
AcDbEntity
  8
姿図
100
AcDbCircle
 10
-3926.466656167852
 20
-18282.75716448074
 30
0.0
 40
9.620582517572863
100
AcDbArc
 50
87.54452681585234
 51
115.8684151450313
  0
LINE
  5
270B92
330
18
100
AcDbEntity
  8
姿図
100
AcDbLine
 10
-3926.054481797394
 20
-18273.14541540652
 30
0.0
 11
-3927.571814895967
 21
-18273.87905214795
 31
0.0
  0
LINE
  5
270B93
330
18
100
AcDbEntity
  8
姿図
100
AcDbLine
 10
-3923.906032714995
 20
-18269.56764729742
 30
0.0000000000000026
 11
-3927.339834567471
 21
-18271.31655081065
 31
0.0000000000000026
  0
SPLINE
  5
270B94
330
18
100
AcDbEntity
  8
姿図
100
AcDbSpline
210
0.0
220
0.0
230
1.0
 70
     8
 71
     3
 72
     8
 73
     4
 74
     0
 42
0.000000001
 43
0.0000000001
 40
0.0
 40
0.0
 40
0.0
 40
0.0
 40
0.4810436403893932
 40
0.4810436403893932
 40
0.4810436403893932
 40
0.4810436403893932
 10
-3925.650272449185
 20
-18252.22381476049
 30
0.0000000000000033
 10
-3925.650272449185
 20
-18252.22381476049
 30
0.0000000000000033
 10
-3926.486783135587
 20
-18252.22120330094
 30
0.0000000000000033
 10
-3927.418775579033
 20
-18252.20955960492
 30
0.0000000000000033
  0
SPLINE
  5
270B95
330
18
100
AcDbEntity
  8
姿図
100
AcDbSpline
210
0.0
220
0.0
230
1.0
 70
     8
 71
     3
 72
     8
 73
     4
 74
     0
 42
0.000000001
 43
0.0000000001
 40
0.0
 40
0.0
 40
0.0
 40
0.0
 40
0.4810436403893932
 40
0.4810436403893932
 40
0.4810436403893932
 40
0.4810436403893932
 10
-3925.621539991854
 20
-18252.38211523365
 30
0.0000000000000033
 10
-3925.621539991854
 20
-18252.38211523365
 30
0.0000000000000033
 10
-3926.450253432468
 20
-18252.36200346674
 30
0.0000000000000033
 10
-3927.25224512309
 20
-18252.33309797004
 30
0.0000000000000033
  0
SPLINE
  5
270B96
330
18
100
AcDbEntity
  8
姿図
100
AcDbSpline
210
0.0
220
0.0
230
1.0
 70
     8
 71
     3
 72
     8
 73
     4
 74
     0
 42
0.000000001
 43
0.0000000001
 40
4.562871291847087
 40
4.562871291847087
 40
4.562871291847087
 40
4.562871291847087
 40
5.0
 40
5.0
 40
5.0
 40
5.0
 10
-3927.395637468139
 20
-18251.43587097407
 30
0.0000000000000033
 10
-3926.566302963821
 20
-18251.39214105469
 30
0.0000000000000033
 10
-3925.972163784681
 20
-18251.40406398851
 30
0.0000000000000033
 10
-3925.972163784681
 20
-18251.40406398851
 30
0.0000000000000033
  0
SPLINE
  5
270B97
330
18
100
AcDbEntity
  8
姿図
100
AcDbSpline
210
0.0
220
0.0
230
1.0
 70
     8
 71
     3
 72
     8
 73
     4
 74
     0
 42
0.000000001
 43
0.0000000001
 40
4.562871291847087
 40
4.562871291847087
 40
4.562871291847087
 40
4.562871291847087
 40
5.0
 40
5.0
 40
5.0
 40
5.0
 10
-3927.388528522567
 20
-18251.68602980849
 30
0.0000000000000033
 10
-3926.559194018248
 20
-18251.6422998891
 30
0.0000000000000033
 10
-3925.965054839108
 20
-18251.65422282292
 30
0.0000000000000033
 10
-3925.965054839108
 20
-18251.65422282292
 30
0.0000000000000033
  0
SPLINE
  5
270B98
330
18
100
AcDbEntity
  8
姿図
100
AcDbSpline
210
0.0
220
0.0
230
1.0
 70
     8
 71
     3
 72
     8
 73
     4
 74
     0
 42
0.000000001
 43
0.0000000001
 40
9.0
 40
9.0
 40
9.0
 40
9.0
 40
10.0
 40
10.0
 40
10.0
 40
10.0
 10
-3922.154363248005
 20
-18249.22541829152
 30
0.0000000000000033
 10
-3922.371965123041
 20
-18248.20041334777
 30
0.0000000000000033
 10
-3923.904405628699
 20
-18248.35444632737
 30
0.0000000000000033
 10
-3923.904405628699
 20
-18248.35444632737
 30
0.0000000000000033
  0
ELLIPSE
  5
270B99
330
18
100
AcDbEntity
  8
姿図
100
AcDbEllipse
 10
-3930.182204517822
 20
-18249.13730053488
 30
0.0
 11
-2.977322425633557
 21
-0.0651525036592447
 31
0.0
210
0.0
220
0.0
230
1.0
 40
0.423425259805966
 41
3.562126164169125
 42
6.045724500716436
  0
ELLIPSE
  5
270B9A
330
18
100
AcDbEntity
  8
姿図
100
AcDbEllipse
 10
-3930.182204517822
 20
-18249.13730053488
 30
0.0
 11
-2.977322425633557
 21
-0.0651525036592447
 31
0.0
210
0.0
220
0.0
230
1.0
 40
0.423425259805966
 41
3.562126164169125
 42
6.045724500716436
  0
SPLINE
  5
270B9B
330
18
100
AcDbEntity
  8
姿図
100
AcDbSpline
210
0.0
220
0.0
230
1.0
 70
     8
 71
     3
 72
     8
 73
     4
 74
     0
 42
0.000000001
 43
0.0000000001
 40
13.0
 40
13.0
 40
13.0
 40
13.0
 40
14.0
 40
14.0
 40
14.0
 40
14.0
 10
-3933.082468050649
 20
-18248.90406965585
 30
0.0
 10
-3933.082468050649
 20
-18248.90406965585
 30
0.0
 10
-3936.38076918868
 20
-18249.39659978037
 30
0.0000000000000033
 10
-3936.824123193585
 20
-18249.5144841259
 30
0.0000000000000033
  0
SPLINE
  5
270B9C
330
18
100
AcDbEntity
  8
姿図
100
AcDbSpline
210
0.0
220
0.0
230
1.0
 70
    24
 71
     3
 72
     8
 73
     4
 74
     0
 42
0.000000001
 43
0.0000000001
 40
10.0
 40
10.0
 40
10.0
 40
10.0
 40
10.56265067495566
 40
10.56265067495566
 40
10.56265067495566
 40
10.56265067495566
 10
-3923.904405628699
 20
-18248.35444632737
 30
0.0000000000000033
 10
-3923.904405628699
 20
-18248.35444632737
 30
0.0000000000000033
 10
-3925.809324699459
 20
-18248.46577701941
 30
0.0000000000000033
 10
-3927.475554839179
 20
-18248.56315782546
 30
0.0000000000000033
  0
SPLINE
  5
270B9D
330
18
100
AcDbEntity
  8
姿図
100
AcDbSpline
210
0.0
220
0.0
230
1.0
 70
     8
 71
     3
 72
    26
 73
    22
 74
     0
 42
0.000000001
 43
0.0000000001
 40
0.0
 40
0.0
 40
0.0
 40
0.0
 40
0.1264422350829495
 40
0.1264422350829495
 40
0.1588844121662647
 40
0.1588844121662647
 40
0.1751106177118944
 40
0.1751106177118944
 40
0.1858741810274541
 40
0.1858741810274541
 40
0.1957084812443391
 40
0.1957084812443391
 40
0.2081347559133095
 40
0.2081347559133095
 40
0.2307818527987925
 40
0.2307818527987925
 40
0.2883799021281352
 40
0.2883799021281352
 40
0.5072725936264543
 40
0.5072725936264543
 40
1.002470307424774
 40
1.002470307424774
 40
1.002470307424774
 40
1.002470307424774
 10
-3910.825880152995
 20
-18245.13703078653
 30
0.0000000000000066
 10
-3910.822905446957
 20
-18245.13730073611
 30
-0.0000000000000022
 10
-3910.819360414502
 20
-18245.13695752995
 30
0.0000000000000066
 10
-3910.816504405583
 20
-18245.1334895176
 30
0.0000000000000154
 10
-3910.815878304432
 20
-18245.13246822149
 30
0.0000000000000066
 10
-3910.815200805764
 20
-18245.13023922364
 30
0.0000000000000066
 10
-3910.814998750191
 20
-18245.12931570612
 30
0.0000000000000066
 10
-3910.814803737928
 20
-18245.12741430707
 30
0.0000000000000066
 10
-3910.81476454094
 20
-18245.12657222846
 30
0.0000000000000154
 10
-3910.814787871143
 20
-18245.12478061566
 30
0.0000000000000242
 10
-3910.814841162948
 20
-18245.12390377306
 30
0.0000000000000066
 10
-3910.8150409047
 20
-18245.12189174072
 30
0.0000000000000242
 10
-3910.815203898687
 20
-18245.12079306639
 30
0.0000000000000154
 10
-3910.815725120833
 20
-18245.11788519789
 30
0.0000000000000154
 10
-3910.816160670175
 20
-18245.11608580453
 30
0.0000000000000154
 10
-3910.817662298697
 20
-18245.11056872087
 30
0.0000000000000154
 10
-3910.819077688438
 20
-18245.10665497706
 30
0.0000000000000242
 10
-3910.825551213793
 20
-18245.0904770268
 30
0.0000000000000154
 10
-3910.83312727371
 20
-18245.07705156919
 30
-0.0000000000000022
 10
-3910.851730387079
 20
-18245.04638286159
 30
0.0000000000000066
 10
-3910.869641330862
 20
-18245.02136089361
 30
-0.0000000000000022
 10
-3910.893407405581
 20
-18244.99303352895
 30
0.0000000000000154
  0
SPLINE
  5
270B9E
330
18
100
AcDbEntity
  8
姿図
100
AcDbSpline
210
0.0
220
0.0
230
1.0
 70
     8
 71
     3
 72
    16
 73
    12
 74
     0
 42
0.000000001
 43
0.0000000001
 40
15.85860550385592
 40
15.85860550385592
 40
15.85860550385592
 40
15.85860550385592
 40
16.11243786898941
 40
16.11243786898941
 40
16.67677331177295
 40
16.67677331177295
 40
17.2411087545565
 40
17.2411087545565
 40
17.80544419734004
 40
17.80544419734004
 40
18.35651257010812
 40
18.35651257010812
 40
18.35651257010812
 40
18.35651257010812
 10
-3913.696837883234
 20
-18240.72764365031
 30
0.0000000000000154
 10
-3913.685548239689
 20
-18240.71541403098
 30
0.0000000000000154
 10
-3913.67477248971
 20
-18240.70233057647
 30
0.0000000000000154
 10
-3913.641882960316
 20
-18240.65780875906
 30
-0.0000000000000022
 10
-3913.620499159092
 20
-18240.62142386382
 30
0.0000000000000066
 10
-3913.582514589581
 20
-18240.53864489779
 30
0.0000000000000066
 10
-3913.565909356464
 20
-18240.49225365809
 30
0.0000000000000154
 10
-3913.538761065557
 20
-18240.39228573884
 30
0.0000000000000154
 10
-3913.528194127076
 20
-18240.33862724706
 30
-0.0000000000000022
 10
-3913.513694359522
 20
-18240.229155424
 30
-0.0000000000000022
 10
-3913.509611487024
 20
-18240.17342126507
 30
0.0000000000000154
 10
-3913.508371019373
 20
-18240.11823754604
 30
0.0000000000000066
  0
SPLINE
  5
270B9F
330
18
100
AcDbEntity
  8
姿図
100
AcDbSpline
210
0.0
220
0.0
230
1.0
 70
     8
 71
     3
 72
    30
 73
    26
 74
     0
 42
0.000000001
 43
0.0000000001
 40
5.468358937646049
 40
5.468358937646049
 40
5.468358937646049
 40
5.468358937646049
 40
5.554474529312383
 40
5.554474529312383
 40
5.597484804418004
 40
5.597484804418004
 40
5.640495079523625
 40
5.640495079523625
 40
5.653252350784877
 40
5.653252350784877
 40
5.659630986415502
 40
5.659630986415502
 40
5.666009622046128
 40
5.666009622046128
 40
5.672394292855955
 40
5.672394292855955
 40
5.678778963665781
 40
5.678778963665781
 40
5.691548305285435
 40
5.691548305285435
 40
5.734612320533793
 40
5.734612320533793
 40
5.77767633578215
 40
5.77767633578215
 40
5.877831414689104
 40
5.877831414689104
 40
5.877831414689104
 40
5.877831414689104
 10
-3910.915243391113
 20
-18243.87546785376
 30
0.0000000000000154
 10
-3910.913034466244
 20
-18243.87590854548
 30
0.0000000000000066
 10
-3910.910875401275
 20
-18243.87611374082
 30
-0.0000000000000022
 10
-3910.907750647367
 20
-18243.87561973177
 30
0.0000000000000154
 10
-3910.906622468564
 20
-18243.87530291909
 30
0.0000000000000066
 10
-3910.90447339919
 20
-18243.8739726885
 30
0.0000000000000066
 10
-3910.903442079399
 20
-18243.87304975932
 30
0.0000000000000242
 10
-3910.902424932096
 20
-18243.87054212726
 30
0.0000000000000154
 10
-3910.902192227403
 20
-18243.86980261121
 30
-0.0000000000000022
 10
-3910.901949267752
 20
-18243.86840264856
 30
0.0000000000000154
 10
-3910.901884952397
 20
-18243.86788952203
 30
0.0000000000000154
 10
-3910.901806174752
 20
-18243.8667728508
 30
-0.0000000000000022
 10
-3910.901791404643
 20
-18243.86616999195
 30
0.0000000000000154
 10
-3910.901818150643
 20
-18243.8648982811
 30
0.0000000000000066
 10
-3910.901859523366
 20
-18243.86423836199
 30
0.0000000000000154
 10
-3910.901989749334
 20
-18243.86291000924
 30
-0.0000000000000022
 10
-3910.902078888082
 20
-18243.86224165623
 30
-0.0000000000000022
 10
-3910.902392412875
 20
-18243.86027886478
 30
0.0000000000000066
 10
-3910.902666708185
 20
-18243.85902662334
 30
0.000000000000033
 10
-3910.903834839334
 20
-18243.85430796311
 30
-0.0000000000000022
 10
-3910.904950412653
 20
-18243.85121244606
 30
0.0000000000000242
 10
-3910.907249724119
 20
-18243.84538860523
 30
0.0000000000000242
 10
-3910.908440490471
 20
-18243.84273267061
 30
-0.0000000000000022
 10
-3910.912075823328
 20
-18243.83503666628
 30
0.0000000000000154
 10
-3910.91469254304
 20
-18243.83020301418
 30
0.0000000000000154
 10
-3910.917363970725
 20
-18243.82554957243
 30
0.0000000000000242
  0
SPLINE
  5
270BA0
330
18
100
AcDbEntity
  8
姿図
100
AcDbSpline
210
0.0
220
0.0
230
1.0
 70
    12
 71
     2
 72
     6
 73
     3
 74
     0
 42
0.000000001
 43
0.0000000001
 40
22.18928893771569
 40
22.18928893771569
 40
22.18928893771569
 40
29.25375354177516
 40
29.25375354177516
 40
29.25375354177516
 10
-3911.785492585704
 20
-18244.80307425169
 30
0.0000000000000242
 41
0.9999999984713707
 10
-3911.761335263164
 20
-18243.74594973752
 30
0.0000000000000154
 41
0.9999999989658331
 10
-3911.737145810333
 20
-18242.68743747306
 30
0.0000000000000066
 41
0.9999999999300861
  0
SPLINE
  5
270BA1
330
18
100
AcDbEntity
  8
姿図
100
AcDbSpline
210
0.0
220
0.0
230
1.0
 70
     8
 71
     3
 72
    26
 73
    22
 74
     0
 42
0.000000001
 43
0.0000000001
 40
5.508613077618151
 40
5.508613077618151
 40
5.508613077618151
 40
5.508613077618151
 40
6.179005067686559
 40
6.179005067686559
 40
6.340002190112532
 40
6.340002190112532
 40
6.392156946112854
 40
6.392156946112854
 40
6.417035445654846
 40
6.417035445654846
 40
6.433276212519534
 40
6.433276212519534
 40
6.447901642471058
 40
6.447901642471058
 40
6.46599523881348
 40
6.46599523881348
 40
6.498353151737191
 40
6.498353151737191
 40
6.578911697646714
 40
6.578911697646714
 40
6.714781857145347
 40
6.714781857145347
 40
6.714781857145347
 40
6.714781857145347
 10
-3912.115959148517
 20
-18244.11788652276
 30
0.0000000000000154
 10
-3912.17129818525
 20
-18244.0940159347
 30
0.0000000000000066
 10
-3912.209919436443
 20
-18244.08367051843
 30
0.0000000000000154
 10
-3912.236741077145
 20
-18244.08393158908
 30
0.0000000000000066
 10
-3912.242785207465
 20
-18244.08460866037
 30
-0.0000000000000022
 10
-3912.248320631481
 20
-18244.08804676357
 30
-0.0000000000000022
 10
-3912.249657927146
 20
-18244.08919927165
 30
0.0000000000000154
 10
-3912.25107763777
 20
-18244.09157786147
 30
0.0000000000000154
 10
-3912.251498278442
 20
-18244.09253061786
 30
0.0000000000000154
 10
-3912.251929322793
 20
-18244.09446875297
 30
0.000000000000033
 10
-3912.252029473302
 20
-18244.09531853305
 30
0.0000000000000154
 10
-3912.252035822424
 20
-18244.09711266592
 30
0.0000000000000154
 10
-3912.251960125384
 20
-18244.09798291135
 30
0.0000000000000066
 10
-3912.25164099939
 20
-18244.09995774189
 30
0.0000000000000066
 10
-3912.251369501814
 20
-18244.10102260848
 30
0.0000000000000066
 10
-3912.250492084097
 20
-18244.10380914993
 30
0.0000000000000066
 10
-3912.249751470162
 20
-18244.10551179409
 30
0.0000000000000154
 10
-3912.247208905767
 20
-18244.11066174662
 30
0.0000000000000154
 10
-3912.244815946777
 20
-18244.11425583601
 30
-0.0000000000000022
 10
-3912.238650537184
 20
-18244.12258225638
 30
0.0000000000000242
 10
-3912.234153161319
 20
-18244.12761692606
 30
0.0000000000000154
 10
-3912.230165342257
 20
-18244.13179236916
 30
0.0000000000000242
  0
SPLINE
  5
270BA2
330
18
100
AcDbEntity
  8
姿図
100
AcDbSpline
210
0.0
220
0.0
230
1.0
 70
     8
 71
     3
 72
    10
 73
     6
 74
     0
 42
0.000000001
 43
0.0000000001
 40
0.505347474080478
 40
0.505347474080478
 40
0.505347474080478
 40
0.505347474080478
 40
0.5908081871204214
 40
0.5908081871204214
 40
0.6018930666040991
 40
0.6018930666040991
 40
0.6018930666040991
 40
0.6018930666040991
 10
-3911.930110099417
 20
-18244.63967210124
 30
0.0000000000000066
 10
-3911.931911481205
 20
-18244.63155946047
 30
-0.0000000000000022
 10
-3911.934840156379
 20
-18244.62261825016
 30
-0.0000000000000022
 10
-3911.939694365876
 20
-18244.61328266397
 30
0.0000000000000154
 10
-3911.940273869344
 20
-18244.6122217234
 30
0.0000000000000154
 10
-3911.940875135048
 20
-18244.6111747268
 30
0.0000000000000066
  0
SPLINE
  5
270BA3
330
18
100
AcDbEntity
  8
姿図
100
AcDbSpline
210
0.0
220
0.0
230
1.0
 70
     8
 71
     3
 72
    26
 73
    22
 74
     0
 42
0.000000001
 43
0.0000000001
 40
0.0
 40
0.0
 40
0.0
 40
0.0
 40
0.128245973690629
 40
0.128245973690629
 40
0.1709107023387558
 40
0.1709107023387558
 40
0.1890943956851749
 40
0.1890943956851749
 40
0.2007783270636655
 40
0.2007783270636655
 40
0.2111470640880597
 40
0.2111470640880597
 40
0.2237033505467542
 40
0.2237033505467542
 40
0.2457537947997618
 40
0.2457537947997618
 40
0.2995509632558
 40
0.2995509632558
 40
0.4920237835540287
 40
0.4920237835540287
 40
0.793426644719398
 40
0.793426644719398
 40
0.793426644719398
 40
0.793426644719398
 10
-3910.869060012333
 20
-18244.50732433438
 30
0.0000000000000154
 10
-3910.865948364079
 20
-18244.50777488529
 30
0.0000000000000154
 10
-3910.862329224839
 20
-18244.50768899465
 30
0.0000000000000154
 10
-3910.859027003999
 20
-18244.5047439284
 30
0.0000000000000154
 10
-3910.858203092564
 20
-18244.50366330378
 30
0.0000000000000154
 10
-3910.857394147929
 20
-18244.50132060918
 30
0.0000000000000066
 10
-3910.857171832308
 20
-18244.50043922403
 30
-0.0000000000000022
 10
-3910.85694971156
 20
-18244.49862501095
 30
0.0000000000000154
 10
-3910.856899342711
 20
-18244.49782844009
 30
0.0000000000000154
 10
-3910.856902285422
 20
-18244.49613879851
 30
0.0000000000000154
 10
-3910.85694447032
 20
-18244.49531869941
 30
0.0000000000000242
 10
-3910.857116325191
 20
-18244.49346337962
 30
0.0000000000000242
 10
-3910.857258288222
 20
-18244.49246580174
 30
-0.0000000000000022
 10
-3910.857711466099
 20
-18244.48986716976
 30
0.0000000000000242
 10
-3910.858087408232
 20
-18244.48827871482
 30
-0.0000000000000022
 10
-3910.859363574243
 20
-18244.4835070469
 30
0.0000000000000066
 10
-3910.860547440813
 20
-18244.48016680759
 30
0.0000000000000066
 10
-3910.865788964692
 20
-18244.46683888239
 30
0.0000000000000154
 10
-3910.871742577961
 20
-18244.45596585903
 30
0.0000000000000242
 10
-3910.883937645082
 20
-18244.43532633584
 30
0.0000000000000066
 10
-3910.893512159025
 20
-18244.42101391329
 30
0.0000000000000154
 10
-3910.905472597483
 20
-18244.40505455243
 30
0.0000000000000154
  0
SPLINE
  5
270BA4
330
18
100
AcDbEntity
  8
姿図
100
AcDbSpline
210
0.0
220
0.0
230
1.0
 70
     8
 71
     3
 72
    30
 73
    26
 74
     0
 42
0.000000001
 43
0.0000000001
 40
16.78601875418834
 40
16.78601875418834
 40
16.78601875418834
 40
16.78601875418834
 40
16.8861738330952
 40
16.8861738330952
 40
16.92923784834355
 40
16.92923784834355
 40
16.97230186359191
 40
16.97230186359191
 40
16.98507120521156
 40
16.98507120521156
 40
16.99145587602139
 40
16.99145587602139
 40
16.99784054683122
 40
16.99784054683122
 40
17.00421918246185
 40
17.00421918246185
 40
17.01059781809247
 40
17.01059781809247
 40
17.02335508935372
 40
17.02335508935372
 40
17.06636536445934
 40
17.06636536445934
 40
17.10937563956496
 40
17.10937563956496
 40
17.1954912312313
 40
17.1954912312313
 40
17.1954912312313
 40
17.1954912312313
 10
-3912.139915713572
 20
-18242.95040256631
 30
0.0000000000000154
 10
-3912.14430698347
 20
-18242.95000027223
 30
-0.0000000000000022
 10
-3912.148614603518
 20
-18242.94987723007
 30
0.0000000000000066
 10
-3912.154571006659
 20
-18242.95070712088
 30
0.000000000000033
 10
-3912.156518354571
 20
-18242.95111667917
 30
0.0000000000000154
 10
-3912.160247432589
 20
-18242.95262517954
 30
0.0000000000000154
 10
-3912.162045733278
 20
-18242.95363483958
 30
0.0000000000000154
 10
-3912.163847447385
 20
-18242.95622757655
 30
-0.0000000000000022
 10
-3912.164262549452
 20
-18242.95698632228
 30
0.0000000000000154
 10
-3912.164706915998
 20
-18242.95840658754
 30
-0.0000000000000022
 10
-3912.164827004762
 20
-18242.95892516789
 30
0.0000000000000066
 10
-3912.164982416818
 20
-18242.96004905055
 30
0.000000000000033
 10
-3912.165018251278
 20
-18242.96065370195
 30
0.0000000000000154
 10
-3912.164993289352
 20
-18242.9619241357
 30
0.0000000000000066
 10
-3912.164932747241
 20
-18242.96258090577
 30
0.0000000000000066
 10
-3912.164729388472
 20
-18242.96389954051
 30
0.0000000000000066
 10
-3912.164586064659
 20
-18242.96456130271
 30
-0.0000000000000022
 10
-3912.164075410567
 20
-18242.96650072949
 30
-0.000000000000011
 10
-3912.163620682792
 20
-18242.9677323347
 30
-0.0000000000000022
 10
-3912.161675363054
 20
-18242.97236060842
 30
-0.0000000000000022
 10
-3912.159797729583
 20
-18242.97536587216
 30
-0.0000000000000022
 10
-3912.155927848617
 20
-18242.98100468633
 30
0.0000000000000154
 10
-3912.153922271086
 20
-18242.98356475579
 30
0.0000000000000066
 10
-3912.148400010584
 20
-18242.99024861227
 30
0.0000000000000066
 10
-3912.144629943036
 20
-18242.99428770565
 30
0.0000000000000066
 10
-3912.140802104141
 20
-18242.99816834901
 30
0.0000000000000066
  0
SPLINE
  5
270BA5
330
18
100
AcDbEntity
  8
姿図
100
AcDbSpline
210
0.0
220
0.0
230
1.0
 70
     8
 71
     3
 72
    12
 73
     8
 74
     0
 42
0.000000001
 43
0.0000000001
 40
2.214246753416005
 40
2.214246753416005
 40
2.214246753416005
 40
2.214246753416005
 40
2.273337669201671
 40
2.273337669201671
 40
2.651501823638109
 40
2.651501823638109
 40
2.971189770913845
 40
2.971189770913845
 40
2.971189770913845
 40
2.971189770913845
 10
-3911.737145810333
 20
-18242.68743747306
 30
0.0000000000000066
 10
-3911.738732119876
 20
-18242.69254657212
 30
0.0000000000000066
 10
-3911.740270435211
 20
-18242.6977163846
 30
-0.000000000000011
 10
-3911.751269337811
 20
-18242.7362421857
 30
-0.0000000000000022
 10
-3911.759844032136
 20
-18242.77576106454
 30
0.0000000000000154
 10
-3911.770978872647
 20
-18242.85103317274
 30
0.0000000000000154
 10
-3911.77428941427
 20
-18242.88644204518
 30
0.0000000000000066
 10
-3911.775664453388
 20
-18242.91929951297
 30
0.0000000000000242
  0
SPLINE
  5
270BA6
330
18
100
AcDbEntity
  8
姿図
100
AcDbSpline
210
0.0
220
0.0
230
1.0
 70
     8
 71
     3
 72
    12
 73
     8
 74
     0
 42
0.000000001
 43
0.0000000001
 40
2.214246753415932
 40
2.214246753415932
 40
2.214246753415932
 40
2.214246753415932
 40
2.27333766920167
 40
2.27333766920167
 40
2.65150182363811
 40
2.65150182363811
 40
2.971189770913846
 40
2.971189770913846
 40
2.971189770913846
 40
2.971189770913846
 10
-3933.577227251978
 20
-18236.24829035307
 30
0.0000000000000154
 10
-3933.572632299495
 20
-18236.25205071439
 30
-0.0000000000000022
 10
-3933.568194980392
 20
-18236.25592093904
 30
0.0000000000000066
 10
-3933.536597928955
 20
-18236.28521284263
 30
0.0000000000000066
 10
-3933.512751308149
 20
-18236.31788550412
 30
0.0000000000000066
 10
-3933.48339100101
 20
-18236.38498735915
 30
0.0000000000000066
 10
-3933.47552531927
 20
-18236.41835421813
 30
0.0000000000000066
 10
-3933.473409488181
 20
-18236.45087959797
 30
0.0000000000000066
  0
SPLINE
  5
270BA7
330
18
100
AcDbEntity
  8
姿図
100
AcDbSpline
210
0.0
220
0.0
230
1.0
 70
     8
 71
     3
 72
    14
 73
    10
 74
     0
 42
0.000000001
 43
0.0000000001
 40
0.0518711334186413
 40
0.0518711334186413
 40
0.0518711334186413
 40
0.0518711334186413
 40
0.3761852694724612
 40
0.3761852694724612
 40
0.7523705389449225
 40
0.7523705389449225
 40
1.132719326167469
 40
1.132719326167469
 40
1.510190416961686
 40
1.510190416961686
 40
1.510190416961686
 40
1.510190416961686
 10
-3933.59820242576
 20
-18236.36154827408
 30
0.0000000000000154
 10
-3933.599833345231
 20
-18236.32896230392
 30
0.0000000000000154
 10
-3933.60735938056
 20
-18236.29543976138
 30
-0.0000000000000022
 10
-3933.636172166657
 20
-18236.22887083733
 30
0.0000000000000154
 10
-3933.659578165373
 20
-18236.19677023738
 30
0.0000000000000066
 10
-3933.713791558216
 20
-18236.14678488932
 30
0.0000000000000154
 10
-3933.748314502799
 20
-18236.12569194448
 30
0.0000000000000066
 10
-3933.823587994218
 20
-18236.09957280154
 30
0.0000000000000242
 10
-3933.864287248413
 20
-18236.09441953128
 30
0.0000000000000242
 10
-3933.902467027113
 20
-18236.09652881524
 30
0.0000000000000154
  0
SPLINE
  5
270BA8
330
18
100
AcDbEntity
  8
姿図
100
AcDbSpline
210
0.0
220
0.0
230
1.0
 70
     8
 71
     3
 72
    14
 73
    10
 74
     0
 42
0.000000001
 43
0.0000000001
 40
0.0516007629148517
 40
0.0516007629148517
 40
0.0516007629148517
 40
0.0516007629148517
 40
0.3775999287975693
 40
0.3775999287975693
 40
0.7551998575951386
 40
0.7551998575951386
 40
1.136339040160537
 40
1.136339040160537
 40
1.513620557812546
 40
1.513620557812546
 40
1.513620557812546
 40
1.513620557812546
 10
-3939.448900456665
 20
-18241.71575912964
 30
0.0000000000000066
 10
-3939.450825026269
 20
-18241.74884714887
 30
0.0000000000000154
 10
-3939.458065864431
 20
-18241.78394479625
 30
0.0000000000000154
 10
-3939.48487037468
 20
-18241.85606892844
 30
0.0000000000000154
 10
-3939.5063012936
 20
-18241.89253192321
 30
0.0000000000000242
 10
-3939.555471519611
 20
-18241.95248197859
 30
0.0000000000000154
 10
-3939.58654537653
 20
-18241.97986001162
 30
0.0000000000000154
 10
-3939.653762868762
 20
-18242.01975074825
 30
0.0000000000000066
 10
-3939.689847268924
 20
-18242.03242563326
 30
0.0000000000000066
 10
-3939.723543576817
 20
-18242.0375252759
 30
0.0000000000000066
  0
SPLINE
  5
270BA9
330
18
100
AcDbEntity
  8
姿図
100
AcDbSpline
210
0.0
220
0.0
230
1.0
 70
     8
 71
     3
 72
    14
 73
    10
 74
     0
 42
0.000000001
 43
0.0000000001
 40
1.526591127950939
 40
1.526591127950939
 40
1.526591127950939
 40
1.526591127950939
 40
1.903872645602957
 40
1.903872645602957
 40
2.285011828168357
 40
2.285011828168357
 40
2.662611756965921
 40
2.662611756965921
 40
2.988610922850349
 40
2.988610922850349
 40
2.988610922850349
 40
2.988610922850349
 10
-3933.050714273894
 20
-18241.41308815279
 30
0.0000000000000066
 10
-3933.08921991351
 20
-18241.41474510085
 30
0.0000000000000154
 10
-3933.130242029129
 20
-18241.40928577145
 30
0.0000000000000066
 10
-3933.206222504415
 20
-18241.38279536664
 30
0.0000000000000066
 10
-3933.241113566301
 20
-18241.361590269
 30
0.0000000000000066
 10
-3933.295980830283
 20
-18241.3113759446
 30
0.0000000000000066
 10
-3933.319682435192
 20
-18241.27913640918
 30
0.0000000000000066
 10
-3933.348881784798
 20
-18241.2122530658
 30
0.0000000000000066
 10
-3933.356510325078
 20
-18241.17854688094
 30
0.0000000000000066
 10
-3933.358157767493
 20
-18241.14579312725
 30
0.0000000000000066
  0
SPLINE
  5
270BAA
330
18
100
AcDbEntity
  8
姿図
100
AcDbSpline
210
0.0
220
0.0
230
1.0
 70
     8
 71
     3
 72
    16
 73
    12
 74
     0
 42
0.000000001
 43
0.0000000001
 40
7.430778314876192
 40
7.430778314876192
 40
7.430778314876192
 40
7.430778314876192
 40
7.48439642458809
 40
7.48439642458809
 40
8.051682043090178
 40
8.051682043090178
 40
8.618967661592267
 40
8.618967661592267
 40
9.186253280094355
 40
9.186253280094355
 40
9.198233509684796
 40
9.198233509684796
 40
9.198233509684796
 40
9.198233509684796
 10
-3949.142828752999
 20
-18243.92454072454
 30
0.0000000000000066
 10
-3949.142239909588
 20
-18243.92085876164
 30
0.0000000000000066
 10
-3949.141655022311
 20
-18243.91713062669
 30
-0.0000000000000022
 10
-3949.134933297092
 20
-18243.87341189679
 30
0.0000000000000066
 10
-3949.129290787764
 20
-18243.82818938425
 30
0.0000000000000154
 10
-3949.119604443331
 20
-18243.72997288073
 30
0.0000000000000066
 10
-3949.115554474601
 20
-18243.67689659013
 30
0.0000000000000154
 10
-3949.109361688145
 20
-18243.56674578891
 30
-0.0000000000000022
 10
-3949.107220143188
 20
-18243.50966905042
 30
0.0000000000000066
 10
-3949.105981775586
 20
-18243.4518212234
 30
0.0000000000000154
 10
-3949.105956534327
 20
-18243.45062333346
 30
0.0000000000000066
 10
-3949.105931665493
 20
-18243.44942396644
 30
0.0000000000000066
  0
SPLINE
  5
270BAB
330
18
100
AcDbEntity
  8
姿図
100
AcDbSpline
210
0.0
220
0.0
230
1.0
 70
     8
 71
     1
 72
     9
 73
     7
 74
     0
 42
0.000000001
 43
0.0000000001
 40
8.843010394358767
 40
8.843010394358767
 40
8.844295783825991
 40
8.845581173293212
 40
8.846866562760436
 40
8.848151952227658
 40
8.84943734169488
 40
8.850046236987634
 40
8.850046236987634
 10
-3946.827847485784
 20
-18242.35959571768
 30
0.0000000000000154
 10
-3946.896579386453
 20
-18242.668492063
 30
0.0000000000000154
 10
-3946.963984386069
 20
-18242.97836372871
 30
0.0000000000000066
 10
-3947.03004930822
 20
-18243.28919339296
 30
0.0000000000000154
 10
-3947.094761171539
 20
-18243.60096344136
 30
0.0000000000000066
 10
-3947.158107196085
 20
-18243.91365597035
 30
0.0000000000000154
 10
-3947.187461558476
 20
-18244.06220832176
 30
0.0000000000000066
  0
SPLINE
  5
270BAC
330
18
100
AcDbEntity
  8
姿図
100
AcDbSpline
210
7.530128592834978E-10
220
1.567452368655993E-11
230
-1.0
 70
    12
 71
     2
 72
     6
 73
     3
 74
     0
 42
0.000000001
 43
0.0000000001
 40
3.438957747159619
 40
3.438957747159619
 40
3.438957747159619
 40
27.9798144579688
 40
27.9798144579688
 40
27.9798144579688
 10
-3912.949087199655
 20
-18247.41433408425
 30
0.0000000000000066
 41
1.000002949620377
 10
-3913.025718971318
 20
-18243.7317769723
 30
0.0000000000000242
 41
1.000012270378906
 10
-3913.101729590823
 20
-18240.08018442162
 30
0.0000000000000242
 41
1.000004411873195
  0
ELLIPSE
  5
270BB3
330
18
100
AcDbEntity
  8
姿図
100
AcDbEllipse
 10
-3912.339169985506
 20
-18234.33632515792
 30
0.0
 11
0.05583457878010544
 21
-0.5551391896356209
 31
9.291567164033371E-17
210
-1.666545791913224E-17
220
1.656974764790396E-16
230
1.0
 40
0.3266547503873753
 41
1.290961286430822
 42
2.861757613225796
  0
LINE
  5
270BB4
330
18
100
AcDbEntity
  8
姿図
100
AcDbLine
 10
-3910.792629373889
 20
-18234.92789043831
 30
0.0
 11
-3911.538460529147
 21
-18234.99768462002
 31
0.0
  0
ELLIPSE
  5
270BB5
330
18
100
AcDbEntity
  8
姿図
100
AcDbEllipse
 10
-3912.086395389458
 20
-18236.98116826019
 30
0.0
 11
0.03608385743162927
 21
0.05040796858487177
 31
3.441247287127943E-18
210
-3.231153159914879E-17
220
-4.513815278383454E-17
230
1.0
 40
0.9083744652357183
 41
0.6674062465666986
 42
2.67181090378285
  0
ELLIPSE
  5
270BB6
330
18
100
AcDbEntity
  8
姿図
100
AcDbEllipse
 10
-3912.086395389458
 20
-18236.38237152196
 30
0.0
 11
0.03608385743163949
 21
0.05040796858488614
 31
3.441247287128919E-18
210
-3.231153159914874E-17
220
-4.513815278383452E-17
230
1.0
 40
0.9083744652357185
 41
0.66740624656714
 42
2.671810903783259
  0
LINE
  5
270BB7
330
18
100
AcDbEntity
  8
姿図
100
AcDbLine
 10
-3911.946044529282
 20
-18236.22431995111
 30
0.0
 11
-3912.139298619106
 21
-18235.81368373948
 31
0.0
  0
LINE
  5
270BB8
330
18
100
AcDbEntity
  8
姿図
100
AcDbLine
 10
-3911.946044529282
 20
-18235.62552321288
 30
0.0
 11
-3912.139298619106
 21
-18235.21488700125
 31
0.0
  0
LINE
  5
270BB9
330
18
100
AcDbEntity
  8
姿図
100
AcDbLine
 10
-3911.946044529282
 20
-18235.02672647464
 30
0.0
 11
-3912.148639250163
 21
-18234.5962428106
 31
0.0
  0
ELLIPSE
  5
270BBA
330
18
100
AcDbEntity
  8
姿図
100
AcDbEllipse
 10
-3912.086395389458
 20
-18235.78357478373
 30
0.0
 11
0.03608385743163949
 21
0.05040796858488614
 31
3.441247287128919E-18
210
-3.231153159914874E-17
220
-4.513815278383452E-17
230
1.0
 40
0.9083744652357185
 41
0.6674062465669841
 42
2.671810903783383
  0
ELLIPSE
  5
270BBB
330
18
100
AcDbEntity
  8
姿図
100
AcDbEllipse
 10
-3912.086395389458
 20
-18235.1847780455
 30
0.0
 11
0.03608385743163949
 21
0.05040796858488614
 31
3.441247287128919E-18
210
-3.231153159914874E-17
220
-4.513815278383452E-17
230
1.0
 40
0.9083744652357185
 41
0.6674062465673603
 42
2.671810903782924
  0
LINE
  5
270BBC
330
18
100
AcDbEntity
  8
姿図
100
AcDbLine
 10
-3911.946044529282
 20
-18236.82311668934
 30
0.0
 11
-3912.139298619106
 21
-18236.41248047772
 31
0.0
  0
LINE
  5
270BBD
330
18
100
AcDbEntity
  8
姿図
100
AcDbLine
 10
-3912.148639250163
 20
-18234.5962428106
 30
0.0
 11
-3912.149463680564
 21
-18234.47212383129
 31
0.0
  0
LINE
  5
270BBE
330
18
100
AcDbEntity
  8
姿図
100
AcDbLine
 10
-3912.086395389457
 20
-18236.92128858637
 30
0.0
 11
-3911.998947758931
 21
-18236.91310531892
 31
0.0
  0
ELLIPSE
  5
270BBF
330
18
100
AcDbEntity
  8
姿図
100
AcDbEllipse
 10
-3911.998947758932
 20
-18236.8532256451
 30
0.0
 11
0.03608385743162398
 21
0.05040796858487442
 31
-6.882494574255783E-18
210
6.462306319828893E-17
220
9.027630556767527E-17
230
1.0
 40
0.9083744652357181
 41
3.80899890015702
 42
5.813403557372653
  0
LINE
  5
270BC0
330
18
100
AcDbEntity
  8
姿図
100
AcDbLine
 10
-3912.086395389457
 20
-18235.72369510991
 30
0.0
 11
-3911.998947758931
 21
-18235.71551184246
 31
0.0
  0
LINE
  5
270BC1
330
18
100
AcDbEntity
  8
姿図
100
AcDbLine
 10
-3912.086395389457
 20
-18236.32249184814
 30
0.0
 11
-3911.998947758931
 21
-18236.31430858069
 31
0.0
  0
LINE
  5
270BC2
330
18
100
AcDbEntity
  8
姿図
100
AcDbLine
 10
-3912.086395389457
 20
-18235.12489837167
 30
0.0
 11
-3911.998947758931
 21
-18235.11671510422
 31
0.0
  0
ELLIPSE
  5
270BC3
330
18
100
AcDbEntity
  8
姿図
100
AcDbEllipse
 10
-3911.998947758932
 20
-18235.65563216863
 30
0.0
 11
0.03608385743162398
 21
0.05040796858487442
 31
-6.882494574255783E-18
210
6.462306319828893E-17
220
9.027630556767527E-17
230
1.0
 40
0.9083744652357181
 41
3.808998900156833
 42
5.813403557372844
  0
ELLIPSE
  5
270BC4
330
18
100
AcDbEntity
  8
姿図
100
AcDbEllipse
 10
-3911.998947758932
 20
-18236.25442890686
 30
0.0
 11
0.03608385743162398
 21
0.05040796858487442
 31
-6.882494574255783E-18
210
6.462306319828893E-17
220
9.027630556767527E-17
230
1.0
 40
0.9083744652357181
 41
3.808998900156709
 42
5.813403557372572
  0
ELLIPSE
  5
270BC5
330
18
100
AcDbEntity
  8
姿図
100
AcDbEllipse
 10
-3911.489917737241
 20
-18235.55350760538
 30
0.0
 11
0.04812166340265124
 21
-0.5558609181685003
 31
0.0
210
0.0
220
0.0
230
1.0
 40
0.3301839125655894
 41
3.14388787013195
 42
4.437113948144849
  0
ELLIPSE
  5
270BC6
330
18
100
AcDbEntity
  8
姿図
100
AcDbEllipse
 10
-3911.998947758932
 20
-18235.0568354304
 30
0.0
 11
0.03608385743162398
 21
0.05040796858487442
 31
-6.882494574255783E-18
210
6.462306319828893E-17
220
9.027630556767527E-17
230
1.0
 40
0.9083744652357181
 41
3.80899890015702
 42
5.813403557372702
  0
LINE
  5
270BC7
330
18
100
AcDbEntity
  8
姿図
100
AcDbLine
 10
-3910.916746876146
 20
-18236.09003400745
 30
0.0
 11
-3910.723492786322
 21
-18236.50067021908
 31
0.0
  0
LINE
  5
270BC8
330
18
100
AcDbEntity
  8
姿図
100
AcDbLine
 10
-3910.070059958189
 20
-18236.36962446692
 30
0.0
 11
-3910.272654679068
 21
-18235.93914080288
 31
0.0
  0
LINE
  5
270BC9
330
18
100
AcDbEntity
  8
姿図
100
AcDbLine
 10
-3910.210410818364
 20
-18236.46779636394
 30
0.0
 11
-3910.122963187837
 21
-18236.4596130965
 31
0.0
  0
ELLIPSE
  5
270BCA
330
18
100
AcDbEntity
  8
姿図
100
AcDbEllipse
 10
-3910.210410818364
 20
-18236.52767603777
 30
0.0
 11
0.03608385743163949
 21
0.05040796858488614
 31
3.441247287128919E-18
210
-3.231153159914874E-17
220
-4.513815278383452E-17
230
1.0
 40
0.9083744652357185
 41
0.66740624656764
 42
2.671810903783141
  0
LINE
  5
270BCB
330
18
100
AcDbEntity
  8
姿図
100
AcDbLine
 10
-3910.776396015971
 20
-18236.59065884866
 30
0.0
 11
-3910.863843646497
 21
-18236.59884211611
 31
0.0
  0
ELLIPSE
  5
270BCC
330
18
100
AcDbEntity
  8
姿図
100
AcDbEllipse
 10
-3910.863843646498
 20
-18236.65872178993
 30
0.0
 11
0.0360838574316351
 21
0.05040796858488925
 31
3.441247287128919E-18
210
-3.231153159914480E-17
220
-4.513815278383737E-17
230
1.0
 40
0.908374465235718
 41
0.6674062465667575
 42
2.671810903783107
  0
ELLIPSE
  5
270BCD
330
18
100
AcDbEntity
  8
姿図
100
AcDbEllipse
 10
-3910.776396015972
 20
-18236.53077917484
 30
0.0
 11
0.03608385743162907
 21
0.05040796858487078
 31
3.441247287127870E-18
210
-3.231153159914889E-17
220
-4.513815278383404E-17
230
1.0
 40
0.908374465235718
 41
3.808998900156757
 42
5.813403557372718
  0
ELLIPSE
  5
270BCE
330
18
100
AcDbEntity
  8
姿図
100
AcDbEllipse
 10
-3910.122963187839
 20
-18236.39973342268
 30
0.0
 11
0.03608385743162398
 21
0.05040796858487442
 31
-6.882494574255783E-18
210
6.462306319828893E-17
220
9.027630556767527E-17
230
1.0
 40
0.9083744652357181
 41
3.808998900156673
 42
5.813403557372901
  0
LINE
  5
270BCF
330
18
100
AcDbEntity
  8
姿図
100
AcDbLine
 10
-3910.272654679068
 20
-18235.93914080288
 30
0.0
 11
-3910.273479109471
 21
-18235.81502182356
 31
0.0
  0
LINE
  5
270BD0
330
18
100
AcDbEntity
  8
姿図
100
AcDbLine
 10
-3910.926087507203
 20
-18235.47138981681
 30
0.0
 11
-3910.723492786322
 21
-18235.90187348085
 31
0.0
  0
LINE
  5
270BD1
330
18
100
AcDbEntity
  8
姿図
100
AcDbLine
 10
-3910.776396015971
 20
-18235.99186211043
 30
0.0
 11
-3910.863843646497
 21
-18236.00004537787
 31
0.0
  0
LINE
  5
270BD2
330
18
100
AcDbEntity
  8
姿図
100
AcDbLine
 10
-3910.926911937604
 20
-18235.34727083749
 30
0.0
 11
-3910.926087507203
 21
-18235.47138981681
 31
0.0
  0
LINE
  5
270BD3
330
18
100
AcDbEntity
  8
姿図
100
AcDbLine
 10
-3910.46676281748
 20
-18235.14064085581
 30
0.0
 11
-3910.74078303573
 21
-18234.94448721649
 31
0.0
  0
LINE
  5
270BD4
330
18
100
AcDbEntity
  8
姿図
100
AcDbLine
 10
-3910.272654679068
 20
-18235.93914080288
 30
0.0
 11
-3910.926087507203
 21
-18235.47138981681
 31
0.0
  0
ELLIPSE
  5
270BD5
330
18
100
AcDbEntity
  8
姿図
100
AcDbEllipse
 10
-3910.463185414413
 20
-18235.67922315019
 30
0.0
 11
0.05583457878010544
 21
-0.5551391896356209
 31
9.291567164033371E-17
210
-1.666545791913224E-17
220
1.656974764790396E-16
230
1.0
 40
0.3266547503873753
 41
1.29096128643083
 42
2.861757613225647
  0
ELLIPSE
  5
270BD6
330
18
100
AcDbEntity
  8
姿図
100
AcDbEllipse
 10
-3910.863843646498
 20
-18236.0599250517
 30
0.0
 11
0.0360838574316351
 21
0.05040796858488925
 31
3.441247287128919E-18
210
-3.231153159914480E-17
220
-4.513815278383737E-17
230
1.0
 40
0.908374465235718
 41
0.6674062465679877
 42
2.671810903783201
  0
ELLIPSE
  5
270BD7
330
18
100
AcDbEntity
  8
姿図
100
AcDbEllipse
 10
-3910.776396015972
 20
-18235.9319824366
 30
0.0
 11
0.03608385743162907
 21
0.05040796858487078
 31
3.441247287127870E-18
210
-3.231153159914889E-17
220
-4.513815278383404E-17
230
1.0
 40
0.908374465235718
 41
3.808998900156948
 42
5.813403557372959
  0
ELLIPSE
  5
270BD8
330
18
100
AcDbEntity
  8
姿図
100
AcDbEllipse
 10
-3910.737205632663
 20
-18235.48306951087
 30
0.0
 11
0.05583457878010544
 21
-0.5551391896356209
 31
9.291567164033371E-17
210
-1.666545791913224E-17
220
1.656974764790396E-16
230
1.0
 40
0.3266547503873753
 41
2.861757613225715
 42
4.432553940020625
  0
LINE
  5
270BD9
330
18
100
AcDbEntity
  8
姿図
100
AcDbLine
 10
-3910.070059958189
 20
-18236.96842120515
 30
0.0
 11
-3910.263314048012
 21
-18236.55778499353
 31
0.0
  0
LINE
  5
270BDA
330
18
100
AcDbEntity
  8
姿図
100
AcDbLine
 10
-3912.342747388574
 20
-18233.79774286354
 30
0.0
 11
-3912.616767606823
 21
-18233.60158922422
 31
0.0
  0
ELLIPSE
  5
270BDB
330
18
100
AcDbEntity
  8
姿図
100
AcDbEllipse
 10
-3913.365902308334
 20
-18234.21060961311
 30
0.0
 11
0.04812166340265124
 21
-0.5558609181685003
 31
0.0
210
0.0
220
0.0
230
1.0
 40
0.3301839125655894
 41
3.143887870131958
 42
4.437113948144826
  0
ELLIPSE
  5
270BDC
330
18
100
AcDbEntity
  8
姿図
100
AcDbEllipse
 10
-3912.739828217593
 20
-18236.51341727412
 30
0.0
 11
0.0360838574316245
 21
0.05040796858487516
 31
-3.441247287127940E-18
210
3.231153159914451E-17
220
4.513815278383757E-17
230
1.0
 40
0.9083744652357189
 41
0.6674062465669471
 42
2.671810903782859
  0
LINE
  5
270BDD
330
18
100
AcDbEntity
  8
姿図
100
AcDbLine
 10
-3912.652380587065
 20
-18236.44535433285
 30
0.0
 11
-3912.739828217592
 21
-18236.4535376003
 31
0.0
  0
LINE
  5
270BDE
330
18
100
AcDbEntity
  8
姿図
100
AcDbLine
 10
-3912.652380587065
 20
-18234.64896411815
 30
0.0
 11
-3912.739828217592
 21
-18234.6571473856
 31
0.0
  0
LINE
  5
270BDF
330
18
100
AcDbEntity
  8
姿図
100
AcDbLine
 10
-3912.802896508699
 20
-18234.00437284522
 30
0.0
 11
-3912.802072078296
 21
-18234.12849182453
 31
0.0
  0
LINE
  5
270BE0
330
18
100
AcDbEntity
  8
姿図
100
AcDbLine
 10
-3912.652380587065
 20
-18235.84655759461
 30
0.0
 11
-3912.739828217592
 21
-18235.85474086207
 31
0.0
  0
LINE
  5
270BE1
330
18
100
AcDbEntity
  8
姿図
100
AcDbLine
 10
-3912.652380587065
 20
-18235.24776085638
 30
0.0
 11
-3912.739828217592
 21
-18235.25594412383
 31
0.0
  0
ELLIPSE
  5
270BE2
330
18
100
AcDbEntity
  8
姿図
100
AcDbEllipse
 10
-3912.739828217593
 20
-18235.91462053589
 30
0.0
 11
0.03608385743163479
 21
0.05040796858488947
 31
3.441247287128920E-18
210
-3.231153159914453E-17
220
-4.513815278383757E-17
230
1.0
 40
0.908374465235719
 41
0.6674062465670006
 42
2.67181090378307
  0
ELLIPSE
  5
270BE3
330
18
100
AcDbEntity
  8
姿図
100
AcDbEllipse
 10
-3912.739828217593
 20
-18235.31582379766
 30
0.0
 11
0.03608385743163479
 21
0.05040796858488947
 31
3.441247287128920E-18
210
-3.231153159914453E-17
220
-4.513815278383757E-17
230
1.0
 40
0.908374465235719
 41
0.6674062465671249
 42
2.671810903782978
  0
ELLIPSE
  5
270BE4
330
18
100
AcDbEntity
  8
姿図
100
AcDbEllipse
 10
-3912.739828217593
 20
-18234.71702705943
 30
0.0
 11
0.03608385743163479
 21
0.05040796858488947
 31
3.441247287128920E-18
210
-3.231153159914453E-17
220
-4.513815278383757E-17
230
1.0
 40
0.908374465235719
 41
0.6674062465673204
 42
2.671810903783249
  0
LINE
  5
270BE5
330
18
100
AcDbEntity
  8
姿図
100
AcDbLine
 10
-3912.668613944983
 20
-18233.58499244603
 30
0.0
 11
-3913.41444510024
 21
-18233.65478662774
 31
0.0
  0
ELLIPSE
  5
270BE6
330
18
100
AcDbEntity
  8
姿図
100
AcDbEllipse
 10
-3912.613190203757
 20
-18234.1401715186
 30
0.0
 11
0.05583457878010544
 21
-0.5551391896356209
 31
9.291567164033371E-17
210
-1.666545791913224E-17
220
1.656974764790396E-16
230
1.0
 40
0.3266547503873753
 41
2.861757613225734
 42
4.432553940020584
  0
LINE
  5
270BE7
330
18
100
AcDbEntity
  8
姿図
100
AcDbLine
 10
-3912.79273144724
 20
-18235.94472949164
 30
0.0
 11
-3912.599477357416
 21
-18236.35536570327
 31
0.0
  0
ELLIPSE
  5
270BE8
330
18
100
AcDbEntity
  8
姿図
100
AcDbEllipse
 10
-3912.652380587065
 20
-18236.38547465903
 30
0.0
 11
0.0360838574316287
 21
0.05040796858487104
 31
3.441247287127889E-18
210
-3.231153159914881E-17
220
-4.513815278383448E-17
230
1.0
 40
0.9083744652357191
 41
3.808998900156817
 42
5.813403557372729
  0
LINE
  5
270BE9
330
18
100
AcDbEntity
  8
姿図
100
AcDbLine
 10
-3912.148639250163
 20
-18234.5962428106
 30
0.0
 11
-3912.802072078296
 21
-18234.12849182453
 31
0.0
  0
LINE
  5
270BEA
330
18
100
AcDbEntity
  8
姿図
100
AcDbLine
 10
-3912.802072078296
 20
-18234.12849182453
 30
0.0
 11
-3912.599477357416
 21
-18234.55897548857
 31
0.0
  0
LINE
  5
270BEB
330
18
100
AcDbEntity
  8
姿図
100
AcDbLine
 10
-3912.79273144724
 20
-18235.34593275341
 30
0.0
 11
-3912.599477357416
 21
-18235.75656896504
 31
0.0
  0
LINE
  5
270BEC
330
18
100
AcDbEntity
  8
姿図
100
AcDbLine
 10
-3912.79273144724
 20
-18234.74713601518
 30
0.0
 11
-3912.599477357416
 21
-18235.1577722268
 31
0.0
  0
ELLIPSE
  5
270BED
330
18
100
AcDbEntity
  8
姿図
100
AcDbEllipse
 10
-3912.652380587065
 20
-18235.78667792079
 30
0.0
 11
0.0360838574316287
 21
0.05040796858487104
 31
3.441247287127889E-18
210
-3.231153159914881E-17
220
-4.513815278383448E-17
230
1.0
 40
0.9083744652357191
 41
3.808998900156848
 42
5.813403557372545
  0
ELLIPSE
  5
270BEE
330
18
100
AcDbEntity
  8
姿図
100
AcDbEllipse
 10
-3912.652380587065
 20
-18235.18788118256
 30
0.0
 11
0.0360838574316287
 21
0.05040796858487104
 31
3.441247287127889E-18
210
-3.231153159914881E-17
220
-4.513815278383448E-17
230
1.0
 40
0.9083744652357191
 41
3.808998900156624
 42
5.813403557372816
  0
ELLIPSE
  5
270BEF
330
18
100
AcDbEntity
  8
姿図
100
AcDbEllipse
 10
-3912.652380587065
 20
-18234.58908444433
 30
0.0
 11
0.0360838574316287
 21
0.05040796858487104
 31
3.441247287127889E-18
210
-3.231153159914881E-17
220
-4.513815278383448E-17
230
1.0
 40
0.9083744652357191
 41
3.808998900157184
 42
5.813403557372866
  0
LINE
  5
270BF0
330
18
100
AcDbEntity
  8
姿図
100
AcDbLine
 10
-3912.79273144724
 20
-18236.54352622987
 30
0.0
 11
-3912.599477357416
 21
-18236.9541624415
 31
0.0
  0
LINE
  5
270BF1
330
18
100
AcDbEntity
  8
姿図
100
AcDbLine
 10
-3912.086395389457
 20
-18237.5200853246
 30
0.0
 11
-3911.998947758931
 21
-18237.51190205715
 31
0.0
  0
LINE
  5
270BF2
330
18
100
AcDbEntity
  8
姿図
100
AcDbLine
 10
-3910.070059958189
 20
-18237.56721794339
 30
0.0
 11
-3910.263314048012
 21
-18237.15658173176
 31
0.0
  0
LINE
  5
270BF3
330
18
100
AcDbEntity
  8
姿図
100
AcDbLine
 10
-3910.916746876146
 20
-18237.28762748392
 30
0.0
 11
-3910.723492786322
 21
-18237.69826369555
 31
0.0
  0
LINE
  5
270BF4
330
18
100
AcDbEntity
  8
姿図
100
AcDbLine
 10
-3912.79273144724
 20
-18237.14232296811
 30
0.0
 11
-3912.599477357416
 21
-18237.55295917973
 31
0.0
  0
LINE
  5
270BF5
330
18
100
AcDbEntity
  8
姿図
100
AcDbLine
 10
-3911.946044529282
 20
-18244.00867754814
 30
0.0
 11
-3912.126048522823
 21
-18243.62619582135
 31
0.0
  0
LINE
  5
270BF6
330
18
100
AcDbEntity
  8
姿図
100
AcDbLine
 10
-3910.070059958189
 20
-18244.15398206395
 30
0.0
 11
-3910.263314048012
 21
-18243.74334585232
 31
0.0
  0
LINE
  5
270BF7
330
18
100
AcDbEntity
  8
姿図
100
AcDbLine
 10
-3910.916344177089
 20
-18243.87524728012
 30
0.0
 11
-3910.723492786322
 21
-18244.28502781611
 31
0.0
  0
ELLIPSE
  5
270BF8
330
18
100
AcDbEntity
  8
姿図
100
AcDbEllipse
 10
-3928.088449969472
 20
-18014.09099211113
 30
0.0
 11
-4.245289664243891
 21
-430.2218425147502
 31
-2.388327244728626E-14
210
-5.477393773410830E-19
220
-5.550844883974055E-17
230
1.0
 40
0.0509529088182855
 41
1.005428428192962
 42
1.010474847289326
  0
LINE
  5
270BF9
330
18
100
AcDbEntity
  8
姿図
100
AcDbLine
 10
-3910.770793791437
 20
-18245.52943255681
 30
0.0
 11
-3911.887953142763
 21
-18244.72972925804
 31
0.0
  0
ELLIPSE
  5
270BFA
330
18
100
AcDbEntity
  8
姿図
100
AcDbEllipse
 10
-3929.041887234494
 20
-18207.42005316297
 30
0.0
 11
-18.42743079526639
 21
37.68274844269396
 31
-1.164266083732849E-15
210
-1.219306866792505E-17
220
2.493393378939953E-17
230
1.0
 40
0.0898112888334005
 41
2.866072935780159
 42
2.880426324101852
  0
ELLIPSE
  5
270BFB
330
18
100
AcDbEntity
  8
姿図
100
AcDbEllipse
 10
-3912.652380587065
 20
-18244.16983225606
 30
0.0
 11
0.0360838574316287
 21
0.05040796858487104
 31
3.441247287127889E-18
210
-3.231153159914881E-17
220
-4.513815278383448E-17
230
1.0
 40
0.9083744652357191
 41
5.379795226951904
 42
5.813403557372927
  0
ELLIPSE
  5
270BFC
330
18
100
AcDbEntity
  8
姿図
100
AcDbEllipse
 10
-3911.998947758932
 20
-18244.0387865039
 30
0.0
 11
0.03608385743162167
 21
0.05040796858487118
 31
0.0
210
0.0
220
0.0
230
1.0
 40
0.9083744652357185
 41
3.808998900156733
 42
5.813403557372704
  0
LINE
  5
270BFD
330
18
100
AcDbEntity
  8
姿図
100
AcDbLine
 10
-3912.086395389457
 20
-18244.10684944517
 30
0.0
 11
-3911.998947758931
 21
-18244.09866617772
 31
0.0
  0
LINE
  5
270BFE
330
18
100
AcDbEntity
  8
姿図
100
AcDbLine
 10
-3912.113201207736
 20
-18244.25229119984
 30
0.0
 11
-3912.1159591488
 21
-18244.11788652278
 31
0.0
  0
LINE
  5
270BFF
330
18
100
AcDbEntity
  8
姿図
100
AcDbLine
 10
-3911.975191799172
 20
-18244.5455406709
 30
0.0
 11
-3912.113201205243
 21
-18244.25229119955
 31
0.0
  0
ELLIPSE
  5
270C00
330
18
100
AcDbEntity
  8
姿図
100
AcDbEllipse
 10
-3911.887953142764
 20
-18244.58003007348
 30
0.0
 11
-0.01443979626859925
 21
0.1543058413791304
 31
-8.603118217820338E-18
210
-5.172084878144049E-18
220
5.526967929193048E-17
230
1.0
 40
0.3284334526200731
 41
1.936727186806237
 42
2.86402240480802
  0
ELLIPSE
  5
270C01
330
18
100
AcDbEntity
  8
姿図
100
AcDbEllipse
 10
-3912.086395389458
 20
-18244.16672911899
 30
0.0
 11
0.03608385743162927
 21
0.05040796858487177
 31
3.441247287127943E-18
210
-3.231153159914879E-17
220
-4.513815278383454E-17
230
1.0
 40
0.9083744652357183
 41
0.6674062465667715
 42
1.199235524511626
  0
ELLIPSE
  5
270C02
330
18
100
AcDbEntity
  8
姿図
100
AcDbEllipse
 10
-3911.922495603355
 20
-18244.58326252462
 30
0.0
 11
0.0815724692990531
 21
-0.1475648180683364
 31
9.359753510724568E-18
210
-2.685589719099227E-17
220
4.858239081278763E-17
230
1.0
 40
0.1762382375576922
 41
4.358020013766092
 42
4.80466361244018
  0
LINE
  5
270C03
330
18
100
AcDbEntity
  8
姿図
100
AcDbLine
 10
-3910.070059958189
 20
-18244.75277880218
 30
0.0
 11
-3910.263314048012
 21
-18244.34214259056
 31
0.0
  0
LINE
  5
270C04
330
18
100
AcDbEntity
  8
姿図
100
AcDbLine
 10
-3910.070059958189
 20
-18245.95037227865
 30
0.0
 11
-3910.263314048012
 21
-18245.53973606702
 31
0.0
  0
LINE
  5
270C05
330
18
100
AcDbEntity
  8
姿図
100
AcDbLine
 10
-3910.070059958189
 20
-18245.35157554042
 30
0.0
 11
-3910.263314048012
 21
-18244.94093932879
 31
0.0
  0
ELLIPSE
  5
270C06
330
18
100
AcDbEntity
  8
姿図
100
AcDbEllipse
 10
-3910.210410818364
 20
-18244.91083037304
 30
0.0
 11
0.03608385743162927
 21
0.05040796858487177
 31
3.441247287127943E-18
210
-3.231153159914879E-17
220
-4.513815278383454E-17
230
1.0
 40
0.9083744652357183
 41
0.6674062465671117
 42
2.671810903782999
  0
ELLIPSE
  5
270C07
330
18
100
AcDbEntity
  8
姿図
100
AcDbEllipse
 10
-3910.210410818364
 20
-18245.50962711127
 30
0.0
 11
0.03608385743162927
 21
0.05040796858487177
 31
3.441247287127943E-18
210
-3.231153159914879E-17
220
-4.513815278383454E-17
230
1.0
 40
0.9083744652357183
 41
0.6674062465671138
 42
2.671810903782835
  0
ELLIPSE
  5
270C08
330
18
100
AcDbEntity
  8
姿図
100
AcDbEllipse
 10
-3910.210410818364
 20
-18244.3120336348
 30
0.0
 11
0.03608385743162927
 21
0.05040796858487177
 31
3.441247287127943E-18
210
-3.231153159914879E-17
220
-4.513815278383454E-17
230
1.0
 40
0.9083744652357183
 41
0.6674062465672714
 42
2.671810903782924
  0
LINE
  5
270C09
330
18
100
AcDbEntity
  8
姿図
100
AcDbLine
 10
-3910.903496779863
 20
-18244.50134282755
 30
0.0
 11
-3910.723492786322
 21
-18244.88382455434
 31
0.0
  0
LINE
  5
270C0A
330
18
100
AcDbEntity
  8
姿図
100
AcDbLine
 10
-3910.89340740584
 20
-18244.99303352899
 30
0.0
 11
-3910.890649464776
 21
-18245.12743820604
 31
0.0
  0
LINE
  5
270C0B
330
18
100
AcDbEntity
  8
姿図
100
AcDbLine
 10
-3910.776396015971
 20
-18244.97381318392
 30
0.0
 11
-3910.863843646497
 21
-18244.98199645137
 31
0.0
  0
LINE
  5
270C0C
330
18
100
AcDbEntity
  8
姿図
100
AcDbLine
 10
-3910.905472597964
 20
-18244.40505455249
 30
0.0
 11
-3910.903496781862
 21
-18244.50134282778
 31
0.0
  0
LINE
  5
270C0D
330
18
100
AcDbEntity
  8
姿図
100
AcDbLine
 10
-3910.776396015971
 20
-18244.37501644569
 30
0.0
 11
-3910.863843646497
 21
-18244.38319971314
 31
0.0
  0
LINE
  5
270C0E
330
18
100
AcDbEntity
  8
姿図
100
AcDbLine
 10
-3910.890649462282
 20
-18245.12743820575
 30
0.0
 11
-3910.752640056212
 21
-18245.42068767711
 31
0.0
  0
ELLIPSE
  5
270C0F
330
18
100
AcDbEntity
  8
姿図
100
AcDbEllipse
 10
-3910.863843646498
 20
-18245.0418761252
 30
0.0
 11
0.0360838574316249
 21
0.05040796858487492
 31
3.441247287127944E-18
210
-3.231153159914466E-17
220
-4.513815278383751E-17
230
1.0
 40
0.9083744652357177
 41
0.6674062465669202
 42
1.199235524648299
  0
ELLIPSE
  5
270C10
330
18
100
AcDbEntity
  8
姿図
100
AcDbEllipse
 10
-3910.776396015972
 20
-18244.9139335101
 30
0.0
 11
0.03608385743162677
 21
0.05040796858486756
 31
6.882494574255338E-18
210
-6.462306319829805E-17
220
-9.027630556766862E-17
230
1.0
 40
0.9083744652357177
 41
3.808998900156816
 42
5.813403557372785
  0
ELLIPSE
  5
270C11
330
18
100
AcDbEntity
  8
姿図
100
AcDbEllipse
 10
-3910.770793791437
 20
-18245.37973337225
 30
0.0
 11
-0.01443979626859925
 21
0.1543058413791304
 31
-8.603118217820338E-18
210
-5.172084878144049E-18
220
5.526967929193048E-17
230
1.0
 40
0.3284334526200731
 41
2.864022404808038
 42
3.791317622809779
  0
ELLIPSE
  5
270C12
330
18
100
AcDbEntity
  8
姿図
100
AcDbEllipse
 10
-3910.80533625203
 20
-18245.38296582339
 30
0.0
 11
0.0815724692990531
 21
-0.1475648180683364
 31
9.359753510724568E-18
210
-2.685589719099227E-17
220
4.858239081278763E-17
230
1.0
 40
0.1762382375576922
 41
0.7697837615025532
 42
1.216427360176595
  0
ELLIPSE
  5
270C13
330
18
100
AcDbEntity
  8
姿図
100
AcDbEllipse
 10
-3929.041887234494
 20
-18207.42005316297
 30
0.0
 11
-18.42743079526639
 21
37.68274844269396
 31
-1.164266083732849E-15
210
-1.219306866792505E-17
220
2.493393378939953E-17
230
1.0
 40
0.0898112888334005
 41
3.072805797846053
 42
3.087159186167753
  0
ELLIPSE
  5
270C14
330
18
100
AcDbEntity
  8
姿図
100
AcDbEllipse
 10
-3910.863843646498
 20
-18244.44307938696
 30
0.0
 11
0.0360838574316249
 21
0.05040796858487492
 31
3.441247287127944E-18
210
-3.231153159914466E-17
220
-4.513815278383751E-17
230
1.0
 40
0.9083744652357177
 41
0.6674062465669227
 42
1.462696070731774
  0
ELLIPSE
  5
270C15
330
18
100
AcDbEntity
  8
姿図
100
AcDbEllipse
 10
-3910.776396015972
 20
-18244.31513677186
 30
0.0
 11
0.03608385743162677
 21
0.05040796858486756
 31
6.882494574255338E-18
210
-6.462306319829805E-17
220
-9.027630556766862E-17
230
1.0
 40
0.9083744652357177
 41
3.808998900157097
 42
5.813403557372832
  0
ELLIPSE
  5
270C16
330
18
100
AcDbEntity
  8
姿図
100
AcDbEllipse
 10
-3929.042440857406
 20
-18206.82008005835
 30
0.0
 11
-18.41463425244379
 21
37.65658044838827
 31
2.326915167140160E-15
210
2.438613733585006E-17
220
-4.986786757879898E-17
230
1.0
 40
0.0898112888334004
 41
3.072872848347417
 42
3.080408125087992
  0
LINE
  5
270C17
330
18
100
AcDbEntity
  8
姿図
100
AcDbLine
 10
-3910.210410818364
 20
-18244.85095069921
 30
0.0
 11
-3910.122963187837
 21
-18244.84276743176
 31
0.0
  0
LINE
  5
270C18
330
18
100
AcDbEntity
  8
姿図
100
AcDbLine
 10
-3910.210410818364
 20
-18244.25215396098
 30
0.0
 11
-3910.122963187837
 21
-18244.24397069353
 31
0.0
  0
LINE
  5
270C19
330
18
100
AcDbEntity
  8
姿図
100
AcDbLine
 10
-3910.210410818364
 20
-18245.44974743744
 30
0.0
 11
-3910.122963187837
 21
-18245.44156416999
 31
0.0
  0
ELLIPSE
  5
270C1A
330
18
100
AcDbEntity
  8
姿図
100
AcDbEllipse
 10
-3910.122963187839
 20
-18244.78288775794
 30
0.0
 11
0.03608385743162167
 21
0.05040796858487118
 31
0.0
210
0.0
220
0.0
230
1.0
 40
0.9083744652357185
 41
3.808998900156633
 42
5.813403557372653
  0
ELLIPSE
  5
270C1B
330
18
100
AcDbEntity
  8
姿図
100
AcDbEllipse
 10
-3910.122963187839
 20
-18245.38168449617
 30
0.0
 11
0.03608385743162167
 21
0.05040796858487118
 31
0.0
210
0.0
220
0.0
230
1.0
 40
0.9083744652357185
 41
3.808998900156507
 42
5.813403557372811
  0
ELLIPSE
  5
270C1C
330
18
100
AcDbEntity
  8
姿図
100
AcDbEllipse
 10
-3910.122963187839
 20
-18245.9804812344
 30
0.0
 11
0.03608385743162398
 21
0.05040796858487442
 31
-6.882494574255783E-18
210
6.462306319828893E-17
220
9.027630556767527E-17
230
1.0
 40
0.9083744652357181
 41
5.379795226951762
 42
5.813403557372785
  0
ELLIPSE
  5
270C1D
330
18
100
AcDbEntity
  8
姿図
100
AcDbEllipse
 10
-3910.122963187839
 20
-18244.18409101971
 30
0.0
 11
0.03608385743162167
 21
0.05040796858487118
 31
0.0
210
0.0
220
0.0
230
1.0
 40
0.9083744652357185
 41
3.808998900156414
 42
5.813403557372719
  0
LINE
  5
270C1E
330
18
100
AcDbEntity
  8
姿図
100
AcDbLine
 10
-3911.946044529282
 20
-18239.81710038051
 30
0.0
 11
-3912.139298619106
 21
-18239.40646416888
 31
0.0
  0
LINE
  5
270C1F
330
18
100
AcDbEntity
  8
姿図
100
AcDbLine
 10
-3911.946044529282
 20
-18238.02071016581
 30
0.0
 11
-3912.139298619106
 21
-18237.61007395418
 31
0.0
  0
LINE
  5
270C20
330
18
100
AcDbEntity
  8
姿図
100
AcDbLine
 10
-3911.946044529282
 20
-18238.61950690404
 30
0.0
 11
-3912.139298619106
 21
-18238.20887069242
 31
0.0
  0
LINE
  5
270C21
330
18
100
AcDbEntity
  8
姿図
100
AcDbLine
 10
-3911.946044529282
 20
-18239.21830364228
 30
0.0
 11
-3912.139298619106
 21
-18238.80766743065
 31
0.0
  0
LINE
  5
270C22
330
18
100
AcDbEntity
  8
姿図
100
AcDbLine
 10
-3911.946044529282
 20
-18243.40988080991
 30
0.0
 11
-3912.138895920049
 21
-18243.00010027391
 31
0.0
  0
LINE
  5
270C23
330
18
100
AcDbEntity
  8
姿図
100
AcDbLine
 10
-3911.946044529282
 20
-18241.61349059521
 30
0.0
 11
-3912.139298619106
 21
-18241.20285438358
 31
0.0
  0
LINE
  5
270C24
330
18
100
AcDbEntity
  8
姿図
100
AcDbLine
 10
-3911.946044529282
 20
-18242.21228733344
 30
0.0
 11
-3912.139298619106
 21
-18241.80165112182
 31
0.0
  0
LINE
  5
270C25
330
18
100
AcDbEntity
  8
姿図
100
AcDbLine
 10
-3911.946044529282
 20
-18242.81108407168
 30
0.0
 11
-3912.139298619106
 21
-18242.40044786005
 31
0.0
  0
LINE
  5
270C26
330
18
100
AcDbEntity
  8
姿図
100
AcDbLine
 10
-3911.946044529282
 20
-18241.01469385698
 30
0.0
 11
-3912.139298619106
 21
-18240.60405764535
 31
0.0
  0
LINE
  5
270C27
330
18
100
AcDbEntity
  8
姿図
100
AcDbLine
 10
-3911.946044529282
 20
-18240.41589711874
 30
0.0
 11
-3912.139298619106
 21
-18240.00526090712
 31
0.0
  0
ELLIPSE
  5
270C28
330
18
100
AcDbEntity
  8
姿図
100
AcDbEllipse
 10
-3912.086395389458
 20
-18242.96913564253
 30
0.0
 11
0.03608385743162927
 21
0.05040796858487177
 31
3.441247287127943E-18
210
-3.231153159914879E-17
220
-4.513815278383454E-17
230
1.0
 40
0.9083744652357183
 41
0.6674062465669873
 42
1.830516517602442
  0
ELLIPSE
  5
270C29
330
18
100
AcDbEntity
  8
姿図
100
AcDbEllipse
 10
-3912.086395389458
 20
-18243.56793238076
 30
0.0
 11
0.03608385743162927
 21
0.05040796858487177
 31
3.441247287127943E-18
210
-3.231153159914879E-17
220
-4.513815278383454E-17
230
1.0
 40
0.9083744652357183
 41
0.6674062465667715
 42
1.46269607064669
  0
ELLIPSE
  5
270C2A
330
18
100
AcDbEntity
  8
姿図
100
AcDbEllipse
 10
-3912.086395389458
 20
-18239.37635521313
 30
0.0
 11
0.03608385743162927
 21
0.05040796858487177
 31
3.441247287127943E-18
210
-3.231153159914879E-17
220
-4.513815278383454E-17
230
1.0
 40
0.9083744652357183
 41
0.6674062465669873
 42
2.671810903782851
  0
ELLIPSE
  5
270C2B
330
18
100
AcDbEntity
  8
姿図
100
AcDbEllipse
 10
-3912.086395389458
 20
-18241.17274542783
 30
0.0
 11
0.03608385743162927
 21
0.05040796858487177
 31
3.441247287127943E-18
210
-3.231153159914879E-17
220
-4.513815278383454E-17
230
1.0
 40
0.9083744652357183
 41
0.6674062465668904
 42
2.671810903783141
  0
ELLIPSE
  5
270C2C
330
18
100
AcDbEntity
  8
姿図
100
AcDbEllipse
 10
-3912.086395389458
 20
-18241.77154216606
 30
0.0
 11
0.03608385743162927
 21
0.05040796858487177
 31
3.441247287127943E-18
210
-3.231153159914879E-17
220
-4.513815278383454E-17
230
1.0
 40
0.9083744652357183
 41
0.6674062465668275
 42
2.671810903782999
  0
ELLIPSE
  5
270C2D
330
18
100
AcDbEntity
  8
姿図
100
AcDbEllipse
 10
-3912.086395389458
 20
-18242.3703389043
 30
0.0
 11
0.03608385743162927
 21
0.05040796858487177
 31
3.441247287127943E-18
210
-3.231153159914879E-17
220
-4.513815278383454E-17
230
1.0
 40
0.9083744652357183
 41
0.6674062465667715
 42
2.671810903782776
  0
ELLIPSE
  5
270C2E
330
18
100
AcDbEntity
  8
姿図
100
AcDbEllipse
 10
-3912.086395389458
 20
-18239.97515195136
 30
0.0
 11
0.03608385743162927
 21
0.05040796858487177
 31
3.441247287127943E-18
210
-3.231153159914879E-17
220
-4.513815278383454E-17
230
1.0
 40
0.9083744652357183
 41
0.6674062465671117
 42
2.671810903783074
  0
ELLIPSE
  5
270C2F
330
18
100
AcDbEntity
  8
姿図
100
AcDbEllipse
 10
-3912.086395389458
 20
-18240.57394868959
 30
0.0
 11
0.03608385743162927
 21
0.05040796858487177
 31
3.441247287127943E-18
210
-3.231153159914879E-17
220
-4.513815278383454E-17
230
1.0
 40
0.9083744652357183
 41
0.6674062465663877
 42
2.671810903782819
  0
ELLIPSE
  5
270C30
330
18
100
AcDbEntity
  8
姿図
100
AcDbEllipse
 10
-3912.086395389458
 20
-18237.57996499843
 30
0.0
 11
0.03608385743162927
 21
0.05040796858487177
 31
3.441247287127943E-18
210
-3.231153159914879E-17
220
-4.513815278383454E-17
230
1.0
 40
0.9083744652357183
 41
0.6674062465670556
 42
2.671810903782919
  0
ELLIPSE
  5
270C31
330
18
100
AcDbEntity
  8
姿図
100
AcDbEllipse
 10
-3912.086395389458
 20
-18238.17876173666
 30
0.0
 11
0.03608385743162927
 21
0.05040796858487177
 31
3.441247287127943E-18
210
-3.231153159914879E-17
220
-4.513815278383454E-17
230
1.0
 40
0.9083744652357183
 41
0.6674062465668229
 42
2.671810903782974
  0
ELLIPSE
  5
270C32
330
18
100
AcDbEntity
  8
姿図
100
AcDbEllipse
 10
-3912.086395389458
 20
-18238.7775584749
 30
0.0
 11
0.03608385743162927
 21
0.05040796858487177
 31
3.441247287127943E-18
210
-3.231153159914879E-17
220
-4.513815278383454E-17
230
1.0
 40
0.9083744652357183
 41
0.6674062465671117
 42
2.671810903783024
  0
LINE
  5
270C33
330
18
100
AcDbEntity
  8
姿図
100
AcDbLine
 10
-3912.138895921556
 20
-18243.00010027409
 30
0.0
 11
-3912.139915714467
 21
-18242.95040256636
 31
0.0
  0
LINE
  5
270C34
330
18
100
AcDbEntity
  8
姿図
100
AcDbLine
 10
-3912.126048524823
 20
-18243.62619582158
 30
0.0
 11
-3912.128024340925
 21
-18243.52990754629
 31
0.0
  0
ELLIPSE
  5
270C35
330
18
100
AcDbEntity
  8
姿図
100
AcDbEllipse
 10
-3929.042994480317
 20
-18206.22010695373
 30
0.0
 11
-18.40183770962119
 21
37.63041245408251
 31
-2.325298166814627E-15
210
-2.438613733585013E-17
220
4.986786757879908E-17
230
1.0
 40
0.0898112888334005
 41
2.880054474313594
 42
2.880292129410969
  0
ELLIPSE
  5
270C36
330
18
100
AcDbEntity
  8
姿図
100
AcDbEllipse
 10
-3929.042440857406
 20
-18206.82008005835
 30
0.0
 11
-18.41463425244379
 21
37.65658044838827
 31
2.326915167140160E-15
210
2.438613733585006E-17
220
-4.986786757879898E-17
230
1.0
 40
0.0898112888334004
 41
2.872823996859904
 42
2.880359273600474
  0
LINE
  5
270C37
330
18
100
AcDbEntity
  8
姿図
100
AcDbLine
 10
-3912.086395389457
 20
-18239.3164755393
 30
0.0
 11
-3911.998947758931
 21
-18239.30829227186
 31
0.0
  0
LINE
  5
270C38
330
18
100
AcDbEntity
  8
姿図
100
AcDbLine
 10
-3912.086395389457
 20
-18239.91527227754
 30
0.0
 11
-3911.998947758931
 21
-18239.90708901009
 31
0.0
  0
LINE
  5
270C39
330
18
100
AcDbEntity
  8
姿図
100
AcDbLine
 10
-3912.086395389457
 20
-18238.11888206284
 30
0.0
 11
-3911.998947758931
 21
-18238.11069879539
 31
0.0
  0
LINE
  5
270C3A
330
18
100
AcDbEntity
  8
姿図
100
AcDbLine
 10
-3912.086395389457
 20
-18238.71767880107
 30
0.0
 11
-3911.998947758931
 21
-18238.70949553362
 31
0.0
  0
LINE
  5
270C3B
330
18
100
AcDbEntity
  8
姿図
100
AcDbLine
 10
-3912.086395389457
 20
-18242.9092559687
 30
0.0
 11
-3911.998947758931
 21
-18242.90107270125
 31
0.0
  0
LINE
  5
270C3C
330
18
100
AcDbEntity
  8
姿図
100
AcDbLine
 10
-3912.086395389457
 20
-18243.50805270693
 30
0.0
 11
-3911.998947758931
 21
-18243.49986943949
 31
0.0
  0
LINE
  5
270C3D
330
18
100
AcDbEntity
  8
姿図
100
AcDbLine
 10
-3912.086395389457
 20
-18241.11286575401
 30
0.0
 11
-3911.998947758931
 21
-18241.10468248655
 31
0.0
  0
LINE
  5
270C3E
330
18
100
AcDbEntity
  8
姿図
100
AcDbLine
 10
-3912.086395389457
 20
-18241.71166249224
 30
0.0
 11
-3911.998947758931
 21
-18241.70347922479
 31
0.0
  0
LINE
  5
270C3F
330
18
100
AcDbEntity
  8
姿図
100
AcDbLine
 10
-3912.086395389457
 20
-18242.31045923047
 30
0.0
 11
-3911.998947758931
 21
-18242.30227596302
 31
0.0
  0
LINE
  5
270C40
330
18
100
AcDbEntity
  8
姿図
100
AcDbLine
 10
-3912.025887458739
 20
-18241.70600021669
 30
0.0
 11
-3912.016860650609
 21
-18242.03896586947
 31
0.0
  0
LINE
  5
270C41
330
18
100
AcDbEntity
  8
姿図
100
AcDbLine
 10
-3912.086395389457
 20
-18240.51406901577
 30
0.0
 11
-3911.998947758931
 21
-18240.50588574832
 31
0.0
  0
ELLIPSE
  5
270C42
330
18
100
AcDbEntity
  8
姿図
100
AcDbEllipse
 10
-3911.998947758932
 20
-18242.84119302743
 30
0.0
 11
0.03608385743162167
 21
0.05040796858487118
 31
0.0
210
0.0
220
0.0
230
1.0
 40
0.9083744652357185
 41
3.808998900156664
 42
5.813403557372635
  0
ELLIPSE
  5
270C43
330
18
100
AcDbEntity
  8
姿図
100
AcDbEllipse
 10
-3911.998947758932
 20
-18243.43998976567
 30
0.0
 11
0.03608385743162167
 21
0.05040796858487118
 31
0.0
210
0.0
220
0.0
230
1.0
 40
0.9083744652357185
 41
3.808998900156701
 42
5.813403557372721
  0
ELLIPSE
  5
270C44
330
18
100
AcDbEntity
  8
姿図
100
AcDbEllipse
 10
-3911.998947758932
 20
-18239.24841259803
 30
0.0
 11
0.03608385743162289
 21
0.05040796858487284
 31
0.0
210
0.0
220
0.0
230
1.0
 40
0.9083744652357184
 41
3.808998900156944
 42
5.813403557372685
  0
ELLIPSE
  5
270C45
330
18
100
AcDbEntity
  8
姿図
100
AcDbEllipse
 10
-3911.998947758932
 20
-18241.04480281273
 30
0.0
 11
0.03608385743162289
 21
0.05040796858487284
 31
0.0
210
0.0
220
0.0
230
1.0
 40
0.9083744652357184
 41
3.808998900156665
 42
5.813403557372685
  0
ELLIPSE
  5
270C46
330
18
100
AcDbEntity
  8
姿図
100
AcDbEllipse
 10
-3929.839121928546
 20
-18241.56235471747
 30
0.0
 11
-17.80890179997573
 21
-3.376043869291861E-13
 31
-9.885926410810724E-16
210
-5.551115123125783E-17
220
-1.052328121613185E-30
230
1.0
 40
0.258819045102515
 41
3.173482583937681
 42
3.237425862011138
  0
ELLIPSE
  5
270C47
330
18
100
AcDbEntity
  8
姿図
100
AcDbEllipse
 10
-3929.839121928546
 20
-18242.07133194496
 30
0.0
 11
-17.82270000000001
 21
-3.393499981019237E-13
 31
-9.893585950493393E-16
210
-5.551115123125783E-17
220
-1.056950353479716E-30
230
1.0
 40
0.258819045102515
 41
3.048817195001321
 42
3.090682397459626
  0
ELLIPSE
  5
270C48
330
18
100
AcDbEntity
  8
姿図
100
AcDbEllipse
 10
-3929.839121928546
 20
-18242.07133194496
 30
0.0
 11
-17.82270000000001
 21
-3.393499981019237E-13
 31
-9.893585950493393E-16
210
-5.551115123125783E-17
220
-1.056950353479716E-30
230
1.0
 40
0.258819045102515
 41
3.143468445217585
 42
3.219953961483735
  0
ELLIPSE
  5
270C49
330
18
100
AcDbEntity
  8
姿図
100
AcDbEllipse
 10
-3911.706000449665
 20
-18242.85775954307
 30
0.0
 11
-0.02117202770617328
 21
-0.3093103904500594
 31
1.721035242916622E-17
210
3.790819955422915E-18
220
5.538156367497354E-17
230
1.0
 40
0.163803715364946
 41
3.940366134145706
 42
4.140498290499586
  0
ELLIPSE
  5
270C4A
330
18
100
AcDbEntity
  8
姿図
100
AcDbEllipse
 10
-3911.998947758932
 20
-18241.64359955097
 30
0.0
 11
0.03608385743162289
 21
0.05040796858487284
 31
0.0
210
0.0
220
0.0
230
1.0
 40
0.9083744652357184
 41
3.808998900156953
 42
5.813403557372611
  0
ELLIPSE
  5
270C4B
330
18
100
AcDbEntity
  8
姿図
100
AcDbEllipse
 10
-3911.998947758932
 20
-18242.2423962892
 30
0.0
 11
0.03608385743162289
 21
0.05040796858487284
 31
0.0
210
0.0
220
0.0
230
1.0
 40
0.9083744652357184
 41
3.808998900157146
 42
5.813403557372803
  0
ELLIPSE
  5
270C4C
330
18
100
AcDbEntity
  8
姿図
100
AcDbEllipse
 10
-3911.998947758932
 20
-18239.84720933627
 30
0.0
 11
0.03608385743162289
 21
0.05040796858487284
 31
0.0
210
0.0
220
0.0
230
1.0
 40
0.9083744652357184
 41
3.808998900156944
 42
5.813403557372685
  0
ELLIPSE
  5
270C4D
330
18
100
AcDbEntity
  8
姿図
100
AcDbEllipse
 10
-3911.998947758932
 20
-18240.4460060745
 30
0.0
 11
0.03608385743162289
 21
0.05040796858487284
 31
0.0
210
0.0
220
0.0
230
1.0
 40
0.9083744652357184
 41
3.808998900157137
 42
5.813403557372877
  0
ELLIPSE
  5
270C4E
330
18
100
AcDbEntity
  8
姿図
100
AcDbEllipse
 10
-3911.998947758932
 20
-18238.05081912157
 30
0.0
 11
0.03608385743162289
 21
0.05040796858487284
 31
0.0
210
0.0
220
0.0
230
1.0
 40
0.9083744652357184
 41
3.808998900156944
 42
5.813403557372635
  0
ELLIPSE
  5
270C4F
330
18
100
AcDbEntity
  8
姿図
100
AcDbEllipse
 10
-3911.998947758932
 20
-18238.6496158598
 30
0.0
 11
0.03608385743162289
 21
0.05040796858487284
 31
0.0
210
0.0
220
0.0
230
1.0
 40
0.9083744652357184
 41
3.808998900157069
 42
5.813403557372808
  0
LINE
  5
270C50
330
18
100
AcDbEntity
  8
姿図
100
AcDbLine
 10
-3910.070059958189
 20
-18239.36360815808
 30
0.0
 11
-3910.263314048012
 21
-18238.95297194646
 31
0.0
  0
LINE
  5
270C51
330
18
100
AcDbEntity
  8
姿図
100
AcDbLine
 10
-3910.070059958189
 20
-18239.96240489632
 30
0.0
 11
-3910.263314048012
 21
-18239.55176868469
 31
0.0
  0
LINE
  5
270C52
330
18
100
AcDbEntity
  8
姿図
100
AcDbLine
 10
-3910.070059958189
 20
-18238.16601468162
 30
0.0
 11
-3910.263314048012
 21
-18237.75537846999
 31
0.0
  0
LINE
  5
270C53
330
18
100
AcDbEntity
  8
姿図
100
AcDbLine
 10
-3910.070059958189
 20
-18238.76481141985
 30
0.0
 11
-3910.263314048012
 21
-18238.35417520822
 31
0.0
  0
LINE
  5
270C54
330
18
100
AcDbEntity
  8
姿図
100
AcDbLine
 10
-3910.070059958189
 20
-18242.95638858748
 30
0.0
 11
-3910.263314048012
 21
-18242.54575237586
 31
0.0
  0
LINE
  5
270C55
330
18
100
AcDbEntity
  8
姿図
100
AcDbLine
 10
-3910.070059958189
 20
-18243.55518532572
 30
0.0
 11
-3910.263314048012
 21
-18243.14454911409
 31
0.0
  0
LINE
  5
270C56
330
18
100
AcDbEntity
  8
姿図
100
AcDbLine
 10
-3910.070059958189
 20
-18241.15999837278
 30
0.0
 11
-3910.263314048012
 21
-18240.74936216115
 31
0.0
  0
LINE
  5
270C57
330
18
100
AcDbEntity
  8
姿図
100
AcDbLine
 10
-3910.070059958189
 20
-18241.75879511101
 30
0.0
 11
-3910.263314048012
 21
-18241.34815889939
 31
0.0
  0
LINE
  5
270C58
330
18
100
AcDbEntity
  8
姿図
100
AcDbLine
 10
-3910.070059958189
 20
-18242.35759184925
 30
0.0
 11
-3910.263314048012
 21
-18241.94695563762
 31
0.0
  0
LINE
  5
270C59
330
18
100
AcDbEntity
  8
姿図
100
AcDbLine
 10
-3910.070059958189
 20
-18240.56120163455
 30
0.0
 11
-3910.263314048012
 21
-18240.15056542292
 31
0.0
  0
ELLIPSE
  5
270C5A
330
18
100
AcDbEntity
  8
姿図
100
AcDbEllipse
 10
-3910.210410818364
 20
-18243.11444015833
 30
0.0
 11
0.03608385743162927
 21
0.05040796858487177
 31
3.441247287127943E-18
210
-3.231153159914879E-17
220
-4.513815278383454E-17
230
1.0
 40
0.9083744652357183
 41
0.6674062465674321
 42
2.671810903783085
  0
ELLIPSE
  5
270C5B
330
18
100
AcDbEntity
  8
姿図
100
AcDbEllipse
 10
-3910.210410818364
 20
-18243.71323689657
 30
0.0
 11
0.03608385743162927
 21
0.05040796858487177
 31
3.441247287127943E-18
210
-3.231153159914879E-17
220
-4.513815278383454E-17
230
1.0
 40
0.9083744652357183
 41
0.6674062465669873
 42
2.671810903782875
  0
ELLIPSE
  5
270C5C
330
18
100
AcDbEntity
  8
姿図
100
AcDbEllipse
 10
-3910.210410818364
 20
-18241.31804994364
 30
0.0
 11
0.03608385743162927
 21
0.05040796858487177
 31
3.441247287127943E-18
210
-3.231153159914879E-17
220
-4.513815278383454E-17
230
1.0
 40
0.9083744652357183
 41
0.6674062465671117
 42
2.671810903782999
  0
ELLIPSE
  5
270C5D
330
18
100
AcDbEntity
  8
姿図
100
AcDbEllipse
 10
-3910.210410818364
 20
-18241.91684668187
 30
0.0
 11
0.03608385743162927
 21
0.05040796858487177
 31
3.441247287127943E-18
210
-3.231153159914879E-17
220
-4.513815278383454E-17
230
1.0
 40
0.9083744652357183
 41
0.6674062465669561
 42
2.671810903782844
  0
ELLIPSE
  5
270C5E
330
18
100
AcDbEntity
  8
姿図
100
AcDbEllipse
 10
-3910.210410818364
 20
-18242.5156434201
 30
0.0
 11
0.03608385743162927
 21
0.05040796858487177
 31
3.441247287127943E-18
210
-3.231153159914879E-17
220
-4.513815278383454E-17
230
1.0
 40
0.9083744652357183
 41
0.6674062465670799
 42
2.671810903782968
  0
ELLIPSE
  5
270C5F
330
18
100
AcDbEntity
  8
姿図
100
AcDbEllipse
 10
-3910.210410818364
 20
-18239.52165972894
 30
0.0
 11
0.03608385743162927
 21
0.05040796858487177
 31
3.441247287127943E-18
210
-3.231153159914879E-17
220
-4.513815278383454E-17
230
1.0
 40
0.9083744652357183
 41
0.6674062465670799
 42
2.671810903783017
  0
ELLIPSE
  5
270C60
330
18
100
AcDbEntity
  8
姿図
100
AcDbEllipse
 10
-3910.210410818364
 20
-18240.12045646717
 30
0.0
 11
0.03608385743162927
 21
0.05040796858487177
 31
3.441247287127943E-18
210
-3.231153159914879E-17
220
-4.513815278383454E-17
230
1.0
 40
0.9083744652357183
 41
0.667406246567148
 42
2.671810903783085
  0
ELLIPSE
  5
270C61
330
18
100
AcDbEntity
  8
姿図
100
AcDbEllipse
 10
-3910.210410818364
 20
-18240.7192532054
 30
0.0
 11
0.03608385743162927
 21
0.05040796858487177
 31
3.441247287127943E-18
210
-3.231153159914879E-17
220
-4.513815278383454E-17
230
1.0
 40
0.9083744652357183
 41
0.6674062465669873
 42
2.671810903782924
  0
ELLIPSE
  5
270C62
330
18
100
AcDbEntity
  8
姿図
100
AcDbEllipse
 10
-3910.210410818364
 20
-18237.72526951423
 30
0.0
 11
0.03608385743163949
 21
0.05040796858488614
 31
3.441247287128919E-18
210
-3.231153159914874E-17
220
-4.513815278383452E-17
230
1.0
 40
0.9083744652357185
 41
0.6674062465670405
 42
2.671810903783109
  0
ELLIPSE
  5
270C63
330
18
100
AcDbEntity
  8
姿図
100
AcDbEllipse
 10
-3910.210410818364
 20
-18238.32406625247
 30
0.0
 11
0.03608385743162927
 21
0.05040796858487177
 31
3.441247287127943E-18
210
-3.231153159914879E-17
220
-4.513815278383454E-17
230
1.0
 40
0.9083744652357183
 41
0.667406246567148
 42
2.671810903783036
  0
ELLIPSE
  5
270C64
330
18
100
AcDbEntity
  8
姿図
100
AcDbEllipse
 10
-3910.210410818364
 20
-18238.9228629907
 30
0.0
 11
0.03608385743162927
 21
0.05040796858487177
 31
3.441247287127943E-18
210
-3.231153159914879E-17
220
-4.513815278383454E-17
230
1.0
 40
0.9083744652357183
 41
0.6674062465670241
 42
2.671810903782961
  0
LINE
  5
270C65
330
18
100
AcDbEntity
  8
姿図
100
AcDbLine
 10
-3910.916746876146
 20
-18239.08401769862
 30
0.0
 11
-3910.723492786322
 21
-18239.49465391024
 31
0.0
  0
LINE
  5
270C66
330
18
100
AcDbEntity
  8
姿図
100
AcDbLine
 10
-3910.776396015971
 20
-18239.58464253982
 30
0.0
 11
-3910.863843646497
 21
-18239.59282580727
 31
0.0
  0
LINE
  5
270C67
330
18
100
AcDbEntity
  8
姿図
100
AcDbLine
 10
-3910.776396015971
 20
-18238.98584580159
 30
0.0
 11
-3910.863843646497
 21
-18238.99402906904
 31
0.0
  0
LINE
  5
270C68
330
18
100
AcDbEntity
  8
姿図
100
AcDbLine
 10
-3910.916746876146
 20
-18238.48522096039
 30
0.0
 11
-3910.723492786322
 21
-18238.89585717201
 31
0.0
  0
LINE
  5
270C69
330
18
100
AcDbEntity
  8
姿図
100
AcDbLine
 10
-3910.776396015971
 20
-18238.38704906336
 30
0.0
 11
-3910.863843646497
 21
-18238.39523233081
 31
0.0
  0
LINE
  5
270C6A
330
18
100
AcDbEntity
  8
姿図
100
AcDbLine
 10
-3910.916746876146
 20
-18237.88642422215
 30
0.0
 11
-3910.723492786322
 21
-18238.29706043378
 31
0.0
  0
LINE
  5
270C6B
330
18
100
AcDbEntity
  8
姿図
100
AcDbLine
 10
-3910.776396015971
 20
-18237.78825232512
 30
0.0
 11
-3910.863843646497
 21
-18237.79643559257
 31
0.0
  0
LINE
  5
270C6C
330
18
100
AcDbEntity
  8
姿図
100
AcDbLine
 10
-3910.916746876146
 20
-18242.67679812802
 30
0.0
 11
-3910.723492786322
 21
-18243.08743433964
 31
0.0
  0
LINE
  5
270C6D
330
18
100
AcDbEntity
  8
姿図
100
AcDbLine
 10
-3910.917363971507
 20
-18243.82554957256
 30
0.0
 11
-3910.916344178596
 21
-18243.87524728029
 31
0.0
  0
LINE
  5
270C6E
330
18
100
AcDbEntity
  8
姿図
100
AcDbLine
 10
-3910.776396015971
 20
-18243.77621970745
 30
0.0
 11
-3910.863843646497
 21
-18243.78440297491
 31
0.0
  0
LINE
  5
270C6F
330
18
100
AcDbEntity
  8
姿図
100
AcDbLine
 10
-3910.916746876146
 20
-18243.27559486625
 30
0.0
 11
-3910.723492786322
 21
-18243.68623107788
 31
0.0
  0
LINE
  5
270C70
330
18
100
AcDbEntity
  8
姿図
100
AcDbLine
 10
-3910.776396015971
 20
-18243.17742296922
 30
0.0
 11
-3910.863843646497
 21
-18243.18560623667
 31
0.0
  0
LINE
  5
270C71
330
18
100
AcDbEntity
  8
姿図
100
AcDbLine
 10
-3910.916746876146
 20
-18240.88040791332
 30
0.0
 11
-3910.723492786322
 21
-18241.29104412494
 31
0.0
  0
LINE
  5
270C72
330
18
100
AcDbEntity
  8
姿図
100
AcDbLine
 10
-3910.776396015971
 20
-18242.57862623099
 30
0.0
 11
-3910.863843646497
 21
-18242.58680949844
 31
0.0
  0
LINE
  5
270C73
330
18
100
AcDbEntity
  8
姿図
100
AcDbLine
 10
-3910.916746876146
 20
-18242.07800138978
 30
0.0
 11
-3910.723492786322
 21
-18242.48863760141
 31
0.0
  0
LINE
  5
270C74
330
18
100
AcDbEntity
  8
姿図
100
AcDbLine
 10
-3910.776396015971
 20
-18241.97982949276
 30
0.0
 11
-3910.863843646497
 21
-18241.9880127602
 31
0.0
  0
LINE
  5
270C75
330
18
100
AcDbEntity
  8
姿図
100
AcDbLine
 10
-3910.916746876146
 20
-18241.47920465155
 30
0.0
 11
-3910.723492786322
 21
-18241.88984086318
 31
0.0
  0
LINE
  5
270C76
330
18
100
AcDbEntity
  8
姿図
100
AcDbLine
 10
-3910.776396015971
 20
-18241.38103275453
 30
0.0
 11
-3910.863843646497
 21
-18241.38921602197
 31
0.0
  0
LINE
  5
270C77
330
18
100
AcDbEntity
  8
姿図
100
AcDbLine
 10
-3910.776396015971
 20
-18240.78223601629
 30
0.0
 11
-3910.863843646497
 21
-18240.79041928374
 31
0.0
  0
LINE
  5
270C78
330
18
100
AcDbEntity
  8
姿図
100
AcDbLine
 10
-3910.916746876146
 20
-18240.28161117508
 30
0.0
 11
-3910.723492786322
 21
-18240.69224738671
 31
0.0
  0
LINE
  5
270C79
330
18
100
AcDbEntity
  8
姿図
100
AcDbLine
 10
-3910.776396015971
 20
-18240.18343927805
 30
0.0
 11
-3910.863843646497
 21
-18240.19162254551
 31
0.0
  0
LINE
  5
270C7A
330
18
100
AcDbEntity
  8
姿図
100
AcDbLine
 10
-3910.916746876146
 20
-18239.68281443685
 30
0.0
 11
-3910.723492786322
 21
-18240.09345064848
 31
0.0
  0
ELLIPSE
  5
270C7B
330
18
100
AcDbEntity
  8
姿図
100
AcDbEllipse
 10
-3910.863843646498
 20
-18243.84428264873
 30
0.0
 11
0.0360838574316249
 21
0.05040796858487492
 31
3.441247287127944E-18
210
-3.231153159914466E-17
220
-4.513815278383751E-17
230
1.0
 40
0.9083744652357177
 41
0.6674062465666386
 42
1.830516517601721
  0
ELLIPSE
  5
270C7C
330
18
100
AcDbEntity
  8
姿図
100
AcDbEllipse
 10
-3910.776396015972
 20
-18243.71634003363
 30
0.0
 11
0.03608385743162677
 21
0.05040796858486756
 31
6.882494574255338E-18
210
-6.462306319829805E-17
220
-9.027630556766862E-17
230
1.0
 40
0.9083744652357177
 41
3.808998900156779
 42
5.813403557372749
  0
ELLIPSE
  5
270C7D
330
18
100
AcDbEntity
  8
姿図
100
AcDbEllipse
 10
-3910.863843646498
 20
-18243.24548591049
 30
0.0
 11
0.0360838574316249
 21
0.05040796858487492
 31
3.441247287127944E-18
210
-3.231153159914466E-17
220
-4.513815278383751E-17
230
1.0
 40
0.9083744652357177
 41
0.6674062465669787
 42
2.671810903782915
  0
ELLIPSE
  5
270C7E
330
18
100
AcDbEntity
  8
姿図
100
AcDbEllipse
 10
-3910.776396015972
 20
-18243.1175432954
 30
0.0
 11
0.0360838574316279
 21
0.05040796858486921
 31
-3.441247287127782E-18
210
3.231153159914908E-17
220
4.513815278383431E-17
230
1.0
 40
0.9083744652357175
 41
3.80899890015719
 42
5.813403557373379
  0
ELLIPSE
  5
270C7F
330
18
100
AcDbEntity
  8
姿図
100
AcDbEllipse
 10
-3929.042994480317
 20
-18206.22010695373
 30
0.0
 11
-18.40183770962119
 21
37.63041245408251
 31
-2.325298166814627E-15
210
-2.438613733585013E-17
220
4.986786757879908E-17
230
1.0
 40
0.0898112888334005
 41
3.072939992536941
 42
3.073177647634316
  0
ELLIPSE
  5
270C80
330
18
100
AcDbEntity
  8
姿図
100
AcDbEllipse
 10
-3910.863843646498
 20
-18242.64668917226
 30
0.0
 11
0.0360838574316249
 21
0.05040796858487492
 31
3.441247287127944E-18
210
-3.231153159914466E-17
220
-4.513815278383751E-17
230
1.0
 40
0.9083744652357177
 41
0.6674062465666698
 42
2.671810903782841
  0
ELLIPSE
  5
270C81
330
18
100
AcDbEntity
  8
姿図
100
AcDbEllipse
 10
-3910.776396015972
 20
-18242.51874655717
 30
0.0
 11
0.0360838574316279
 21
0.05040796858486921
 31
-3.441247287127782E-18
210
3.231153159914908E-17
220
4.513815278383431E-17
230
1.0
 40
0.9083744652357175
 41
3.808998900156782
 42
5.813403557372797
  0
ELLIPSE
  5
270C82
330
18
100
AcDbEntity
  8
姿図
100
AcDbEllipse
 10
-3910.863843646498
 20
-18242.04789243403
 30
0.0
 11
0.0360838574316249
 21
0.05040796858487492
 31
3.441247287127944E-18
210
-3.231153159914466E-17
220
-4.513815278383751E-17
230
1.0
 40
0.9083744652357177
 41
0.6674062465669538
 42
2.671810903782891
  0
ELLIPSE
  5
270C83
330
18
100
AcDbEntity
  8
姿図
100
AcDbEllipse
 10
-3910.776396015972
 20
-18241.91994981893
 30
0.0
 11
0.0360838574316279
 21
0.05040796858486921
 31
-3.441247287127782E-18
210
3.231153159914908E-17
220
4.513815278383431E-17
230
1.0
 40
0.9083744652357175
 41
3.808998900157067
 42
5.813403557373014
  0
ELLIPSE
  5
270C84
330
18
100
AcDbEntity
  8
姿図
100
AcDbEllipse
 10
-3910.863843646498
 20
-18241.4490956958
 30
0.0
 11
0.0360838574316249
 21
0.05040796858487492
 31
3.441247287127944E-18
210
-3.231153159914466E-17
220
-4.513815278383751E-17
230
1.0
 40
0.9083744652357177
 41
0.6674062465669787
 42
2.671810903782915
  0
ELLIPSE
  5
270C85
330
18
100
AcDbEntity
  8
姿図
100
AcDbEllipse
 10
-3910.776396015972
 20
-18241.3211530807
 30
0.0
 11
0.0360838574316279
 21
0.05040796858486921
 31
-3.441247287127782E-18
210
3.231153159914908E-17
220
4.513815278383431E-17
230
1.0
 40
0.9083744652357175
 41
3.808998900156782
 42
5.813403557372797
  0
ELLIPSE
  5
270C86
330
18
100
AcDbEntity
  8
姿図
100
AcDbEllipse
 10
-3910.863843646498
 20
-18240.85029895756
 30
0.0
 11
0.0360838574316249
 21
0.05040796858487492
 31
3.441247287127944E-18
210
-3.231153159914466E-17
220
-4.513815278383751E-17
230
1.0
 40
0.9083744652357177
 41
0.6674062465668864
 42
2.671810903783139
  0
ELLIPSE
  5
270C87
330
18
100
AcDbEntity
  8
姿図
100
AcDbEllipse
 10
-3910.776396015972
 20
-18240.72235634247
 30
0.0
 11
0.0360838574316279
 21
0.05040796858486921
 31
-3.441247287127782E-18
210
3.231153159914908E-17
220
4.513815278383431E-17
230
1.0
 40
0.9083744652357175
 41
3.808998900157258
 42
5.81340355737299
  0
ELLIPSE
  5
270C88
330
18
100
AcDbEntity
  8
姿図
100
AcDbEllipse
 10
-3910.863843646498
 20
-18240.25150221933
 30
0.0
 11
0.0360838574316249
 21
0.05040796858487492
 31
3.441247287127944E-18
210
-3.231153159914466E-17
220
-4.513815278383751E-17
230
1.0
 40
0.9083744652357177
 41
0.6674062465670783
 42
2.671810903783331
  0
ELLIPSE
  5
270C89
330
18
100
AcDbEntity
  8
姿図
100
AcDbEllipse
 10
-3910.776396015972
 20
-18240.12355960424
 30
0.0
 11
0.0360838574316279
 21
0.05040796858486921
 31
-3.441247287127782E-18
210
3.231153159914908E-17
220
4.513815278383431E-17
230
1.0
 40
0.9083744652357175
 41
3.808998900157067
 42
5.813403557372797
  0
ELLIPSE
  5
270C8A
330
18
100
AcDbEntity
  8
姿図
100
AcDbEllipse
 10
-3910.863843646498
 20
-18239.6527054811
 30
0.0
 11
0.0360838574316249
 21
0.05040796858487492
 31
3.441247287127944E-18
210
-3.231153159914466E-17
220
-4.513815278383751E-17
230
1.0
 40
0.9083744652357177
 41
0.6674062465670099
 42
2.671810903783262
  0
ELLIPSE
  5
270C8B
330
18
100
AcDbEntity
  8
姿図
100
AcDbEllipse
 10
-3910.776396015972
 20
-18239.524762866
 30
0.0
 11
0.0360838574316279
 21
0.05040796858486921
 31
-3.441247287127782E-18
210
3.231153159914908E-17
220
4.513815278383431E-17
230
1.0
 40
0.9083744652357175
 41
3.808998900156622
 42
5.81340355737292
  0
ELLIPSE
  5
270C8C
330
18
100
AcDbEntity
  8
姿図
100
AcDbEllipse
 10
-3910.863843646498
 20
-18239.05390874286
 30
0.0
 11
0.0360838574316249
 21
0.05040796858487492
 31
3.441247287127944E-18
210
-3.231153159914466E-17
220
-4.513815278383751E-17
230
1.0
 40
0.9083744652357177
 41
0.6674062465666947
 42
2.671810903783231
  0
ELLIPSE
  5
270C8D
330
18
100
AcDbEntity
  8
姿図
100
AcDbEllipse
 10
-3910.776396015972
 20
-18238.92596612776
 30
0.0
 11
0.0360838574316279
 21
0.05040796858486921
 31
-3.441247287127782E-18
210
3.231153159914908E-17
220
4.513815278383431E-17
230
1.0
 40
0.9083744652357175
 41
3.808998900156782
 42
5.813403557372797
  0
ELLIPSE
  5
270C8E
330
18
100
AcDbEntity
  8
姿図
100
AcDbEllipse
 10
-3910.863843646498
 20
-18238.45511200463
 30
0.0
 11
0.0360838574316249
 21
0.05040796858487492
 31
3.441247287127944E-18
210
-3.231153159914466E-17
220
-4.513815278383751E-17
230
1.0
 40
0.9083744652357177
 41
0.6674062465668553
 42
2.671810903783083
  0
ELLIPSE
  5
270C8F
330
18
100
AcDbEntity
  8
姿図
100
AcDbEllipse
 10
-3910.776396015972
 20
-18238.32716938953
 30
0.0
 11
0.0360838574316279
 21
0.05040796858486921
 31
-3.441247287127782E-18
210
3.231153159914908E-17
220
4.513815278383431E-17
230
1.0
 40
0.9083744652357175
 41
3.808998900156777
 42
5.813403557372797
  0
ELLIPSE
  5
270C90
330
18
100
AcDbEntity
  8
姿図
100
AcDbEllipse
 10
-3910.863843646498
 20
-18237.8563152664
 30
0.0
 11
0.0360838574316249
 21
0.05040796858487492
 31
3.441247287127944E-18
210
-3.231153159914466E-17
220
-4.513815278383751E-17
230
1.0
 40
0.9083744652357177
 41
0.6674062465666901
 42
2.671810903782891
  0
ELLIPSE
  5
270C91
330
18
100
AcDbEntity
  8
姿図
100
AcDbEllipse
 10
-3910.776396015972
 20
-18237.7283726513
 30
0.0
 11
0.03608385743162907
 21
0.05040796858487078
 31
3.441247287127870E-18
210
-3.231153159914889E-17
220
-4.513815278383404E-17
230
1.0
 40
0.908374465235718
 41
3.808998900156912
 42
5.813403557372872
  0
LINE
  5
270C92
330
18
100
AcDbEntity
  8
姿図
100
AcDbLine
 10
-3910.210410818364
 20
-18239.46178005511
 30
0.0
 11
-3910.122963187837
 21
-18239.45359678766
 31
0.0
  0
LINE
  5
270C93
330
18
100
AcDbEntity
  8
姿図
100
AcDbLine
 10
-3910.210410818364
 20
-18237.66538984041
 30
0.0
 11
-3910.122963187837
 21
-18237.65720657296
 31
0.0
  0
LINE
  5
270C94
330
18
100
AcDbEntity
  8
姿図
100
AcDbLine
 10
-3910.210410818364
 20
-18238.26418657865
 30
0.0
 11
-3910.122963187837
 21
-18238.2560033112
 31
0.0
  0
LINE
  5
270C95
330
18
100
AcDbEntity
  8
姿図
100
AcDbLine
 10
-3910.210410818364
 20
-18238.86298331688
 30
0.0
 11
-3910.122963187837
 21
-18238.85480004943
 31
0.0
  0
LINE
  5
270C96
330
18
100
AcDbEntity
  8
姿図
100
AcDbLine
 10
-3910.210410818364
 20
-18243.05456048451
 30
0.0
 11
-3910.122963187837
 21
-18243.04637721706
 31
0.0
  0
LINE
  5
270C97
330
18
100
AcDbEntity
  8
姿図
100
AcDbLine
 10
-3910.210410818364
 20
-18243.65335722275
 30
0.0
 11
-3910.122963187837
 21
-18243.6451739553
 31
0.0
  0
LINE
  5
270C98
330
18
100
AcDbEntity
  8
姿図
100
AcDbLine
 10
-3910.210410818364
 20
-18241.25817026981
 30
0.0
 11
-3910.122963187837
 21
-18241.24998700236
 31
0.0
  0
LINE
  5
270C99
330
18
100
AcDbEntity
  8
姿図
100
AcDbLine
 10
-3910.210410818364
 20
-18241.85696700804
 30
0.0
 11
-3910.122963187837
 21
-18241.8487837406
 31
0.0
  0
LINE
  5
270C9A
330
18
100
AcDbEntity
  8
姿図
100
AcDbLine
 10
-3910.210410818364
 20
-18242.45576374628
 30
0.0
 11
-3910.122963187837
 21
-18242.44758047883
 31
0.0
  0
LINE
  5
270C9B
330
18
100
AcDbEntity
  8
姿図
100
AcDbLine
 10
-3910.210410818364
 20
-18240.06057679334
 30
0.0
 11
-3910.122963187837
 21
-18240.0523935259
 31
0.0
  0
LINE
  5
270C9C
330
18
100
AcDbEntity
  8
姿図
100
AcDbLine
 10
-3910.210410818364
 20
-18240.65937353158
 30
0.0
 11
-3910.122963187837
 21
-18240.65119026413
 31
0.0
  0
ELLIPSE
  5
270C9D
330
18
100
AcDbEntity
  8
姿図
100
AcDbEllipse
 10
-3910.122963187839
 20
-18242.98649754324
 30
0.0
 11
0.03608385743162289
 21
0.05040796858487284
 31
0.0
210
0.0
220
0.0
230
1.0
 40
0.9083744652357184
 41
3.808998900157078
 42
5.8134035573731
  0
ELLIPSE
  5
270C9E
330
18
100
AcDbEntity
  8
姿図
100
AcDbEllipse
 10
-3910.122963187839
 20
-18243.58529428147
 30
0.0
 11
0.03608385743162289
 21
0.05040796858487284
 31
0.0
210
0.0
220
0.0
230
1.0
 40
0.9083744652357184
 41
3.808998900156706
 42
5.813403557372963
  0
ELLIPSE
  5
270C9F
330
18
100
AcDbEntity
  8
姿図
100
AcDbEllipse
 10
-3910.122963187839
 20
-18241.19010732854
 30
0.0
 11
0.03608385743162289
 21
0.05040796858487284
 31
0.0
210
0.0
220
0.0
230
1.0
 40
0.9083744652357184
 41
3.808998900156737
 42
5.813403557372994
  0
ELLIPSE
  5
270CA0
330
18
100
AcDbEntity
  8
姿図
100
AcDbEllipse
 10
-3910.122963187839
 20
-18241.78890406677
 30
0.0
 11
0.03608385743162289
 21
0.05040796858487284
 31
0.0
210
0.0
220
0.0
230
1.0
 40
0.9083744652357184
 41
3.808998900157022
 42
5.813403557372752
  0
ELLIPSE
  5
270CA1
330
18
100
AcDbEntity
  8
姿図
100
AcDbEllipse
 10
-3910.122963187839
 20
-18242.38770080501
 30
0.0
 11
0.03608385743162289
 21
0.05040796858487284
 31
0.0
210
0.0
220
0.0
230
1.0
 40
0.9083744652357184
 41
3.808998900156638
 42
5.813403557372579
  0
ELLIPSE
  5
270CA2
330
18
100
AcDbEntity
  8
姿図
100
AcDbEllipse
 10
-3910.122963187839
 20
-18239.39371711384
 30
0.0
 11
0.03608385743162289
 21
0.05040796858487284
 31
0.0
210
0.0
220
0.0
230
1.0
 40
0.9083744652357184
 41
3.808998900156422
 42
5.813403557372648
  0
ELLIPSE
  5
270CA3
330
18
100
AcDbEntity
  8
姿図
100
AcDbEllipse
 10
-3910.122963187839
 20
-18239.99251385207
 30
0.0
 11
0.03608385743162289
 21
0.05040796858487284
 31
0.0
210
0.0
220
0.0
230
1.0
 40
0.9083744652357184
 41
3.808998900156578
 42
5.813403557372803
  0
ELLIPSE
  5
270CA4
330
18
100
AcDbEntity
  8
姿図
100
AcDbEllipse
 10
-3910.122963187839
 20
-18240.59131059031
 30
0.0
 11
0.03608385743162289
 21
0.05040796858487284
 31
0.0
210
0.0
220
0.0
230
1.0
 40
0.9083744652357184
 41
3.808998900157022
 42
5.813403557373044
  0
ELLIPSE
  5
270CA5
330
18
100
AcDbEntity
  8
姿図
100
AcDbEllipse
 10
-3910.122963187839
 20
-18237.59732689914
 30
0.0
 11
0.03608385743162398
 21
0.05040796858487442
 31
-6.882494574255783E-18
210
6.462306319828893E-17
220
9.027630556767527E-17
230
1.0
 40
0.9083744652357181
 41
3.808998900156864
 42
5.813403557372728
  0
ELLIPSE
  5
270CA6
330
18
100
AcDbEntity
  8
姿図
100
AcDbEllipse
 10
-3910.122963187839
 20
-18238.19612363738
 30
0.0
 11
0.03608385743162398
 21
0.05040796858487442
 31
-6.882494574255783E-18
210
6.462306319828893E-17
220
9.027630556767527E-17
230
1.0
 40
0.9083744652357181
 41
3.808998900156512
 42
5.813403557373049
  0
ELLIPSE
  5
270CA7
330
18
100
AcDbEntity
  8
姿図
100
AcDbEllipse
 10
-3910.122963187839
 20
-18238.79492037561
 30
0.0
 11
0.03608385743162289
 21
0.05040796858487284
 31
0.0
210
0.0
220
0.0
230
1.0
 40
0.9083744652357184
 41
3.808998900156478
 42
5.813403557372704
  0
LINE
  5
270CA8
330
18
100
AcDbEntity
  8
姿図
100
AcDbLine
 10
-3913.955173327372
 20
-18240.63171285117
 30
0.0
 11
-3914.409635041558
 21
-18240.67424095319
 31
0.0
  0
ELLIPSE
  5
270CA9
330
18
100
AcDbEntity
  8
姿図
100
AcDbEllipse
 10
-3930.100855632358
 20
-18235.12310927339
 30
0.0
 11
10.71963824740441
 21
30.30595753130159
 31
0.0
210
0.0
220
0.0
230
1.0
 40
0.5306663220532382
 41
4.635006625735985
 42
4.718323401449883
  0
ELLIPSE
  5
270CAA
330
18
100
AcDbEntity
  8
姿図
100
AcDbEllipse
 10
-3929.555902340054
 20
-18232.57181367883
 30
0.0
 11
10.70555958841341
 21
30.27069213220319
 31
3.564704336882287E-15
210
-3.701743464227721E-17
220
-1.046692943349817E-16
230
1.0
 40
0.5306015190202691
 41
4.552834753258026
 42
4.631677754451532
  0
LINE
  5
270CAB
330
18
100
AcDbEntity
  8
姿図
100
AcDbLine
 10
-3912.652380587065
 20
-18239.43933802402
 30
0.0
 11
-3912.739828217592
 21
-18239.44752129147
 31
0.0
  0
LINE
  5
270CAC
330
18
100
AcDbEntity
  8
姿図
100
AcDbLine
 10
-3912.652380587065
 20
-18238.84054128578
 30
0.0
 11
-3912.739828217592
 21
-18238.84872455323
 31
0.0
  0
LINE
  5
270CAD
330
18
100
AcDbEntity
  8
姿図
100
AcDbLine
 10
-3912.652380587065
 20
-18238.24174454755
 30
0.0
 11
-3912.739828217592
 21
-18238.249927815
 31
0.0
  0
LINE
  5
270CAE
330
18
100
AcDbEntity
  8
姿図
100
AcDbLine
 10
-3912.652380587065
 20
-18237.64294780932
 30
0.0
 11
-3912.739828217592
 21
-18237.65113107676
 31
0.0
  0
LINE
  5
270CAF
330
18
100
AcDbEntity
  8
姿図
100
AcDbLine
 10
-3912.652380587065
 20
-18243.63091519165
 30
0.0
 11
-3912.739828217592
 21
-18243.63909845909
 31
0.0
  0
LINE
  5
270CB0
330
18
100
AcDbEntity
  8
姿図
100
AcDbLine
 10
-3912.652380587065
 20
-18243.03211845342
 30
0.0
 11
-3912.739828217592
 21
-18243.04030172086
 31
0.0
  0
LINE
  5
270CB1
330
18
100
AcDbEntity
  8
姿図
100
AcDbLine
 10
-3912.652380587065
 20
-18242.43332171518
 30
0.0
 11
-3912.739828217592
 21
-18242.44150498263
 31
0.0
  0
LINE
  5
270CB2
330
18
100
AcDbEntity
  8
姿図
100
AcDbLine
 10
-3912.652380587065
 20
-18241.83452497694
 30
0.0
 11
-3912.739828217592
 21
-18241.8427082444
 31
0.0
  0
LINE
  5
270CB3
330
18
100
AcDbEntity
  8
姿図
100
AcDbLine
 10
-3912.652380587065
 20
-18241.23572823871
 30
0.0
 11
-3912.739828217592
 21
-18241.24391150616
 31
0.0
  0
LINE
  5
270CB4
330
18
100
AcDbEntity
  8
姿図
100
AcDbLine
 10
-3912.652380587065
 20
-18240.63693150048
 30
0.0
 11
-3912.739828217592
 21
-18240.64511476793
 31
0.0
  0
LINE
  5
270CB5
330
18
100
AcDbEntity
  8
姿図
100
AcDbLine
 10
-3912.652380587065
 20
-18240.03813476225
 30
0.0
 11
-3912.739828217592
 21
-18240.0463180297
 31
0.0
  0
ELLIPSE
  5
270CB6
330
18
100
AcDbEntity
  8
姿図
100
AcDbEllipse
 10
-3912.739828217593
 20
-18243.69897813292
 30
0.0
 11
0.0360838574316245
 21
0.05040796858487516
 31
-3.441247287127940E-18
210
3.231153159914451E-17
220
4.513815278383757E-17
230
1.0
 40
0.9083744652357189
 41
0.6674062465669471
 42
2.671810903782884
  0
ELLIPSE
  5
270CB7
330
18
100
AcDbEntity
  8
姿図
100
AcDbEllipse
 10
-3912.739828217593
 20
-18243.10018139469
 30
0.0
 11
0.0360838574316245
 21
0.05040796858487516
 31
-3.441247287127940E-18
210
3.231153159914451E-17
220
4.513815278383757E-17
230
1.0
 40
0.9083744652357189
 41
0.6674062465665955
 42
2.671810903782768
  0
ELLIPSE
  5
270CB8
330
18
100
AcDbEntity
  8
姿図
100
AcDbEllipse
 10
-3912.739828217593
 20
-18242.50138465645
 30
0.0
 11
0.0360838574316245
 21
0.05040796858487516
 31
-3.441247287127940E-18
210
3.231153159914451E-17
220
4.513815278383757E-17
230
1.0
 40
0.9083744652357189
 41
0.6674062465671594
 42
2.671810903782743
  0
ELLIPSE
  5
270CB9
330
18
100
AcDbEntity
  8
姿図
100
AcDbEllipse
 10
-3912.739828217593
 20
-18241.90258791822
 30
0.0
 11
0.0360838574316245
 21
0.05040796858487516
 31
-3.441247287127940E-18
210
3.231153159914451E-17
220
4.513815278383757E-17
230
1.0
 40
0.9083744652357189
 41
0.6674062465669471
 42
2.67181090378281
  0
ELLIPSE
  5
270CBA
330
18
100
AcDbEntity
  8
姿図
100
AcDbEllipse
 10
-3912.739828217593
 20
-18241.30379117999
 30
0.0
 11
0.0360838574316245
 21
0.05040796858487516
 31
-3.441247287127940E-18
210
3.231153159914451E-17
220
4.513815278383757E-17
230
1.0
 40
0.9083744652357189
 41
0.6674062465673514
 42
2.671810903782983
  0
ELLIPSE
  5
270CBB
330
18
100
AcDbEntity
  8
姿図
100
AcDbEllipse
 10
-3912.739828217593
 20
-18240.70499444175
 30
0.0
 11
0.0360838574316245
 21
0.05040796858487516
 31
-3.441247287127940E-18
210
3.231153159914451E-17
220
4.513815278383757E-17
230
1.0
 40
0.9083744652357189
 41
0.6674062465669721
 42
2.671810903782982
  0
ELLIPSE
  5
270CBC
330
18
100
AcDbEntity
  8
姿図
100
AcDbEllipse
 10
-3912.739828217593
 20
-18240.10619770352
 30
0.0
 11
0.0360838574316245
 21
0.05040796858487516
 31
-3.441247287127940E-18
210
3.231153159914451E-17
220
4.513815278383757E-17
230
1.0
 40
0.9083744652357189
 41
0.667406246567283
 42
2.671810903782915
  0
ELLIPSE
  5
270CBD
330
18
100
AcDbEntity
  8
姿図
100
AcDbEllipse
 10
-3912.739828217593
 20
-18239.50740096529
 30
0.0
 11
0.0360838574316245
 21
0.05040796858487516
 31
-3.441247287127940E-18
210
3.231153159914451E-17
220
4.513815278383757E-17
230
1.0
 40
0.9083744652357189
 41
0.6674062465668796
 42
2.671810903782743
  0
ELLIPSE
  5
270CBE
330
18
100
AcDbEntity
  8
姿図
100
AcDbEllipse
 10
-3912.739828217593
 20
-18238.90860422705
 30
0.0
 11
0.0360838574316245
 21
0.05040796858487516
 31
-3.441247287127940E-18
210
3.231153159914451E-17
220
4.513815278383757E-17
230
1.0
 40
0.9083744652357189
 41
0.6674062465670032
 42
2.671810903782915
  0
ELLIPSE
  5
270CBF
330
18
100
AcDbEntity
  8
姿図
100
AcDbEllipse
 10
-3912.739828217593
 20
-18238.30980748882
 30
0.0
 11
0.0360838574316245
 21
0.05040796858487516
 31
-3.441247287127940E-18
210
3.231153159914451E-17
220
4.513815278383757E-17
230
1.0
 40
0.9083744652357189
 41
0.6674062465670032
 42
2.671810903782866
  0
ELLIPSE
  5
270CC0
330
18
100
AcDbEntity
  8
姿図
100
AcDbEllipse
 10
-3912.739828217593
 20
-18237.71101075059
 30
0.0
 11
0.0360838574316245
 21
0.05040796858487516
 31
-3.441247287127940E-18
210
3.231153159914451E-17
220
4.513815278383757E-17
230
1.0
 40
0.9083744652357189
 41
0.6674062465668796
 42
2.671810903783108
  0
ELLIPSE
  5
270CC1
330
18
100
AcDbEntity
  8
姿図
100
AcDbEllipse
 10
-3929.839121928544
 20
-18243.56832379055
 30
0.0
 11
-19.52014158921408
 21
-5.602137199480597E-13
 31
1.083585531814428E-15
210
5.551115123125783E-17
220
1.593129249997122E-30
230
1.0
 40
0.2588190451025203
 41
3.729026483883834
 42
3.761863642495804
  0
LINE
  5
270CC2
330
18
100
AcDbEntity
  8
姿図
100
AcDbLine
 10
-3912.79273144724
 20
-18243.72908708868
 30
0.0
 11
-3912.599477357416
 21
-18244.1397233003
 31
0.0
  0
LINE
  5
270CC3
330
18
100
AcDbEntity
  8
姿図
100
AcDbLine
 10
-3912.79273144724
 20
-18238.93871318281
 30
0.0
 11
-3912.599477357416
 21
-18239.34934939444
 31
0.0
  0
LINE
  5
270CC4
330
18
100
AcDbEntity
  8
姿図
100
AcDbLine
 10
-3912.79273144724
 20
-18239.53750992104
 30
0.0
 11
-3912.599477357416
 21
-18239.94814613267
 31
0.0
  0
LINE
  5
270CC5
330
18
100
AcDbEntity
  8
姿図
100
AcDbLine
 10
-3912.79273144724
 20
-18238.33991644458
 30
0.0
 11
-3912.599477357416
 21
-18238.75055265621
 31
0.0
  0
LINE
  5
270CC6
330
18
100
AcDbEntity
  8
姿図
100
AcDbLine
 10
-3912.79273144724
 20
-18237.74111970634
 30
0.0
 11
-3912.599477357416
 21
-18238.15175591797
 31
0.0
  0
LINE
  5
270CC7
330
18
100
AcDbEntity
  8
姿図
100
AcDbLine
 10
-3912.79273144724
 20
-18242.53149361221
 30
0.0
 11
-3912.599477357416
 21
-18242.94212982383
 31
0.0
  0
LINE
  5
270CC8
330
18
100
AcDbEntity
  8
姿図
100
AcDbLine
 10
-3912.79273144724
 20
-18243.13029035044
 30
0.0
 11
-3912.599477357416
 21
-18243.54092656207
 31
0.0
  0
LINE
  5
270CC9
330
18
100
AcDbEntity
  8
姿図
100
AcDbLine
 10
-3912.79273144724
 20
-18240.73510339751
 30
0.0
 11
-3912.599477357416
 21
-18241.14573960914
 31
0.0
  0
LINE
  5
270CCA
330
18
100
AcDbEntity
  8
姿図
100
AcDbLine
 10
-3912.79273144724
 20
-18241.93269687397
 30
0.0
 11
-3912.599477357416
 21
-18242.3433330856
 31
0.0
  0
LINE
  5
270CCB
330
18
100
AcDbEntity
  8
姿図
100
AcDbLine
 10
-3912.79273144724
 20
-18241.33390013574
 30
0.0
 11
-3912.599477357416
 21
-18241.74453634737
 31
0.0
  0
LINE
  5
270CCC
330
18
100
AcDbEntity
  8
姿図
100
AcDbLine
 10
-3912.79273144724
 20
-18240.13630665927
 30
0.0
 11
-3912.599477357416
 21
-18240.5469428709
 31
0.0
  0
ELLIPSE
  5
270CCD
330
18
100
AcDbEntity
  8
姿図
100
AcDbEllipse
 10
-3912.652380587065
 20
-18243.57103551783
 30
0.0
 11
0.03608385743162643
 21
0.05040796858486774
 31
3.441247287127651E-18
210
-3.231153159914863E-17
220
-4.513815278383429E-17
230
1.0
 40
0.9083744652357185
 41
3.808998900156581
 42
5.813403557372885
  0
ELLIPSE
  5
270CCE
330
18
100
AcDbEntity
  8
姿図
100
AcDbEllipse
 10
-3912.652380587065
 20
-18242.97223877959
 30
0.0
 11
0.03608385743162643
 21
0.05040796858486774
 31
3.441247287127651E-18
210
-3.231153159914863E-17
220
-4.513815278383429E-17
230
1.0
 40
0.9083744652357185
 41
3.808998900156897
 42
5.813403557372916
  0
ELLIPSE
  5
270CCF
330
18
100
AcDbEntity
  8
姿図
100
AcDbEllipse
 10
-3912.652380587065
 20
-18242.37344204136
 30
0.0
 11
0.03608385743162643
 21
0.05040796858486774
 31
3.441247287127651E-18
210
-3.231153159914863E-17
220
-4.513815278383429E-17
230
1.0
 40
0.9083744652357185
 41
3.808998900156773
 42
5.813403557372792
  0
ELLIPSE
  5
270CD0
330
18
100
AcDbEntity
  8
姿図
100
AcDbEllipse
 10
-3912.652380587065
 20
-18241.77464530312
 30
0.0
 11
0.0360838574316276
 21
0.05040796858486941
 31
3.441247287127780E-18
210
-3.231153159914860E-17
220
-4.513815278383461E-17
230
1.0
 40
0.9083744652357183
 41
3.808998900156934
 42
5.813403557373269
  0
ELLIPSE
  5
270CD1
330
18
100
AcDbEntity
  8
姿図
100
AcDbEllipse
 10
-3912.652380587065
 20
-18241.17584856489
 30
0.0
 11
0.0360838574316276
 21
0.05040796858486941
 31
3.441247287127780E-18
210
-3.231153159914860E-17
220
-4.513815278383461E-17
230
1.0
 40
0.9083744652357183
 41
3.808998900156452
 42
5.81340355737276
  0
ELLIPSE
  5
270CD2
330
18
100
AcDbEntity
  8
姿図
100
AcDbEllipse
 10
-3912.652380587065
 20
-18240.57705182665
 30
0.0
 11
0.0360838574316276
 21
0.05040796858486941
 31
3.441247287127780E-18
210
-3.231153159914860E-17
220
-4.513815278383461E-17
230
1.0
 40
0.9083744652357183
 41
3.808998900156965
 42
5.813403557372935
  0
ELLIPSE
  5
270CD3
330
18
100
AcDbEntity
  8
姿図
100
AcDbEllipse
 10
-3912.652380587065
 20
-18239.97825508842
 30
0.0
 11
0.0360838574316276
 21
0.05040796858486941
 31
3.441247287127780E-18
210
-3.231153159914860E-17
220
-4.513815278383461E-17
230
1.0
 40
0.9083744652357183
 41
3.808998900157052
 42
5.813403557372792
  0
ELLIPSE
  5
270CD4
330
18
100
AcDbEntity
  8
姿図
100
AcDbEllipse
 10
-3912.652380587065
 20
-18239.37945835019
 30
0.0
 11
0.0360838574316276
 21
0.05040796858486941
 31
3.441247287127780E-18
210
-3.231153159914860E-17
220
-4.513815278383461E-17
230
1.0
 40
0.9083744652357183
 41
3.808998900156897
 42
5.813403557372867
  0
ELLIPSE
  5
270CD5
330
18
100
AcDbEntity
  8
姿図
100
AcDbEllipse
 10
-3912.652380587065
 20
-18238.78066161196
 30
0.0
 11
0.0360838574316276
 21
0.05040796858486941
 31
3.441247287127780E-18
210
-3.231153159914860E-17
220
-4.513815278383461E-17
230
1.0
 40
0.9083744652357183
 41
3.808998900157176
 42
5.813403557372916
  0
ELLIPSE
  5
270CD6
330
18
100
AcDbEntity
  8
姿図
100
AcDbEllipse
 10
-3912.652380587065
 20
-18238.18186487373
 30
0.0
 11
0.0360838574316276
 21
0.05040796858486941
 31
3.441247287127780E-18
210
-3.231153159914860E-17
220
-4.513815278383461E-17
230
1.0
 40
0.9083744652357183
 41
3.808998900156742
 42
5.813403557372712
  0
ELLIPSE
  5
270CD7
330
18
100
AcDbEntity
  8
姿図
100
AcDbEllipse
 10
-3912.652380587065
 20
-18237.58306813549
 30
0.0
 11
0.0360838574316276
 21
0.05040796858486941
 31
3.441247287127780E-18
210
-3.231153159914860E-17
220
-4.513815278383461E-17
230
1.0
 40
0.9083744652357183
 41
3.808998900156483
 42
5.813403557372792
  0
ELLIPSE
  5
270CD8
330
18
100
AcDbEntity
  8
姿図
100
AcDbEllipse
 10
-3911.998947758932
 20
-18237.45202238334
 30
0.0
 11
0.03608385743162289
 21
0.05040796858487284
 31
0.0
210
0.0
220
0.0
230
1.0
 40
0.9083744652357184
 41
3.808998900156913
 42
5.813403557372654
  0
ELLIPSE
  5
270CD9
330
18
100
AcDbEntity
  8
姿図
100
AcDbEllipse
 10
-3910.210410818364
 20
-18237.126472776
 30
0.0
 11
0.03608385743163949
 21
0.05040796858488614
 31
3.441247287128919E-18
210
-3.231153159914874E-17
220
-4.513815278383452E-17
230
1.0
 40
0.9083744652357185
 41
0.6674062465672639
 42
2.671810903783432
  0
LINE
  5
270CDA
330
18
100
AcDbEntity
  8
姿図
100
AcDbLine
 10
-3910.776396015971
 20
-18237.18945558689
 30
0.0
 11
-3910.863843646497
 21
-18237.19763885434
 31
0.0
  0
ELLIPSE
  5
270CDB
330
18
100
AcDbEntity
  8
姿図
100
AcDbEllipse
 10
-3910.863843646498
 20
-18237.25751852816
 30
0.0
 11
0.0360838574316351
 21
0.05040796858488925
 31
3.441247287128919E-18
210
-3.231153159914480E-17
220
-4.513815278383737E-17
230
1.0
 40
0.908374465235718
 41
0.6674062465670622
 42
2.671810903783181
  0
ELLIPSE
  5
270CDC
330
18
100
AcDbEntity
  8
姿図
100
AcDbEllipse
 10
-3910.776396015972
 20
-18237.12957591307
 30
0.0
 11
0.03608385743162907
 21
0.05040796858487078
 31
3.441247287127870E-18
210
-3.231153159914889E-17
220
-4.513815278383404E-17
230
1.0
 40
0.908374465235718
 41
3.80899890015716
 42
5.813403557372792
  0
LINE
  5
270CDD
330
18
100
AcDbEntity
  8
姿図
100
AcDbLine
 10
-3910.210410818364
 20
-18237.06659310218
 30
0.0
 11
-3910.122963187837
 21
-18237.05840983473
 31
0.0
  0
LINE
  5
270CDE
330
18
100
AcDbEntity
  8
姿図
100
AcDbLine
 10
-3912.652380587065
 20
-18237.04415107108
 30
0.0
 11
-3912.739828217592
 21
-18237.05233433853
 31
0.0
  0
ELLIPSE
  5
270CDF
330
18
100
AcDbEntity
  8
姿図
100
AcDbEllipse
 10
-3912.739828217593
 20
-18237.11221401235
 30
0.0
 11
0.0360838574316245
 21
0.05040796858487516
 31
-3.441247287127940E-18
210
3.231153159914451E-17
220
4.513815278383757E-17
230
1.0
 40
0.9083744652357189
 41
0.6674062465669471
 42
2.671810903782859
  0
ELLIPSE
  5
270CE0
330
18
100
AcDbEntity
  8
姿図
100
AcDbEllipse
 10
-3917.55271323036
 20
-18244.13621500618
 30
0.0
 11
-0.1182994278034044
 21
0.3851912980395416
 31
2.236810736633289E-17
210
1.629723296148895E-17
220
-5.306494237082089E-17
230
1.0
 40
0.7386189460394769
 41
4.318335530375434
 42
5.623669093019634
  0
ELLIPSE
  5
270CE1
330
18
100
AcDbEntity
  8
姿図
100
AcDbEllipse
 10
-3917.55271323036
 20
-18244.13621500618
 30
0.0
 11
-0.1182994278034044
 21
0.3851912980395416
 31
2.236810736633289E-17
210
1.629723296148895E-17
220
-5.306494237082089E-17
230
1.0
 40
0.7386189460394769
 41
3.822881783457571
 42
4.318335530375473
  0
LINE
  5
270CE2
330
18
100
AcDbEntity
  8
姿図
100
AcDbLine
 10
-3911.74209276702
 20
-18244.83414142046
 30
0.0
 11
-3911.679624042182
 21
-18235.417708932
 31
0.0
  0
LINE
  5
270CE3
330
18
100
AcDbEntity
  8
姿図
100
AcDbLine
 10
-3913.598723619637
 20
-18240.57389584487
 30
0.0
 11
-3913.555608613276
 21
-18234.07481093973
 31
0.0
  0
LINE
  5
270CE4
330
18
100
AcDbEntity
  8
姿図
100
AcDbLine
 10
-3911.946044529282
 20
-18237.42191342758
 30
0.0
 11
-3912.139298619106
 21
-18237.01127721595
 31
0.0
  0
ELLIPSE
  5
270CE5
330
18
100
AcDbEntity
  8
姿図
100
AcDbEllipse
 10
-3910.122963187839
 20
-18236.99853016091
 30
0.0
 11
0.03608385743162398
 21
0.05040796858487442
 31
-6.882494574255783E-18
210
6.462306319828893E-17
220
9.027630556767527E-17
230
1.0
 40
0.9083744652357181
 41
3.808998900156461
 42
5.813403557372752
  0
LINE
  5
270CE6
330
18
100
AcDbEntity
  8
姿図
100
AcDbLine
 10
-3910.916746876146
 20
-18236.68883074569
 30
0.0
 11
-3910.723492786322
 21
-18237.09946695731
 31
0.0
  0
ELLIPSE
  5
270CE7
330
18
100
AcDbEntity
  8
姿図
100
AcDbEllipse
 10
-3912.652380587065
 20
-18236.98427139726
 30
0.0
 11
0.0360838574316276
 21
0.05040796858486941
 31
3.441247287127780E-18
210
-3.231153159914860E-17
220
-4.513815278383461E-17
230
1.0
 40
0.9083744652357183
 41
3.808998900156551
 42
5.81340355737281
  0
LINE
  5
270CE8
330
18
100
AcDbEntity
  8
姿図
100
AcDbLine
 10
-3938.105859632578
 20
-18236.46245080509
 30
0.0
 11
-3937.941627123797
 21
-18236.5800144086
 31
0.0
  0
ELLIPSE
  5
270CE9
330
18
100
AcDbEntity
  8
姿図
100
AcDbEllipse
 10
-3929.839121928544
 20
-18241.02343765305
 30
0.0
 11
-19.46495332954688
 21
-3.727800789551191E-14
 31
2.161043935971704E-15
210
1.110223024625157E-16
220
2.126226658603509E-31
230
1.0
 40
0.2588190451025204
 41
5.151017883384803
 42
5.195965363531555
  0
LINE
  5
270CEA
330
18
100
AcDbEntity
  8
姿図
100
AcDbLine
 10
-3933.591187682736
 20
-18236.23756173024
 30
0.0
 11
-3933.713226263294
 21
-18236.15020207529
 31
0.0
  0
ELLIPSE
  5
270CEB
330
18
100
AcDbEntity
  8
姿図
100
AcDbEllipse
 10
-3929.839121928544
 20
-18241.02343765305
 30
0.0
 11
-19.46495332954688
 21
-3.727800789551191E-14
 31
2.161043935971704E-15
210
1.110223024625157E-16
220
2.126226658603509E-31
230
1.0
 40
0.2588190451025204
 41
4.922687502237706
 42
4.96763498238446
  0
ELLIPSE
  5
270CEC
330
18
100
AcDbEntity
  8
姿図
100
AcDbEllipse
 10
-3933.769728467122
 20
-18236.49094627377
 30
0.0
 11
-0.1688503498614174
 21
-0.2599946497138507
 31
-5.162742770270530E-17
210
-9.070358557838995E-17
220
-1.396647799640267E-16
230
1.0
 40
0.913939136448976
 41
3.038071040901397
 42
3.100190541308247
  0
LINE
  5
270CED
330
18
100
AcDbEntity
  8
姿図
100
AcDbLine
 10
-3948.517770079326
 20
-18236.93972293682
 30
0.0
 11
-3949.263601234583
 21
-18237.00951711853
 31
0.0
  0
ELLIPSE
  5
270CEE
330
18
100
AcDbEntity
  8
姿図
100
AcDbEllipse
 10
-3929.839121928544
 20
-18243.11922623687
 30
0.0
 11
-19.51040248456692
 21
-5.593926923496595E-13
 31
1.083044902903503E-15
210
5.551115123125783E-17
220
1.591588506041613E-30
230
1.0
 40
0.2588190451025204
 41
4.96784917457373
 42
5.150803691193217
  0
ELLIPSE
  5
270CEF
330
18
100
AcDbEntity
  8
姿図
100
AcDbEllipse
 10
-3936.309951887787
 20
-18243.27754469062
 30
0.0
 11
0.2195054548198
 21
0.337993044628034
 31
4.474377067567787E-17
210
-6.046905705224806E-17
220
-9.310985330935856E-17
230
1.0
 40
0.9139391364489743
 41
0.6260041342852541
 42
2.752838026093648
  0
ELLIPSE
  5
270CF0
330
18
100
AcDbEntity
  8
姿図
100
AcDbEllipse
 10
-3929.839121928546
 20
-18242.07133194496
 30
0.0
 11
-17.82270000000001
 21
-3.393499981019237E-13
 31
-9.893585950493393E-16
210
-5.551115123125783E-17
220
-1.056950353479716E-30
230
1.0
 40
0.258819045102515
 41
4.992404269734823
 42
5.183640316118966
  0
ELLIPSE
  5
270CF1
330
18
100
AcDbEntity
  8
姿図
100
AcDbEllipse
 10
-3936.309951887787
 20
-18243.27754469062
 30
0.0
 11
0.2195054548198
 21
0.337993044628034
 31
4.474377067567787E-17
210
-6.046905705224806E-17
220
-9.310985330935856E-17
230
1.0
 40
0.9139391364489743
 41
0.2886548266583326
 42
0.6260041342852678
  0
ELLIPSE
  5
270CF2
330
18
100
AcDbEntity
  8
姿図
100
AcDbEllipse
 10
-3929.839121928546
 20
-18241.56235471747
 30
0.0
 11
-17.80890179997573
 21
-3.376043869291861E-13
 31
-9.885926410810724E-16
210
-5.551115123125783E-17
220
-1.052328121613185E-30
230
1.0
 40
0.258819045102515
 41
4.992407196796089
 42
5.184287718027582
  0
LINE
  5
270CF3
330
18
100
AcDbEntity
  8
姿図
100
AcDbLine
 10
-3948.65205264304
 20
-18237.35910333601
 30
0.0
 11
-3948.601553164381
 21
-18244.96186002055
 31
0.0
  0
ELLIPSE
  5
270CF4
330
18
100
AcDbEntity
  8
姿図
100
AcDbEllipse
 10
-3948.188326119848
 20
-18237.6910556487
 30
0.0
 11
0.0558345787801031
 21
-0.5551391896356208
 31
0.0
210
0.0
220
0.0
230
1.0
 40
0.3266547503873695
 41
1.290961286430747
 42
2.861757613225721
  0
LINE
  5
270CF5
330
18
100
AcDbEntity
  8
姿図
100
AcDbLine
 10
-3949.40558917802
 20
-18237.55381470868
 30
0.0
 11
-3949.404764747617
 21
-18237.42954143052
 31
0.0
  0
LINE
  5
270CF6
330
18
100
AcDbEntity
  8
姿図
100
AcDbLine
 10
-3947.732199327806
 20
-18244.15548751973
 30
0.0
 11
-3947.538945237982
 21
-18243.70868223426
 31
0.0
  0
LINE
  5
270CF7
330
18
100
AcDbEntity
  8
姿図
100
AcDbLine
 10
-3947.591848467631
 20
-18244.22739161239
 30
0.0
 11
-3947.679296098157
 21
-18244.23557487984
 31
0.0
  0
LINE
  5
270CF8
330
18
100
AcDbEntity
  8
姿図
100
AcDbLine
 10
-3947.715379955589
 20
-18244.2261031746
 30
0.0
 11
-3947.623795216505
 21
-18244.29166286211
 31
0.0
  0
LINE
  5
270CF9
330
18
100
AcDbEntity
  8
姿図
100
AcDbLine
 10
-3947.732199327806
 20
-18239.36511361387
 30
0.0
 11
-3947.529604606925
 21
-18238.89671270096
 31
0.0
  0
LINE
  5
270CFA
330
18
100
AcDbEntity
  8
姿図
100
AcDbLine
 10
-3947.591848467631
 20
-18239.43701770652
 30
0.0
 11
-3947.679296098157
 21
-18239.44520097397
 31
0.0
  0
LINE
  5
270CFB
330
18
100
AcDbEntity
  8
姿図
100
AcDbLine
 10
-3947.732199327806
 20
-18239.9639103521
 30
0.0
 11
-3947.538945237982
 21
-18239.51710506664
 31
0.0
  0
LINE
  5
270CFC
330
18
100
AcDbEntity
  8
姿図
100
AcDbLine
 10
-3947.715379955589
 20
-18239.43572926874
 30
0.0
 11
-3947.55378172335
 21
-18239.55140716128
 31
0.0
  0
LINE
  5
270CFD
330
18
100
AcDbEntity
  8
姿図
100
AcDbLine
 10
-3947.732199327806
 20
-18242.95789404327
 30
0.0
 11
-3947.56083356933
 21
-18242.56169478712
 31
0.0
  0
LINE
  5
270CFE
330
18
100
AcDbEntity
  8
姿図
100
AcDbLine
 10
-3947.591848467631
 20
-18243.02979813593
 30
0.0
 11
-3947.679296098157
 21
-18243.03798140337
 31
0.0
  0
LINE
  5
270CFF
330
18
100
AcDbEntity
  8
姿図
100
AcDbLine
 10
-3947.732199327806
 20
-18243.5566907815
 30
0.0
 11
-3947.538945237982
 21
-18243.10988549603
 31
0.0
  0
LINE
  5
270D00
330
18
100
AcDbEntity
  8
姿図
100
AcDbLine
 10
-3947.591848467631
 20
-18243.62859487416
 30
0.0
 11
-3947.679296098157
 21
-18243.63677814161
 31
0.0
  0
LINE
  5
270D01
330
18
100
AcDbEntity
  8
姿図
100
AcDbLine
 10
-3947.715379955589
 20
-18243.02850969814
 30
0.0
 11
-3947.55378172335
 21
-18243.14418759068
 31
0.0
  0
LINE
  5
270D02
330
18
100
AcDbEntity
  8
姿図
100
AcDbLine
 10
-3947.715379955589
 20
-18243.62730643637
 30
0.0
 11
-3947.55378172335
 21
-18243.74298432891
 31
0.0
  0
LINE
  5
270D03
330
18
100
AcDbEntity
  8
姿図
100
AcDbLine
 10
-3947.732199327806
 20
-18241.16150382856
 30
0.0
 11
-3947.538945237982
 21
-18240.7146985431
 31
0.0
  0
LINE
  5
270D04
330
18
100
AcDbEntity
  8
姿図
100
AcDbLine
 10
-3947.602899765324
 20
-18241.23444209133
 30
0.0
 11
-3947.679296098157
 21
-18241.24159118867
 31
0.0
  0
LINE
  5
270D05
330
18
100
AcDbEntity
  8
姿図
100
AcDbLine
 10
-3947.732199327806
 20
-18241.7603005668
 30
0.0
 11
-3947.648587782568
 21
-18241.56698988255
 31
0.0
  0
LINE
  5
270D06
330
18
100
AcDbEntity
  8
姿図
100
AcDbLine
 10
-3947.607129827186
 20
-18242.43243141302
 30
0.0
 11
-3947.679296098157
 21
-18242.43918466514
 31
0.0
  0
LINE
  5
270D07
330
18
100
AcDbEntity
  8
姿図
100
AcDbLine
 10
-3947.647585346111
 20
-18241.53001369955
 30
0.0
 11
-3947.66138320648
 21
-18242.03896586947
 31
0.0
  0
LINE
  5
270D08
330
18
100
AcDbEntity
  8
姿図
100
AcDbLine
 10
-3947.715379955589
 20
-18241.23211948343
 30
0.0
 11
-3947.619342701654
 21
-18241.30086644302
 31
0.0
  0
LINE
  5
270D09
330
18
100
AcDbEntity
  8
姿図
100
AcDbLine
 10
-3947.715379955589
 20
-18242.4297129599
 30
0.0
 11
-3947.572814668244
 21
-18242.53176637819
 31
0.0
  0
LINE
  5
270D0A
330
18
100
AcDbEntity
  8
姿図
100
AcDbLine
 10
-3947.732199327806
 20
-18240.56270709033
 30
0.0
 11
-3947.538945237982
 21
-18240.11590180487
 31
0.0
  0
LINE
  5
270D0B
330
18
100
AcDbEntity
  8
姿図
100
AcDbLine
 10
-3947.591848467631
 20
-18240.63461118299
 30
0.0
 11
-3947.679296098157
 21
-18240.64279445044
 31
0.0
  0
LINE
  5
270D0C
330
18
100
AcDbEntity
  8
姿図
100
AcDbLine
 10
-3947.715379955589
 20
-18240.6333227452
 30
0.0
 11
-3947.55378172335
 21
-18240.74900063774
 31
0.0
  0
LINE
  5
270D0D
330
18
100
AcDbEntity
  8
姿図
100
AcDbLine
 10
-3947.591848467631
 20
-18240.03581444476
 30
0.0
 11
-3947.679296098157
 21
-18240.04399771221
 31
0.0
  0
LINE
  5
270D0E
330
18
100
AcDbEntity
  8
姿図
100
AcDbLine
 10
-3947.715379955589
 20
-18240.03452600697
 30
0.0
 11
-3947.55378172335
 21
-18240.15020389951
 31
0.0
  0
LINE
  5
270D0F
330
18
100
AcDbEntity
  8
姿図
100
AcDbLine
 10
-3947.954373560608
 20
-18244.4881806282
 30
0.0
 11
-3947.998619814906
 21
-18237.82685432208
 31
0.0
  0
ELLIPSE
  5
270D10
330
18
100
AcDbEntity
  8
姿図
100
AcDbEllipse
 10
-3929.555902340054
 20
-18232.57181367883
 30
0.0
 11
10.70555958841341
 21
30.27069213220319
 31
3.564704336882287E-15
210
-3.701743464227721E-17
220
-1.046692943349817E-16
230
1.0
 40
0.5306015190202691
 41
2.132850903174913
 42
2.178852095897546
  0
LINE
  5
270D11
330
18
100
AcDbEntity
  8
姿図
100
AcDbLine
 10
-3948.851950131103
 20
-18243.89732057524
 30
0.0
 11
-3949.306411845289
 21
-18243.93984867726
 31
0.0
  0
LINE
  5
270D12
330
18
100
AcDbEntity
  8
姿図
100
AcDbLine
 10
-3949.6081838989
 20
-18244.01018300392
 30
0.0
 11
-3949.414929809076
 21
-18243.56337771846
 31
0.0
  0
ELLIPSE
  5
270D13
330
18
100
AcDbEntity
  8
姿図
100
AcDbEllipse
 10
-3929.839121928544
 20
-18243.56832379055
 30
0.0
 11
-19.05527350427758
 21
-3.860897617758608E-14
 31
-1.057780169248933E-15
210
-5.551115123125783E-17
220
-1.124743087522146E-31
230
1.0
 40
0.2588190451025201
 41
0.0667579305343701
 42
0.1004537543484347
  0
LINE
  5
270D14
330
18
100
AcDbEntity
  8
姿図
100
AcDbLine
 10
-3949.591364526683
 20
-18244.67959539702
 30
0.0
 11
-3949.429766294444
 21
-18244.79527328957
 31
0.0
  0
LINE
  5
270D15
330
18
100
AcDbEntity
  8
姿図
100
AcDbLine
 10
-3949.6081838989
 20
-18245.20777648039
 30
0.0
 11
-3949.414929809076
 21
-18244.76097119492
 31
0.0
  0
LINE
  5
270D16
330
18
100
AcDbEntity
  8
姿図
100
AcDbLine
 10
-3949.467833038725
 20
-18245.27968057305
 30
0.0
 11
-3949.555280669251
 21
-18245.2878638405
 31
0.0
  0
LINE
  5
270D17
330
18
100
AcDbEntity
  8
姿図
100
AcDbLine
 10
-3949.467833038725
 20
-18244.08208709658
 30
0.0
 11
-3949.555280669251
 21
-18244.09027036403
 31
0.0
  0
LINE
  5
270D18
330
18
100
AcDbEntity
  8
姿図
100
AcDbLine
 10
-3949.6081838989
 20
-18244.60897974216
 30
0.0
 11
-3949.414929809076
 21
-18244.16217445669
 31
0.0
  0
LINE
  5
270D19
330
18
100
AcDbEntity
  8
姿図
100
AcDbLine
 10
-3949.467833038725
 20
-18244.68088383482
 30
0.0
 11
-3949.555280669251
 21
-18244.68906710227
 31
0.0
  0
LINE
  5
270D1A
330
18
100
AcDbEntity
  8
姿図
100
AcDbLine
 10
-3949.591364526683
 20
-18244.08079865879
 30
0.0
 11
-3949.429766294444
 21
-18244.19647655134
 31
0.0
  0
LINE
  5
270D1B
330
18
100
AcDbEntity
  8
姿図
100
AcDbLine
 10
-3949.6081838989
 20
-18245.80657321862
 30
0.0
 11
-3949.414929809076
 21
-18245.35976793316
 31
0.0
  0
LINE
  5
270D1C
330
18
100
AcDbEntity
  8
姿図
100
AcDbLine
 10
-3949.467833038725
 20
-18245.87847731128
 30
0.0
 11
-3949.555280669251
 21
-18245.88666057873
 31
0.0
  0
LINE
  5
270D1D
330
18
100
AcDbEntity
  8
姿図
100
AcDbLine
 10
-3949.591364526683
 20
-18245.87718887349
 30
0.0
 11
-3949.429766294444
 21
-18245.99286676604
 31
0.0
  0
LINE
  5
270D1E
330
18
100
AcDbEntity
  8
姿図
100
AcDbLine
 10
-3949.591364526683
 20
-18245.27839213526
 30
0.0
 11
-3949.429766294444
 21
-18245.3940700278
 31
0.0
  0
LINE
  5
270D1F
330
18
100
AcDbEntity
  8
姿図
100
AcDbLine
 10
-3949.467833038725
 20
-18246.47727404951
 30
0.0
 11
-3949.555280669251
 21
-18246.48545731697
 31
0.0
  0
LINE
  5
270D20
330
18
100
AcDbEntity
  8
姿図
100
AcDbLine
 10
-3949.6081838989
 20
-18246.40536995685
 30
0.0
 11
-3949.414929809076
 21
-18245.95856467139
 31
0.0
  0
ELLIPSE
  5
270D21
330
18
100
AcDbEntity
  8
姿図
100
AcDbEllipse
 10
-3949.555280669252
 20
-18244.03039069021
 30
0.0
 11
0.03608385743162816
 21
0.05040796858486903
 31
0.0
210
0.0
220
0.0
230
1.0
 40
0.9083744652357209
 41
1.804594242940603
 42
3.808998900156939
  0
ELLIPSE
  5
270D22
330
18
100
AcDbEntity
  8
姿図
100
AcDbEllipse
 10
-3949.555280669252
 20
-18244.62918742844
 30
0.0
 11
0.03608385743162816
 21
0.05040796858486903
 31
0.0
210
0.0
220
0.0
230
1.0
 40
0.9083744652357209
 41
1.804594242940676
 42
3.80899890015725
  0
ELLIPSE
  5
270D23
330
18
100
AcDbEntity
  8
姿図
100
AcDbEllipse
 10
-3949.555280669252
 20
-18245.22798416668
 30
0.0
 11
0.03608385743162816
 21
0.05040796858486903
 31
0.0
210
0.0
220
0.0
230
1.0
 40
0.9083744652357209
 41
1.804594242940915
 42
3.808998900157249
  0
ELLIPSE
  5
270D24
330
18
100
AcDbEntity
  8
姿図
100
AcDbEllipse
 10
-3949.555280669252
 20
-18245.82678090491
 30
0.0
 11
0.03608385743162698
 21
0.05040796858486737
 31
0.0
210
0.0
220
0.0
230
1.0
 40
0.9083744652357209
 41
1.804594242940485
 42
3.808998900156777
  0
ELLIPSE
  5
270D25
330
18
100
AcDbEntity
  8
姿図
100
AcDbEllipse
 10
-3949.555280669252
 20
-18246.42557764314
 30
0.0
 11
0.03608385743162698
 21
0.05040796858486737
 31
0.0
210
0.0
220
0.0
230
1.0
 40
0.9083744652357209
 41
1.804594242940884
 42
3.808998900157218
  0
ELLIPSE
  5
270D26
330
18
100
AcDbEntity
  8
姿図
100
AcDbEllipse
 10
-3947.679296098157
 20
-18244.17569520602
 30
0.0
 11
0.0360838574316279
 21
0.05040796858486921
 31
-3.441247287127782E-18
210
3.231153159914908E-17
220
4.513815278383431E-17
230
1.0
 40
0.9083744652357175
 41
1.804594242940764
 42
3.808998900157057
  0
ELLIPSE
  5
270D27
330
18
100
AcDbEntity
  8
姿図
100
AcDbEllipse
 10
-3949.467833038724
 20
-18244.74076350864
 30
0.0
 11
0.03608385743162511
 21
0.05040796858487479
 31
3.441247287127942E-18
210
-3.231153159914506E-17
220
-4.513815278383715E-17
230
1.0
 40
0.9083744652357207
 41
4.946186896530127
 42
6.950591553746752
  0
ELLIPSE
  5
270D28
330
18
100
AcDbEntity
  8
姿図
100
AcDbEllipse
 10
-3949.467833038724
 20
-18245.33956024687
 30
0.0
 11
0.03608385743162511
 21
0.05040796858487479
 31
3.441247287127942E-18
210
-3.231153159914506E-17
220
-4.513815278383715E-17
230
1.0
 40
0.9083744652357207
 41
4.946186896530643
 42
6.950591553746944
  0
ELLIPSE
  5
270D29
330
18
100
AcDbEntity
  8
姿図
100
AcDbEllipse
 10
-3949.467833038724
 20
-18245.93835698511
 30
0.0
 11
0.03608385743162511
 21
0.05040796858487479
 31
3.441247287127942E-18
210
-3.231153159914506E-17
220
-4.513815278383715E-17
230
1.0
 40
0.9083744652357207
 41
4.946186896530488
 42
6.950591553746789
  0
ELLIPSE
  5
270D2A
330
18
100
AcDbEntity
  8
姿図
100
AcDbEllipse
 10
-3949.467833038724
 20
-18244.14196677041
 30
0.0
 11
0.03608385743162511
 21
0.05040796858487479
 31
3.441247287127942E-18
210
-3.231153159914506E-17
220
-4.513815278383715E-17
230
1.0
 40
0.9083744652357207
 41
4.946186896530451
 42
6.950591553746752
  0
ELLIPSE
  5
270D2B
330
18
100
AcDbEntity
  8
姿図
100
AcDbEllipse
 10
-3949.467833038724
 20
-18246.53715372334
 30
0.0
 11
0.03608385743162511
 21
0.05040796858487479
 31
3.441247287127942E-18
210
-3.231153159914506E-17
220
-4.513815278383715E-17
230
1.0
 40
0.9083744652357207
 41
6.074134062573671
 42
6.95059155374682
  0
ELLIPSE
  5
270D2C
330
18
100
AcDbEntity
  8
姿図
100
AcDbEllipse
 10
-3930.100855632358
 20
-18235.12310927339
 30
0.0
 11
10.71963824740441
 21
30.30595753130159
 31
0.0
210
0.0
220
0.0
230
1.0
 40
0.5306663220532382
 41
2.04631906000344
 42
2.129635835717337
  0
LINE
  5
270D2D
330
18
100
AcDbEntity
  8
姿図
100
AcDbLine
 10
-3949.591364526683
 20
-18239.29042475293
 30
0.0
 11
-3949.429766294444
 21
-18239.40610264547
 31
0.0
  0
LINE
  5
270D2E
330
18
100
AcDbEntity
  8
姿図
100
AcDbLine
 10
-3949.6081838989
 20
-18239.81860583629
 30
0.0
 11
-3949.414929809076
 21
-18239.37180055082
 31
0.0
  0
LINE
  5
270D2F
330
18
100
AcDbEntity
  8
姿図
100
AcDbLine
 10
-3949.467833038725
 20
-18239.89050992895
 30
0.0
 11
-3949.555280669251
 21
-18239.8986931964
 31
0.0
  0
LINE
  5
270D30
330
18
100
AcDbEntity
  8
姿図
100
AcDbLine
 10
-3949.591364526683
 20
-18239.88922149116
 30
0.0
 11
-3949.429766294444
 21
-18240.0048993837
 31
0.0
  0
LINE
  5
270D31
330
18
100
AcDbEntity
  8
姿図
100
AcDbLine
 10
-3949.6081838989
 20
-18238.02221562159
 30
0.0
 11
-3949.40558917802
 21
-18237.55381470868
 31
0.0
  0
LINE
  5
270D32
330
18
100
AcDbEntity
  8
姿図
100
AcDbLine
 10
-3949.467833038725
 20
-18238.09411971425
 30
0.0
 11
-3949.555280669251
 21
-18238.1023029817
 31
0.0
  0
LINE
  5
270D33
330
18
100
AcDbEntity
  8
姿図
100
AcDbLine
 10
-3949.6081838989
 20
-18238.62101235982
 30
0.0
 11
-3949.414929809076
 21
-18238.17420707436
 31
0.0
  0
LINE
  5
270D34
330
18
100
AcDbEntity
  8
姿図
100
AcDbLine
 10
-3949.467833038725
 20
-18238.69291645248
 30
0.0
 11
-3949.555280669251
 21
-18238.70109971994
 31
0.0
  0
LINE
  5
270D35
330
18
100
AcDbEntity
  8
姿図
100
AcDbLine
 10
-3949.6081838989
 20
-18239.21980909806
 30
0.0
 11
-3949.414929809076
 21
-18238.77300381259
 31
0.0
  0
LINE
  5
270D36
330
18
100
AcDbEntity
  8
姿図
100
AcDbLine
 10
-3949.467833038725
 20
-18239.29171319072
 30
0.0
 11
-3949.555280669251
 21
-18239.29989645817
 31
0.0
  0
LINE
  5
270D37
330
18
100
AcDbEntity
  8
姿図
100
AcDbLine
 10
-3949.591364526683
 20
-18238.09283127646
 30
0.0
 11
-3949.429766294444
 21
-18238.20850916901
 31
0.0
  0
LINE
  5
270D38
330
18
100
AcDbEntity
  8
姿図
100
AcDbLine
 10
-3949.591364526683
 20
-18238.69162801469
 30
0.0
 11
-3949.429766294444
 21
-18238.80730590724
 31
0.0
  0
LINE
  5
270D39
330
18
100
AcDbEntity
  8
姿図
100
AcDbLine
 10
-3949.591364526683
 20
-18242.88320518233
 30
0.0
 11
-3949.429766294444
 21
-18242.99888307487
 31
0.0
  0
LINE
  5
270D3A
330
18
100
AcDbEntity
  8
姿図
100
AcDbLine
 10
-3949.6081838989
 20
-18243.41138626569
 30
0.0
 11
-3949.414929809076
 21
-18242.96458098023
 31
0.0
  0
LINE
  5
270D3B
330
18
100
AcDbEntity
  8
姿図
100
AcDbLine
 10
-3949.467833038725
 20
-18243.48329035835
 30
0.0
 11
-3949.555280669251
 21
-18243.4914736258
 31
0.0
  0
LINE
  5
270D3C
330
18
100
AcDbEntity
  8
姿図
100
AcDbLine
 10
-3949.591364526683
 20
-18243.48200192056
 30
0.0
 11
-3949.429766294444
 21
-18243.59767981311
 31
0.0
  0
LINE
  5
270D3D
330
18
100
AcDbEntity
  8
姿図
100
AcDbLine
 10
-3949.591364526683
 20
-18241.08681496763
 30
0.0
 11
-3949.429766294444
 21
-18241.20249286017
 31
0.0
  0
LINE
  5
270D3E
330
18
100
AcDbEntity
  8
姿図
100
AcDbLine
 10
-3949.6081838989
 20
-18241.61499605099
 30
0.0
 11
-3949.414929809076
 21
-18241.16819076553
 31
0.0
  0
LINE
  5
270D3F
330
18
100
AcDbEntity
  8
姿図
100
AcDbLine
 10
-3949.467833038725
 20
-18241.68690014365
 30
0.0
 11
-3949.555280669251
 21
-18241.6950834111
 31
0.0
  0
LINE
  5
270D40
330
18
100
AcDbEntity
  8
姿図
100
AcDbLine
 10
-3949.6081838989
 20
-18242.21379278922
 30
0.0
 11
-3949.414929809076
 21
-18241.76698750376
 31
0.0
  0
LINE
  5
270D41
330
18
100
AcDbEntity
  8
姿図
100
AcDbLine
 10
-3949.467833038725
 20
-18242.28569688189
 30
0.0
 11
-3949.555280669251
 21
-18242.29388014933
 31
0.0
  0
LINE
  5
270D42
330
18
100
AcDbEntity
  8
姿図
100
AcDbLine
 10
-3949.6081838989
 20
-18242.81258952745
 30
0.0
 11
-3949.414929809076
 21
-18242.36578424199
 31
0.0
  0
LINE
  5
270D43
330
18
100
AcDbEntity
  8
姿図
100
AcDbLine
 10
-3949.467833038725
 20
-18242.88449362012
 30
0.0
 11
-3949.555280669251
 21
-18242.89267688756
 31
0.0
  0
LINE
  5
270D44
330
18
100
AcDbEntity
  8
姿図
100
AcDbLine
 10
-3949.591364526683
 20
-18241.68561170586
 30
0.0
 11
-3949.429766294444
 21
-18241.8012895984
 31
0.0
  0
LINE
  5
270D45
330
18
100
AcDbEntity
  8
姿図
100
AcDbLine
 10
-3949.591364526683
 20
-18242.28440844409
 30
0.0
 11
-3949.429766294444
 21
-18242.40008633664
 31
0.0
  0
LINE
  5
270D46
330
18
100
AcDbEntity
  8
姿図
100
AcDbLine
 10
-3949.467833038725
 20
-18240.48930666718
 30
0.0
 11
-3949.555280669251
 21
-18240.49748993463
 31
0.0
  0
LINE
  5
270D47
330
18
100
AcDbEntity
  8
姿図
100
AcDbLine
 10
-3949.6081838989
 20
-18241.01619931276
 30
0.0
 11
-3949.414929809076
 21
-18240.56939402729
 31
0.0
  0
LINE
  5
270D48
330
18
100
AcDbEntity
  8
姿図
100
AcDbLine
 10
-3949.467833038725
 20
-18241.08810340541
 30
0.0
 11
-3949.555280669251
 21
-18241.09628667287
 31
0.0
  0
LINE
  5
270D49
330
18
100
AcDbEntity
  8
姿図
100
AcDbLine
 10
-3949.591364526683
 20
-18240.4880182294
 30
0.0
 11
-3949.429766294444
 21
-18240.60369612194
 31
0.0
  0
LINE
  5
270D4A
330
18
100
AcDbEntity
  8
姿図
100
AcDbLine
 10
-3949.6081838989
 20
-18240.41740257453
 30
0.0
 11
-3949.414929809076
 21
-18239.97059728906
 31
0.0
  0
ELLIPSE
  5
270D4B
330
18
100
AcDbEntity
  8
姿図
100
AcDbEllipse
 10
-3949.555280669252
 20
-18242.83279721374
 30
0.0
 11
0.03608385743162816
 21
0.05040796858486903
 31
0.0
210
0.0
220
0.0
230
1.0
 40
0.9083744652357209
 41
1.804594242940693
 42
3.808998900156747
  0
ELLIPSE
  5
270D4C
330
18
100
AcDbEntity
  8
姿図
100
AcDbEllipse
 10
-3949.555280669252
 20
-18243.43159395198
 30
0.0
 11
0.03608385743162816
 21
0.05040796858486903
 31
0.0
210
0.0
220
0.0
230
1.0
 40
0.9083744652357209
 41
1.804594242940521
 42
3.808998900156814
  0
ELLIPSE
  5
270D4D
330
18
100
AcDbEntity
  8
姿図
100
AcDbEllipse
 10
-3949.555280669252
 20
-18239.24001678434
 30
0.0
 11
0.03608385743162933
 21
0.05040796858487062
 31
3.441247287127891E-18
210
-3.231153159914929E-17
220
-4.513815278383413E-17
230
1.0
 40
0.9083744652357209
 41
1.804594242940522
 42
3.808998900156824
  0
ELLIPSE
  5
270D4E
330
18
100
AcDbEntity
  8
姿図
100
AcDbEllipse
 10
-3949.555280669252
 20
-18241.03640699905
 30
0.0
 11
0.03608385743162816
 21
0.05040796858486903
 31
0.0
210
0.0
220
0.0
230
1.0
 40
0.9083744652357209
 41
1.804594242940334
 42
3.80899890015687
  0
ELLIPSE
  5
270D4F
330
18
100
AcDbEntity
  8
姿図
100
AcDbEllipse
 10
-3949.555280669252
 20
-18241.63520373728
 30
0.0
 11
0.03608385743162816
 21
0.05040796858486903
 31
0.0
210
0.0
220
0.0
230
1.0
 40
0.9083744652357209
 41
1.804594242940608
 42
3.808998900156902
  0
ELLIPSE
  5
270D50
330
18
100
AcDbEntity
  8
姿図
100
AcDbEllipse
 10
-3949.555280669252
 20
-18242.23400047551
 30
0.0
 11
0.03608385743162816
 21
0.05040796858486903
 31
0.0
210
0.0
220
0.0
230
1.0
 40
0.9083744652357209
 41
1.804594242940608
 42
3.808998900156902
  0
ELLIPSE
  5
270D51
330
18
100
AcDbEntity
  8
姿図
100
AcDbEllipse
 10
-3949.555280669252
 20
-18239.83881352258
 30
0.0
 11
0.03608385743162933
 21
0.05040796858487062
 31
3.441247287127891E-18
210
-3.231153159914929E-17
220
-4.513815278383413E-17
230
1.0
 40
0.9083744652357209
 41
1.804594242940522
 42
3.808998900156824
  0
ELLIPSE
  5
270D52
330
18
100
AcDbEntity
  8
姿図
100
AcDbEllipse
 10
-3949.555280669252
 20
-18240.43761026081
 30
0.0
 11
0.03608385743162816
 21
0.05040796858486903
 31
0.0
210
0.0
220
0.0
230
1.0
 40
0.9083744652357209
 41
1.804594242940453
 42
3.808998900157027
  0
ELLIPSE
  5
270D53
330
18
100
AcDbEntity
  8
姿図
100
AcDbEllipse
 10
-3949.555280669252
 20
-18238.04242330788
 30
0.0
 11
0.03608385743162933
 21
0.05040796858487062
 31
3.441247287127891E-18
210
-3.231153159914929E-17
220
-4.513815278383413E-17
230
1.0
 40
0.9083744652357209
 41
1.804594242940792
 42
3.808998900157135
  0
ELLIPSE
  5
270D54
330
18
100
AcDbEntity
  8
姿図
100
AcDbEllipse
 10
-3949.555280669252
 20
-18238.64122004611
 30
0.0
 11
0.03608385743162933
 21
0.05040796858487062
 31
3.441247287127891E-18
210
-3.231153159914929E-17
220
-4.513815278383413E-17
230
1.0
 40
0.9083744652357209
 41
1.804594242940609
 42
3.808998900156911
  0
LINE
  5
270D55
330
18
100
AcDbEntity
  8
姿図
100
AcDbLine
 10
-3947.655940440934
 20
-18241.83820232635
 30
0.0
 11
-3947.679296098157
 21
-18241.84038792691
 31
0.0
  0
LINE
  5
270D56
330
18
100
AcDbEntity
  8
姿図
100
AcDbLine
 10
-3947.732199327806
 20
-18242.35909730503
 30
0.0
 11
-3947.656497826831
 21
-18242.18407471801
 31
0.0
  0
LINE
  5
270D57
330
18
100
AcDbEntity
  8
姿図
100
AcDbLine
 10
-3947.715379955589
 20
-18241.83091622167
 30
0.0
 11
-3947.656878229446
 21
-18241.87279388516
 31
0.0
  0
ELLIPSE
  5
270D58
330
18
100
AcDbEntity
  8
姿図
100
AcDbEllipse
 10
-3947.679296098157
 20
-18242.97810172955
 30
0.0
 11
0.0360838574316279
 21
0.05040796858486921
 31
-3.441247287127782E-18
210
3.231153159914908E-17
220
4.513815278383431E-17
230
1.0
 40
0.9083744652357175
 41
1.804594242940832
 42
3.808998900156845
  0
ELLIPSE
  5
270D59
330
18
100
AcDbEntity
  8
姿図
100
AcDbEllipse
 10
-3947.679296098157
 20
-18243.57689846779
 30
0.0
 11
0.0360838574316279
 21
0.05040796858486921
 31
-3.441247287127782E-18
210
3.231153159914908E-17
220
4.513815278383431E-17
230
1.0
 40
0.9083744652357175
 41
1.804594242940847
 42
3.8089989001569
  0
ELLIPSE
  5
270D5A
330
18
100
AcDbEntity
  8
姿図
100
AcDbEllipse
 10
-3947.679296098157
 20
-18241.18171151485
 30
0.0
 11
0.03608385743162907
 21
0.05040796858487078
 31
3.441247287127870E-18
210
-3.231153159914889E-17
220
-4.513815278383404E-17
230
1.0
 40
0.908374465235718
 41
1.804594242940848
 42
3.808998900156912
  0
ELLIPSE
  5
270D5B
330
18
100
AcDbEntity
  8
姿図
100
AcDbEllipse
 10
-3947.679296098157
 20
-18241.78050825309
 30
0.0
 11
0.0360838574316279
 21
0.05040796858486921
 31
-3.441247287127782E-18
210
3.231153159914908E-17
220
4.513815278383431E-17
230
1.0
 40
0.9083744652357175
 41
1.804594242940723
 42
3.808998900156777
  0
ELLIPSE
  5
270D5C
330
18
100
AcDbEntity
  8
姿図
100
AcDbEllipse
 10
-3947.679296098157
 20
-18242.37930499132
 30
0.0
 11
0.0360838574316279
 21
0.05040796858486921
 31
-3.441247287127782E-18
210
3.231153159914908E-17
220
4.513815278383431E-17
230
1.0
 40
0.9083744652357175
 41
1.804594242940692
 42
3.808998900156467
  0
ELLIPSE
  5
270D5D
330
18
100
AcDbEntity
  8
姿図
100
AcDbEllipse
 10
-3947.679296098157
 20
-18239.38532130015
 30
0.0
 11
0.03608385743162907
 21
0.05040796858487078
 31
3.441247287127870E-18
210
-3.231153159914889E-17
220
-4.513815278383404E-17
230
1.0
 40
0.908374465235718
 41
1.804594242940803
 42
3.808998900156824
  0
ELLIPSE
  5
270D5E
330
18
100
AcDbEntity
  8
姿図
100
AcDbEllipse
 10
-3947.679296098157
 20
-18239.98411803838
 30
0.0
 11
0.03608385743162907
 21
0.05040796858487078
 31
3.441247287127870E-18
210
-3.231153159914889E-17
220
-4.513815278383404E-17
230
1.0
 40
0.908374465235718
 41
1.804594242940766
 42
3.808998900156787
  0
ELLIPSE
  5
270D5F
330
18
100
AcDbEntity
  8
姿図
100
AcDbEllipse
 10
-3947.679296098157
 20
-18240.58291477662
 30
0.0
 11
0.03608385743162907
 21
0.05040796858487078
 31
3.441247287127870E-18
210
-3.231153159914889E-17
220
-4.513815278383404E-17
230
1.0
 40
0.908374465235718
 41
1.804594242940876
 42
3.808998900156855
  0
ELLIPSE
  5
270D60
330
18
100
AcDbEntity
  8
姿図
100
AcDbEllipse
 10
-3949.467833038724
 20
-18242.94437329394
 30
0.0
 11
0.03608385743162511
 21
0.05040796858487479
 31
3.441247287127942E-18
210
-3.231153159914506E-17
220
-4.513815278383715E-17
230
1.0
 40
0.9083744652357207
 41
4.946186896530419
 42
6.950591553746441
  0
ELLIPSE
  5
270D61
330
18
100
AcDbEntity
  8
姿図
100
AcDbEllipse
 10
-3949.467833038724
 20
-18243.54317003218
 30
0.0
 11
0.03608385743162511
 21
0.05040796858487479
 31
3.441247287127942E-18
210
-3.231153159914506E-17
220
-4.513815278383715E-17
230
1.0
 40
0.9083744652357207
 41
4.946186896530518
 42
6.95059155374682
  0
ELLIPSE
  5
270D62
330
18
100
AcDbEntity
  8
姿図
100
AcDbEllipse
 10
-3949.467833038724
 20
-18239.35159286454
 30
0.0
 11
0.03608385743163537
 21
0.05040796858488904
 31
3.441247287128899E-18
210
-3.231153159914492E-17
220
-4.513815278383690E-17
230
1.0
 40
0.9083744652357205
 41
4.946186896530406
 42
6.950591553746625
  0
ELLIPSE
  5
270D63
330
18
100
AcDbEntity
  8
姿図
100
AcDbEllipse
 10
-3949.467833038724
 20
-18241.14798307924
 30
0.0
 11
0.03608385743162511
 21
0.05040796858487479
 31
3.441247287127942E-18
210
-3.231153159914506E-17
220
-4.513815278383715E-17
230
1.0
 40
0.9083744652357207
 41
4.946186896530169
 42
6.950591553746752
  0
ELLIPSE
  5
270D64
330
18
100
AcDbEntity
  8
姿図
100
AcDbEllipse
 10
-3949.467833038724
 20
-18241.74677981748
 30
0.0
 11
0.03608385743162511
 21
0.05040796858487479
 31
3.441247287127942E-18
210
-3.231153159914506E-17
220
-4.513815278383715E-17
230
1.0
 40
0.9083744652357207
 41
4.946186896530518
 42
6.95059155374654
  0
ELLIPSE
  5
270D65
330
18
100
AcDbEntity
  8
姿図
100
AcDbEllipse
 10
-3949.467833038724
 20
-18242.34557655571
 30
0.0
 11
0.03608385743162511
 21
0.05040796858487479
 31
3.441247287127942E-18
210
-3.231153159914506E-17
220
-4.513815278383715E-17
230
1.0
 40
0.9083744652357207
 41
4.946186896530611
 42
6.950591553746913
  0
ELLIPSE
  5
270D66
330
18
100
AcDbEntity
  8
姿図
100
AcDbEllipse
 10
-3949.467833038724
 20
-18239.95038960277
 30
0.0
 11
0.03608385743162511
 21
0.05040796858487479
 31
3.441247287127942E-18
210
-3.231153159914506E-17
220
-4.513815278383715E-17
230
1.0
 40
0.9083744652357207
 41
4.946186896530611
 42
6.950591553747201
  0
ELLIPSE
  5
270D67
330
18
100
AcDbEntity
  8
姿図
100
AcDbEllipse
 10
-3949.467833038724
 20
-18240.54918634101
 30
0.0
 11
0.03608385743162511
 21
0.05040796858487479
 31
3.441247287127942E-18
210
-3.231153159914506E-17
220
-4.513815278383715E-17
230
1.0
 40
0.9083744652357207
 41
4.946186896530643
 42
6.950591553746944
  0
ELLIPSE
  5
270D68
330
18
100
AcDbEntity
  8
姿図
100
AcDbEllipse
 10
-3949.467833038724
 20
-18238.15399938808
 30
0.0
 11
0.03608385743163537
 21
0.05040796858488904
 31
3.441247287128899E-18
210
-3.231153159914492E-17
220
-4.513815278383690E-17
230
1.0
 40
0.9083744652357205
 41
4.946186896530376
 42
6.950591553746025
  0
ELLIPSE
  5
270D69
330
18
100
AcDbEntity
  8
姿図
100
AcDbEllipse
 10
-3949.467833038724
 20
-18238.75279612631
 30
0.0
 11
0.03608385743163537
 21
0.05040796858488904
 31
3.441247287128899E-18
210
-3.231153159914492E-17
220
-4.513815278383690E-17
230
1.0
 40
0.9083744652357205
 41
4.946186896530474
 42
6.950591553746981
  0
ELLIPSE
  5
270D6A
330
18
100
AcDbEntity
  8
姿図
100
AcDbEllipse
 10
-3947.591848467632
 20
-18244.28727128622
 30
0.0
 11
0.0360838574316249
 21
0.05040796858487492
 31
3.441247287127944E-18
210
-3.231153159914466E-17
220
-4.513815278383751E-17
230
1.0
 40
0.9083744652357177
 41
6.006282980254767
 42
6.950591553746565
  0
ELLIPSE
  5
270D6B
330
18
100
AcDbEntity
  8
姿図
100
AcDbEllipse
 10
-3947.339073871582
 20
-18238.90823809617
 30
0.0
 11
0.04812166340264891
 21
-0.5558609181685003
 31
-1.238875691076331E-16
210
1.915108353182199E-17
220
-2.212171841785135E-16
230
1.0
 40
0.3301839125655835
 41
3.143887870131871
 42
4.437113948144754
  0
LINE
  5
270D6C
330
18
100
AcDbEntity
  8
姿図
100
AcDbLine
 10
-3947.529604606925
 20
-18238.89671270096
 30
0.0
 11
-3947.528780176524
 21
-18238.7724394228
 31
0.0
  0
ELLIPSE
  5
270D6D
330
18
100
AcDbEntity
  8
姿図
100
AcDbEllipse
 10
-3947.591848467632
 20
-18243.08967780975
 30
0.0
 11
0.0360838574316249
 21
0.05040796858487492
 31
3.441247287127944E-18
210
-3.231153159914466E-17
220
-4.513815278383751E-17
230
1.0
 40
0.9083744652357177
 41
4.946186896530421
 42
6.950591553746442
  0
ELLIPSE
  5
270D6E
330
18
100
AcDbEntity
  8
姿図
100
AcDbEllipse
 10
-3947.591848467632
 20
-18243.68847454798
 30
0.0
 11
0.0360838574316249
 21
0.05040796858487492
 31
3.441247287127944E-18
210
-3.231153159914466E-17
220
-4.513815278383751E-17
230
1.0
 40
0.9083744652357177
 41
4.946186896530445
 42
6.950591553746509
  0
ELLIPSE
  5
270D6F
330
18
100
AcDbEntity
  8
姿図
100
AcDbEllipse
 10
-3947.591848467632
 20
-18239.49689738035
 30
0.0
 11
0.0360838574316351
 21
0.05040796858488925
 31
3.441247287128919E-18
210
-3.231153159914480E-17
220
-4.513815278383737E-17
230
1.0
 40
0.908374465235718
 41
4.946186896530444
 42
6.950591553746381
  0
ELLIPSE
  5
270D70
330
18
100
AcDbEntity
  8
姿図
100
AcDbEllipse
 10
-3947.591848467632
 20
-18240.09569411858
 30
0.0
 11
0.0360838574316351
 21
0.05040796858488925
 31
3.441247287128919E-18
210
-3.231153159914480E-17
220
-4.513815278383737E-17
230
1.0
 40
0.908374465235718
 41
4.946186896530483
 42
6.950591553746505
  0
ELLIPSE
  5
270D71
330
18
100
AcDbEntity
  8
姿図
100
AcDbEllipse
 10
-3947.591848467632
 20
-18240.69449085681
 30
0.0
 11
0.0360838574316351
 21
0.05040796858488925
 31
3.441247287128919E-18
210
-3.231153159914480E-17
220
-4.513815278383737E-17
230
1.0
 40
0.908374465235718
 41
4.946186896530291
 42
6.950591553746593
  0
LINE
  5
270D72
330
18
100
AcDbEntity
  8
姿図
100
AcDbLine
 10
-3946.120270443378
 20
-18239.52577583755
 30
0.0
 11
-3946.122635243813
 21
-18239.16975231436
 31
0.0
  0
LINE
  5
270D73
330
18
100
AcDbEntity
  8
姿図
100
AcDbLine
 10
-3946.641785508232
 20
-18238.28262092909
 30
0.0
 11
-3947.387616663489
 21
-18238.3524151108
 31
0.0
  0
LINE
  5
270D74
330
18
100
AcDbEntity
  8
姿図
100
AcDbLine
 10
-3946.589939170071
 20
-18238.29921770728
 30
0.0
 11
-3946.315918951822
 21
-18238.4953713466
 31
0.0
  0
LINE
  5
270D75
330
18
100
AcDbEntity
  8
姿図
100
AcDbLine
 10
-3946.776068071947
 20
-18238.70200132828
 30
0.0
 11
-3946.766731660177
 21
-18240.10760924485
 31
0.0
  0
LINE
  5
270D76
330
18
100
AcDbEntity
  8
姿図
100
AcDbLine
 10
-3946.441041493581
 20
-18239.79709334847
 30
0.0
 11
-3947.025992610193
 21
-18240.35479093636
 31
0.0
  0
ELLIPSE
  5
270D77
330
18
100
AcDbEntity
  8
姿図
100
AcDbEllipse
 10
-3946.586361767006
 20
-18238.83780000166
 30
0.0
 11
0.0558345787801031
 21
-0.5551391896356208
 31
0.0
210
0.0
220
0.0
230
1.0
 40
0.3266547503873695
 41
2.861757613225559
 42
4.432553940020501
  0
ELLIPSE
  5
270D78
330
18
100
AcDbEntity
  8
姿図
100
AcDbEllipse
 10
-3946.312341548754
 20
-18239.03395364098
 30
0.0
 11
0.0558345787801031
 21
-0.5551391896356208
 31
0.0
210
0.0
220
0.0
230
1.0
 40
0.3266547503873695
 41
1.290961286430781
 42
2.861757613225615
  0
ELLIPSE
  5
270D79
330
18
100
AcDbEntity
  8
姿図
100
AcDbEllipse
 10
-3929.839121928546
 20
-18240.96355797923
 30
0.0
 11
-17.20278000000001
 21
-3.270690468459849E-13
 31
-1.909892244356116E-15
210
-1.110223024625157E-16
220
-2.110819219048410E-30
230
1.0
 40
0.2588190451025152
 41
5.28687662288746
 42
6.018106658722737
  0
ELLIPSE
  5
270D7A
330
18
100
AcDbEntity
  8
姿図
100
AcDbEllipse
 10
-3929.839121928544
 20
-18246.41260829716
 30
0.0
 11
-19.58182258531273
 21
-7.293833845092769E-13
 31
0.0
210
0.0
220
0.0
230
1.0
 40
0.2588190451024983
 41
5.241510706344444
 42
6.274432771330732
  0
ELLIPSE
  5
270D7B
330
18
100
AcDbEntity
  8
姿図
100
AcDbEllipse
 10
-3929.839121928546
 20
-18242.07133194496
 30
0.0
 11
-17.82270000000001
 21
-3.393499981019237E-13
 31
-9.893585950493393E-16
210
-5.551115123125783E-17
220
-1.056950353479716E-30
230
1.0
 40
0.258819045102515
 41
5.268090580583092
 42
6.550261017675986
  0
ELLIPSE
  5
270D7C
330
18
100
AcDbEntity
  8
姿図
100
AcDbEllipse
 10
-3929.839121928546
 20
-18241.56235471747
 30
0.0
 11
-17.80890179997573
 21
-3.376043869291861E-13
 31
-9.885926410810724E-16
210
-5.551115123125783E-17
220
-1.052328121613185E-30
230
1.0
 40
0.258819045102515
 41
5.266606351960423
 42
6.276168753067862
  0
ELLIPSE
  5
270D7D
330
18
100
AcDbEntity
  8
姿図
100
AcDbEllipse
 10
-3937.425921588735
 20
-18330.8027173798
 30
0.0
 11
-20.04006102018287
 21
-373.9277629498387
 31
2.078694912994643E-14
210
2.970768119157229E-18
220
5.543160152658209E-17
230
1.0
 40
0.0186593157869327
 41
4.459498662982783
 42
4.472829220484885
  0
LINE
  5
270D7E
330
18
100
AcDbEntity
  8
姿図
100
AcDbLine
 10
-3938.121378261019
 20
-18238.5471305902
 30
0.0
 11
-3938.105859632579
 21
-18236.46245080509
 31
0.0
  0
LINE
  5
270D7F
330
18
100
AcDbEntity
  8
姿図
100
AcDbLine
 10
-3934.753700462396
 20
-18236.1487588862
 30
0.0
 11
-3934.769219090837
 21
-18238.23343867132
 31
0.0
  0
ELLIPSE
  5
270D80
330
18
100
AcDbEntity
  8
姿図
100
AcDbEllipse
 10
-3939.20709836993
 20
-18017.50573629256
 30
0.0
 11
-23.03602790392042
 21
421.8956148611038
 31
0.0
210
0.0
220
0.0
230
1.0
 40
0.0171889472793754
 41
2.115486356435118
 42
2.128957736158343
  0
ELLIPSE
  5
270D81
330
18
100
AcDbEntity
  8
姿図
100
AcDbEllipse
 10
-3922.252322268354
 20
-18329.38278615173
 30
0.0
 11
-20.21392348571879
 21
370.1621647154587
 31
-2.057874303046787E-14
210
-3.026859354980777E-18
220
5.542856694399324E-17
230
1.0
 40
0.0174416807856973
 41
1.315822296819269
 42
1.32915285432137
  0
LINE
  5
270D82
330
18
100
AcDbEntity
  8
姿図
100
AcDbLine
 10
-3937.941627123797
 20
-18236.5800144086
 30
0.0
 11
-3937.926187971833
 21
-18238.52378372134
 31
0.0
  0
ELLIPSE
  5
270D83
330
18
100
AcDbEntity
  8
姿図
100
AcDbEllipse
 10
-3949.215058442677
 20
-18237.5653401039
 30
0.0
 11
0.04812166340264891
 21
-0.5558609181685003
 31
-1.238875691076331E-16
210
1.915108353182199E-17
220
-2.212171841785135E-16
230
1.0
 40
0.3301839125655835
 41
3.143887870131944
 42
4.437113948144803
  0
ELLIPSE
  5
270D84
330
18
100
AcDbEntity
  8
姿図
100
AcDbEllipse
 10
-3948.462346338099
 20
-18237.49490200938
 30
0.0
 11
0.0558345787801031
 21
-0.5551391896356208
 31
0.0
210
0.0
220
0.0
230
1.0
 40
0.3266547503873695
 41
2.861757613225725
 42
4.43255394002059
  0
LINE
  5
270D85
330
18
100
AcDbEntity
  8
姿図
100
AcDbLine
 10
-3948.465923741166
 20
-18236.956319715
 30
0.0
 11
-3948.191903522916
 21
-18237.15247335432
 31
0.0
  0
ELLIPSE
  5
270D86
330
18
100
AcDbEntity
  8
姿図
100
AcDbEllipse
 10
-3929.839121928546
 20
-18240.96355797923
 30
0.0
 11
-17.20278000000001
 21
-3.270690468459849E-13
 31
-1.909892244356116E-15
210
-1.110223024625157E-16
220
-2.110819219048410E-30
230
1.0
 40
0.2588190451025152
 41
5.002357841538155
 42
5.202574393620892
  0
ELLIPSE
  5
270D87
330
18
100
AcDbEntity
  8
姿図
100
AcDbEllipse
 10
-3929.839121928546
 20
-18241.56235471747
 30
0.0
 11
-17.80890179997573
 21
-3.376043869291861E-13
 31
-9.885926410810724E-16
210
-5.551115123125783E-17
220
-1.052328121613185E-30
230
1.0
 40
0.258819045102515
 41
3.563618606471713
 42
4.915675910959883
  0
ELLIPSE
  5
270D88
330
18
100
AcDbEntity
  8
姿図
100
AcDbEllipse
 10
-3929.839121928546
 20
-18242.07133194496
 30
0.0
 11
-17.82270000000001
 21
-3.393499981019237E-13
 31
-9.893585950493393E-16
210
-5.551115123125783E-17
220
-1.056950353479716E-30
230
1.0
 40
0.258819045102515
 41
3.565790486621951
 42
4.913638423115042
  0
ELLIPSE
  5
270D89
330
18
100
AcDbEntity
  8
姿図
100
AcDbEllipse
 10
-3929.839121928546
 20
-18240.96355797923
 30
0.0
 11
-17.20278000000001
 21
-3.270690468459849E-13
 31
-1.909892244356116E-15
210
-1.110223024625157E-16
220
-2.110819219048410E-30
230
1.0
 40
0.2588190451025152
 41
3.476409367365063
 42
4.924634818196502
  0
ELLIPSE
  5
270D8A
330
18
100
AcDbEntity
  8
姿図
100
AcDbEllipse
 10
-3929.839121928544
 20
-18246.41260829716
 30
0.0
 11
-19.58182258531273
 21
-3.358859401093392E-13
 31
-2.174019029833910E-15
210
-1.110223024625157E-16
220
-1.904359529010099E-30
230
1.0
 40
0.2588190451025165
 41
3.844220094436217
 42
4.877142159422503
  0
LINE
  5
270D8C
330
18
100
AcDbEntity
  8
姿図
100
AcDbLine
 10
-3907.549918743323
 20
-18251.20298220302
 30
0.0
 11
-3907.549918743323
 21
-18251.56017873359
 31
0.0
  0
ELLIPSE
  5
270D8D
330
18
100
AcDbEntity
  8
姿図
100
AcDbEllipse
 10
-3929.839121928546
 20
-18247.01140503539
 30
0.0
 11
-3.920994
 21
-7.476582902787854E-14
 31
2.176588909108546E-16
210
5.551115123125783E-17
220
1.058491097435225E-30
230
1.0
 40
0.2588190451025151
 41
2.609952476343572
 42
2.763896782061741
  0
ELLIPSE
  5
270D8E
330
18
100
AcDbEntity
  8
姿図
100
AcDbEllipse
 10
-3929.839121928546
 20
-18246.97379965927
 30
0.0
 11
-3.8745
 21
-1.044203473687944E-13
 31
2.150779554455085E-16
210
5.551115123125783E-17
220
1.496062380800005E-30
230
1.0
 40
0.2588190451025197
 41
2.630724706616837
 42
2.755517186223148
  0
ELLIPSE
  5
270D8F
330
18
100
AcDbEntity
  8
姿図
100
AcDbEllipse
 10
-3929.839121928546
 20
-18247.75990095818
 30
0.0
 11
3.920994
 21
3.014575639115336E-14
 31
4.353177818217091E-16
210
1.110223024625157E-16
220
8.535721513524229E-31
230
-1.0
 40
0.2588190451025151
 41
5.734445639860233
 42
6.814825484425799
  0
ELLIPSE
  5
270D90
330
18
100
AcDbEntity
  8
姿図
100
AcDbEllipse
 10
-3929.839121928546
 20
-18247.79399193567
 30
0.0
 11
14.73227173730388
 21
0.0
 31
0.0
210
0.0
220
0.0
230
1.0
 40
0.2673555525296201
 41
5.28076332886401
 42
5.96194421627353
  0
ELLIPSE
  5
270D91
330
18
100
AcDbEntity
  8
姿図
100
AcDbEllipse
 10
-3929.839121928546
 20
-18247.01140503539
 30
0.0
 11
-3.920994
 21
-7.476582902787854E-14
 31
2.176588909108546E-16
210
5.551115123125783E-17
220
1.058491097435225E-30
230
1.0
 40
0.2588190451025151
 41
0.3776958715257318
 42
0.5203662585641006
  0
ELLIPSE
  5
270D92
330
18
100
AcDbEntity
  8
姿図
100
AcDbEllipse
 10
-3929.839121928546
 20
-18246.97379965927
 30
0.0
 11
-3.8745
 21
-1.044203473687944E-13
 31
2.150779554455085E-16
210
5.551115123125783E-17
220
1.496062380800005E-30
230
1.0
 40
0.2588190451025197
 41
0.3860754673643187
 42
0.4990266802193034
  0
LINE
  5
270D93
330
18
100
AcDbEntity
  8
姿図
100
AcDbLine
 10
-3933.241121928544
 20
-18248.91109574959
 30
0.0
 11
-3933.241121928544
 21
-18248.05929932729
 31
0.0
  0
LINE
  5
270D94
330
18
100
AcDbEntity
  8
姿図
100
AcDbLine
 10
-3933.241121928544
 20
-18248.91109574959
 30
0.0
 11
-3933.241121928544
 21
-18247.23356109135
 31
0.0
  0
ELLIPSE
  5
270D95
330
18
100
AcDbEntity
  8
姿図
100
AcDbEllipse
 10
-3929.839121928546
 20
-18247.75990095818
 30
0.0
 11
-3.920994
 21
3.014575639115336E-14
 31
4.353177818217091E-16
210
1.110223024625157E-16
220
-8.535721513524229E-31
230
1.0
 40
0.2588190451025151
 41
5.734445639859379
 42
6.80355156574371
  0
LINE
  5
270D96
330
18
100
AcDbEntity
  8
姿図
100
AcDbLine
 10
-3930.473289501449
 20
-18252.15231397578
 30
0.0
 11
-3929.421968114782
 21
-18251.03949256906
 31
0.0
  0
LINE
  5
270D97
330
18
100
AcDbEntity
  8
姿図
100
AcDbLine
 10
-3930.757524367499
 20
-18252.12553875098
 30
0.0
 11
-3929.714345244313
 21
-18251.02133591249
 31
0.0
  0
LINE
  5
270D98
330
18
100
AcDbEntity
  8
姿図
100
AcDbLine
 10
-3931.014227465569
 20
-18252.0696212095
 30
0.0
 11
-3930.018925293157
 21
-18251.01609601953
 31
0.0
  0
LINE
  5
270D99
330
18
100
AcDbEntity
  8
姿図
100
AcDbLine
 10
-3931.241350673256
 20
-18251.98239341824
 30
0.0
 11
-3930.337130119339
 21
-18251.02527792382
 31
0.0
  0
LINE
  5
270D9A
330
18
100
AcDbEntity
  8
姿図
100
AcDbLine
 10
-3929.382828399527
 20
-18251.9809749068
 30
0.0
 11
-3928.812354981978
 21
-18251.3771300321
 31
0.0
  0
LINE
  5
270D9B
330
18
100
AcDbEntity
  8
姿図
100
AcDbLine
 10
-3929.806432963339
 20
-18252.10172220469
 30
0.0
 11
-3928.92825630453
 21
-18251.17217411674
 31
0.0
  0
LINE
  5
270D9C
330
18
100
AcDbEntity
  8
姿図
100
AcDbLine
 10
-3930.15923702924
 20
-18252.14752732915
 30
0.0
 11
-3929.140941955017
 21
-18251.0696642025
 31
0.0
  0
ELLIPSE
  5
270D9D
330
18
100
AcDbEntity
  8
姿図
100
AcDbEllipse
 10
-3930.183535230391
 20
-18251.50955329171
 30
0.0
 11
-1.374390620266722
 21
-0.1061948148059822
 31
0.0
210
0.0
220
0.0
230
1.0
 40
0.4628655777425251
 41
5.477092832877411
 42
9.981255930046515
  0
LINE
  5
270D9E
330
18
100
AcDbEntity
  8
姿図
100
AcDbLine
 10
-3931.430465286217
 20
-18251.85493361193
 30
0.0
 11
-3930.671277214834
 21
-18251.05133468559
 31
0.0
  0
LINE
  5
270D9F
330
18
100
AcDbEntity
  8
姿図
100
AcDbLine
 10
-3931.552023165836
 20
-18251.65596514995
 30
0.0
 11
-3931.025291070228
 21
-18251.09842036961
 31
0.0
  0
LINE
  5
270DA0
330
18
100
AcDbEntity
  8
姿図
100
AcDbLine
 10
-3949.6081838989
 20
-18247.60296343332
 30
0.0
 11
-3949.43856272549
 21
-18247.21079767437
 31
0.0
  0
LINE
  5
270DA1
330
18
100
AcDbEntity
  8
姿図
100
AcDbLine
 10
-3949.467833038725
 20
-18247.07607078775
 30
0.0
 11
-3949.555280669251
 21
-18247.0842540552
 31
0.0
  0
LINE
  5
270DA2
330
18
100
AcDbEntity
  8
姿図
100
AcDbLine
 10
-3949.6081838989
 20
-18247.00416669509
 30
0.0
 11
-3949.424891592529
 21
-18246.58039314729
 31
0.0
  0
LINE
  5
270DA3
330
18
100
AcDbEntity
  8
姿図
100
AcDbLine
 10
-3949.591364526683
 20
-18247.07478234996
 30
0.0
 11
-3949.437993957264
 21
-18247.18457058219
 31
0.0
  0
LINE
  5
270DA4
330
18
100
AcDbEntity
  8
姿図
100
AcDbLine
 10
-3949.613579089602
 20
-18248.57182205885
 30
0.0
 11
-3949.613579089602
 21
-18247.62862663124
 31
0.0
  0
ELLIPSE
  5
270DA5
330
18
100
AcDbEntity
  8
姿図
100
AcDbEllipse
 10
-3949.555280669252
 20
-18247.62317111961
 30
0.0
 11
0.03608385743162933
 21
0.05040796858487062
 31
3.441247287127891E-18
210
-3.231153159914929E-17
220
-4.513815278383413E-17
230
1.0
 40
0.9083744652357209
 41
1.804594242940401
 42
2.238202573361832
  0
ELLIPSE
  5
270DA6
330
18
100
AcDbEntity
  8
姿図
100
AcDbEllipse
 10
-3949.555280669252
 20
-18247.02437438137
 30
0.0
 11
0.03608385743162698
 21
0.05040796858486737
 31
0.0
210
0.0
220
0.0
230
1.0
 40
0.9083744652357209
 41
1.804594242940566
 42
3.808998900156902
  0
ELLIPSE
  5
270DA7
330
18
100
AcDbEntity
  8
姿図
100
AcDbEllipse
 10
-3949.467833038724
 20
-18247.13595046157
 30
0.0
 11
0.03608385743162511
 21
0.05040796858487479
 31
3.441247287127942E-18
210
-3.231153159914506E-17
220
-4.513815278383715E-17
230
1.0
 40
0.9083744652357207
 41
0.0854693314817033
 42
0.6674062465672337
  0
LINE
  5
270DA8
330
18
100
AcDbEntity
  8
姿図
100
AcDbLine
 10
-3952.128325113766
 20
-18251.20298220302
 30
0.0
 11
-3952.128325113766
 21
-18251.56017873359
 31
0.0
  0
ELLIPSE
  5
270DA9
330
18
100
AcDbEntity
  8
姿図
100
AcDbEllipse
 10
-3929.839121928546
 20
-18247.79399193567
 30
0.0
 11
14.73227173730388
 21
0.0
 31
0.0
210
0.0
220
0.0
230
1.0
 40
0.2673555525296201
 41
3.462833744495849
 42
4.171550364110386
  0
ELLIPSE
  5
270DAA
330
18
100
AcDbEntity
  8
姿図
100
AcDbEllipse
 10
-3929.839121928546
 20
-18251.79089514981
 30
0.0
 11
18.41533967162984
 21
0.0
 31
0.0
210
0.0
220
0.0
230
1.0
 40
0.2673555525296201
 41
5.193154299005187
 42
10.52083557582906
  0
ELLIPSE
  5
270DAB
330
18
100
AcDbEntity
  8
姿図
100
AcDbEllipse
 10
-3929.839121928546
 20
-18251.7773271788
 30
0.0
 11
17.33237037622063
 21
0.0
 31
0.0
210
0.0
220
0.0
230
1.0
 40
0.26735555252962
 41
5.223479738308696
 42
10.49209545645434
  0
ELLIPSE
  5
270DAC
330
18
100
AcDbEntity
  8
姿図
100
AcDbEllipse
 10
-3929.839121928546
 20
-18251.79089514981
 30
0.0
 11
18.41533967162984
 21
0.0
 31
0.0
210
0.0
220
0.0
230
1.0
 40
0.2673555525296201
 41
4.426433418193852
 42
4.986873073761454
  0
ELLIPSE
  5
270DAD
330
18
100
AcDbEntity
  8
姿図
100
AcDbEllipse
 10
-3929.839121928546
 20
-18251.56017873359
 30
0.0
 11
22.2892031852213
 21
0.0
 31
0.0
210
0.0
220
0.0
230
1.0
 40
0.2673555525296202
 41
4.468980934068693
 42
4.945114394893197
  0
ELLIPSE
  5
270DAE
330
18
100
AcDbEntity
  8
姿図
100
AcDbEllipse
 10
-3929.839121928546
 20
-18251.7773271788
 30
0.0
 11
17.33237037622063
 21
0.0
 31
0.0
210
0.0
220
0.0
230
1.0
 40
0.26735555252962
 41
4.412029506499566
 42
5.00114127217063
  0
ELLIPSE
  5
270DB5
330
18
100
AcDbEntity
  8
姿図
100
AcDbEllipse
 10
-3929.839121928546
 20
-18251.56017873359
 30
0.0
 11
22.2892031852213
 21
0.0
 31
0.0
210
0.0
220
0.0
230
1.0
 40
0.2673555525296202
 41
5.109424903215451
 42
10.60113840220053
  0
ELLIPSE
  5
270DB6
330
18
100
AcDbEntity
  8
姿図
100
AcDbEllipse
 10
-3929.839121928546
 20
-18251.20298220302
 30
0.0
 11
22.2892031852213
 21
0.0
 31
0.0
210
0.0
220
0.0
230
1.0
 40
0.2673555525296202
 41
6.253210353381123
 42
9.42477796076938
  0
LINE
  5
270DB7
330
18
100
AcDbEntity
  8
姿図
100
AcDbLine
 10
-3949.591364526683
 20
-18246.47598561173
 30
0.0
 11
-3949.429766294444
 21
-18246.59166350427
 31
0.0
  0
LINE
  5
270DB8
330
18
100
AcDbEntity
  8
姿図
100
AcDbLine
 10
-3949.418308997278
 20
-18246.27685591612
 30
0.0
 11
-3949.466406857301
 21
-18248.49474881416
 31
0.0
  0
LINE
  5
270DB9
330
18
100
AcDbEntity
  8
姿図
100
AcDbLine
 10
-3912.594082166714
 20
-18244.16437674442
 30
0.0
 11
-3912.594082166714
 21
-18247.52763570025
 31
0.0
  0
LINE
  5
270DBA
330
18
100
AcDbEntity
  8
姿図
100
AcDbLine
 10
-3910.064664767486
 20
-18248.57182205885
 30
0.0
 11
-3910.064664767486
 21
-18245.97502572277
 31
0.0
  0
SPLINE
  5
270DBF
330
18
100
AcDbEntity
  8
姿図
100
AcDbSpline
210
0.0
220
0.0
230
1.0
 70
     8
 71
     3
 72
    26
 73
    22
 74
     0
 42
0.000000001
 43
0.0000000001
 40
5.061336783911485
 40
5.061336783911485
 40
5.061336783911485
 40
5.061336783911485
 40
5.424423750909746
 40
5.424423750909746
 40
5.597379662847512
 40
5.597379662847512
 40
5.659540508070473
 40
5.659540508070473
 40
5.681680215509581
 40
5.681680215509581
 40
5.695637545270647
 40
5.695637545270647
 40
5.707793438358563
 40
5.707793438358563
 40
5.722098011649362
 40
5.722098011649362
 40
5.746604578651288
 40
5.746604578651288
 40
5.804790417739905
 40
5.804790417739905
 40
5.95015367802265
 40
5.95015367802265
 40
5.95015367802265
 40
5.95015367802265
 10
-3912.128024340424
 20
-18243.52990754624
 30
0.0000000000000154
 10
-3912.151780963421
 20
-18243.52172082289
 30
-0.0000000000000022
 10
-3912.170308027072
 20
-18243.51734039097
 30
0.0000000000000066
 10
-3912.19012293952
 20
-18243.51570886284
 30
0.000000000000033
 10
-3912.197706177579
 20
-18243.51573349038
 30
-0.0000000000000022
 10
-3912.205009478227
 20
-18243.51883296272
 30
0.0000000000000066
 10
-3912.207023062253
 20
-18243.52009697853
 30
-0.0000000000000022
 10
-3912.208836654015
 20
-18243.52285424273
 30
0.0000000000000066
 10
-3912.209285971589
 20
-18243.52376590922
 30
0.0000000000000154
 10
-3912.209758568618
 20
-18243.52562114235
 30
0.0000000000000066
 10
-3912.209877917306
 20
-18243.52642779021
 30
0.0000000000000242
 10
-3912.209923532965
 20
-18243.52812561362
 30
0.0000000000000066
 10
-3912.20987137847
 20
-18243.52894175774
 30
0.0000000000000066
 10
-3912.209614120867
 20
-18243.53076389593
 30
0.0000000000000066
 10
-3912.209390511061
 20
-18243.53172888636
 30
0.0000000000000154
 10
-3912.20866741947
 20
-18243.53420885506
 30
0.0000000000000066
 10
-3912.208061739121
 20
-18243.53570368259
 30
-0.0000000000000022
 10
-3912.206017175021
 20
-18243.54012247556
 30
0.0000000000000066
 10
-3912.204126955775
 20
-18243.54316234013
 30
0.0000000000000066
 10
-3912.19767790105
 20
-18243.55245404134
 30
0.0000000000000154
 10
-3912.191771075854
 20
-18243.55897028673
 30
-0.0000000000000022
 10
-3912.186985482919
 20
-18243.56390534485
 30
-0.0000000000000022
  0
SPLINE
  5
270DC0
330
18
100
AcDbEntity
  8
姿図
100
AcDbSpline
210
0.0
220
0.0
230
1.0
 70
     8
 71
     3
 72
    10
 73
     6
 74
     0
 42
0.000000001
 43
0.0000000001
 40
1.049331515521564
 40
1.049331515521564
 40
1.049331515521564
 40
1.049331515521564
 40
1.060416395005242
 40
1.060416395005242
 40
1.145877108045186
 40
1.145877108045186
 40
1.145877108045186
 40
1.145877108045186
 10
-3910.728662180557
 20
-18245.47892085215
 30
0.0000000000000154
 10
-3910.728388240884
 20
-18245.47973353687
 30
0.0000000000000154
 10
-3910.728147582665
 20
-18245.48055191969
 30
0.0000000000000154
 10
-3910.726341661194
 20
-18245.48770543043
 30
-0.000000000000011
 10
-3910.726835452996
 20
-18245.4941967144
 30
0.0000000000000066
 10
-3910.728636834784
 20
-18245.49973036595
 30
-0.0000000000000022
  0
SPLINE
  5
270DC1
330
18
100
AcDbEntity
  8
姿図
100
AcDbSpline
210
0.0
220
0.0
230
1.0
 70
    11
 71
     3
 72
    38
 73
    34
 74
     0
 42
0.000000001
 43
0.0000000001
 40
0.0
 40
0.0
 40
0.0
 40
0.0
 40
0.4899871145494815
 40
0.4899871145494815
 40
0.979974229098963
 40
0.979974229098963
 40
1.469880324151053
 40
1.469880324151053
 40
1.959786419203144
 40
1.959786419203144
 40
2.449692514255234
 40
2.449692514255234
 40
2.939598609307323
 40
2.939598609307323
 40
3.429585723856796
 40
3.429585723856796
 40
3.919572838406268
 40
3.919572838406268
 40
4.409171093943909
 40
4.409171093943909
 40
4.898769349481551
 40
4.898769349481551
 40
5.388322667025809
 40
5.388322667025809
 40
5.877875984570069
 40
5.877875984570069
 40
6.367429302114321
 40
6.367429302114321
 40
6.856982619658574
 40
6.856982619658574
 40
7.346580875196199
 40
7.346580875196199
 40
7.836179130733825
 40
7.836179130733825
 40
7.836179130733825
 40
7.836179130733825
 10
-3916.893896052812
 20
-18244.09554972392
 30
-0.0000000000000022
 10
-3916.893196318577
 20
-18244.14423329334
 30
0.0000000000000066
 10
-3916.900048211178
 20
-18244.194429921
 30
0.0000000000000066
 10
-3916.92963373075
 20
-18244.2829397063
 30
-0.0000000000000022
 10
-3916.952374441292
 20
-18244.32125548774
 30
0.0000000000000066
 10
-3917.00545179711
 20
-18244.37796220846
 30
0.0000000000000066
 10
-3917.039326331867
 20
-18244.40013566578
 30
0.0000000000000066
 10
-3917.114199417739
 20
-18244.42299378528
 30
0.0000000000000066
 10
-3917.155205418281
 20
-18244.42368032972
 30
0.0000000000000154
 10
-3917.232616636344
 20
-18244.4067957527
 30
-0.0000000000000022
 10
-3917.274174223643
 20
-18244.38810082015
 30
0.0000000000000154
 10
-3917.351164306981
 20
-18244.33211900823
 30
0.0000000000000066
 10
-3917.386589821795
 20
-18244.29483014446
 30
-0.0000000000000022
 10
-3917.442939526168
 20
-18244.21425569924
 30
0.0000000000000154
 10
-3917.46761739341
 20
-18244.16559719682
 30
0.0000000000000242
 10
-3917.500890190092
 20
-18244.06337704618
 30
-0.0000000000000022
 10
-3917.509477774298
 20
-18244.0098128312
 30
0.0000000000000154
 10
-3917.5108100932
 20
-18243.91249885339
 30
0.0000000000000066
 10
-3917.503655514339
 20
-18243.86226016229
 30
-0.0000000000000022
 10
-3917.473031890372
 20
-18243.77352040105
 30
0.0000000000000066
 10
-3917.44956994039
 20
-18243.73502176729
 30
0.0000000000000154
 10
-3917.39515318973
 20
-18243.67796416363
 30
0.0000000000000154
 10
-3917.360573044808
 20
-18243.65560024546
 30
0.0000000000000066
 10
-3917.284726458101
 20
-18243.6324705865
 30
0.0000000000000154
 10
-3917.243467235292
 20
-18243.63170705331
 30
0.0000000000000154
 10
-3917.166111760437
 20
-18243.64857947188
 30
0.0000000000000242
 10
-3917.124857927268
 20
-18243.66734037139
 30
0.0000000000000154
 10
-3917.048907575222
 20
-18243.7235792769
 30
0.0000000000000154
 10
-3917.014203854934
 20
-18243.76105507146
 30
0.0000000000000066
 10
-3916.959195923178
 20
-18243.841979881
 30
0.0000000000000066
 10
-3916.935224506352
 20
-18243.89082446145
 30
0.0000000000000154
 10
-3916.902927818545
 20
-18243.99328811022
 30
0.0000000000000242
 10
-3916.894595231731
 20
-18244.0469047903
 30
0.0000000000000066
 10
-3916.893896052812
 20
-18244.09554972392
 30
-0.0000000000000022
  0
SPLINE
  5
270DC2
330
18
100
AcDbEntity
  8
姿図
100
AcDbSpline
210
0.0
220
0.0
230
1.0
 70
     8
 71
     3
 72
    24
 73
    20
 74
     0
 42
0.000000001
 43
0.0000000001
 40
9.158211213992672
 40
9.158211213992672
 40
9.158211213992672
 40
9.158211213992672
 40
9.170191443583112
 40
9.170191443583112
 40
9.737477062085201
 40
9.737477062085201
 40
10.30476268058729
 40
10.30476268058729
 40
10.87204829908938
 40
10.87204829908938
 40
11.43933391759147
 40
11.43933391759147
 40
12.01567227050256
 40
12.01567227050256
 40
12.59201062341365
 40
12.59201062341365
 40
13.16834897632474
 40
13.16834897632474
 40
13.72927459805347
 40
13.72927459805347
 40
13.72927459805347
 40
13.72927459805347
 10
-3913.101729590823
 20
-18240.08018442161
 30
0.0000000000000242
 10
-3913.101704721989
 20
-18240.08137913423
 30
0.0000000000000154
 10
-3913.101681165462
 20
-18240.08257245772
 30
0.0000000000000154
 10
-3913.100605374983
 20
-18240.14020372799
 30
0.000000000000033
 10
-3913.102456892636
 20
-18240.197253326
 30
0.0000000000000154
 10
-3913.112690489389
 20
-18240.30778226247
 30
0.0000000000000154
 10
-3913.12107045036
 20
-18240.36126374969
 30
-0.0000000000000022
 10
-3913.1440807442
 20
-18240.46072709593
 30
0.0000000000000066
 10
-3913.158732230909
 20
-18240.50679266014
 30
0.0000000000000066
 10
-3913.19317593612
 20
-18240.58875328349
 30
0.000000000000033
 10
-3913.212972894912
 20
-18240.62464532598
 30
-0.0000000000000022
 10
-3913.255960627071
 20
-18240.68540768802
 30
-0.0000000000000022
 10
-3913.280671524034
 20
-18240.71217903828
 30
0.0000000000000154
 10
-3913.335067746767
 20
-18240.75476712175
 30
0.0000000000000154
 10
-3913.36475361744
 20
-18240.77058984742
 30
0.0000000000000154
 10
-3913.427296121587
 20
-18240.78993069609
 30
0.0000000000000066
 10
-3913.460203000573
 20
-18240.79346532817
 30
0.0000000000000066
 10
-3913.52609042598
 20
-18240.78873118619
 30
-0.0000000000000022
 10
-3913.559046023364
 20
-18240.7807762578
 30
0.0000000000000154
 10
-3913.591226423159
 20
-18240.76826749806
 30
0.0000000000000066
  0
SPLINE
  5
270DC3
330
18
100
AcDbEntity
  8
姿図
100
AcDbSpline
210
0.0
220
0.0
230
1.0
 70
     8
 71
     3
 72
    10
 73
     6
 74
     0
 42
0.000000001
 43
0.0000000001
 40
0.0588189760599532
 40
0.0588189760599532
 40
0.0588189760599532
 40
0.0588189760599532
 40
0.3767108973350863
 40
0.3767108973350863
 40
0.456659258613309
 40
0.456659258613309
 40
0.456659258613309
 40
0.456659258613309
 10
-3933.157900037315
 20
-18241.28914489461
 30
0.0000000000000154
 10
-3933.155784887115
 20
-18241.32150040103
 30
-0.0000000000000022
 10
-3933.147952464901
 20
-18241.35471053621
 30
0.0000000000000066
 10
-3933.131192035032
 20
-18241.39305881921
 30
0.0000000000000242
 10
-3933.127466548435
 20
-18241.40060219876
 30
-0.000000000000011
 10
-3933.123458594796
 20
-18241.40796628801
 30
-0.0000000000000022
  0
SPLINE
  5
270DC4
330
18
100
AcDbEntity
  8
姿図
100
AcDbSpline
210
0.0
220
0.0
230
1.0
 70
    11
 71
     3
 72
    38
 73
    34
 74
     0
 42
0.000000001
 43
0.0000000001
 40
0.0
 40
0.0
 40
0.0
 40
0.0
 40
0.4899871145494814
 40
0.4899871145494814
 40
0.9799742290989628
 40
0.9799742290989628
 40
1.469880324151052
 40
1.469880324151052
 40
1.959786419203141
 40
1.959786419203141
 40
2.44969251425523
 40
2.44969251425523
 40
2.939598609307319
 40
2.939598609307319
 40
3.429585723856792
 40
3.429585723856792
 40
3.919572838406264
 40
3.919572838406264
 40
4.409171093943907
 40
4.409171093943907
 40
4.898769349481549
 40
4.898769349481549
 40
5.388322667025805
 40
5.388322667025805
 40
5.877875984570061
 40
5.877875984570061
 40
6.367429302114317
 40
6.367429302114317
 40
6.856982619658573
 40
6.856982619658573
 40
7.346580875196197
 40
7.346580875196197
 40
7.836179130733821
 40
7.836179130733821
 40
7.836179130733821
 40
7.836179130733821
 10
-3936.128009989458
 20
-18243.10089818738
 30
0.0000000000000242
 10
-3936.128349925612
 20
-18243.14952799244
 30
0.0000000000000066
 10
-3936.138301787477
 20
-18243.20223559246
 30
0.0000000000000066
 10
-3936.177927030444
 20
-18243.30108748977
 30
0.0000000000000066
 10
-3936.207596444048
 20
-18243.34723487651
 30
0.0000000000000066
 10
-3936.275747999814
 20
-18243.422056742
 30
0.0000000000000066
 10
-3936.318770758851
 20
-18243.4557209039
 30
0.0000000000000066
 10
-3936.412712073874
 20
-18243.50380483194
 30
0.0000000000000154
 10
-3936.463627110678
 20
-18243.51822706762
 30
0.0000000000000066
 10
-3936.55882961555
 20
-18243.52713602896
 30
0.0000000000000154
 10
-3936.609453613667
 20
-18243.52221572116
 30
0.0000000000000066
 10
-3936.702277918265
 20
-18243.49160914508
 30
0.0000000000000066
 10
-3936.744482319737
 20
-18243.46592046112
 30
0.0000000000000242
 10
-3936.810907256783
 20
-18243.40369213791
 30
0.0000000000000066
 10
-3936.839554550963
 20
-18243.36300197413
 30
0.0000000000000242
 10
-3936.877234242721
 20
-18243.27138420028
 30
0.0000000000000242
 10
-3936.886270286006
 20
-18243.22045347066
 30
0.0000000000000154
 10
-3936.885508783983
 20
-18243.12322478959
 30
0.0000000000000154
 10
-3936.87567472538
 20
-18243.07044749921
 30
-0.000000000000011
 10
-3936.836542749229
 20
-18242.97128421129
 30
-0.0000000000000022
 10
-3936.807240894072
 20
-18242.92490112195
 30
0.0000000000000066
 10
-3936.739798144689
 20
-18242.84963414515
 30
0.0000000000000154
 10
-3936.697161914836
 20
-18242.81573184237
 30
0.0000000000000154
 10
-3936.60379245575
 20
-18242.76731635738
 30
0.0000000000000154
 10
-3936.553055432941
 20
-18242.75280589463
 30
0.0000000000000066
 10
-3936.457921482641
 20
-18242.74390334857
 30
0.0000000000000066
 10
-3936.407181616046
 20
-18242.74891769895
 30
-0.0000000000000022
 10
-3936.313866907599
 20
-18242.77986345419
 30
0.0000000000000154
 10
-3936.271295880927
 20
-18242.80579214164
 30
-0.0000000000000022
 10
-3936.204165061749
 20
-18242.86846584979
 30
-0.0000000000000022
 10
-3936.175132021168
 20
-18242.90939001417
 30
0.0000000000000154
 10
-3936.136882818749
 20
-18243.0013120438
 30
0.0000000000000242
 10
-3936.127670323084
 20
-18243.05230697545
 30
0.0000000000000066
 10
-3936.128009989458
 20
-18243.10089818738
 30
0.0000000000000242
  0
SPLINE
  5
270DC5
330
18
100
AcDbEntity
  8
姿図
100
AcDbSpline
210
0.0
220
0.0
230
1.0
 70
     8
 71
     3
 72
    14
 73
    10
 74
     0
 42
0.000000001
 43
0.0000000001
 40
1.516995086374685
 40
1.516995086374685
 40
1.516995086374685
 40
1.516995086374685
 40
1.894466177168912
 40
1.894466177168912
 40
2.274814964391462
 40
2.274814964391462
 40
2.651000233863917
 40
2.651000233863917
 40
2.975314369919599
 40
2.975314369919599
 40
2.975314369919599
 40
2.975314369919599
 10
-3938.889321794392
 20
-18236.56319401869
 30
0.0000000000000066
 10
-3938.923885274358
 20
-18236.56789198082
 30
0.0000000000000066
 10
-3938.96075009437
 20
-18236.58030362457
 30
0.0000000000000066
 10
-3939.029016015472
 20
-18236.61985505145
 30
0.0000000000000242
 10
-3939.060375680928
 20
-18236.64711322929
 30
0.0000000000000066
 10
-3939.109795167996
 20
-18236.7067964453
 30
0.0000000000000242
 10
-3939.131240507014
 20
-18236.74309419147
 30
-0.0000000000000022
 10
-3939.158007134803
 20
-18236.81486418507
 30
0.0000000000000066
 10
-3939.165220357491
 20
-18236.84976601358
 30
0.0000000000000154
 10
-3939.167143806788
 20
-18236.88268459825
 30
-0.0000000000000022
  0
SPLINE
  5
270DC6
330
18
100
AcDbEntity
  8
姿図
100
AcDbSpline
210
6.199955924772986E-9
220
1.399458493988580E-10
230
1.0
 70
    12
 71
     2
 72
     6
 73
     3
 74
     0
 42
0.000000001
 43
0.0000000001
 40
18.67224162152367
 40
18.67224162152367
 40
18.67224162152367
 40
24.03177626439027
 40
24.03177626439027
 40
24.03177626439027
 10
-3948.663060449663
 20
-18245.01625341973
 30
-0.000000000000011
 41
1.000007196260523
 10
-3948.681157385571
 20
-18244.21463917894
 30
0.0000000000000066
 41
1.000006449331705
 10
-3948.699290236944
 20
-18243.411370842
 30
0.0000000000000154
 41
1.000004680735829
  0
SPLINE
  5
270DC7
330
18
100
AcDbEntity
  8
姿図
100
AcDbSpline
210
0.0
220
0.0
230
1.0
 70
     8
 71
     3
 72
    24
 73
    20
 74
     0
 42
0.000000001
 43
0.0000000001
 40
0.0132670700154636
 40
0.0132670700154636
 40
0.0132670700154636
 40
0.0132670700154636
 40
0.5643354427835523
 40
0.5643354427835523
 40
1.128670885567105
 40
1.128670885567105
 40
1.693006328350657
 40
1.693006328350657
 40
2.257341771134209
 40
2.257341771134209
 40
2.838611106649443
 40
2.838611106649443
 40
3.419880442164678
 40
3.419880442164678
 40
4.001149777679912
 40
4.001149777679912
 40
4.582419113195146
 40
4.582419113195146
 40
4.599511058232551
 40
4.599511058232551
 40
4.599511058232551
 40
4.599511058232551
 10
-3948.699290236945
 20
-18243.411370842
 30
0.0000000000000154
 10
-3948.698049769292
 20
-18243.46632239742
 30
0.0000000000000066
 10
-3948.697587317479
 20
-18243.52163120916
 30
-0.0000000000000022
 10
-3948.698448575274
 20
-18243.62982675324
 30
0.0000000000000242
 10
-3948.699814997722
 20
-18243.68262426932
 30
0.0000000000000242
 10
-3948.704273786262
 20
-18243.78046892617
 30
0.0000000000000066
 10
-3948.70736775953
 20
-18243.82559579482
 30
-0.0000000000000022
 10
-3948.714850103967
 20
-18243.90552039117
 30
0.0000000000000066
 10
-3948.719236001695
 20
-18243.94031463851
 30
0.0000000000000154
 10
-3948.728775454844
 20
-18243.99923759959
 30
-0.0000000000000022
 10
-3948.734286091557
 20
-18244.02509267135
 30
0.0000000000000066
 10
-3948.74618075433
 20
-18244.0654527104
 30
-0.0000000000000022
 10
-3948.75256134107
 20
-18244.07996333265
 30
0.0000000000000242
 10
-3948.765607999219
 20
-18244.09631672616
 30
-0.0000000000000022
 10
-3948.772282020608
 20
-18244.09817300512
 30
0.0000000000000066
 10
-3948.785362791471
 20
-18244.08972741243
 30
0.0000000000000154
 10
-3948.791768986995
 20
-18244.07942135717
 30
0.000000000000033
 10
-3948.79797841064
 20
-18244.06382192291
 30
0.0000000000000154
 10
-3948.798155826907
 20
-18244.063371295
 30
0.0000000000000242
 10
-3948.798333282996
 20
-18244.06291561843
 30
0.0000000000000066
  0
SPLINE
  5
270DC8
330
18
100
AcDbEntity
  8
姿図
100
AcDbSpline
210
0.0
220
0.0
230
1.0
 70
    11
 71
     3
 72
    38
 73
    34
 74
     0
 42
0.000000001
 43
0.0000000001
 40
0.0
 40
0.0
 40
0.0
 40
0.0
 40
0.4899871145494816
 40
0.4899871145494816
 40
0.9799742290989633
 40
0.9799742290989633
 40
1.469880324151052
 40
1.469880324151052
 40
1.959786419203141
 40
1.959786419203141
 40
2.44969251425523
 40
2.44969251425523
 40
2.939598609307319
 40
2.939598609307319
 40
3.429585723856792
 40
3.429585723856792
 40
3.919572838406264
 40
3.919572838406264
 40
4.409171093943907
 40
4.409171093943907
 40
4.898769349481552
 40
4.898769349481552
 40
5.388322667025808
 40
5.388322667025808
 40
5.877875984570063
 40
5.877875984570063
 40
6.367429302114317
 40
6.367429302114317
 40
6.856982619658572
 40
6.856982619658572
 40
7.346580875196196
 40
7.346580875196196
 40
7.83617913073382
 40
7.83617913073382
 40
7.83617913073382
 40
7.83617913073382
 10
-3949.073235865193
 20
-18246.91478111523
 30
0.0000000000000154
 10
-3949.07427553558
 20
-18246.96361707386
 30
0.0000000000000066
 10
-3949.077375504845
 20
-18247.01827499915
 30
0.0000000000000066
 10
-3949.087415228239
 20
-18247.12454829491
 30
0.0000000000000154
 10
-3949.094343931301
 20
-18247.17616451061
 30
0.0000000000000154
 10
-3949.109418131248
 20
-18247.26342273796
 30
0.0000000000000066
 10
-3949.118566355531
 20
-18247.30488277053
 30
-0.0000000000000022
 10
-3949.13763458468
 20
-18247.36985362947
 30
0.0000000000000066
 10
-3949.147543620939
 20
-18247.39336476049
 30
-0.000000000000011
 10
-3949.165334907751
 20
-18247.41915829885
 30
0.0000000000000066
 10
-3949.17440131857
 20
-18247.42315748382
 30
0.0000000000000154
 10
-3949.19023553983
 20
-18247.40878766925
 30
0.0000000000000066
 10
-3949.197014426488
 20
-18247.39041852107
 30
0.0000000000000066
 10
-3949.20708965916
 20
-18247.3396215605
 30
-0.0000000000000022
 10
-3949.211059086095
 20
-18247.30380528874
 30
0.0000000000000154
 10
-3949.215465981174
 20
-18247.2184764818
 30
0.0000000000000242
 10
-3949.215914440252
 20
-18247.16896301421
 30
0.0000000000000154
 10
-3949.213820619326
 20
-18247.07130766439
 30
0.0000000000000242
 10
-3949.211141139586
 20
-18247.01666048542
 30
0.0000000000000154
 10
-3949.2026327874
 20
-18246.91037833919
 30
0.0000000000000154
 10
-3949.196792882226
 20
-18246.85874404311
 30
0.0000000000000066
 10
-3949.183766883506
 20
-18246.77145268202
 30
0.0000000000000154
 10
-3949.175710798573
 20
-18246.72997546488
 30
0.0000000000000154
 10
-3949.158187926197
 20
-18246.6649894225
 30
-0.0000000000000022
 10
-3949.148710126195
 20
-18246.64148110421
 30
0.0000000000000154
 10
-3949.130931650748
 20
-18246.61570613958
 30
-0.0000000000000022
 10
-3949.121445617323
 20
-18246.61172097917
 30
0.0000000000000154
 10
-3949.104081260922
 20
-18246.62612804527
 30
0.0000000000000066
 10
-3949.096213954539
 20
-18246.64451977067
 30
-0.0000000000000022
 10
-3949.084091067119
 20
-18246.69535065726
 30
0.0000000000000154
 10
-3949.07902944336
 20
-18246.73118008167
 30
-0.0000000000000022
 10
-3949.073076928747
 20
-18246.81649708208
 30
0.0000000000000066
 10
-3949.072197019897
 20
-18246.86598391334
 30
0.0000000000000242
 10
-3949.073235865193
 20
-18246.91478111523
 30
0.0000000000000154
  0
ELLIPSE
  5
271020
330
18
100
AcDbEntity
  8
姿図
100
AcDbEllipse
 10
-3929.839121928546
 20
-18247.75990095818
 30
0.0
 11
-3.920994
 21
3.014575639115336E-14
 31
4.353177818217091E-16
210
1.110223024625157E-16
220
-8.535721513524229E-31
230
1.0
 40
0.2588190451025151
 41
7.05809798368468
 42
7.062404494700122
  0
LINE
  5
271021
330
18
100
AcDbEntity
  8
姿図
100
AcDbLine
 10
-3926.459316279146
 20
-18248.50376499145
 30
-0.0000000000000046
 11
-3926.459316279146
 21
-18247.24543615791
 31
-0.0000000000000046
  0
TEXT
  5
2717D7
330
18
100
AcDbEntity
  8
文字
100
AcDbText
 10
-3962.875989866481
 20
-18322.57112245013
 30
0.0
 40
6.0
  1
SX-504/80DF
  7
EXTFONT
100
AcDbText
  0
ENDSEC
  0
SECTION
  2
OBJECTS
  0
DICTIONARY
  5
C
330
0
100
AcDbDictionary
281
     1
  3
ACAD_GROUP
350
D
  3
ACAD_IMAGE_VARS
350
271A65
  3
ACAD_LAYOUT
350
353
  3
ACAD_MLINESTYLE
350
E
  3
ACAD_PLOTSETTINGS
350
354
  3
ACAD_PLOTSTYLENAME
350
351
  3
ACAD_SCALELIST
350
26A863
  3
AcadDim
350
A3ACF
  3
AcDbVariableDictionary
350
1C63
  3
APPDATA
350
271A64
  3
DWGPROPS
350
271A89
  0
DICTIONARY
  5
1339DB
330
2
100
AcDbDictionary
280
     1
281
     1
  3
ACAD_LAYERFILTERS
360
146A70
  3
ACAD_LAYERSTATES
360
1339DC
  0
DICTIONARY
  5
26A941
330
F
100
AcDbDictionary
280
     1
281
     1
  3
ADSK_XREC_LAYER_RECONCILED
360
26A942
  0
DICTIONARY
  5
26A945
330
34
100
AcDbDictionary
280
     1
281
     1
  3
ADSK_XREC_LAYER_RECONCILED
360
26A946
  0
DICTIONARY
  5
26A94D
330
2F4
100
AcDbDictionary
280
     1
281
     1
  3
ADSK_XREC_LAYER_RECONCILED
360
26A94E
  0
DICTIONARY
  5
26A951
330
305
100
AcDbDictionary
280
     1
281
     1
  3
ADSK_XREC_LAYER_RECONCILED
360
26A952
  0
DICTIONARY
  5
26A953
330
1ACBD9
100
AcDbDictionary
280
     1
281
     1
  3
ADSK_XREC_LAYER_RECONCILED
360
26A954
  0
DICTIONARY
  5
26A955
330
1ACBDC
100
AcDbDictionary
280
     1
281
     1
  3
ADSK_XREC_LAYER_RECONCILED
360
26A956
  0
DICTIONARY
  5
26A936
330
18
100
AcDbDictionary
280
     1
281
     1
  3
ACAD_SORTENTS
360
26A937
  0
DICTIONARY
  5
D
102
{ACAD_REACTORS
330
C
102
}
330
C
100
AcDbDictionary
281
     1
  0
RASTERVARIABLES
  5
271A65
102
{ACAD_REACTORS
330
C
102
}
330
C
100
AcDbRasterVariables
 90
        0
 70
     1
 71
     1
 72
     0
  0
DICTIONARY
  5
353
102
{ACAD_REACTORS
330
C
102
}
330
C
100
AcDbDictionary
281
     1
  3
Model
350
355
  3
ﾚｲｱｳﾄ1
350
356
  0
DICTIONARY
  5
E
102
{ACAD_REACTORS
330
C
102
}
330
C
100
AcDbDictionary
281
     1
  3
STANDARD
350
1B
  0
DICTIONARY
  5
354
102
{ACAD_REACTORS
330
C
102
}
330
C
100
AcDbDictionary
281
     1
  0
ACDBDICTIONARYWDFLT
  5
351
102
{ACAD_REACTORS
330
C
102
}
330
C
100
AcDbDictionary
281
     1
  3
Normal
350
352
100
AcDbDictionaryWithDefault
340
352
  0
DICTIONARY
  5
26A863
102
{ACAD_REACTORS
330
C
102
}
330
C
100
AcDbDictionary
281
     1
  3
A0
350
26A864
  3
A1
350
26A865
  3
A2
350
26A866
  3
A3
350
26A867
  3
A4
350
26A868
  3
A5
350
26A869
  3
A6
350
26A86A
  3
A7
350
26A86B
  3
A8
350
26A86C
  3
A9
350
26A86D
  3
B0
350
26A86E
  3
B1
350
26A86F
  3
B2
350
26A870
  3
B3
350
26A871
  3
B4
350
26A872
  3
B5
350
26A873
  3
B6
350
26A874
  3
B7
350
26A875
  3
B8
350
26A876
  3
B9
350
26A877
  3
C0
350
26A878
  3
C1
350
26A879
  3
C2
350
26A87A
  3
C3
350
26A87B
  3
C4
350
26A87C
  3
C5
350
26A87D
  3
C6
350
26A87E
  3
C7
350
26A87F
  3
C8
350
26A880
  3
C9
350
26A881
  3
D0
350
26A882
  3
D1
350
26A883
  3
D2
350
26A884
  0
XRECORD
  5
A3ACF
102
{ACAD_REACTORS
330
C
102
}
330
C
100
AcDbXrecord
280
     1
 90
   990106
  3

 60
     0
 61
     0
 62
     4
 63
     4
 64
     1
 65
     0
 66
     0
 67
     3
 68
     1
 69
     0
 70
     0
 71
     0
 72
     0
 40
0.0
170
     2
340
1CADE4
  0
DICTIONARY
  5
1C63
102
{ACAD_REACTORS
330
C
102
}
330
C
100
AcDbDictionary
281
     1
  3
DIMASSOC
350
272F6
  3
INDEXCTL
350
26A98C
  3
PROJECTNAME
350
273B1
  3
SORTENTS
350
1C64
  0
DICTIONARY
  5
271A64
102
{ACAD_REACTORS
330
C
102
}
330
C
100
AcDbDictionary
281
     1
  0
XRECORD
  5
271A89
102
{ACAD_REACTORS
330
C
102
}
330
C
100
AcDbXrecord
280
     1
  1
DWGPROPS COOKIE
  2

  3

  4

  6

  7

  8
SPAX
  9

300
=
301
=
302
=
303
=
304
=
305
=
306
=
307
=
308
=
309
=
 40
0.0
 41
2448636.244629629
 42
2456821.230645775
  1

 90
        0
  0
DICTIONARY
  5
146A70
102
{ACAD_REACTORS
330
1339DB
102
}
330
1339DB
100
AcDbDictionary
281
     1
  0
DICTIONARY
  5
1339DC
102
{ACAD_REACTORS
330
1339DB
102
}
330
1339DB
100
AcDbDictionary
281
     1
  0
XRECORD
  5
26A942
102
{ACAD_REACTORS
330
26A941
102
}
330
26A941
100
AcDbXrecord
280
     1
290
     1
  0
XRECORD
  5
26A946
102
{ACAD_REACTORS
330
26A945
102
}
330
26A945
100
AcDbXrecord
280
     1
290
     1
  0
XRECORD
  5
26A94E
102
{ACAD_REACTORS
330
26A94D
102
}
330
26A94D
100
AcDbXrecord
280
     1
290
     1
  0
XRECORD
  5
26A952
102
{ACAD_REACTORS
330
26A951
102
}
330
26A951
100
AcDbXrecord
280
     1
290
     1
  0
XRECORD
  5
26A954
102
{ACAD_REACTORS
330
26A953
102
}
330
26A953
100
AcDbXrecord
280
     1
290
     1
  0
XRECORD
  5
26A956
102
{ACAD_REACTORS
330
26A955
102
}
330
26A955
100
AcDbXrecord
280
     1
290
     1
  0
SORTENTSTABLE
  5
26A937
102
{ACAD_REACTORS
330
26A936
102
}
330
26A936
100
AcDbSortentsTable
330
18
331
0
  5
22766D
331
1CADCE
  5
1CADCE
331
1CADD6
  5
1CADD6
331
1CADDC
  5
1CADDC
331
1CADE4
  5
1CADE4
  0
LAYOUT
  5
355
102
{ACAD_REACTORS
330
353
102
}
330
353
100
AcDbPlotSettings
  1

  2
JUST PDF 2
  4
A4
  6

 40
3.174999952316284
 41
3.174999952316284
 42
3.175003051757812
 43
3.17498779296875
 44
209.8886566162109
 45
297.0530090332031
 46
14.27171755861536
 47
9.855173074625782
 48
-3971.906169295025
 49
-18729.29509355934
140
-3621.915732305213
141
-18187.30974328201
142
1.0
143
2.0
 70
 11956
 72
     1
 73
     0
 74
     4
  7
spax form.ctb
 75
    17
147
0.5
148
3971.906169295025
149
18729.29509355934
100
AcDbLayout
  1
Model
 70
     1
 71
     0
 10
0.0
 20
0.0
 11
12.0
 21
9.0
 12
0.0
 22
0.0
 32
0.0
 14
-3962.875989866481
 24
-18322.57112245013
 34
-0.0000000000000128
 15
-3900.875989866481
 25
-18233.58499244603
 35
0.0000000000000242
146
0.0
 13
0.0
 23
0.0
 33
0.0
 16
1.0
 26
0.0
 36
0.0
 17
0.0
 27
1.0
 37
0.0
 76
     0
330
18
331
270AC1
1001
ACAD_PSEXT
1000
JUST PDF 2
1000
JUST PDF 2
1000
JUST PDF 2 Port:
1000

1070
     0
  0
LAYOUT
  5
356
102
{ACAD_REACTORS
330
353
102
}
330
353
100
AcDbPlotSettings
  1

  2
Canon LASER SHOT LBP-750
  4

  6

 40
0.0
 41
0.0
 42
0.0
 43
0.0
 44
0.0
 45
0.0
 46
0.0
 47
0.0
 48
0.0
 49
0.0
140
0.0
141
0.0
142
1.0
143
1.0
 70
   688
 72
     0
 73
     0
 74
     5
  7
spax form.ctb
 75
    16
147
1.0
148
0.0
149
0.0
100
AcDbLayout
  1
ﾚｲｱｳﾄ1
 70
     0
 71
     1
 10
0.0
 20
0.0
 11
12.0
 21
9.0
 12
0.0
 22
0.0
 32
0.0
 14
1.000000000000000E+20
 24
1.000000000000000E+20
 34
1.000000000000000E+20
 15
-1.000000000000000E+20
 25
-1.000000000000000E+20
 35
-1.000000000000000E+20
146
0.0
 13
0.0
 23
0.0
 33
0.0
 16
1.0
 26
0.0
 36
0.0
 17
0.0
 27
1.0
 37
0.0
 76
     0
330
15
  0
MLINESTYLE
  5
1B
102
{ACAD_REACTORS
330
E
102
}
330
E
100
AcDbMlineStyle
  2
STANDARD
 70
     0
  3

 62
     0
 51
90.0
 52
90.0
 71
     2
 49
0.5
 62
   256
  6
BYLAYER
 49
-0.5
 62
   256
  6
BYLAYER
  0
ACDBPLACEHOLDER
  5
352
102
{ACAD_REACTORS
330
351
102
}
330
351
  0
SCALE
  5
26A864
102
{ACAD_REACTORS
330
26A863
102
}
330
26A863
100
AcDbScale
 70
     0
300
1:1
140
1.0
141
1.0
290
     1
  0
SCALE
  5
26A865
102
{ACAD_REACTORS
330
26A863
102
}
330
26A863
100
AcDbScale
 70
     0
300
1:2
140
1.0
141
2.0
290
     0
  0
SCALE
  5
26A866
102
{ACAD_REACTORS
330
26A863
102
}
330
26A863
100
AcDbScale
 70
     0
300
1:4
140
1.0
141
4.0
290
     0
  0
SCALE
  5
26A867
102
{ACAD_REACTORS
330
26A863
102
}
330
26A863
100
AcDbScale
 70
     0
300
1:5
140
1.0
141
5.0
290
     0
  0
SCALE
  5
26A868
102
{ACAD_REACTORS
330
26A863
102
}
330
26A863
100
AcDbScale
 70
     0
300
1:8
140
1.0
141
8.0
290
     0
  0
SCALE
  5
26A869
102
{ACAD_REACTORS
330
26A863
102
}
330
26A863
100
AcDbScale
 70
     0
300
1:10
140
1.0
141
10.0
290
     0
  0
SCALE
  5
26A86A
102
{ACAD_REACTORS
330
26A863
102
}
330
26A863
100
AcDbScale
 70
     0
300
1:16
140
1.0
141
16.0
290
     0
  0
SCALE
  5
26A86B
102
{ACAD_REACTORS
330
26A863
102
}
330
26A863
100
AcDbScale
 70
     0
300
1:20
140
1.0
141
20.0
290
     0
  0
SCALE
  5
26A86C
102
{ACAD_REACTORS
330
26A863
102
}
330
26A863
100
AcDbScale
 70
     0
300
1:30
140
1.0
141
30.0
290
     0
  0
SCALE
  5
26A86D
102
{ACAD_REACTORS
330
26A863
102
}
330
26A863
100
AcDbScale
 70
     0
300
1:40
140
1.0
141
40.0
290
     0
  0
SCALE
  5
26A86E
102
{ACAD_REACTORS
330
26A863
102
}
330
26A863
100
AcDbScale
 70
     0
300
1:50
140
1.0
141
50.0
290
     0
  0
SCALE
  5
26A86F
102
{ACAD_REACTORS
330
26A863
102
}
330
26A863
100
AcDbScale
 70
     0
300
1:100
140
1.0
141
100.0
290
     0
  0
SCALE
  5
26A870
102
{ACAD_REACTORS
330
26A863
102
}
330
26A863
100
AcDbScale
 70
     0
300
2:1
140
2.0
141
1.0
290
     0
  0
SCALE
  5
26A871
102
{ACAD_REACTORS
330
26A863
102
}
330
26A863
100
AcDbScale
 70
     0
300
4:1
140
4.0
141
1.0
290
     0
  0
SCALE
  5
26A872
102
{ACAD_REACTORS
330
26A863
102
}
330
26A863
100
AcDbScale
 70
     0
300
8:1
140
8.0
141
1.0
290
     0
  0
SCALE
  5
26A873
102
{ACAD_REACTORS
330
26A863
102
}
330
26A863
100
AcDbScale
 70
     0
300
10:1
140
10.0
141
1.0
290
     0
  0
SCALE
  5
26A874
102
{ACAD_REACTORS
330
26A863
102
}
330
26A863
100
AcDbScale
 70
     0
300
100:1
140
100.0
141
1.0
290
     0
  0
SCALE
  5
26A875
102
{ACAD_REACTORS
330
26A863
102
}
330
26A863
100
AcDbScale
 70
     0
300
1/128" = 1'-0"
140
0.0078125
141
12.0
290
     0
  0
SCALE
  5
26A876
102
{ACAD_REACTORS
330
26A863
102
}
330
26A863
100
AcDbScale
 70
     0
300
1/64" = 1'-0"
140
0.015625
141
12.0
290
     0
  0
SCALE
  5
26A877
102
{ACAD_REACTORS
330
26A863
102
}
330
26A863
100
AcDbScale
 70
     0
300
1/32" = 1'-0"
140
0.03125
141
12.0
290
     0
  0
SCALE
  5
26A878
102
{ACAD_REACTORS
330
26A863
102
}
330
26A863
100
AcDbScale
 70
     0
300
1/16" = 1'-0"
140
0.0625
141
12.0
290
     0
  0
SCALE
  5
26A879
102
{ACAD_REACTORS
330
26A863
102
}
330
26A863
100
AcDbScale
 70
     0
300
3/32" = 1'-0"
140
0.09375
141
12.0
290
     0
  0
SCALE
  5
26A87A
102
{ACAD_REACTORS
330
26A863
102
}
330
26A863
100
AcDbScale
 70
     0
300
1/8" = 1'-0"
140
0.125
141
12.0
290
     0
  0
SCALE
  5
26A87B
102
{ACAD_REACTORS
330
26A863
102
}
330
26A863
100
AcDbScale
 70
     0
300
3/16" = 1'-0"
140
0.1875
141
12.0
290
     0
  0
SCALE
  5
26A87C
102
{ACAD_REACTORS
330
26A863
102
}
330
26A863
100
AcDbScale
 70
     0
300
1/4" = 1'-0"
140
0.25
141
12.0
290
     0
  0
SCALE
  5
26A87D
102
{ACAD_REACTORS
330
26A863
102
}
330
26A863
100
AcDbScale
 70
     0
300
3/8" = 1'-0"
140
0.375
141
12.0
290
     0
  0
SCALE
  5
26A87E
102
{ACAD_REACTORS
330
26A863
102
}
330
26A863
100
AcDbScale
 70
     0
300
1/2" = 1'-0"
140
0.5
141
12.0
290
     0
  0
SCALE
  5
26A87F
102
{ACAD_REACTORS
330
26A863
102
}
330
26A863
100
AcDbScale
 70
     0
300
3/4" = 1'-0"
140
0.75
141
12.0
290
     0
  0
SCALE
  5
26A880
102
{ACAD_REACTORS
330
26A863
102
}
330
26A863
100
AcDbScale
 70
     0
300
1" = 1'-0"
140
1.0
141
12.0
290
     0
  0
SCALE
  5
26A881
102
{ACAD_REACTORS
330
26A863
102
}
330
26A863
100
AcDbScale
 70
     0
300
1-1/2" = 1'-0"
140
1.5
141
12.0
290
     0
  0
SCALE
  5
26A882
102
{ACAD_REACTORS
330
26A863
102
}
330
26A863
100
AcDbScale
 70
     0
300
3" = 1'-0"
140
3.0
141
12.0
290
     0
  0
SCALE
  5
26A883
102
{ACAD_REACTORS
330
26A863
102
}
330
26A863
100
AcDbScale
 70
     0
300
6" = 1'-0"
140
6.0
141
12.0
290
     0
  0
SCALE
  5
26A884
102
{ACAD_REACTORS
330
26A863
102
}
330
26A863
100
AcDbScale
 70
     0
300
1'-0" = 1'-0"
140
12.0
141
12.0
290
     0
  0
DICTIONARYVAR
  5
272F6
102
{ACAD_REACTORS
330
1C63
102
}
330
1C63
100
DictionaryVariables
280
     0
  1
1
  0
DICTIONARYVAR
  5
26A98C
102
{ACAD_REACTORS
330
1C63
102
}
330
1C63
100
DictionaryVariables
280
     0
  1
0
  0
DICTIONARYVAR
  5
273B1
102
{ACAD_REACTORS
330
1C63
102
}
330
1C63
100
DictionaryVariables
280
     0
  1

  0
DICTIONARYVAR
  5
1C64
102
{ACAD_REACTORS
330
1C63
102
}
330
1C63
100
DictionaryVariables
280
     0
  1
1
  0
ENDSEC
  0
EOF
