  0
SECTION
  2
HEADER
  9
$ACADVER
  1
AC1015
  9
$ACADMAINTVER
 70
     6
  9
$DWGCODEPAGE
  3
ANSI_932
  9
$INSBASE
 10
0.0
 20
0.0
 30
0.0
  9
$EXTMIN
 10
9095.259373209701
 20
-3324.213991495107
 30
-0.0000000000000049
  9
$EXTMAX
 10
9162.641808436676
 20
-3242.358979133921
 30
0.0000000000000029
  9
$LIMMIN
 10
0.0
 20
0.0
  9
$LIMMAX
 10
420.0
 20
297.0
  9
$ORTHOMODE
 70
     1
  9
$REGENMODE
 70
     1
  9
$FILLMODE
 70
     1
  9
$QTEXTMODE
 70
     0
  9
$MIRRTEXT
 70
     1
  9
$LTSCALE
 40
5.0
  9
$ATTMODE
 70
     0
  9
$TEXTSIZE
 40
53.44730959687513
  9
$TRACEWID
 40
1.0
  9
$TEXTSTYLE
  7
STANDARD
  9
$CLAYER
  8
寸法線
  9
$CELTYPE
  6
BYLAYER
  9
$CECOLOR
 62
   256
  9
$CELTSCALE
 40
1.0
  9
$DISPSILH
 70
     0
  9
$DIMSCALE
 40
1.0
  9
$DIMASZ
 40
2.5
  9
$DIMEXO
 40
1.5
  9
$DIMDLI
 40
0.38
  9
$DIMRND
 40
0.0
  9
$DIMDLE
 40
0.0
  9
$DIMEXE
 40
1.0
  9
$DIMTP
 40
0.0
  9
$DIMTM
 40
0.0
  9
$DIMTXT
 40
2.500000000000003
  9
$DIMCEN
 40
0.0
  9
$DIMTSZ
 40
0.0
  9
$DIMTOL
 70
     0
  9
$DIMLIM
 70
     0
  9
$DIMTIH
 70
     0
  9
$DIMTOH
 70
     0
  9
$DIMSE1
 70
     0
  9
$DIMSE2
 70
     0
  9
$DIMTAD
 70
     3
  9
$DIMZIN
 70
     8
  9
$DIMBLK
  1

  9
$DIMASO
 70
     1
  9
$DIMSHO
 70
     0
  9
$DIMPOST
  1

  9
$DIMAPOST
  1

  9
$DIMALT
 70
     0
  9
$DIMALTD
 70
     0
  9
$DIMALTF
 40
25.4
  9
$DIMLFAC
 40
1.0
  9
$DIMTOFL
 70
     1
  9
$DIMTVP
 40
0.0
  9
$DIMTIX
 70
     0
  9
$DIMSOXD
 70
     0
  9
$DIMSAH
 70
     1
  9
$DIMBLK1
  1
OPEN
  9
$DIMBLK2
  1
OPEN
  9
$DIMSTYLE
  2
STANDARD
  9
$DIMCLRD
 70
     8
  9
$DIMCLRE
 70
     8
  9
$DIMCLRT
 70
   256
  9
$DIMTFAC
 40
1.0
  9
$DIMGAP
 40
1.0
  9
$DIMJUST
 70
     0
  9
$DIMSD1
 70
     0
  9
$DIMSD2
 70
     0
  9
$DIMTOLJ
 70
     1
  9
$DIMTZIN
 70
     0
  9
$DIMALTZ
 70
     0
  9
$DIMALTTZ
 70
     0
  9
$DIMUPT
 70
     0
  9
$DIMDEC
 70
     2
  9
$DIMTDEC
 70
     2
  9
$DIMALTU
 70
     2
  9
$DIMALTTD
 70
     0
  9
$DIMTXSTY
  7
STANDARD
  9
$DIMAUNIT
 70
     0
  9
$DIMADEC
 70
     2
  9
$DIMALTRND
 40
0.0
  9
$DIMAZIN
 70
     2
  9
$DIMDSEP
 70
    46
  9
$DIMATFIT
 70
     1
  9
$DIMFRAC
 70
     0
  9
$DIMLDRBLK
  1
OPEN
  9
$DIMLUNIT
 70
     2
  9
$DIMLWD
 70
    -2
  9
$DIMLWE
 70
    -2
  9
$DIMTMOVE
 70
     0
  9
$LUNITS
 70
     2
  9
$LUPREC
 70
     2
  9
$SKETCHINC
 40
0.1
  9
$FILLETRAD
 40
15.5
  9
$AUNITS
 70
     0
  9
$AUPREC
 70
     1
  9
$MENU
  1
FM
  9
$ELEVATION
 40
0.0
  9
$PELEVATION
 40
0.0
  9
$THICKNESS
 40
0.0
  9
$LIMCHECK
 70
     0
  9
$CHAMFERA
 40
0.0
  9
$CHAMFERB
 40
0.0
  9
$CHAMFERC
 40
0.0
  9
$CHAMFERD
 40
0.0
  9
$SKPOLY
 70
     0
  9
$TDCREATE
 40
2448636.619629629
  9
$TDUCREATE
 40
2448636.244629629
  9
$TDUPDATE
 40
2456821.610218345
  9
$TDUUPDATE
 40
2456821.235218345
  9
$TDINDWG
 40
48.8744360069
  9
$TDUSRTIMER
 40
2456821.235078484
  9
$USRTIMER
 70
     1
  9
$ANGBASE
 50
0.0
  9
$ANGDIR
 70
     0
  9
$PDMODE
 70
     3
  9
$PDSIZE
 40
0.0
  9
$PLINEWID
 40
0.0
  9
$SPLFRAME
 70
     0
  9
$SPLINETYPE
 70
     6
  9
$SPLINESEGS
 70
     8
  9
$HANDSEED
  5
12DC04
  9
$SURFTAB1
 70
     6
  9
$SURFTAB2
 70
     6
  9
$SURFTYPE
 70
     6
  9
$SURFU
 70
     6
  9
$SURFV
 70
     6
  9
$UCSBASE
  2

  9
$UCSNAME
  2

  9
$UCSORG
 10
0.0
 20
0.0
 30
0.0
  9
$UCSXDIR
 10
1.0
 20
0.0
 30
0.0
  9
$UCSYDIR
 10
0.0
 20
1.0
 30
0.0
  9
$UCSORTHOREF
  2

  9
$UCSORTHOVIEW
 70
     0
  9
$UCSORGTOP
 10
0.0
 20
0.0
 30
0.0
  9
$UCSORGBOTTOM
 10
0.0
 20
0.0
 30
0.0
  9
$UCSORGLEFT
 10
0.0
 20
0.0
 30
0.0
  9
$UCSORGRIGHT
 10
0.0
 20
0.0
 30
0.0
  9
$UCSORGFRONT
 10
0.0
 20
0.0
 30
0.0
  9
$UCSORGBACK
 10
0.0
 20
0.0
 30
0.0
  9
$PUCSBASE
  2

  9
$PUCSNAME
  2

  9
$PUCSORG
 10
0.0
 20
0.0
 30
0.0
  9
$PUCSXDIR
 10
1.0
 20
0.0
 30
0.0
  9
$PUCSYDIR
 10
0.0
 20
1.0
 30
0.0
  9
$PUCSORTHOREF
  2

  9
$PUCSORTHOVIEW
 70
     0
  9
$PUCSORGTOP
 10
0.0
 20
0.0
 30
0.0
  9
$PUCSORGBOTTOM
 10
0.0
 20
0.0
 30
0.0
  9
$PUCSORGLEFT
 10
0.0
 20
0.0
 30
0.0
  9
$PUCSORGRIGHT
 10
0.0
 20
0.0
 30
0.0
  9
$PUCSORGFRONT
 10
0.0
 20
0.0
 30
0.0
  9
$PUCSORGBACK
 10
0.0
 20
0.0
 30
0.0
  9
$USERI1
 70
     0
  9
$USERI2
 70
     0
  9
$USERI3
 70
     0
  9
$USERI4
 70
     0
  9
$USERI5
 70
     0
  9
$USERR1
 40
0.0
  9
$USERR2
 40
0.0
  9
$USERR3
 40
0.0
  9
$USERR4
 40
0.0
  9
$USERR5
 40
0.0
  9
$WORLDVIEW
 70
     0
  9
$SHADEDGE
 70
     3
  9
$SHADEDIF
 70
    70
  9
$TILEMODE
 70
     1
  9
$MAXACTVP
 70
    16
  9
$PINSBASE
 10
0.0
 20
0.0
 30
0.0
  9
$PLIMCHECK
 70
     0
  9
$PEXTMIN
 10
1.000000000000000E+20
 20
1.000000000000000E+20
 30
1.000000000000000E+20
  9
$PEXTMAX
 10
-1.000000000000000E+20
 20
-1.000000000000000E+20
 30
-1.000000000000000E+20
  9
$PLIMMIN
 10
0.0
 20
0.0
  9
$PLIMMAX
 10
0.0
 20
0.0
  9
$UNITMODE
 70
     0
  9
$VISRETAIN
 70
     0
  9
$PLINEGEN
 70
     0
  9
$PSLTSCALE
 70
     0
  9
$TREEDEPTH
 70
  3020
  9
$CMLSTYLE
  2
STANDARD
  9
$CMLJUST
 70
     0
  9
$CMLSCALE
 40
1.0
  9
$PROXYGRAPHICS
 70
     1
  9
$MEASUREMENT
 70
     0
  9
$CELWEIGHT
370
    -1
  9
$ENDCAPS
280
     0
  9
$JOINSTYLE
280
     0
  9
$LWDISPLAY
290
     0
  9
$INSUNITS
 70
     0
  9
$HYPERLINKBASE
  1

  9
$STYLESHEET
  1
spax form.ctb
  9
$XEDIT
290
     1
  9
$CEPSNTYPE
380
     0
  9
$PSTYLEMODE
290
     1
  9
$FINGERPRINTGUID
  2
{BBAEEBA6-8B94-11D3-9160-00E0294F7E09}
  9
$VERSIONGUID
  2
{5AAF82AD-380E-4C39-973F-B7CFB78B73D0}
  9
$EXTNAMES
290
     1
  9
$PSVPSCALE
 40
0.0
  9
$OLESTARTUP
290
     0
  0
ENDSEC
  0
SECTION
  2
CLASSES
  0
CLASS
  1
LWPOLYLINE
  2
AcDbPolyline
  3
ObjectDBX Classes
 90
        0
280
     0
281
     1
  0
CLASS
  1
ACDBDICTIONARYWDFLT
  2
AcDbDictionaryWithDefault
  3
ObjectDBX Classes
 90
        0
280
     0
281
     0
  0
CLASS
  1
ACDBPLACEHOLDER
  2
AcDbPlaceHolder
  3
ObjectDBX Classes
 90
        0
280
     0
281
     0
  0
CLASS
  1
LAYOUT
  2
AcDbLayout
  3
ObjectDBX Classes
 90
        0
280
     0
281
     0
  0
CLASS
  1
DICTIONARYVAR
  2
AcDbDictionaryVar
  3
ObjectDBX Classes
 90
        0
280
     0
281
     0
  0
CLASS
  1
MATERIAL
  2
AcDbMaterial
  3
ObjectDBX Classes
 90
     1153
280
     0
281
     0
  0
CLASS
  1
VISUALSTYLE
  2
AcDbVisualStyle
  3
ObjectDBX Classes
 90
     4095
280
     0
281
     0
  0
CLASS
  1
TABLESTYLE
  2
AcDbTableStyle
  3
ObjectDBX Classes
 90
     4095
280
     0
281
     0
  0
CLASS
  1
SCALE
  2
AcDbScale
  3
ObjectDBX Classes
 90
     1153
280
     0
281
     0
  0
CLASS
  1
MLEADERSTYLE
  2
AcDbMLeaderStyle
  3
ACDB_MLEADERSTYLE_CLASS
 90
     4095
280
     0
281
     0
  0
CLASS
  1
CELLSTYLEMAP
  2
AcDbCellStyleMap
  3
ObjectDBX Classes
 90
     1152
280
     0
281
     0
  0
CLASS
  1
SORTENTSTABLE
  2
AcDbSortentsTable
  3
ObjectDBX Classes
 90
        0
280
     0
281
     0
  0
CLASS
  1
MULTILEADER
  2
AcDbMLeader
  3
ACDB_MLEADER_CLASS
 90
     1025
280
     0
281
     1
  0
CLASS
  1
DIMASSOC
  2
AcDbDimAssoc
  3
"AcDbDimAssoc|Product Desc:     AcDim ARX App For Dimension|Company:          Autodesk, Inc.|WEB Address:      www.autodesk.com"
 90
        0
280
     0
281
     0
  0
CLASS
  1
RASTERVARIABLES
  2
AcDbRasterVariables
  3
ISM
 90
        0
280
     0
281
     0
  0
CLASS
  1
SUN
  2
AcDbSun
  3
SCENEOE
 90
     1153
280
     0
281
     0
  0
ENDSEC
  0
SECTION
  2
TABLES
  0
TABLE
  2
VPORT
  5
8
330
0
100
AcDbSymbolTable
 70
     1
  0
VPORT
  5
12C7D1
330
8
100
AcDbSymbolTableRecord
100
AcDbViewportTableRecord
  2
*Active
 70
     0
 10
0.0
 20
0.0
 11
1.0
 21
1.0
 12
9128.950590823188
 22
-3283.286485314514
 13
0.0
 23
0.0
 14
1.0
 24
1.0
 15
20.0
 25
20.0
 16
0.0
 26
0.0
 36
1.0
 17
0.0
 27
0.0
 37
0.0
 40
83.49211260840906
 41
1.731829573934837
 42
50.0
 43
0.0
 44
0.0
 50
0.0
 51
0.0
 71
    16
 72
   100
 73
     1
 74
     0
 75
     0
 76
     0
 77
     0
 78
     0
281
     0
 65
     1
110
0.0
120
0.0
130
0.0
111
1.0
121
0.0
131
0.0
112
0.0
122
1.0
132
0.0
 79
     0
146
0.0
  0
ENDTAB
  0
TABLE
  2
LTYPE
  5
5
330
0
100
AcDbSymbolTable
 70
     3
  0
LTYPE
  5
12
330
5
100
AcDbSymbolTableRecord
100
AcDbLinetypeTableRecord
  2
BYBLOCK
 70
     0
  3

 72
    65
 73
     0
 40
0.0
  0
LTYPE
  5
13
330
5
100
AcDbSymbolTableRecord
100
AcDbLinetypeTableRecord
  2
BYLAYER
 70
     0
  3

 72
    65
 73
     0
 40
0.0
  0
LTYPE
  5
14
330
5
100
AcDbSymbolTableRecord
100
AcDbLinetypeTableRecord
  2
CONTINUOUS
 70
     0
  3
Solid line
 72
    65
 73
     0
 40
0.0
  0
LTYPE
  5
27
330
5
100
AcDbSymbolTableRecord
100
AcDbLinetypeTableRecord
  2
HIDDEN
 70
     0
  3
_ _ _ _ _ _ _ _ _ _ _ _ _ _ _ _ _ _ _ _ _ _ _
 72
    65
 73
     2
 40
0.375
 49
0.25
 74
     0
 49
-0.125
 74
     0
  0
LTYPE
  5
514
330
5
100
AcDbSymbolTableRecord
100
AcDbLinetypeTableRecord
  2
CENTER
 70
     0
  3
Center ____ _ ____ _ ____ _ ____ _ ____ _ ____
 72
    65
 73
     4
 40
2.0
 49
1.25
 74
     0
 49
-0.25
 74
     0
 49
0.25
 74
     0
 49
-0.25
 74
     0
  0
ENDTAB
  0
TABLE
  2
LAYER
  5
2
102
{ACAD_XDICTIONARY
360
8BF
102
}
330
0
100
AcDbSymbolTable
 70
    12
  0
LAYER
  5
F
102
{ACAD_XDICTIONARY
360
A60
102
}
330
2
100
AcDbSymbolTableRecord
100
AcDbLayerTableRecord
  2
0
 70
     0
 62
     7
  6
CONTINUOUS
370
    -3
390
616
  0
LAYER
  5
34
102
{ACAD_XDICTIONARY
360
A66
102
}
330
2
100
AcDbSymbolTableRecord
100
AcDbLayerTableRecord
  2
寸法線
 70
     0
 62
     7
  6
CONTINUOUS
370
    -3
390
616
  0
LAYER
  5
2F4
102
{ACAD_XDICTIONARY
360
A6E
102
}
330
2
100
AcDbSymbolTableRecord
100
AcDbLayerTableRecord
  2
文字
 70
     0
 62
     7
  6
CONTINUOUS
370
    -3
390
616
  0
LAYER
  5
305
102
{ACAD_XDICTIONARY
360
A72
102
}
330
2
100
AcDbSymbolTableRecord
100
AcDbLayerTableRecord
  2
姿図
 70
     0
 62
     8
  6
CONTINUOUS
370
    -3
390
616
  0
ENDTAB
  0
TABLE
  2
STYLE
  5
3
330
0
100
AcDbSymbolTable
 70
     1
  0
STYLE
  5
10
330
3
100
AcDbSymbolTableRecord
100
AcDbTextStyleTableRecord
  2
STANDARD
 70
     0
 40
0.0
 41
1.0
 50
0.0
 71
     0
 42
53.44730959687513
  3
MONOTXT
  4
BIGFONT
  0
ENDTAB
  0
TABLE
  2
VIEW
  5
6
330
0
100
AcDbSymbolTable
 70
     0
  0
ENDTAB
  0
TABLE
  2
UCS
  5
7
330
0
100
AcDbSymbolTable
 70
     0
  0
ENDTAB
  0
TABLE
  2
APPID
  5
9
330
0
100
AcDbSymbolTable
 70
    15
  0
APPID
  5
11
330
9
100
AcDbSymbolTableRecord
100
AcDbRegAppTableRecord
  2
ACAD
 70
     0
  0
APPID
  5
8BB
330
9
100
AcDbSymbolTableRecord
100
AcDbRegAppTableRecord
  2
ACAD_PSEXT
 70
     0
  0
APPID
  5
A5A
330
9
100
AcDbSymbolTableRecord
100
AcDbRegAppTableRecord
  2
ACAD_MLEADERVER
 70
     0
  0
APPID
  5
A5E
330
9
100
AcDbSymbolTableRecord
100
AcDbRegAppTableRecord
  2
ACAD_DSTYLE_DIMJAG
 70
     0
  0
APPID
  5
A5F
330
9
100
AcDbSymbolTableRecord
100
AcDbRegAppTableRecord
  2
ACAD_DSTYLE_DIMTALN
 70
     0
  0
APPID
  5
12C0
330
9
100
AcDbSymbolTableRecord
100
AcDbRegAppTableRecord
  2
ACAD_EXEMPT_FROM_CAD_STANDARDS
 70
     0
  0
APPID
  5
1C50
330
9
100
AcDbSymbolTableRecord
100
AcDbRegAppTableRecord
  2
AcAecLayerStandard
 70
     0
  0
APPID
  5
5088
330
9
100
AcDbSymbolTableRecord
100
AcDbRegAppTableRecord
  2
ACAD_DSTYLE_DIMRADIAL_EXTENSION
 70
     0
  0
APPID
  5
14AF3
330
9
100
AcDbSymbolTableRecord
100
AcDbRegAppTableRecord
  2
WACOM_STRING
 70
     0
  0
APPID
  5
14AF4
330
9
100
AcDbSymbolTableRecord
100
AcDbRegAppTableRecord
  2
WACOM_DRSYM_ARROW
 70
     0
  0
APPID
  5
1E1A8
330
9
100
AcDbSymbolTableRecord
100
AcDbRegAppTableRecord
  2
GENIUS_GENODEF_13
 70
     0
  0
APPID
  5
1E1A9
330
9
100
AcDbSymbolTableRecord
100
AcDbRegAppTableRecord
  2
GENIUS_GENREC_14
 70
     0
  0
APPID
  5
1E1AA
330
9
100
AcDbSymbolTableRecord
100
AcDbRegAppTableRecord
  2
GENIUS_GENOBJ-N-REC_13
 70
     0
  0
APPID
  5
27C72
330
9
100
AcDbSymbolTableRecord
100
AcDbRegAppTableRecord
  2
ASK_MEN_XD
 70
     0
  0
APPID
  5
29316
330
9
100
AcDbSymbolTableRecord
100
AcDbRegAppTableRecord
  2
ACAD_DSTYLE_DIMBREAK
 70
     0
  0
ENDTAB
  0
TABLE
  2
DIMSTYLE
  5
A
330
0
100
AcDbSymbolTable
 70
     2
100
AcDbDimStyleTable
  0
DIMSTYLE
105
1CC
330
A
100
AcDbSymbolTableRecord
100
AcDbDimStyleTableRecord
  2
STANDARD
 70
     0
 41
2.5
 42
1.5
 44
1.0
 73
     0
 74
     0
 77
     3
 78
     8
 79
     2
140
2.500000000000003
141
0.0
147
1.0
171
     0
172
     1
173
     1
176
     8
177
     8
271
     2
178
   256
179
     2
271
     2
272
     2
274
     0
289
     1
340
10
341
608
343
608
344
608
1001
ACAD_DSTYLE_DIMJAG
1070
   388
1040
1.5
1001
ACAD_DSTYLE_DIMTALN
1070
   392
1070
     0
  0
ENDTAB
  0
TABLE
  2
BLOCK_RECORD
  5
1
330
0
100
AcDbSymbolTable
 70
    48
  0
BLOCK_RECORD
  5
18
102
{ACAD_XDICTIONARY
360
143F
102
}
330
1
100
AcDbSymbolTableRecord
100
AcDbBlockTableRecord
  2
*MODEL_SPACE
340
619
  0
BLOCK_RECORD
  5
15
330
1
100
AcDbSymbolTableRecord
100
AcDbBlockTableRecord
  2
*PAPER_SPACE
340
61A
  0
BLOCK_RECORD
  5
608
330
1
100
AcDbSymbolTableRecord
100
AcDbBlockTableRecord
  2
_OPEN
340
0
102
{BLKREFS
331
FB699
331
FB69A
331
FB6A2
331
FB6A3
331
FB6AB
331
FB6AC
331
FB6B4
331
FB6B5
331
FB6BD
331
FB6BE
331
FB6C6
331
FB6C7
331
FB6D1
331
FB6D2
331
FB778
331
FB779
331
FB781
331
FB782
331
1275E8
331
1275E9
331
1275F1
331
1275F2
331
1275FA
331
1275FB
331
127605
331
127606
331
12760E
331
12760F
331
127617
331
127618
331
127620
331
127621
331
127629
331
12762A
331
127632
331
127633
331
1289E8
331
1289E9
331
1289F1
331
1289F2
331
1289FA
331
1289FB
331
128A03
331
128A04
331
128A0C
331
128A0D
331
128A15
331
128A16
331
128A1E
331
128A1F
331
128A27
331
128A28
331
128A32
331
128A33
331
129DDD
331
129DDE
331
129DE6
331
129DE7
331
129DF1
331
129DF2
331
129DFA
331
129DFB
331
129E03
331
129E04
331
129E0C
331
129E0D
331
129E15
331
129E16
331
129E1E
331
129E1F
331
129E27
331
129E28
331
12DB7A
331
12DB7B
331
12DB83
331
12DB84
331
12DB8C
331
12DB8D
331
12DB95
331
12DB96
331
12DB9E
331
12DB9F
331
12DBA7
331
12DBA8
331
12DBB0
331
12DBB1
331
12DBB9
331
12DBBA
331
12DBC4
331
12DBC5
102
}
  0
BLOCK_RECORD
  5
89D
330
1
100
AcDbSymbolTableRecord
100
AcDbBlockTableRecord
  2
SUN
340
0
  0
ENDTAB
  0
ENDSEC
  0
SECTION
  2
BLOCKS
  0
BLOCK
  5
39
330
18
100
AcDbEntity
  8
0
100
AcDbBlockBegin
  2
*MODEL_SPACE
 70
     0
 10
0.0
 20
0.0
 30
0.0
  3
*MODEL_SPACE
  1
*MODEL_SPACE
  0
ENDBLK
  5
3A
330
18
100
AcDbEntity
  8
0
100
AcDbBlockEnd
  0
BLOCK
  5
37
330
15
100
AcDbEntity
 67
     1
  8
0
100
AcDbBlockBegin
  2
*PAPER_SPACE
 70
     0
 10
0.0
 20
0.0
 30
0.0
  3
*PAPER_SPACE
  1
*PAPER_SPACE
  0
ENDBLK
  5
38
330
15
100
AcDbEntity
 67
     1
  8
0
100
AcDbBlockEnd
  0
BLOCK
  5
609
330
608
100
AcDbEntity
  8
0
100
AcDbBlockBegin
  2
_OPEN
 70
     0
 10
0.0
 20
0.0
 30
0.0
  3
_OPEN
  1
_OPEN
  0
LINE
  5
60A
330
608
100
AcDbEntity
  8
0
  6
ByBlock
 62
     0
100
AcDbLine
 10
-1.0
 20
0.1666666666666667
 30
0.0
 11
0.0
 21
0.0
 31
0.0
  0
LINE
  5
60B
330
608
100
AcDbEntity
  8
0
  6
ByBlock
 62
     0
100
AcDbLine
 10
0.0
 20
0.0
 30
0.0
 11
-1.0
 21
-0.1666666666666667
 31
0.0
  0
LINE
  5
60C
330
608
100
AcDbEntity
  8
0
  6
ByBlock
 62
     0
100
AcDbLine
 10
0.0
 20
0.0
 30
0.0
 11
-1.0
 21
0.0
 31
0.0
  0
ENDBLK
  5
60D
330
608
100
AcDbEntity
  8
0
100
AcDbBlockEnd
  0
BLOCK
  5
89E
330
89D
100
AcDbEntity
  8
0
100
AcDbBlockBegin
  2
SUN
 70
     0
 10
0.0
 20
0.0
 30
0.0
  3
SUN
  1
SUN
  0
LINE
  5
89F
330
89D
100
AcDbEntity
  8
0
100
AcDbLine
 10
-0.0000000000000568
 20
0.0
 30
0.0
 11
-1.500000000000057
 21
0.0
 31
0.0
  0
LINE
  5
8A0
330
89D
100
AcDbEntity
  8
0
100
AcDbLine
 10
-0.0000000000000568
 20
0.0000000000000284
 30
0.0
 11
-1.500000000000057
 21
0.401923788646684
 31
0.0
  0
LINE
  5
8A1
330
89D
100
AcDbEntity
  8
0
100
AcDbLine
 10
-0.0000000000000568
 20
0.0000000000000284
 30
0.0
 11
-1.500000000000057
 21
-0.4019237886466556
 31
0.0
  0
ENDBLK
  5
8A2
330
89D
100
AcDbEntity
  8
0
100
AcDbBlockEnd
  0
ENDSEC
  0
SECTION
  2
ENTITIES
  0
MTEXT
  5
D0CC6
330
18
100
AcDbEntity
  8
寸法線
100
AcDbMText
 10
2610.774875364868
 20
-2740.315466585338
 30
0.0
 40
2.500000000000003
 41
0.0
 71
     9
 72
     1
  1
\A1;
 73
     1
 44
1.0
  0
MTEXT
  5
F6D77
330
18
100
AcDbEntity
  8
文字
100
AcDbMText
 10
5821.057140836062
 20
-2842.341718131323
 30
0.0
 40
2.5
 41
64.39156592258223
 71
     1
 72
     5
  1
   
 73
     1
 44
1.0
  0
MTEXT
  5
F6D78
330
18
100
AcDbEntity
  8
寸法線
100
AcDbMText
 10
6222.662262480188
 20
-2968.738290481128
 30
0.0
 40
3.000000000000001
 41
0.0
 71
     7
 72
     1
  1
\A1;
 73
     1
 44
1.0
  0
TEXT
  5
12C819
330
18
100
AcDbEntity
  8
文字
100
AcDbText
 10
9095.259373209701
 20
-3324.213991495107
 30
0.0
 40
6.5
  1
SX-505CBP
100
AcDbText
  0
LINE
  5
12DA48
330
18
100
AcDbEntity
  8
姿図
100
AcDbLine
 10
9118.99748501193
 20
-3262.03137019533
 30
-0.000000000000002
 11
9117.933083872025
 21
-3259.949689840985
 31
-0.000000000000002
  0
POLYLINE
  5
12DA49
330
18
100
AcDbEntity
  8
姿図
100
AcDb2dPolyline
 66
     1
 10
0.0
 20
0.0
 30
-0.000000000000002
  0
VERTEX
  5
12DA4A
330
12DA49
100
AcDbEntity
  8
姿図
100
AcDbVertex
100
AcDb2dVertex
 10
9125.990508594121
 20
-3262.551374502221
 30
-0.000000000000002
  0
VERTEX
  5
12DA4B
330
12DA49
100
AcDbEntity
  8
姿図
100
AcDbVertex
100
AcDb2dVertex
 10
9127.39461212971
 20
-3262.551374502221
 30
-0.000000000000002
  0
VERTEX
  5
12DA4C
330
12DA49
100
AcDbEntity
  8
姿図
100
AcDbVertex
100
AcDb2dVertex
 10
9127.1578937512
 20
-3262.03137019533
 30
-0.000000000000002
  0
VERTEX
  5
12DA4D
330
12DA49
100
AcDbEntity
  8
姿図
100
AcDbVertex
100
AcDb2dVertex
 10
9118.99748501193
 20
-3262.03137019533
 30
-0.000000000000002
  0
VERTEX
  5
12DA4E
330
12DA49
100
AcDbEntity
  8
姿図
100
AcDbVertex
100
AcDb2dVertex
 10
9119.54132746935
 20
-3262.551374502221
 30
-0.000000000000002
  0
SEQEND
  5
12DA4F
330
12DA49
100
AcDbEntity
  8
姿図
  0
POLYLINE
  5
12DA50
330
18
100
AcDbEntity
  8
姿図
100
AcDb2dPolyline
 66
     1
 10
0.0
 20
0.0
 30
-0.000000000000002
  0
VERTEX
  5
12DA51
330
12DA50
100
AcDbEntity
  8
姿図
100
AcDbVertex
100
AcDb2dVertex
 10
9119.54132746935
 20
-3262.551374502221
 30
-0.000000000000002
  0
VERTEX
  5
12DA52
330
12DA50
100
AcDbEntity
  8
姿図
100
AcDbVertex
100
AcDb2dVertex
 10
9120.466517475536
 20
-3262.551374502221
 30
-0.000000000000002
  0
SEQEND
  5
12DA53
330
12DA50
100
AcDbEntity
  8
姿図
  0
SPLINE
  5
12DA54
330
18
100
AcDbEntity
  8
姿図
100
AcDbSpline
210
0.0
220
0.0
230
1.0
 70
     8
 71
     3
 72
    17
 73
    13
 74
     0
 42
0.000000001
 43
0.0000000001
 40
0.0
 40
0.0
 40
0.0
 40
0.0
 40
1.0
 40
1.0
 40
1.0
 40
2.0
 40
2.0
 40
2.0
 40
3.0
 40
3.0
 40
3.0
 40
4.0
 40
4.0
 40
4.0
 40
4.0
 10
9120.487116246222
 20
-3263.449243704094
 30
-0.000000000000002
 10
9120.487116246222
 20
-3263.449243704094
 30
-0.000000000000002
 10
9120.463808457267
 20
-3262.433292500762
 30
-0.000000000000002
 10
9120.463808457267
 20
-3262.433292500762
 30
-0.000000000000002
 10
9120.463808457267
 20
-3262.433292500762
 30
-0.000000000000002
 10
9120.535213587402
 20
-3262.03137019533
 30
-0.000000000000002
 10
9122.831543986273
 20
-3262.03137019533
 30
-0.000000000000002
 10
9125.860241815302
 20
-3262.03137019533
 30
-0.000000000000002
 10
9125.976631579242
 20
-3262.389981356612
 30
-0.000000000000002
 10
9125.976631579242
 20
-3262.389981356612
 30
-0.000000000000002
 10
9125.976631579242
 20
-3262.389981356612
 30
-0.000000000000002
 10
9126.028154016767
 20
-3262.98920016081
 30
-0.000000000000002
 10
9126.028154016767
 20
-3262.98920016081
 30
-0.000000000000002
  0
LINE
  5
12DA55
330
18
100
AcDbEntity
  8
姿図
100
AcDbLine
 10
9120.203806303822
 20
-3263.876332171165
 30
-0.000000000000002
 11
9120.250928229287
 21
-3265.673617845941
 31
-0.000000000000002
  0
LINE
  5
12DA56
330
18
100
AcDbEntity
  8
姿図
100
AcDbLine
 10
9124.22469248493
 20
-3263.095771335235
 30
-0.000000000000002
 11
9124.272368785989
 21
-3265.200735464515
 31
-0.000000000000002
  0
SPLINE
  5
12DA57
330
18
100
AcDbEntity
  8
姿図
100
AcDbSpline
210
0.0
220
0.0
230
1.0
 70
    24
 71
     3
 72
     8
 73
     4
 74
     0
 42
0.000000001
 43
0.0000000001
 40
0.0
 40
0.0
 40
0.0
 40
0.0
 40
1.0
 40
1.0
 40
1.0
 40
1.0
 10
9114.905638754828
 20
-3281.923475248487
 30
-0.000000000000002
 10
9114.905638754828
 20
-3281.923475248487
 30
-0.000000000000002
 10
9118.19308602547
 20
-3264.420174628584
 30
-0.000000000000002
 10
9118.19308602547
 20
-3264.420174628584
 30
-0.000000000000002
  0
SPLINE
  5
12DA58
330
18
100
AcDbEntity
  8
姿図
100
AcDbSpline
210
0.0
220
0.0
230
1.0
 70
     8
 71
     3
 72
    11
 73
     7
 74
     0
 42
0.000000001
 43
0.0000000001
 40
1.0
 40
1.0
 40
1.0
 40
1.0
 40
2.0
 40
2.0
 40
2.0
 40
3.0
 40
3.0
 40
3.0
 40
3.0
 10
9118.19308602547
 20
-3264.420174628584
 30
-0.000000000000002
 10
9118.19308602547
 20
-3264.420174628584
 30
-0.000000000000002
 10
9118.358844327986
 20
-3263.994968548216
 30
-0.000000000000002
 10
9119.068445087925
 20
-3263.947292247159
 30
-0.000000000000002
 10
9119.778045847861
 20
-3263.8996159461
 30
-0.000000000000002
 10
9120.203806303822
 20
-3263.876332171165
 30
-0.000000000000002
 10
9120.203806303822
 20
-3263.876332171165
 30
-0.000000000000002
  0
SPLINE
  5
12DA59
330
18
100
AcDbEntity
  8
姿図
100
AcDbSpline
210
0.0
220
0.0
230
1.0
 70
     8
 71
     3
 72
     8
 73
     4
 74
     0
 42
0.000000001
 43
0.0000000001
 40
3.0
 40
3.0
 40
3.0
 40
3.0
 40
4.0
 40
4.0
 40
4.0
 40
4.0
 10
9120.203806303822
 20
-3263.876332171165
 30
-0.000000000000002
 10
9120.203806303822
 20
-3263.876332171165
 30
-0.000000000000002
 10
9120.887905786449
 20
-3261.987574523427
 30
-0.000000000000002
 10
9124.272368785989
 20
-3263.11905511017
 30
-0.000000000000002
  0
SPLINE
  5
12DA5A
330
18
100
AcDbEntity
  8
姿図
100
AcDbSpline
210
0.0
220
0.0
230
1.0
 70
    24
 71
     3
 72
     8
 73
     4
 74
     0
 42
0.000000001
 43
0.0000000001
 40
4.0
 40
4.0
 40
4.0
 40
4.0
 40
5.0
 40
5.0
 40
5.0
 40
5.0
 10
9124.272368785989
 20
-3263.11905511017
 30
-0.000000000000002
 10
9124.272368785989
 20
-3263.11905511017
 30
-0.000000000000002
 10
9127.465572205701
 20
-3262.882891107253
 30
-0.000000000000002
 10
9127.465572205701
 20
-3262.882891107253
 30
-0.000000000000002
  0
SPLINE
  5
12DA5B
330
18
100
AcDbEntity
  8
姿図
100
AcDbSpline
210
0.0
220
0.0
230
1.0
 70
     8
 71
     3
 72
     8
 73
     4
 74
     0
 42
0.000000001
 43
0.0000000001
 40
5.0
 40
5.0
 40
5.0
 40
5.0
 40
6.0
 40
6.0
 40
6.0
 40
6.0
 10
9127.465572205701
 20
-3262.882891107253
 30
-0.000000000000002
 10
9127.465572205701
 20
-3262.882891107253
 30
-0.000000000000002
 10
9128.576540895478
 20
-3262.646172728743
 30
-0.000000000000002
 10
9128.766137348526
 20
-3264.13633432461
 30
-0.000000000000002
  0
SPLINE
  5
12DA5C
330
18
100
AcDbEntity
  8
姿図
100
AcDbSpline
210
0.0
220
0.0
230
1.0
 70
    24
 71
     3
 72
     8
 73
     4
 74
     0
 42
0.000000001
 43
0.0000000001
 40
6.0
 40
6.0
 40
6.0
 40
6.0
 40
7.0
 40
7.0
 40
7.0
 40
7.0
 10
9128.766137348526
 20
-3264.13633432461
 30
-0.000000000000002
 10
9128.766137348526
 20
-3264.13633432461
 30
-0.000000000000002
 10
9131.344538234824
 20
-3287.056993246152
 30
-0.000000000000002
 10
9131.344538234824
 20
-3287.056993246152
 30
-0.000000000000002
  0
SPLINE
  5
12DA5D
330
18
100
AcDbEntity
  8
姿図
100
AcDbSpline
210
0.0
220
0.0
230
1.0
 70
     8
 71
     3
 72
     8
 73
     4
 74
     0
 42
0.000000001
 43
0.0000000001
 40
7.0
 40
7.0
 40
7.0
 40
7.0
 40
8.0
 40
8.0
 40
8.0
 40
8.0
 10
9131.344538234824
 20
-3287.056993246152
 30
-0.000000000000002
 10
9131.344538234824
 20
-3287.056993246152
 30
-0.000000000000002
 10
9131.557418462804
 20
-3287.269873474133
 30
-0.000000000000002
 10
9131.699338614793
 20
-3287.340833550127
 30
-0.000000000000002
  0
SPLINE
  5
12DA5E
330
18
100
AcDbEntity
  8
姿図
100
AcDbSpline
210
0.0
220
0.0
230
1.0
 70
     8
 71
     3
 72
    17
 73
    13
 74
     0
 42
0.000000001
 43
0.0000000001
 40
0.0
 40
0.0
 40
0.0
 40
0.0
 40
1.0
 40
1.0
 40
1.0
 40
2.0
 40
2.0
 40
2.0
 40
3.0
 40
3.0
 40
3.0
 40
4.0
 40
4.0
 40
4.0
 40
4.0
 10
9117.10540111063
 20
-3281.568674868518
 30
-0.000000000000002
 10
9117.10540111063
 20
-3281.568674868518
 30
-0.000000000000002
 10
9120.330375318792
 20
-3266.157529889171
 30
-0.000000000000002
 10
9120.330375318792
 20
-3266.157529889171
 30
-0.000000000000002
 10
9120.330375318792
 20
-3266.157529889171
 30
-0.000000000000002
 10
9120.861497475516
 20
-3266.120767275897
 30
-0.000000000000002
 10
9120.861497475516
 20
-3266.120767275897
 30
-0.000000000000002
 10
9120.861497475516
 20
-3266.120767275897
 30
-0.000000000000002
 10
9123.863442959178
 20
-3266.670583774035
 30
-0.000000000000002
 10
9124.408837249532
 20
-3265.899550547634
 30
-0.000000000000002
 10
9124.408837249532
 20
-3265.899550547634
 30
-0.000000000000002
 10
9126.241696556504
 20
-3265.763718405075
 30
-0.000000000000002
 10
9126.241696556504
 20
-3265.763718405075
 30
-0.000000000000002
  0
SPLINE
  5
12DA5F
330
18
100
AcDbEntity
  8
姿図
100
AcDbSpline
210
0.0
220
0.0
230
1.0
 70
     8
 71
     3
 72
     8
 73
     4
 74
     0
 42
0.000000001
 43
0.0000000001
 40
0.0
 40
0.0
 40
0.0
 40
0.0
 40
1.0
 40
1.0
 40
1.0
 40
1.0
 10
9129.523414409517
 20
-3287.695633930095
 30
-0.000000000000002
 10
9129.523414409517
 20
-3287.695633930095
 30
-0.000000000000002
 10
9129.83053848843
 20
-3287.646848877849
 30
-0.000000000000002
 10
9129.688618336442
 20
-3286.606840264068
 30
-0.000000000000002
  0
SPLINE
  5
12DA60
330
18
100
AcDbEntity
  8
姿図
100
AcDbSpline
210
0.0
220
0.0
230
1.0
 70
    24
 71
     3
 72
     8
 73
     4
 74
     0
 42
0.000000001
 43
0.0000000001
 40
1.0
 40
1.0
 40
1.0
 40
1.0
 40
2.0
 40
2.0
 40
2.0
 40
2.0
 10
9129.688618336442
 20
-3286.606840264068
 30
-0.000000000000002
 10
9129.688618336442
 20
-3286.606840264068
 30
-0.000000000000002
 10
9126.117330761825
 20
-3265.011693387063
 30
-0.000000000000002
 10
9126.117330761825
 20
-3265.011693387063
 30
-0.000000000000002
  0
SPLINE
  5
12DA61
330
18
100
AcDbEntity
  8
姿図
100
AcDbSpline
210
0.0
220
0.0
230
1.0
 70
    24
 71
     3
 72
     8
 73
     4
 74
     0
 42
0.000000001
 43
0.0000000001
 40
2.0
 40
2.0
 40
2.0
 40
2.0
 40
3.0
 40
3.0
 40
3.0
 40
3.0
 10
9126.117330761825
 20
-3265.011693387063
 30
-0.000000000000002
 10
9126.117330761825
 20
-3265.011693387063
 30
-0.000000000000002
 10
9124.22469248493
 20
-3265.200735464515
 30
-0.000000000000002
 10
9124.22469248493
 20
-3265.200735464515
 30
-0.000000000000002
  0
SPLINE
  5
12DA62
330
18
100
AcDbEntity
  8
姿図
100
AcDbSpline
210
0.0
220
0.0
230
1.0
 70
     8
 71
     3
 72
     8
 73
     4
 74
     0
 42
0.000000001
 43
0.0000000001
 40
3.0
 40
3.0
 40
3.0
 40
3.0
 40
4.0
 40
4.0
 40
4.0
 40
4.0
 10
9124.22469248493
 20
-3265.200735464515
 30
-0.000000000000002
 10
9124.22469248493
 20
-3265.200735464515
 30
-0.000000000000002
 10
9121.227183649795
 20
-3264.339235791905
 30
-0.000000000000002
 10
9120.558606683791
 20
-3265.389777541966
 30
-0.000000000000002
  0
SPLINE
  5
12DA63
330
18
100
AcDbEntity
  8
姿図
100
AcDbSpline
210
0.0
220
0.0
230
1.0
 70
    24
 71
     3
 72
     8
 73
     4
 74
     0
 42
0.000000001
 43
0.0000000001
 40
4.0
 40
4.0
 40
4.0
 40
4.0
 40
5.0
 40
5.0
 40
5.0
 40
5.0
 10
9120.558606683791
 20
-3265.389777541966
 30
-0.000000000000002
 10
9120.392848381272
 20
-3265.650334071005
 30
-0.000000000000002
 10
9120.392848381272
 20
-3265.650334071005
 30
-0.000000000000002
 10
9120.392848381272
 20
-3265.650334071005
 30
-0.000000000000002
  0
SPLINE
  5
12DA64
330
18
100
AcDbEntity
  8
姿図
100
AcDbSpline
210
0.0
220
0.0
230
1.0
 70
    24
 71
     3
 72
     8
 73
     4
 74
     0
 42
0.000000001
 43
0.0000000001
 40
5.0
 40
5.0
 40
5.0
 40
5.0
 40
6.0
 40
6.0
 40
6.0
 40
6.0
 10
9120.392848381272
 20
-3265.650334071005
 30
-0.000000000000002
 10
9120.392848381272
 20
-3265.650334071005
 30
-0.000000000000002
 10
9118.737482858485
 20
-3265.792254222993
 30
-0.000000000000002
 10
9118.737482858485
 20
-3265.792254222993
 30
-0.000000000000002
  0
SPLINE
  5
12DA65
330
18
100
AcDbEntity
  8
姿図
100
AcDbSpline
210
0.0
220
0.0
230
1.0
 70
    24
 71
     3
 72
     8
 73
     4
 74
     0
 42
0.000000001
 43
0.0000000001
 40
6.0
 40
6.0
 40
6.0
 40
6.0
 40
7.0
 40
7.0
 40
7.0
 40
7.0
 10
9118.737482858485
 20
-3265.792254222993
 30
-0.000000000000002
 10
9118.737482858485
 20
-3265.792254222993
 30
-0.000000000000002
 10
9115.591401364234
 20
-3281.733878795441
 30
-0.000000000000002
 10
9115.591401364234
 20
-3281.733878795441
 30
-0.000000000000002
  0
ELLIPSE
  5
12DA66
330
18
100
AcDbEntity
  8
姿図
100
AcDbEllipse
 10
9131.258887205599
 20
-3289.144771732028
 30
-0.000000000000002
 11
0.3467619338595894
 21
-1.242910081076258
 31
0.0
210
0.0
220
0.0
230
1.0
 40
0.6435311717170278
 41
0.1727975711782461
 42
3.069675997577924
  0
ELLIPSE
  5
12DA67
330
18
100
AcDbEntity
  8
姿図
100
AcDbEllipse
 10
9131.639188862877
 20
-3289.005623458009
 30
-0.000000000000002
 11
0.3661650796391024
 21
-1.314424532663607
 31
0.0
210
0.0
220
0.0
230
1.0
 40
0.6435771184023124
 41
0.0
 42
6.283185307179586
  0
LINE
  5
12DA68
330
18
100
AcDbEntity
  8
姿図
100
AcDbLine
 10
9131.44766294131
 20
-3291.149303981861
 30
-0.000000000000002
 11
9132.230699452955
 21
-3290.724095904509
 31
-0.000000000000002
  0
LINE
  5
12DA69
330
18
100
AcDbEntity
  8
姿図
100
AcDbLine
 10
9130.158174464306
 20
-3287.353029813189
 30
-0.000000000000002
 11
9131.155496157373
 21
-3287.19891339814
 31
-0.000000000000002
  0
ELLIPSE
  5
12DA6A
330
18
100
AcDbEntity
  8
姿図
100
AcDbEllipse
 10
9131.511959664122
 20
-3289.027244106163
 30
-0.000000000000002
 11
0.499492409924045
 21
-1.79617692358924
 31
0.0
210
0.0
220
0.0
230
1.0
 40
0.6439476357599928
 41
0.0
 42
6.283185307179586
  0
ELLIPSE
  5
12DA6B
330
18
100
AcDbEntity
  8
姿図
100
AcDbEllipse
 10
9130.694532851212
 20
-3289.290018137578
 30
-0.000000000000002
 11
0.5385758892799218
 21
-1.938097075576539
 31
0.0
210
0.0
220
0.0
230
1.0
 40
0.8372735138002814
 41
2.937168574284825
 42
6.528588851372925
  0
SPLINE
  5
12DA6C
330
18
100
AcDbEntity
  8
姿図
100
AcDbSpline
210
0.0
220
0.0
230
1.0
 70
     8
 71
     3
 72
     8
 73
     4
 74
     0
 42
0.000000001
 43
0.0000000001
 40
0.0
 40
0.0
 40
0.0
 40
0.0
 40
1.0
 40
1.0
 40
1.0
 40
1.0
 10
9128.614973923324
 20
-3295.261633782809
 30
-0.000000000000002
 10
9129.002855727034
 20
-3294.696288927344
 30
-0.000000000000002
 10
9131.921820173944
 20
-3290.891824947037
 30
-0.000000000000002
 10
9131.921820173944
 20
-3290.891824947037
 30
-0.000000000000002
  0
LINE
  5
12DA6D
330
18
100
AcDbEntity
  8
姿図
100
AcDbLine
 10
9126.878282260896
 20
-3288.527497954923
 30
-0.000000000000002
 11
9129.546698184455
 21
-3287.50603747705
 31
-0.000000000000002
  0
LINE
  5
12DA6E
330
18
100
AcDbEntity
  8
姿図
100
AcDbLine
 10
9126.785830455794
 20
-3289.229901677794
 30
-0.0000000000000001
 11
9129.523414409517
 21
-3287.695633930095
 31
-0.000000000000002
  0
SPLINE
  5
12DA6F
330
18
100
AcDbEntity
  8
姿図
100
AcDbSpline
210
0.0
220
0.0
230
1.0
 70
     8
 71
     3
 72
    11
 73
     7
 74
     0
 42
0.000000001
 43
0.0000000001
 40
0.0
 40
0.0
 40
0.0
 40
0.0
 40
1.0
 40
1.0
 40
1.0
 40
2.0
 40
2.0
 40
2.0
 40
2.0
 10
9133.2986478435
 20
-3285.515787424425
 30
-0.000000000000002
 10
9133.2986478435
 20
-3285.515787424425
 30
-0.000000000000002
 10
9134.584863580003
 20
-3284.194197680284
 30
-0.000000000000002
 10
9134.584863580003
 20
-3284.194197680284
 30
-0.000000000000002
 10
9134.584863580003
 20
-3284.194197680284
 30
-0.000000000000002
 10
9134.633648632249
 20
-3284.099953829354
 30
-0.000000000000002
 10
9134.609256106127
 20
-3284.028993753361
 30
-0.000000000000002
  0
SPLINE
  5
12DA70
330
18
100
AcDbEntity
  8
姿図
100
AcDbSpline
210
0.0
220
0.0
230
1.0
 70
    24
 71
     3
 72
     8
 73
     4
 74
     0
 42
0.000000001
 43
0.0000000001
 40
1.493954403022821
 40
1.493954403022821
 40
1.493954403022821
 40
1.493954403022821
 40
1.793215549939622
 40
1.793215549939622
 40
1.793215549939622
 40
1.793215549939622
 10
9125.683204329862
 20
-3279.032996670924
 30
-0.000000000000002
 10
9126.603251213126
 20
-3278.346424228876
 30
-0.000000000000002
 10
9127.529957310442
 20
-3277.654882439136
 30
-0.000000000000002
 10
9128.133687013824
 20
-3277.204357379675
 30
-0.000000000000002
  0
SPLINE
  5
12DA71
330
18
100
AcDbEntity
  8
姿図
100
AcDbSpline
210
0.0
220
0.0
230
1.0
 70
     8
 71
     3
 72
    11
 73
     7
 74
     0
 42
0.000000001
 43
0.0000000001
 40
0.0
 40
0.0
 40
0.0
 40
0.0
 40
1.0
 40
1.0
 40
1.0
 40
1.888883729132651
 40
1.888883729132651
 40
1.888883729132651
 40
1.888883729132651
 10
9136.619422008886
 20
-3286.773152942178
 30
-0.000000000000002
 10
9136.619422008886
 20
-3286.773152942178
 30
-0.000000000000002
 10
9136.831193485677
 20
-3287.056993246152
 30
-0.000000000000002
 10
9136.713665859814
 20
-3287.19891339814
 30
-0.000000000000002
 10
9136.713665859814
 20
-3287.19891339814
 30
-0.000000000000002
 10
9132.602409433634
 20
-3290.469171279863
 30
-0.000000000000002
 10
9131.688754468321
 20
-3291.195929001046
 30
-0.000000000000002
  0
SPLINE
  5
12DA72
330
18
100
AcDbEntity
  8
姿図
100
AcDbSpline
210
0.0
220
0.0
230
1.0
 70
     8
 71
     3
 72
    11
 73
     7
 74
     0
 42
0.000000001
 43
0.0000000001
 40
0.0
 40
0.0
 40
0.0
 40
0.0
 40
1.0
 40
1.0
 40
1.0
 40
1.814174646936442
 40
1.814174646936442
 40
1.814174646936442
 40
1.814174646936442
 10
9137.305738993886
 20
-3285.495871574292
 30
-0.000000000000002
 10
9137.305738993886
 20
-3285.495871574292
 30
-0.000000000000002
 10
9137.541902996802
 20
-3285.662184252402
 30
-0.000000000000002
 10
9137.187102616834
 20
-3285.969308331312
 30
-0.000000000000002
 10
9136.89823314274
 20
-3286.219360969824
 30
-0.000000000000002
 10
9133.881157324508
 20
-3288.649332793873
 30
-0.000000000000002
 10
9132.769833935898
 20
-3289.543798955026
 30
-0.000000000000002
  0
SPLINE
  5
12DA73
330
18
100
AcDbEntity
  8
姿図
100
AcDbSpline
210
0.0
220
0.0
230
1.0
 70
     8
 71
     3
 72
    14
 73
    10
 74
     0
 42
0.000000001
 43
0.0000000001
 40
0.0
 40
0.0
 40
0.0
 40
0.0
 40
1.0
 40
1.0
 40
1.0
 40
2.0
 40
2.0
 40
2.0
 40
2.760018265937639
 40
2.760018265937639
 40
2.760018265937639
 40
2.760018265937639
 10
9136.383258005966
 20
-3284.904907191408
 30
-0.000000000000002
 10
9136.383258005966
 20
-3284.904907191408
 30
-0.000000000000002
 10
9137.447659145872
 20
-3285.566831650286
 30
-0.000000000000002
 10
9137.447659145872
 20
-3285.566831650286
 30
-0.000000000000002
 10
9137.447659145872
 20
-3285.566831650286
 30
-0.000000000000002
 10
9137.707106923723
 20
-3285.756428103331
 30
-0.000000000000002
 10
9137.494226695742
 20
-3285.969308331312
 30
-0.000000000000002
 10
9137.494226695742
 20
-3285.969308331312
 30
-0.000000000000002
 10
9134.228915467813
 20
-3288.783425725746
 30
-0.000000000000002
 10
9132.661685366349
 20
-3290.134099270089
 30
-0.000000000000002
  0
SPLINE
  5
12DA74
330
18
100
AcDbEntity
  8
姿図
100
AcDbSpline
210
0.0
220
0.0
230
1.0
 70
     8
 71
     3
 72
    11
 73
     7
 74
     0
 42
0.000000001
 43
0.0000000001
 40
0.0
 40
0.0
 40
0.0
 40
0.0
 40
1.0
 40
1.0
 40
1.0
 40
1.887883960454416
 40
1.887883960454416
 40
1.887883960454416
 40
1.887883960454416
 10
9137.399982844814
 20
-3283.627625823522
 30
-0.000000000000002
 10
9137.399982844814
 20
-3283.627625823522
 30
-0.000000000000002
 10
9137.707106923723
 20
-3283.603233297399
 30
-0.000000000000002
 10
9137.068466239782
 20
-3284.076670054419
 30
-0.000000000000002
 10
9136.501427420013
 20
-3284.497026957267
 30
-0.000000000000002
 10
9133.02591863585
 20
-3287.229300631213
 30
-0.000000000000002
 10
9132.25372575683
 20
-3287.836680148842
 30
-0.000000000000002
  0
SPLINE
  5
12DA75
330
18
100
AcDbEntity
  8
姿図
100
AcDbSpline
210
0.0
220
0.0
230
1.0
 70
     8
 71
     3
 72
    11
 73
     7
 74
     0
 42
0.000000001
 43
0.0000000001
 40
0.0
 40
0.0
 40
0.0
 40
0.0
 40
1.0
 40
1.0
 40
1.0
 40
1.675127286579802
 40
1.675127286579802
 40
1.675127286579802
 40
1.675127286579802
 10
9136.571745707826
 20
-3281.687311245571
 30
-0.000000000000002
 10
9136.571745707826
 20
-3281.687311245571
 30
-0.000000000000002
 10
9136.92765483898
 20
-3281.711703771693
 30
-0.000000000000002
 10
9136.667098309943
 20
-3281.947867774609
 30
-0.000000000000002
 10
9136.491189487491
 20
-3282.107308537086
 30
-0.000000000000002
 10
9133.307599069765
 20
-3284.649546698829
 30
-0.000000000000002
 10
9131.257641573093
 20
-3286.284526576775
 30
-0.000000000000002
  0
SPLINE
  5
12DA76
330
18
100
AcDbEntity
  8
姿図
100
AcDbSpline
210
0.0
220
0.0
230
1.0
 70
     8
 71
     3
 72
    14
 73
    10
 74
     0
 42
0.000000001
 43
0.0000000001
 40
0.0
 40
0.0
 40
0.0
 40
0.0
 40
1.0
 40
1.0
 40
1.0
 40
2.0
 40
2.0
 40
2.0
 40
2.903771721635469
 40
2.903771721635469
 40
2.903771721635469
 40
2.903771721635469
 10
9135.578304643916
 20
-3283.20186536756
 30
-0.000000000000002
 10
9135.578304643916
 20
-3283.20186536756
 30
-0.000000000000002
 10
9137.399982844814
 20
-3283.627625823522
 30
-0.000000000000002
 10
9137.399982844814
 20
-3283.627625823522
 30
-0.000000000000002
 10
9137.399982844814
 20
-3283.627625823522
 30
-0.000000000000002
 10
9137.849027075712
 20
-3283.720760923264
 30
-0.000000000000002
 10
9137.541902996802
 20
-3283.958033677367
 30
-0.000000000000002
 10
9137.26433293925
 20
-3284.172474082841
 30
-0.000000000000002
 10
9133.19035497859
 20
-3287.447949486527
 30
-0.000000000000002
 10
9132.408861473947
 20
-3288.076350511616
 30
-0.000000000000002
  0
SPLINE
  5
12DA77
330
18
100
AcDbEntity
  8
姿図
100
AcDbSpline
210
0.0
220
0.0
230
1.0
 70
     8
 71
     3
 72
    11
 73
     7
 74
     0
 42
0.000000001
 43
0.0000000001
 40
0.0
 40
0.0
 40
0.0
 40
0.0
 40
1.0
 40
1.0
 40
1.0
 40
1.201957035102942
 40
1.201957035102942
 40
1.201957035102942
 40
1.201957035102942
 10
9132.597981452182
 20
-3283.698585899515
 30
-0.000000000000002
 10
9132.597981452182
 20
-3283.698585899515
 30
-0.000000000000002
 10
9134.112535574171
 20
-3282.279384379643
 30
-0.000000000000002
 10
9134.112535574171
 20
-3282.279384379643
 30
-0.000000000000002
 10
9134.050285785683
 20
-3282.040461630302
 30
-0.000000000000002
 10
9133.95624476248
 20
-3281.835319894239
 30
-0.000000000000002
 10
9133.845792391532
 20
-3281.660059402012
 30
-0.000000000000002
  0
SPLINE
  5
12DA78
330
18
100
AcDbEntity
  8
姿図
100
AcDbSpline
210
0.0
220
0.0
230
1.0
 70
     8
 71
     3
 72
    11
 73
     7
 74
     0
 42
0.000000001
 43
0.0000000001
 40
1.371408514633379
 40
1.371408514633379
 40
1.371408514633379
 40
1.371408514633379
 40
2.0
 40
2.0
 40
2.0
 40
3.0
 40
3.0
 40
3.0
 40
3.0
 10
9133.542192103543
 20
-3281.279709589026
 30
-0.000000000000002
 10
9133.146391784456
 20
-3280.881737783096
 30
-0.000000000000002
 10
9132.716617829234
 20
-3280.741546482718
 30
-0.000000000000002
 10
9132.716617829234
 20
-3280.741546482718
 30
-0.000000000000002
 10
9132.716617829234
 20
-3280.741546482718
 30
-0.000000000000002
 10
9131.202618082838
 20
-3281.900191473551
 30
-0.000000000000002
 10
9131.202618082838
 20
-3281.900191473551
 30
-0.000000000000002
  0
SPLINE
  5
12DA79
330
18
100
AcDbEntity
  8
姿図
100
AcDbSpline
210
0.0
220
0.0
230
1.0
 70
     8
 71
     3
 72
    14
 73
    10
 74
     0
 42
0.000000001
 43
0.0000000001
 40
0.1253663450285614
 40
0.1253663450285614
 40
0.1253663450285614
 40
0.1253663450285614
 40
1.0
 40
1.0
 40
1.0
 40
2.0
 40
2.0
 40
2.0
 40
2.79498799956431
 40
2.79498799956431
 40
2.79498799956431
 40
2.79498799956431
 10
9134.00202883413
 20
-3281.956874802686
 30
-0.000000000000002
 10
9134.564742246785
 20
-3281.893500427414
 30
-0.000000000000002
 10
9136.80901846193
 20
-3281.6407436957
 30
-0.000000000000002
 10
9136.80901846193
 20
-3281.6407436957
 30
-0.000000000000002
 10
9136.80901846193
 20
-3281.6407436957
 30
-0.000000000000002
 10
9137.49533544693
 20
-3281.616351169577
 30
-0.000000000000002
 10
9136.950938613916
 20
-3282.089787926597
 30
-0.000000000000002
 10
9136.518149664671
 20
-3282.46616446698
 30
-0.000000000000002
 10
9132.811866354774
 20
-3285.517956070826
 30
-0.000000000000002
 10
9131.31039132874
 20
-3286.753444798057
 30
-0.000000000000002
  0
SPLINE
  5
12DA7A
330
18
100
AcDbEntity
  8
姿図
100
AcDbSpline
210
0.0
220
0.0
230
1.0
 70
     8
 71
     3
 72
    14
 73
    10
 74
     0
 42
0.000000001
 43
0.0000000001
 40
1.434498283066331
 40
1.434498283066331
 40
1.434498283066331
 40
1.434498283066331
 40
2.0
 40
2.0
 40
2.0
 40
3.0
 40
3.0
 40
3.0
 40
3.538639118840438
 40
3.538639118840438
 40
3.538639118840438
 40
3.538639118840438
 10
9131.799902494773
 20
-3282.589668160667
 30
-0.000000000000002
 10
9133.601018472129
 20
-3281.235480371689
 30
-0.000000000000002
 10
9135.67365724603
 20
-3279.677145342813
 30
-0.000000000000002
 10
9135.67365724603
 20
-3279.677145342813
 30
-0.000000000000002
 10
9135.67365724603
 20
-3279.677145342813
 30
-0.000000000000002
 10
9135.957497550005
 20
-3279.620599032255
 30
-0.000000000000002
 10
9135.909821248948
 20
-3279.913309345729
 30
-0.000000000000002
 10
9135.897279696934
 20
-3279.989753091341
 30
-0.000000000000002
 10
9134.065935051878
 20
-3281.486754753273
 30
-0.000000000000002
 10
9132.378783011367
 20
-3282.851799418435
 30
-0.000000000000002
  0
SPLINE
  5
12DA7B
330
18
100
AcDbEntity
  8
姿図
100
AcDbSpline
210
0.0
220
0.0
230
1.0
 70
     8
 71
     3
 72
    14
 73
    10
 74
     0
 42
0.000000001
 43
0.0000000001
 40
1.47114458461932
 40
1.47114458461932
 40
1.47114458461932
 40
1.47114458461932
 40
2.0
 40
2.0
 40
2.0
 40
3.0
 40
3.0
 40
3.0
 40
4.0
 40
4.0
 40
4.0
 40
4.0
 10
9130.625636666655
 20
-3280.666327725624
 30
-0.000000000000002
 10
9132.339875321433
 20
-3279.394638195991
 30
-0.000000000000002
 10
9134.15910312404
 20
-3278.045063594959
 30
-0.000000000000002
 10
9134.15910312404
 20
-3278.045063594959
 30
-0.000000000000002
 10
9134.15910312404
 20
-3278.045063594959
 30
-0.000000000000002
 10
9134.633648632249
 20
-3277.856575893101
 30
-0.000000000000002
 10
9134.609256106127
 20
-3278.210821897475
 30
-0.000000000000002
 10
9134.609256106127
 20
-3278.210821897475
 30
-0.000000000000002
 10
9133.023741908144
 20
-3280.860182859769
 30
-0.000000000000002
 10
9133.023741908144
 20
-3280.860182859769
 30
-0.000000000000002
  0
SPLINE
  5
12DA7C
330
18
100
AcDbEntity
  8
姿図
100
AcDbSpline
210
0.0
220
0.0
230
1.0
 70
    24
 71
     3
 72
     8
 73
     4
 74
     0
 42
0.000000001
 43
0.0000000001
 40
1.351367722485166
 40
1.351367722485166
 40
1.351367722485166
 40
1.351367722485166
 40
1.428242292534494
 40
1.428242292534494
 40
1.428242292534494
 40
1.428242292534494
 10
9127.874087625381
 20
-3280.484925973683
 30
-0.000000000000002
 10
9128.102844953213
 20
-3280.315825044781
 30
-0.000000000000002
 10
9128.34307088161
 20
-3280.138246350259
 30
-0.000000000000002
 10
9128.588833699423
 20
-3279.95657470207
 30
-0.000000000000002
  0
SPLINE
  5
12DA7D
330
18
100
AcDbEntity
  8
姿図
100
AcDbSpline
210
0.0
220
0.0
230
1.0
 70
     8
 71
     3
 72
    11
 73
     7
 74
     0
 42
0.000000001
 43
0.0000000001
 40
1.615278216396081
 40
1.615278216396081
 40
1.615278216396081
 40
1.615278216396081
 40
2.0
 40
2.0
 40
2.0
 40
3.0
 40
3.0
 40
3.0
 40
3.0
 10
9130.39555485844
 20
-3278.621018682264
 30
-0.000000000000002
 10
9131.584596294551
 20
-3277.742060997027
 30
-0.000000000000002
 10
9132.550859526718
 20
-3277.027784380519
 30
-0.000000000000002
 10
9132.550859526718
 20
-3277.027784380519
 30
-0.000000000000002
 10
9132.550859526718
 20
-3277.027784380519
 30
-0.000000000000002
 10
9132.763185379104
 20
-3276.862580453596
 30
-0.000000000000002
 10
9132.739901604169
 20
-3277.548343063003
 30
-0.000000000000002
  0
SPLINE
  5
12DA7E
330
18
100
AcDbEntity
  8
姿図
100
AcDbSpline
210
0.0
220
0.0
230
1.0
 70
    24
 71
     3
 72
     8
 73
     4
 74
     0
 42
0.000000001
 43
0.0000000001
 40
1.350399602497474
 40
1.350399602497474
 40
1.350399602497474
 40
1.350399602497474
 40
1.445359962748388
 40
1.445359962748388
 40
1.445359962748388
 40
1.445359962748388
 10
9127.62840306249
 20
-3280.332767335677
 30
-0.000000000000002
 10
9127.917786371067
 20
-3280.118036532794
 30
-0.000000000000002
 10
9128.22523055069
 20
-3279.889904040087
 30
-0.000000000000002
 10
9128.539271281415
 20
-3279.656876715258
 30
-0.000000000000002
  0
SPLINE
  5
12DA7F
330
18
100
AcDbEntity
  8
姿図
100
AcDbSpline
210
0.0
220
0.0
230
1.0
 70
    24
 71
     3
 72
     8
 73
     4
 74
     0
 42
0.000000001
 43
0.0000000001
 40
1.629831745831646
 40
1.629831745831646
 40
1.629831745831646
 40
1.629831745831646
 40
2.0
 40
2.0
 40
2.0
 40
2.0
 10
9130.360092298053
 20
-3278.305774743493
 30
-0.000000000000002
 10
9131.515523591275
 20
-3277.448411233159
 30
-0.000000000000002
 10
9132.432777525259
 20
-3276.767782227073
 30
-0.000000000000002
 10
9132.432777525259
 20
-3276.767782227073
 30
-0.000000000000002
  0
SPLINE
  5
12DA80
330
18
100
AcDbEntity
  8
姿図
100
AcDbSpline
210
0.0
220
0.0
230
1.0
 70
     8
 71
     3
 72
    11
 73
     7
 74
     0
 42
0.000000001
 43
0.0000000001
 40
2.0
 40
2.0
 40
2.0
 40
2.0
 40
3.0
 40
3.0
 40
3.0
 40
4.0
 40
4.0
 40
4.0
 40
4.0
 10
9132.432777525259
 20
-3276.767782227073
 30
-0.000000000000002
 10
9132.432777525259
 20
-3276.767782227073
 30
-0.000000000000002
 10
9132.739901604169
 20
-3276.720105926015
 30
-0.000000000000002
 10
9132.739901604169
 20
-3277.027784380519
 30
-0.000000000000002
 10
9132.739901604169
 20
-3277.335462835023
 30
-0.000000000000002
 10
9132.716617829234
 20
-3279.03850465887
 30
-0.000000000000002
 10
9132.716617829234
 20
-3279.03850465887
 30
-0.000000000000002
  0
SPLINE
  5
12DA81
330
18
100
AcDbEntity
  8
姿図
100
AcDbSpline
210
0.0
220
0.0
230
1.0
 70
    24
 71
     3
 72
     8
 73
     4
 74
     0
 42
0.000000001
 43
0.0000000001
 40
1.393946237376308
 40
1.393946237376308
 40
1.393946237376308
 40
1.393946237376308
 40
1.573101002211188
 40
1.573101002211188
 40
1.573101002211188
 40
1.573101002211188
 10
9126.577065616235
 20
-3279.651795641852
 30
-0.000000000000002
 10
9127.139625150567
 20
-3279.232982351708
 30
-0.000000000000002
 10
9127.746953420141
 20
-3278.780839715676
 30
-0.000000000000002
 10
9128.323423384145
 20
-3278.351670414368
 30
-0.000000000000002
  0
SPLINE
  5
12DA82
330
18
100
AcDbEntity
  8
姿図
100
AcDbSpline
210
0.0
220
0.0
230
1.0
 70
     8
 71
     3
 72
    11
 73
     7
 74
     0
 42
0.000000001
 43
0.0000000001
 40
1.799348189808347
 40
1.799348189808347
 40
1.799348189808347
 40
1.799348189808347
 40
2.0
 40
2.0
 40
2.0
 40
3.0
 40
3.0
 40
3.0
 40
3.0
 10
9130.207469782481
 20
-3276.949039007885
 30
-0.000000000000002
 10
9130.630736555984
 20
-3276.6339261368
 30
-0.000000000000002
 10
9130.895494003928
 20
-3276.436819997634
 30
-0.000000000000002
 10
9130.895494003928
 20
-3276.436819997634
 30
-0.000000000000002
 10
9130.895494003928
 20
-3276.436819997634
 30
-0.000000000000002
 10
9131.061252306445
 20
-3276.46010377257
 30
-0.000000000000002
 10
9131.037414155917
 20
-3276.814904152538
 30
-0.000000000000002
  0
SPLINE
  5
12DA83
330
18
100
AcDbEntity
  8
姿図
100
AcDbSpline
210
0.0
220
0.0
230
1.0
 70
    24
 71
     3
 72
     8
 73
     4
 74
     0
 42
0.000000001
 43
0.0000000001
 40
1.392075177763039
 40
1.392075177763039
 40
1.392075177763039
 40
1.392075177763039
 40
1.583667207078013
 40
1.583667207078013
 40
1.583667207078013
 40
1.583667207078013
 10
9126.410112779567
 20
-3279.539070322782
 30
-0.000000000000002
 10
9127.01497055837
 20
-3279.089705448609
 30
-0.000000000000002
 10
9127.672300966333
 20
-3278.601357267572
 30
-0.000000000000002
 10
9128.288952703357
 20
-3278.143230349265
 30
-0.000000000000002
  0
SPLINE
  5
12DA84
330
18
100
AcDbEntity
  8
姿図
100
AcDbSpline
210
0.0
220
0.0
230
1.0
 70
     8
 71
     3
 72
    14
 73
    10
 74
     0
 42
0.000000001
 43
0.0000000001
 40
1.815455566821609
 40
1.815455566821609
 40
1.815455566821609
 40
1.815455566821609
 40
2.0
 40
2.0
 40
2.0
 40
3.0
 40
3.0
 40
3.0
 40
4.0
 40
4.0
 40
4.0
 40
4.0
 10
9130.183475187237
 20
-3276.735739386229
 30
-0.000000000000002
 10
9130.551315064055
 20
-3276.46246139303
 30
-0.000000000000002
 10
9130.776857626877
 20
-3276.294899845647
 30
-0.000000000000002
 10
9130.776857626877
 20
-3276.294899845647
 30
-0.000000000000002
 10
9130.776857626877
 20
-3276.294899845647
 30
-0.000000000000002
 10
9131.014130380978
 20
-3276.19954724353
 30
-0.000000000000002
 10
9131.037414155917
 20
-3276.46010377257
 30
-0.000000000000002
 10
9131.037414155917
 20
-3276.46010377257
 30
-0.000000000000002
 10
9130.997900839902
 20
-3277.832502318236
 30
-0.000000000000002
 10
9130.997900839902
 20
-3277.832502318236
 30
-0.000000000000002
  0
SPLINE
  5
12DA85
330
18
100
AcDbEntity
  8
姿図
100
AcDbSpline
210
0.0
220
0.0
230
1.0
 70
    24
 71
     3
 72
     8
 73
     4
 74
     0
 42
0.000000001
 43
0.0000000001
 40
1.498604236274377
 40
1.498604236274377
 40
1.498604236274377
 40
1.498604236274377
 40
1.810497930033095
 40
1.810497930033095
 40
1.810497930033095
 40
1.810497930033095
 10
9125.572105231671
 20
-3278.953411896363
 30
-0.000000000000002
 10
9126.54227464945
 20
-3278.230496491672
 30
-0.000000000000002
 10
9127.514133455426
 20
-3277.506322250396
 30
-0.000000000000002
 10
9128.110175401893
 20
-3277.062185487222
 30
-0.000000000000002
  0
SPLINE
  5
12DA86
330
18
100
AcDbEntity
  8
姿図
100
AcDbSpline
210
0.0
220
0.0
230
1.0
 70
     8
 71
     3
 72
     8
 73
     4
 74
     0
 42
0.000000001
 43
0.0000000001
 40
0.3537168008125633
 40
0.3537168008125633
 40
0.3537168008125633
 40
0.3537168008125633
 40
1.0
 40
1.0
 40
1.0
 40
1.0
 10
9127.083117728964
 20
-3299.849609910653
 30
-0.000000000000002
 10
9126.249758675165
 20
-3300.64612534673
 30
-0.000000000000002
 10
9124.668960893874
 20
-3301.973269813532
 30
-0.000000000000002
 10
9122.238364732702
 20
-3303.211498046582
 30
-0.000000000000002
  0
SPLINE
  5
12DA87
330
18
100
AcDbEntity
  8
姿図
100
AcDbSpline
210
0.0
220
0.0
230
1.0
 70
     8
 71
     3
 72
    11
 73
     7
 74
     0
 42
0.000000001
 43
0.0000000001
 40
1.0
 40
1.0
 40
1.0
 40
1.000000000000004
 40
2.0
 40
2.0
 40
2.0
 40
2.101688335254661
 40
2.101688335254661
 40
2.101688335254661
 40
2.101688335254661
 10
9113.73255854042
 20
-3282.555144929149
 30
-0.000000000000002
 10
9116.861475849402
 20
-3280.283632242321
 30
-0.000000000000002
 10
9122.226722845235
 20
-3282.294906896266
 30
-0.000000000000002
 10
9125.864535491097
 20
-3287.051449490215
 30
-0.000000000000002
 10
9126.234684097146
 20
-3287.535134388162
 30
-0.000000000000002
 10
9126.572736264689
 20
-3288.028667773581
 30
-0.000000000000002
 10
9126.878282260896
 20
-3288.527497954923
 30
-0.000000000000002
  0
SPLINE
  5
12DA88
330
18
100
AcDbEntity
  8
姿図
100
AcDbSpline
210
0.0
220
0.0
230
1.0
 70
     8
 71
     3
 72
     8
 73
     4
 74
     0
 42
0.000000001
 43
0.0000000001
 40
2.529370585629382
 40
2.529370585629382
 40
2.529370585629382
 40
2.529370585629382
 40
2.999999999999997
 40
3.0
 40
3.0
 40
3.0
 10
9128.978016187064
 20
-3294.763914107523
 30
-0.000000000000002
 10
9129.09311122046
 20
-3296.906150994055
 30
-0.000000000000002
 10
9128.475017921679
 20
-3298.751792459865
 30
-0.000000000000002
 10
9127.083117728847
 20
-3299.849609910766
 30
-0.000000000000002
  0
ELLIPSE
  5
12DA89
330
18
100
AcDbEntity
  8
姿図
100
AcDbEllipse
 10
9128.67740994193
 20
-3284.264386606036
 30
-0.000000000000002
 11
4.056680794919548
 21
-4.232277000033594
 31
0.0
210
0.0
220
0.0
230
1.0
 40
0.5896757540129041
 41
2.589251650966877
 42
2.665401312236328
  0
ELLIPSE
  5
12DA8A
330
18
100
AcDbEntity
  8
姿図
100
AcDbEllipse
 10
9128.67740994193
 20
-3284.264386606036
 30
-0.000000000000002
 11
4.056680794919548
 21
-4.232277000033594
 31
0.0
210
0.0
220
0.0
230
1.0
 40
0.5896757540129041
 41
6.96598111917236
 42
7.147828363455014
  0
ELLIPSE
  5
12DA8B
330
18
100
AcDbEntity
  8
姿図
100
AcDbEllipse
 10
9128.67740994193
 20
-3284.264386606036
 30
-0.000000000000002
 11
4.056680794919548
 21
-4.232277000033594
 31
0.0
210
0.0
220
0.0
230
1.0
 40
0.5896757540129041
 41
7.339249712863026
 42
7.52238359239187
  0
ELLIPSE
  5
12DA8C
330
18
100
AcDbEntity
  8
姿図
100
AcDbEllipse
 10
9128.67740994193
 20
-3284.264386606036
 30
-0.000000000000002
 11
4.056680794919548
 21
-4.232277000033594
 31
0.0
210
0.0
220
0.0
230
1.0
 40
0.5896757540129041
 41
7.690618598159064
 42
7.896541804765815
  0
ELLIPSE
  5
12DA8D
330
18
100
AcDbEntity
  8
姿図
100
AcDbEllipse
 10
9128.67740994193
 20
-3284.264386606036
 30
-0.000000000000002
 11
4.056680794919548
 21
-4.232277000033594
 31
0.0
210
0.0
220
0.0
230
1.0
 40
0.5896757540129041
 41
8.489247713282603
 42
8.60769396429671
  0
ARC
  5
12DA8E
330
18
100
AcDbEntity
  8
姿図
100
AcDbCircle
 10
9127.832297686478
 20
-3279.301453128487
 30
-0.000000000000002
 40
0.341037186076199
100
AcDbArc
 50
158.3286271790616
 51
250.9430020259657
  0
ARC
  5
12DA8F
330
18
100
AcDbEntity
  8
姿図
100
AcDbCircle
 10
9131.289299044021
 20
-3281.408704642327
 30
-0.000000000000002
 40
0.4078267806664664
100
AcDbArc
 50
160.4247343164951
 51
224.4606610653978
  0
ARC
  5
12DA90
330
18
100
AcDbEntity
  8
姿図
100
AcDbCircle
 10
9133.384886642376
 20
-3283.95444679985
 30
-0.000000000000002
 40
0.6216500611840147
100
AcDbArc
 50
210.0537915452814
 51
255.6920591719458
  0
ARC
  5
12DA91
330
18
100
AcDbEntity
  8
姿図
100
AcDbCircle
 10
9133.73958114297
 20
-3285.892365396492
 30
-0.000000000000002
 40
0.3703196098603031
100
AcDbArc
 50
203.2404029724887
 51
273.6673327535127
  0
ARC
  5
12DA92
330
18
100
AcDbEntity
  8
姿図
100
AcDbCircle
 10
9128.227844453291
 20
-3304.22278699624
 30
-0.000000000000002
 40
26.06913934988018
100
AcDbArc
 50
123.7818528605623
 51
135.6505614347273
  0
LINE
  5
12DA93
330
18
100
AcDbEntity
  8
姿図
100
AcDbLine
 10
9117.965291279523
 20
-3247.75231483612
 30
-0.000000000000002
 11
9162.641808436676
 21
-3247.75231483612
 31
-0.000000000000002
  0
LINE
  5
12DA94
330
18
100
AcDbEntity
  8
姿図
100
AcDbLine
 10
9162.641808436676
 20
-3247.75231483612
 30
-0.000000000000002
 11
9162.587540762803
 21
-3260.016809131641
 31
-0.000000000000002
  0
LINE
  5
12DA95
330
18
100
AcDbEntity
  8
姿図
100
AcDbLine
 10
9162.587540762803
 20
-3260.016809131641
 30
-0.000000000000002
 11
9161.663348978369
 21
-3260.77790824823
 31
-0.000000000000002
  0
LINE
  5
12DA96
330
18
100
AcDbEntity
  8
姿図
100
AcDbLine
 10
9131.299178676707
 20
-3260.863330156616
 30
-0.000000000000002
 11
9161.663348978369
 21
-3260.77790824823
 31
-0.000000000000002
  0
LINE
  5
12DA97
330
18
100
AcDbEntity
  8
姿図
100
AcDbLine
 10
9127.39461212971
 20
-3262.551374502221
 30
-0.000000000000002
 11
9131.299178676707
 21
-3260.863330156616
 31
-0.000000000000002
  0
LINE
  5
12DA98
330
18
100
AcDbEntity
  8
姿図
100
AcDbLine
 10
9130.976959053472
 20
-3259.969295849221
 30
-0.000000000000002
 11
9127.1578937512
 21
-3262.03137019533
 31
-0.000000000000002
  0
LINE
  5
12DA99
330
18
100
AcDbEntity
  8
姿図
100
AcDbLine
 10
9131.299178676707
 20
-3260.863330156616
 30
-0.000000000000002
 11
9130.976959053472
 21
-3259.969295849221
 31
-0.000000000000002
  0
LINE
  5
12DA9A
330
18
100
AcDbEntity
  8
姿図
100
AcDbLine
 10
9117.933083872025
 20
-3259.949689840985
 30
-0.000000000000002
 11
9162.587540762803
 21
-3260.016809131641
 31
-0.000000000000002
  0
LINE
  5
12DA9B
330
18
100
AcDbEntity
  8
姿図
100
AcDbLine
 10
9117.965291279523
 20
-3247.75231483612
 30
-0.000000000000002
 11
9117.933083872025
 21
-3259.949689840985
 31
-0.000000000000002
  0
LINE
  5
12DA9C
330
18
100
AcDbEntity
  8
姿図
100
AcDbLine
 10
9117.965290632388
 20
-3247.752314659822
 30
-0.0000000000000049
 11
9162.641808436676
 21
-3247.752314659822
 31
-0.0000000000000049
  0
LINE
  5
12DA9D
330
18
100
AcDbEntity
  8
姿図
100
AcDbLine
 10
9122.634275606133
 20
-3262.032396718123
 30
-0.000000000000002
 11
9122.603014415943
 21
-3261.151748857082
 31
-0.000000000000002
  0
LINE
  5
12DA9E
330
18
100
AcDbEntity
  8
姿図
100
AcDbLine
 10
9122.603014415943
 20
-3261.151748857082
 30
-0.000000000000002
 11
9123.666748057456
 21
-3261.151664112637
 31
-0.000000000000002
  0
LINE
  5
12DA9F
330
18
100
AcDbEntity
  8
姿図
100
AcDbLine
 10
9123.666748057456
 20
-3261.151664112637
 30
-0.000000000000002
 11
9123.63416635069
 21
-3262.03137019533
 31
-0.000000000000002
  0
SPLINE
  5
12DAA0
330
18
100
AcDbEntity
  8
姿図
100
AcDbSpline
210
0.0
220
0.0
230
1.0
 70
     8
 71
     3
 72
     8
 73
     4
 74
     0
 42
0.000000001
 43
0.0000000001
 40
49.0
 40
49.0
 40
49.0
 40
49.0
 40
49.66101424066932
 40
49.66101424066932
 40
49.66101424066932
 40
49.66101424066932
 10
9128.221700503616
 20
-3247.570246819901
 30
-0.0000000000000049
 10
9128.221700503616
 20
-3247.570246819901
 30
-0.0000000000000049
 10
9128.979488131243
 20
-3247.631477235846
 30
-0.0000000000000049
 10
9129.651095849853
 20
-3247.76462325042
 30
-0.0000000000000049
  0
SPLINE
  5
12DAA1
330
18
100
AcDbEntity
  8
姿図
100
AcDbSpline
210
0.0
220
0.0
230
1.0
 70
     8
 71
     3
 72
    14
 73
    10
 74
     0
 42
0.000000001
 43
0.0000000001
 40
46.0
 40
46.0
 40
46.0
 40
46.0
 40
47.0
 40
47.0
 40
47.0
 40
48.0
 40
48.0
 40
48.0
 40
49.0
 40
49.0
 40
49.0
 40
49.0
 10
9123.203758440406
 20
-3243.42282129202
 30
-0.0000000000000049
 10
9123.203758440406
 20
-3243.42282129202
 30
-0.0000000000000049
 10
9123.248040994358
 20
-3242.323044445718
 30
-0.0000000000000049
 10
9125.5725948076
 20
-3242.323044445718
 30
-0.0000000000000049
 10
9127.897148620841
 20
-3242.323044445718
 30
-0.0000000000000049
 10
9128.221700503616
 20
-3243.149278427093
 30
-0.0000000000000049
 10
9128.221700503616
 20
-3243.370691196856
 30
-0.0000000000000049
 10
9128.221700503616
 20
-3243.599390969174
 30
-0.0000000000000049
 10
9128.221700503616
 20
-3247.570246819901
 30
-0.0000000000000049
 10
9128.221700503616
 20
-3247.570246819901
 30
-0.0000000000000049
  0
SPLINE
  5
12DAA2
330
18
100
AcDbEntity
  8
姿図
100
AcDbSpline
210
0.0
220
0.0
230
1.0
 70
     8
 71
     3
 72
     8
 73
     4
 74
     0
 42
0.000000001
 43
0.0000000001
 40
41.0
 40
41.0
 40
41.0
 40
41.0
 40
42.0
 40
42.0
 40
42.0
 40
42.0
 10
9123.248040994358
 20
-3247.614529373873
 30
-0.0000000000000049
 10
9123.246857647786
 20
-3247.252421401033
 30
-0.0000000000000049
 10
9123.248040994358
 20
-3246.890873966845
 30
-0.0000000000000049
 10
9123.248040994358
 20
-3246.890873966845
 30
-0.0000000000000049
  0
SPLINE
  5
12DAA3
330
18
100
AcDbEntity
  8
姿図
100
AcDbSpline
210
0.0
220
0.0
230
1.0
 70
    24
 71
     3
 72
     8
 73
     4
 74
     0
 42
0.000000001
 43
0.0000000001
 40
42.0
 40
42.0
 40
42.0
 40
42.0
 40
43.0
 40
43.0
 40
43.0
 40
43.0
 10
9123.248040994358
 20
-3246.890873966845
 30
-0.0000000000000049
 10
9123.248040994358
 20
-3246.890873966845
 30
-0.0000000000000049
 10
9122.923489111587
 20
-3246.795021856392
 30
-0.0000000000000049
 10
9122.923489111587
 20
-3246.795021856392
 30
-0.0000000000000049
  0
SPLINE
  5
12DAA4
330
18
100
AcDbEntity
  8
姿図
100
AcDbSpline
210
0.0
220
0.0
230
1.0
 70
    24
 71
     3
 72
     8
 73
     4
 74
     0
 42
0.000000001
 43
0.0000000001
 40
43.0
 40
43.0
 40
43.0
 40
43.0
 40
44.0
 40
44.0
 40
44.0
 40
44.0
 10
9122.923489111587
 20
-3246.795021856392
 30
-0.0000000000000049
 10
9122.923489111587
 20
-3246.795021856392
 30
-0.0000000000000049
 10
9122.923489111587
 20
-3245.887509769675
 30
-0.0000000000000049
 10
9122.923489111587
 20
-3245.887509769675
 30
-0.0000000000000049
  0
SPLINE
  5
12DAA5
330
18
100
AcDbEntity
  8
姿図
100
AcDbSpline
210
0.0
220
0.0
230
1.0
 70
    24
 71
     3
 72
     8
 73
     4
 74
     0
 42
0.000000001
 43
0.0000000001
 40
44.0
 40
44.0
 40
44.0
 40
44.0
 40
45.0
 40
45.0
 40
45.0
 40
45.0
 10
9122.923489111587
 20
-3245.887509769675
 30
-0.0000000000000049
 10
9122.923489111587
 20
-3245.887509769675
 30
-0.0000000000000049
 10
9123.292323548316
 20
-3245.835940213167
 30
-0.0000000000000049
 10
9123.292323548316
 20
-3245.835940213167
 30
-0.0000000000000049
  0
SPLINE
  5
12DAA6
330
18
100
AcDbEntity
  8
姿図
100
AcDbSpline
210
0.0
220
0.0
230
1.0
 70
    24
 71
     3
 72
     8
 73
     4
 74
     0
 42
0.000000001
 43
0.0000000001
 40
45.0
 40
45.0
 40
45.0
 40
45.0
 40
46.0
 40
46.0
 40
46.0
 40
46.0
 10
9123.292323548316
 20
-3245.835940213167
 30
-0.0000000000000049
 10
9123.292323548316
 20
-3245.835940213167
 30
-0.0000000000000049
 10
9123.203758440406
 20
-3243.42282129202
 30
-0.0000000000000049
 10
9123.203758440406
 20
-3243.42282129202
 30
-0.0000000000000049
  0
ARC
  5
12DAA7
330
18
100
AcDbEntity
  8
姿図
100
AcDbCircle
 10
9125.618337209797
 20
-3257.916164119389
 30
-0.0000000000000049
 40
12.32682975210177
100
AcDbArc
 50
81.46547474947916
 51
102.6277850518623
  0
ARC
  5
12DAA8
330
18
100
AcDbEntity
  8
姿図
100
AcDbCircle
 10
9125.618337209797
 20
-3258.823676205842
 30
-0.0000000000000049
 40
12.32682975210177
100
AcDbArc
 50
81.46547474947916
 51
102.6277850518623
  0
LINE
  5
12DAA9
330
18
100
AcDbEntity
  8
姿図
100
AcDbLine
 10
9123.634348145999
 20
-3246.994384656335
 30
-0.0000000000000049
 11
9127.777477166786
 21
-3246.994384656335
 31
-0.0000000000000049
  0
LINE
  5
12DAAA
330
18
100
AcDbEntity
  8
姿図
100
AcDbLine
 10
9123.248040994358
 20
-3246.890873967015
 30
-0.0000000000000049
 11
9123.634348145999
 21
-3246.994384656335
 31
-0.0000000000000049
  0
LINE
  5
12DAAB
330
18
100
AcDbEntity
  8
姿図
100
AcDbLine
 10
9127.447704628756
 20
-3245.725834075291
 30
-0.0000000000000049
 11
9127.447704628756
 21
-3246.633346161761
 31
-0.0000000000000049
  0
LINE
  5
12DAAC
330
18
100
AcDbEntity
  8
姿図
100
AcDbLine
 10
9124.30959512683
 20
-3244.387978727264
 30
-0.0000000000000049
 11
9124.30959512683
 21
-3244.87128776114
 31
-0.0000000000000049
  0
LINE
  5
12DAAD
330
18
100
AcDbEntity
  8
姿図
100
AcDbLine
 10
9124.30959512683
 20
-3244.87128776114
 30
-0.0000000000000049
 11
9126.42243583817
 21
-3244.87128776114
 31
-0.0000000000000049
  0
LINE
  5
12DAAE
330
18
100
AcDbEntity
  8
姿図
100
AcDbLine
 10
9126.42243583817
 20
-3244.87128776114
 30
-0.0000000000000049
 11
9126.42243583817
 21
-3244.35645862726
 31
-0.0000000000000049
  0
LINE
  5
12DAAF
330
18
100
AcDbEntity
  8
姿図
100
AcDbLine
 10
9126.42243583817
 20
-3244.35645862726
 30
-0.0000000000000049
 11
9124.30959512683
 21
-3244.35645862726
 31
-0.0000000000000049
  0
LINE
  5
12DAB0
330
18
100
AcDbEntity
  8
姿図
100
AcDbLine
 10
9124.30959512683
 20
-3244.35645862726
 30
-0.0000000000000049
 11
9124.72657515218
 21
-3244.115715097377
 31
-0.0000000000000049
  0
LINE
  5
12DAB1
330
18
100
AcDbEntity
  8
姿図
100
AcDbLine
 10
9124.72657515218
 20
-3244.115715097377
 30
-0.0000000000000049
 11
9126.762847654018
 21
-3244.115715097377
 31
-0.0000000000000049
  0
LINE
  5
12DAB2
330
18
100
AcDbEntity
  8
姿図
100
AcDbLine
 10
9126.762847654018
 20
-3244.115715097377
 30
-0.0000000000000049
 11
9126.762847654018
 21
-3245.051363125666
 31
-0.0000000000000049
  0
LINE
  5
12DAB3
330
18
100
AcDbEntity
  8
姿図
100
AcDbLine
 10
9126.762847654018
 20
-3245.051363125666
 30
-0.0000000000000049
 11
9124.733623686518
 21
-3245.051363125666
 31
-0.0000000000000049
  0
LINE
  5
12DAB4
330
18
100
AcDbEntity
  8
姿図
100
AcDbLine
 10
9124.733623686518
 20
-3245.051363125666
 30
-0.0000000000000049
 11
9124.30959512683
 21
-3244.87128776114
 31
-0.0000000000000049
  0
LINE
  5
12DAB5
330
18
100
AcDbEntity
  8
姿図
100
AcDbLine
 10
9126.42243583817
 20
-3244.35645862726
 30
-0.0000000000000049
 11
9126.762847654018
 21
-3244.115715097377
 31
-0.0000000000000049
  0
LINE
  5
12DAB6
330
18
100
AcDbEntity
  8
姿図
100
AcDbLine
 10
9126.42243583817
 20
-3244.87128776114
 30
-0.0000000000000049
 11
9126.762847654018
 21
-3245.051363125666
 31
-0.0000000000000049
  0
LINE
  5
12DAB7
330
18
100
AcDbEntity
  8
姿図
100
AcDbLine
 10
9127.777477166786
 20
-3246.994384656335
 30
-0.0000000000000049
 11
9127.447704628756
 21
-3246.633346161761
 31
-0.0000000000000049
  0
LINE
  5
12DAB8
330
18
100
AcDbEntity
  8
姿図
100
AcDbLine
 10
9127.447704628756
 20
-3245.725834075291
 30
-0.0000000000000049
 11
9127.782557820228
 21
-3245.919161655537
 31
-0.0000000000000049
  0
LINE
  5
12DAB9
330
18
100
AcDbEntity
  8
姿図
100
AcDbLine
 10
9127.782557820228
 20
-3245.919161655537
 30
-0.0000000000000049
 11
9127.777477166786
 21
-3246.994384656335
 31
-0.0000000000000049
  0
LINE
  5
12DABA
330
18
100
AcDbEntity
  8
姿図
100
AcDbLine
 10
9119.14186942623
 20
-3265.897570243226
 30
0.0
 11
9120.583020413971
 21
-3265.759229947811
 31
-0.0000000000000004
  0
LINE
  5
12DABB
330
18
100
AcDbEntity
  8
姿図
100
AcDbLine
 10
9124.061151680893
 20
-3265.425353961846
 30
-0.0000000000000014
 11
9126.15253935935
 21
-3265.224595546019
 31
-0.000000000000002
  0
LINE
  5
12DABC
330
18
100
AcDbEntity
  8
姿図
100
AcDbLine
 10
9120.244613379211
 20
-3266.099332922574
 30
0.0000000000000001
 11
9121.009401573387
 21
-3266.041841361749
 31
-0.0000000000000002
  0
LINE
  5
12DABD
330
18
100
AcDbEntity
  8
姿図
100
AcDbLine
 10
9124.272744456443
 20
-3265.796525498763
 30
-0.0000000000000013
 11
9126.222878474242
 21
-3265.6499277226
 31
-0.000000000000002
  0
SPLINE
  5
12DABE
330
18
100
AcDbEntity
  8
姿図
100
AcDbSpline
210
0.0
220
0.0
230
1.0
 70
     8
 71
     3
 72
     9
 73
     5
 74
     3
 42
0.000000001
 43
0.0000000001
 44
0.0000000001
 40
0.0
 40
0.0
 40
0.0
 40
0.0
 40
0.2392600185944854
 40
3.586731779874527
 40
3.586731779874527
 40
3.586731779874527
 40
3.586731779874527
 10
9120.583020413971
 20
-3265.759229947811
 30
-0.0000000000000004
 10
9120.626309900923
 20
-3265.690921004378
 30
-0.0000000000000008
 10
9121.275259857102
 20
-3264.666905961237
 30
-0.0000000000000065
 10
9122.716268428656
 20
-3265.059214830024
 30
-0.0000000000000038
 10
9124.061151680893
 20
-3265.425353961846
 30
-0.0000000000000014
 11
9120.583020413971
 21
-3265.759229947811
 31
-0.0000000000000004
 11
9120.716413393247
 21
-3265.560605504256
 31
-0.0000000000000015
 11
9124.061151680893
 21
-3265.425353961846
 31
-0.0000000000000014
  0
SPLINE
  5
12DABF
330
18
100
AcDbEntity
  8
姿図
100
AcDbSpline
210
0.0
220
0.0
230
1.0
 70
     8
 71
     3
 72
    10
 73
     6
 74
     4
 42
0.000000001
 43
0.0000000001
 44
0.0000000001
 40
0.0
 40
0.0
 40
0.0
 40
0.0
 40
1.796508712204703
 40
3.115378840650718
 40
3.34859524519244
 40
3.34859524519244
 40
3.34859524519244
 40
3.34859524519244
 10
9121.009401573387
 20
-3266.041841361749
 30
-0.0000000000000002
 10
9121.597246130987
 20
-3266.141340217138
 30
0.0
 10
9122.616644747814
 20
-3266.313884122238
 30
0.0000000000000003
 10
9123.78696407413
 20
-3266.143074301095
 30
0.000000000000001
 10
9124.209286344221
 20
-3265.841795611739
 30
-0.000000000000001
 10
9124.272744456443
 20
-3265.796525498763
 30
-0.0000000000000013
 11
9121.009401573387
 21
-3266.041841361749
 31
-0.0000000000000002
 11
9122.796017342042
 21
-3266.23011682011
 31
0.0000000000000005
 11
9124.079657928669
 21
-3265.927321080262
 31
-0.0000000000000005
 11
9124.272744456443
 21
-3265.796525498763
 31
-0.0000000000000013
  0
ARC
  5
12DAC0
330
18
100
AcDbEntity
  8
姿図
100
AcDbCircle
 10
9119.179613764029
 20
-3266.130120346551
 30
0.0
 40
0.2355932630443536
100
AcDbArc
 50
91.74730622665457
 51
180.3462281535116
  0
ARC
  5
12DAC1
330
18
100
AcDbEntity
  8
姿図
100
AcDbCircle
 10
9120.260602756973
 20
-3266.235123926392
 30
0.0
 40
0.1367291370522355
100
AcDbArc
 50
91.8823914723609
 51
176.8294030758967
  0
LINE
  5
12DAC2
330
18
100
AcDbEntity
  8
姿図
100
AcDbLine
 10
9126.878282260896
 20
-3288.527497954923
 30
-0.000000000000002
 11
9126.785830455794
 21
-3289.229901677794
 31
-0.0000000000000001
  0
SPLINE
  5
12DAC3
330
18
100
AcDbEntity
  8
姿図
100
AcDbSpline
210
0.0
220
0.0
230
1.0
 70
     8
 71
     3
 72
    11
 73
     7
 74
     0
 42
0.000000001
 43
0.0000000001
 40
1.0
 40
1.0
 40
1.0
 40
1.000000000000004
 40
2.0
 40
2.0
 40
2.0
 40
2.132564484647539
 40
2.132564484647539
 40
2.132564484647539
 40
2.132564484647539
 10
9113.370941517787
 20
-3282.801478408564
 30
-0.000000000000002
 10
9116.49985882677
 20
-3280.529965721736
 30
-0.000000000000002
 10
9121.865105822602
 20
-3282.54124037568
 30
-0.000000000000002
 10
9125.502918468463
 20
-3287.29778296963
 30
-0.000000000000002
 10
9125.985457189168
 20
-3287.928331587301
 30
-0.000000000000002
 10
9126.413449151603
 20
-3288.575617359946
 30
-0.000000000000002
 10
9126.785830455794
 20
-3289.229901677794
 30
-0.000000000000002
  0
SPLINE
  5
12DAC4
330
18
100
AcDbEntity
  8
姿図
100
AcDbSpline
210
0.0
220
0.0
230
1.0
 70
     8
 71
     3
 72
     8
 73
     4
 74
     0
 42
0.000000001
 43
0.0000000001
 40
2.546094283791052
 40
2.546094283791052
 40
2.546094283791052
 40
2.546094283791052
 40
2.999999999999997
 40
3.0
 40
3.0
 40
3.0
 10
9128.614973923324
 20
-3295.261633782809
 30
-0.000000000000002
 10
9128.666601014893
 20
-3297.326947585479
 30
-0.000000000000002
 10
9128.027337417208
 20
-3299.118145677387
 30
-0.000000000000002
 10
9126.654474445748
 20
-3300.244286035085
 30
-0.000000000000002
  0
LINE
  5
12DAC5
330
18
100
AcDbEntity
  8
姿図
100
AcDbLine
 10
9127.568594566374
 20
-3279.517709982097
 30
-0.000000000000002
 11
9127.005679841834
 21
-3279.935362478942
 31
-0.000000000000002
  0
LINE
  5
12DAC6
330
18
100
AcDbEntity
  8
姿図
100
AcDbLine
 10
9128.722911970093
 20
-3280.76732989543
 30
-0.000000000000002
 11
9128.548144295413
 21
-3280.889322352295
 31
-0.000000000000002
  0
LINE
  5
12DAC7
330
18
100
AcDbEntity
  8
姿図
100
AcDbLine
 10
9130.998220215532
 20
-3281.694354425513
 30
-0.000000000000002
 11
9130.761471443418
 21
-3281.873829089908
 31
-0.000000000000002
  0
LINE
  5
12DAC8
330
18
100
AcDbEntity
  8
姿図
100
AcDbLine
 10
9132.938392162932
 20
-3284.386987524403
 30
-0.000000000000002
 11
9131.191481514481
 21
-3285.696397653241
 31
-0.000000000000002
  0
LINE
  5
12DAC9
330
18
100
AcDbEntity
  8
姿図
100
AcDbLine
 10
9133.44630968616
 20
-3286.118481442068
 30
-0.000000000000002
 11
9131.852068689006
 21
-3287.429215097473
 31
-0.000000000000002
  0
LINE
  5
12DACA
330
18
100
AcDbEntity
  8
姿図
100
AcDbLine
 10
9109.842106186237
 20
-3286.530673845638
 30
-0.000000000000002
 11
9110.822530828342
 21
-3285.276494271001
 31
-0.000000000000002
  0
LINE
  5
12DACB
330
18
100
AcDbEntity
  8
姿図
100
AcDbLine
 10
9110.561368310931
 20
-3286.366952095689
 30
-0.000000000000002
 11
9111.468781475853
 21
-3285.064755281093
 31
-0.000000000000002
  0
LINE
  5
12DACC
330
18
100
AcDbEntity
  8
姿図
100
AcDbLine
 10
9111.208555085714
 20
-3286.319808933569
 30
-0.000000000000002
 11
9112.147663359234
 21
-3284.972127580008
 31
-0.000000000000002
  0
LINE
  5
12DACD
330
18
100
AcDbEntity
  8
姿図
100
AcDbLine
 10
9111.872960320963
 20
-3286.353968654325
 30
-0.000000000000002
 11
9112.906593140508
 21
-3284.971785232843
 31
-0.000000000000002
  0
LINE
  5
12DACE
330
18
100
AcDbEntity
  8
姿図
100
AcDbLine
 10
9112.522640517966
 20
-3286.458494987794
 30
-0.000000000000002
 11
9113.576136743543
 21
-3285.04975003499
 31
-0.000000000000002
  0
LINE
  5
12DACF
330
18
100
AcDbEntity
  8
姿図
100
AcDbLine
 10
9113.049282200618
 20
-3286.590356167305
 30
-0.000000000000002
 11
9114.29472226725
 21
-3285.206533871046
 31
-0.000000000000002
  0
LINE
  5
12DAD0
330
18
100
AcDbEntity
  8
姿図
100
AcDbLine
 10
9113.70883461966
 20
-3286.811254904319
 30
-0.000000000000002
 11
9114.964633417898
 21
-3285.415922906277
 31
-0.000000000000002
  0
LINE
  5
12DAD1
330
18
100
AcDbEntity
  8
姿図
100
AcDbLine
 10
9114.364765010578
 20
-3287.089821375454
 30
-0.000000000000002
 11
9115.721321289775
 21
-3285.733265096254
 31
-0.000000000000002
  0
LINE
  5
12DAD2
330
18
100
AcDbEntity
  8
姿図
100
AcDbLine
 10
9115.068849171063
 20
-3287.452557665897
 30
-0.000000000000002
 11
9116.457059531795
 21
-3286.064347305162
 31
-0.000000000000002
  0
LINE
  5
12DAD3
330
18
100
AcDbEntity
  8
姿図
100
AcDbLine
 10
9115.665734399741
 20
-3287.811587345681
 30
-0.000000000000002
 11
9117.143748557679
 21
-3286.456741034239
 31
-0.000000000000002
  0
LINE
  5
12DAD4
330
18
100
AcDbEntity
  8
姿図
100
AcDbLine
 10
9121.060339930855
 20
-3303.44687139434
 30
-0.000000000000002
 11
9122.637260764748
 21
-3302.912753047377
 31
-0.000000000000002
  0
LINE
  5
12DAD5
330
18
100
AcDbEntity
  8
姿図
100
AcDbLine
 10
9121.545915705754
 20
-3302.912753047377
 30
-0.000000000000002
 11
9123.291183997759
 21
-3302.219778872611
 31
-0.000000000000002
  0
LINE
  5
12DAD6
330
18
100
AcDbEntity
  8
姿図
100
AcDbLine
 10
9121.883287714225
 20
-3302.443950445162
 30
-0.000000000000002
 11
9123.727910263175
 21
-3301.508272340621
 31
-0.000000000000002
  0
LINE
  5
12DAD7
330
18
100
AcDbEntity
  8
姿図
100
AcDbLine
 10
9122.125023262204
 20
-3301.963824549712
 30
-0.000000000000002
 11
9124.02715162272
 21
-3300.768737323203
 31
-0.000000000000002
  0
LINE
  5
12DAD8
330
18
100
AcDbEntity
  8
姿図
100
AcDbLine
 10
9122.372698771416
 20
-3301.2510626433
 30
-0.000000000000002
 11
9124.206835681052
 21
-3300.043373903506
 31
-0.000000000000002
  0
LINE
  5
12DAD9
330
18
100
AcDbEntity
  8
姿図
100
AcDbLine
 10
9122.524442928938
 20
-3300.505876190457
 30
-0.000000000000002
 11
9124.317927794838
 21
-3299.263247390511
 31
-0.000000000000002
  0
LINE
  5
12DADA
330
18
100
AcDbEntity
  8
姿図
100
AcDbLine
 10
9122.589025095456
 20
-3299.791432999075
 30
-0.000000000000002
 11
9124.345445047513
 21
-3298.574484889437
 31
-0.000000000000002
  0
LINE
  5
12DADB
330
18
100
AcDbEntity
  8
姿図
100
AcDbLine
 10
9122.61273615668
 20
-3299.007209212664
 30
-0.000000000000002
 11
9124.32945872139
 21
-3297.817765721401
 31
-0.000000000000002
  0
LINE
  5
12DADC
330
18
100
AcDbEntity
  8
姿図
100
AcDbLine
 10
9122.490113116344
 20
-3298.222421754511
 30
-0.000000000000002
 11
9124.203095794024
 21
-3296.924302069082
 31
-0.000000000000002
  0
LINE
  5
12DADD
330
18
100
AcDbEntity
  8
姿図
100
AcDbLine
 10
9122.392014684076
 20
-3297.437634296359
 30
-0.000000000000002
 11
9124.05410607614
 21
-3296.178080663309
 31
-0.000000000000002
  0
LINE
  5
12DADE
330
18
100
AcDbEntity
  8
姿図
100
AcDbLine
 10
9122.220342427603
 20
-3296.64671568619
 30
-0.000000000000002
 11
9123.850662307943
 21
-3295.411238901867
 31
-0.000000000000002
  0
LINE
  5
12DADF
330
18
100
AcDbEntity
  8
姿図
100
AcDbLine
 10
9121.975096346932
 20
-3295.910977444171
 30
-0.000000000000002
 11
9123.569195447519
 21
-3294.56595632805
 31
-0.000000000000002
  0
LINE
  5
12DAE0
330
18
100
AcDbEntity
  8
姿図
100
AcDbLine
 10
9121.729850266258
 20
-3295.273337634422
 30
-0.000000000000002
 11
9123.319287656324
 21
-3293.932249836553
 31
-0.000000000000002
  0
LINE
  5
12DAE1
330
18
100
AcDbEntity
  8
姿図
100
AcDbLine
 10
9121.386505753317
 20
-3294.574386304505
 30
-0.000000000000002
 11
9122.996452430785
 21
-3293.215993795389
 31
-0.000000000000002
  0
LINE
  5
12DAE2
330
18
100
AcDbEntity
  8
姿図
100
AcDbLine
 10
9121.108560616954
 20
-3293.944026862169
 30
-0.000000000000002
 11
9122.686309980882
 21
-3292.538843834922
 31
-0.000000000000002
  0
LINE
  5
12DAE3
330
18
100
AcDbEntity
  8
姿図
100
AcDbLine
 10
9120.772258012714
 20
-3293.322625736414
 30
-0.000000000000002
 11
9122.300809534527
 21
-3291.921453508085
 31
-0.000000000000002
  0
LINE
  5
12DAE4
330
18
100
AcDbEntity
  8
姿図
100
AcDbLine
 10
9120.307422998356
 20
-3292.538843834922
 30
-0.000000000000002
 11
9121.816947367239
 21
-3291.155113163446
 31
-0.000000000000002
  0
LINE
  5
12DAE5
330
18
100
AcDbEntity
  8
姿図
100
AcDbLine
 10
9119.81693083701
 20
-3291.729531768702
 30
-0.000000000000002
 11
9121.288407321048
 21
-3290.380678325002
 31
-0.000000000000002
  0
LINE
  5
12DAE6
330
18
100
AcDbEntity
  8
姿図
100
AcDbLine
 10
9119.252864851464
 20
-3291.091891958953
 30
-0.000000000000002
 11
9120.7493615474
 21
-3289.72010332101
 31
-0.000000000000002
  0
LINE
  5
12DAE7
330
18
100
AcDbEntity
  8
姿図
100
AcDbLine
 10
9118.750314436546
 20
-3290.493917591059
 30
-0.000000000000002
 11
9120.23869822972
 21
-3289.129565780647
 31
-0.000000000000002
  0
LINE
  5
12DAE8
330
18
100
AcDbEntity
  8
姿図
100
AcDbLine
 10
9118.198306704571
 20
-3289.914710771724
 30
-0.000000000000002
 11
9119.669783188607
 21
-3288.565857328024
 31
-0.000000000000002
  0
LINE
  5
12DAE9
330
18
100
AcDbEntity
  8
姿図
100
AcDbLine
 10
9117.707814543226
 20
-3289.350644786176
 30
-0.000000000000002
 11
9119.179291027262
 21
-3288.001791342477
 31
-0.000000000000002
  0
LINE
  5
12DAEA
330
18
100
AcDbEntity
  8
姿図
100
AcDbLine
 10
9117.168273165747
 20
-3288.958251057101
 30
-0.000000000000002
 11
9118.651802689137
 21
-3287.598348993991
 31
-0.000000000000002
  0
LINE
  5
12DAEB
330
18
100
AcDbEntity
  8
姿図
100
AcDbLine
 10
9116.698199552027
 20
-3288.547140326033
 30
-0.000000000000002
 11
9118.162079856744
 21
-3287.20525004671
 31
-0.000000000000002
  0
LINE
  5
12DAEC
330
18
100
AcDbEntity
  8
姿図
100
AcDbLine
 10
9116.20774216878
 20
-3288.179239325099
 30
-0.000000000000002
 11
9117.66685832498
 21
-3286.841716181917
 31
-0.000000000000002
  0
LINE
  5
12DAED
330
18
100
AcDbEntity
  8
姿図
100
AcDbLine
 10
9108.916097018562
 20
-3286.971108464676
 30
-0.000000000000002
 11
9110.136726007173
 21
-3285.57959141766
 31
-0.000000000000002
  0
LINE
  5
12DAEE
330
18
100
AcDbEntity
  8
姿図
100
AcDbLine
 10
9122.067830021186
 20
-3303.313577110476
 30
-0.000000000000002
 11
9119.893841320492
 21
-3304.131257833673
 31
-0.000000000000002
  0
LINE
  5
12DAEF
330
18
100
AcDbEntity
  8
姿図
100
AcDbLine
 10
9108.933775648702
 20
-3286.67860234975
 30
-0.000000000000002
 11
9107.983557780155
 21
-3287.846287209621
 31
-0.000000000000002
  0
SPLINE
  5
12DAF0
330
18
100
AcDbEntity
  8
姿図
100
AcDbSpline
210
0.0
220
0.0
230
1.0
 70
     8
 71
     3
 72
    17
 73
    13
 74
     0
 42
0.000000001
 43
0.0000000001
 40
0.1965331616420136
 40
0.1965331616420136
 40
0.1965331616420136
 40
0.1965331616420136
 40
1.0
 40
1.0
 40
1.0
 40
2.0
 40
2.0
 40
2.0
 40
3.0
 40
3.0
 40
3.0
 40
4.0
 40
4.0
 40
4.0
 40
4.0
 10
9108.933775648638
 20
-3286.678602349835
 30
-0.000000000000002
 10
9109.187103848826
 20
-3286.334122314192
 30
-0.000000000000002
 10
9109.48757939087
 20
-3286.031564702525
 30
-0.000000000000002
 10
9109.835798550634
 20
-3285.778482342378
 30
-0.000000000000002
 10
9112.761124456656
 20
-3283.65365497155
 30
-0.000000000000002
 10
9117.947695865883
 20
-3285.805306132452
 30
-0.000000000000002
 10
9121.420227089407
 20
-3290.586071917565
 30
-0.000000000000002
 10
9124.892758312935
 20
-3295.365304914675
 30
-0.000000000000002
 10
9125.337266834153
 20
-3300.963813100031
 30
-0.000000000000002
 10
9122.41194092813
 20
-3303.088257273858
 30
-0.000000000000002
 10
9122.300813797823
 20
-3303.169495038081
 30
-0.000000000000002
 10
9122.185854697509
 20
-3303.244601650287
 30
-0.000000000000002
 10
9122.067830021186
 20
-3303.313577110476
 30
-0.000000000000002
  0
ELLIPSE
  5
12DAF1
330
18
100
AcDbEntity
  8
姿図
100
AcDbEllipse
 10
9114.79264335773
 20
-3295.356874580651
 30
-0.000000000000002
 11
6.020599682014192
 21
-8.286251950728758
 31
0.0
210
0.0
220
0.0
230
1.0
 40
0.5991002932922079
 41
0.0
 42
6.283185307179586
  0
SPLINE
  5
12DAF2
330
18
100
AcDbEntity
  8
姿図
100
AcDbSpline
210
0.0
220
0.0
230
1.0
 70
     8
 71
     3
 72
    11
 73
     7
 74
     0
 42
0.000000001
 43
0.0000000001
 40
1.006377578182846
 40
1.006377578182846
 40
1.006377578182846
 40
1.006377578182846
 40
2.0
 40
2.0
 40
2.0
 40
2.914863247510368
 40
2.914863247510368
 40
2.914863247510368
 40
2.914863247510368
 10
9120.675044977448
 20
-3302.279535203761
 30
-0.000000000000002
 10
9118.222114683902
 20
-3303.998568960195
 30
-0.000000000000002
 10
9113.872261755723
 20
-3302.127995782218
 30
-0.000000000000002
 10
9110.925994018622
 20
-3298.072974924101
 30
-0.000000000000002
 10
9108.213261283521
 20
-3294.339374041592
 30
-0.000000000000002
 10
9107.629188461384
 20
-3290.04706808625
 30
-0.000000000000002
 10
9109.421715984501
 20
-3287.982379359857
 30
-0.000000000000002
  0
SPLINE
  5
12DAF3
330
18
100
AcDbEntity
  8
姿図
100
AcDbSpline
210
0.0
220
0.0
230
1.0
 70
     8
 71
     3
 72
    14
 73
    10
 74
     0
 42
0.000000001
 43
0.0000000001
 40
0.9229664054401968
 40
0.9229664054401968
 40
0.9229664054401968
 40
0.9229664054401968
 40
1.0
 40
1.0
 40
1.0
 40
2.0
 40
2.0
 40
2.0
 40
2.939685942522726
 40
2.939685942522726
 40
2.939685942522726
 40
2.939685942522726
 10
9120.520035691987
 20
-3302.446296907092
 30
-0.000000000000002
 10
9120.489740715102
 20
-3302.469933078138
 30
-0.000000000000002
 10
9120.458978003562
 20
-3302.493090329713
 30
-0.000000000000002
 10
9120.427746856687
 20
-3302.515760954288
 30
-0.000000000000002
 10
9117.983716383982
 20
-3304.292262251161
 30
-0.000000000000002
 10
9113.59687711595
 20
-3302.423793674036
 30
-0.000000000000002
 10
9110.631698721818
 20
-3298.342745612841
 30
-0.000000000000002
 10
9107.845362267777
 20
-3294.507842118977
 30
-0.000000000000002
 10
9107.30476532065
 20
-3290.083503907465
 30
-0.000000000000002
 10
9109.278582721357
 20
-3288.089063865169
 30
-0.000000000000002
  0
ELLIPSE
  5
12DAF4
330
18
100
AcDbEntity
  8
姿図
100
AcDbEllipse
 10
9114.750300089114
 20
-3295.400559038771
 30
-0.000000000000002
 11
5.368589984725762
 21
-7.389570968269206
 31
0.0
210
0.0
220
0.0
230
1.0
 40
0.5991474518236252
 41
0.0
 42
6.283185307179586
  0
ARC
  5
12DAF5
330
18
100
AcDbEntity
  8
姿図
100
AcDbCircle
 10
9134.306231506855
 20
-3308.801913289614
 30
0.0000000000000029
 40
31.4649624131975
100
AcDbArc
 50
106.8206178016316
 51
120.7691310972364
  0
ARC
  5
12DAF6
330
18
100
AcDbEntity
  8
姿図
100
AcDbCircle
 10
9155.11819541874
 20
-3316.952613088162
 30
-0.000000000000002
 40
40.56018356058101
100
AcDbArc
 50
123.532898720332
 51
126.421990018021
  0
ARC
  5
12DAF7
330
18
100
AcDbEntity
  8
姿図
100
AcDbCircle
 10
9147.781497558839
 20
-3248.066786916753
 30
0.0000000000000029
 40
38.04261702582006
100
AcDbArc
 50
233.5901345256825
 51
240.0075474564073
  0
ARC
  5
12DAF8
330
18
100
AcDbEntity
  8
姿図
100
AcDbCircle
 10
9147.781497558839
 20
-3248.066786916753
 30
0.0000000000000029
 40
38.04261702582006
100
AcDbArc
 50
243.4674153811103
 51
246.6642495118393
  0
ARC
  5
12DAF9
330
18
100
AcDbEntity
  8
姿図
100
AcDbCircle
 10
9132.65535842545
 20
-3283.070202892512
 30
0.0000000000000029
 40
0.0922363223659767
100
AcDbArc
 50
307.9750042488748
 51
52.02499575112518
  0
ARC
  5
12DAFA
330
18
100
AcDbEntity
  8
姿図
100
AcDbCircle
 10
9155.11819541874
 20
-3316.952613088162
 30
-0.000000000000002
 40
40.56018356058101
100
AcDbArc
 50
129.1571831233628
 51
134.5035428112301
  0
ENDSEC
  0
SECTION
  2
OBJECTS
  0
DICTIONARY
  5
C
330
0
100
AcDbDictionary
281
     1
  3
ACAD_GROUP
350
D
  3
ACAD_IMAGE_VARS
350
12DBDF
  3
ACAD_LAYOUT
350
617
  3
ACAD_MLINESTYLE
350
E
  3
ACAD_PLOTSETTINGS
350
618
  3
ACAD_PLOTSTYLENAME
350
615
  3
ACAD_SCALELIST
350
A36
  3
AcadDim
350
AB4
  3
AcDbVariableDictionary
350
6DE
  3
APPDATA
350
12DBDE
  3
DWGPROPS
350
12DC03
  0
DICTIONARY
  5
8BF
330
2
100
AcDbDictionary
280
     1
281
     1
  3
ACAD_LAYERSTATES
360
8C0
  0
DICTIONARY
  5
A60
330
F
100
AcDbDictionary
280
     1
281
     1
  3
ADSK_XREC_LAYER_RECONCILED
360
A61
  0
DICTIONARY
  5
A66
330
34
100
AcDbDictionary
280
     1
281
     1
  3
ADSK_XREC_LAYER_RECONCILED
360
A67
  0
DICTIONARY
  5
A6E
330
2F4
100
AcDbDictionary
280
     1
281
     1
  3
ADSK_XREC_LAYER_RECONCILED
360
A6F
  0
DICTIONARY
  5
A72
330
305
100
AcDbDictionary
280
     1
281
     1
  3
ADSK_XREC_LAYER_RECONCILED
360
A73
  0
DICTIONARY
  5
143F
330
18
100
AcDbDictionary
280
     1
281
     1
  3
ACAD_SORTENTS
360
1440
  0
DICTIONARY
  5
D
102
{ACAD_REACTORS
330
C
102
}
330
C
100
AcDbDictionary
281
     1
  0
RASTERVARIABLES
  5
12DBDF
102
{ACAD_REACTORS
330
C
102
}
330
C
100
AcDbRasterVariables
 90
        0
 70
     1
 71
     1
 72
     0
  0
DICTIONARY
  5
617
102
{ACAD_REACTORS
330
C
102
}
330
C
100
AcDbDictionary
281
     1
  3
Model
350
619
  3
ﾚｲｱｳﾄ1
350
61A
  0
DICTIONARY
  5
E
102
{ACAD_REACTORS
330
C
102
}
330
C
100
AcDbDictionary
281
     1
  3
STANDARD
350
1B
  0
DICTIONARY
  5
618
102
{ACAD_REACTORS
330
C
102
}
330
C
100
AcDbDictionary
281
     1
  0
ACDBDICTIONARYWDFLT
  5
615
102
{ACAD_REACTORS
330
C
102
}
330
C
100
AcDbDictionary
281
     1
  3
Normal
350
616
100
AcDbDictionaryWithDefault
340
616
  0
DICTIONARY
  5
A36
102
{ACAD_REACTORS
330
C
102
}
330
C
100
AcDbDictionary
281
     1
  3
A0
350
A37
  3
A1
350
A38
  3
A2
350
A39
  3
A3
350
A3A
  3
A4
350
A3B
  3
A5
350
A3C
  3
A6
350
A3D
  3
A7
350
A3E
  3
A8
350
A3F
  3
A9
350
A40
  3
B0
350
A41
  3
B1
350
A42
  3
B2
350
A43
  3
B3
350
A44
  3
B4
350
A45
  3
B5
350
A46
  3
B6
350
A47
  3
B7
350
A48
  3
B8
350
A49
  3
B9
350
A4A
  3
C0
350
A4B
  3
C1
350
A4C
  3
C2
350
A4D
  3
C3
350
A4E
  3
C4
350
A4F
  3
C5
350
A50
  3
C6
350
A51
  3
C7
350
A52
  3
C8
350
A53
  3
C9
350
A54
  3
D0
350
A55
  3
D1
350
A56
  3
D2
350
A57
  0
XRECORD
  5
AB4
102
{ACAD_REACTORS
330
C
102
}
330
C
100
AcDbXrecord
280
     1
 90
   990106
  3
OPEN
 60
     0
 61
     0
 62
     1
 63
     3
 64
     1
 65
     0
 66
     0
 67
     3
 68
     1
 69
     0
 70
     0
 71
     0
 72
     0
 40
0.0
170
     2
  0
DICTIONARY
  5
6DE
102
{ACAD_REACTORS
330
C
102
}
330
C
100
AcDbDictionary
281
     1
  3
DIMASSOC
350
6DF
  3
INDEXCTL
350
A93
  3
PROJECTNAME
350
6E0
  3
SORTENTS
350
A92
  0
DICTIONARY
  5
12DBDE
102
{ACAD_REACTORS
330
C
102
}
330
C
100
AcDbDictionary
281
     1
  0
XRECORD
  5
12DC03
102
{ACAD_REACTORS
330
C
102
}
330
C
100
AcDbXrecord
280
     1
  1
DWGPROPS COOKIE
  2

  3

  4

  6

  7

  8
SPAX
  9

300
=
301
=
302
=
303
=
304
=
305
=
306
=
307
=
308
=
309
=
 40
0.0
 41
2448636.244629629
 42
2456821.235218345
  1

 90
        0
  0
DICTIONARY
  5
8C0
102
{ACAD_REACTORS
330
8BF
102
}
330
8BF
100
AcDbDictionary
281
     1
  0
XRECORD
  5
A61
102
{ACAD_REACTORS
330
A60
102
}
330
A60
100
AcDbXrecord
280
     1
290
     1
  0
XRECORD
  5
A67
102
{ACAD_REACTORS
330
A66
102
}
330
A66
100
AcDbXrecord
280
     1
290
     1
  0
XRECORD
  5
A6F
102
{ACAD_REACTORS
330
A6E
102
}
330
A6E
100
AcDbXrecord
280
     1
290
     1
  0
XRECORD
  5
A73
102
{ACAD_REACTORS
330
A72
102
}
330
A72
100
AcDbXrecord
280
     1
290
     1
  0
SORTENTSTABLE
  5
1440
102
{ACAD_REACTORS
330
143F
102
}
330
143F
100
AcDbSortentsTable
330
18
331
0
  5
FB0C5
331
D0CC6
  5
D0CC6
331
F6D77
  5
F6D77
331
F6D78
  5
F6D78
  0
LAYOUT
  5
619
102
{ACAD_REACTORS
330
617
102
}
330
617
100
AcDbPlotSettings
  1

  2
JUST PDF 2
  4
A4
  6

 40
3.174999952316284
 41
3.174999952316284
 42
3.175003051757812
 43
3.17498779296875
 44
209.8886566162109
 45
297.0530090332031
 46
14.27171755861491
 47
9.855173074625782
 48
9081.001208193247
 49
-3730.408039105734
140
9430.991645183061
141
-3188.422688828401
142
1.0
143
2.0
 70
  3748
 72
     1
 73
     0
 74
     4
  7
spax form.ctb
 75
     0
147
2.049951397771953
148
-9081.001208193247
149
3730.408039105734
100
AcDbLayout
  1
Model
 70
     1
 71
     0
 10
0.0
 20
0.0
 11
12.0
 21
9.0
 12
0.0
 22
0.0
 32
0.0
 14
9095.259373209701
 24
-3324.213991495107
 34
-0.0000000000000049
 15
9162.641808436676
 25
-3242.358979133921
 35
0.0000000000000029
146
0.0
 13
0.0
 23
0.0
 33
0.0
 16
1.0
 26
0.0
 36
0.0
 17
0.0
 27
1.0
 37
0.0
 76
     0
330
18
331
12C7D1
1001
ACAD_PSEXT
1000
JUST PDF 2
1000
JUST PDF 2
1000
JUST PDF 2 Port:
1000

1070
     0
  0
LAYOUT
  5
61A
102
{ACAD_REACTORS
330
617
102
}
330
617
100
AcDbPlotSettings
  1

  2
Canon LASER SHOT LBP-750
  4

  6

 40
0.0
 41
0.0
 42
0.0
 43
0.0
 44
0.0
 45
0.0
 46
0.0
 47
0.0
 48
0.0
 49
0.0
140
0.0
141
0.0
142
1.0
143
1.0
 70
   688
 72
     0
 73
     0
 74
     5
  7
spax form.ctb
 75
    16
147
1.0
148
0.0
149
0.0
100
AcDbLayout
  1
ﾚｲｱｳﾄ1
 70
     0
 71
     1
 10
0.0
 20
0.0
 11
12.0
 21
9.0
 12
0.0
 22
0.0
 32
0.0
 14
1.000000000000000E+20
 24
1.000000000000000E+20
 34
1.000000000000000E+20
 15
-1.000000000000000E+20
 25
-1.000000000000000E+20
 35
-1.000000000000000E+20
146
0.0
 13
0.0
 23
0.0
 33
0.0
 16
1.0
 26
0.0
 36
0.0
 17
0.0
 27
1.0
 37
0.0
 76
     0
330
15
  0
MLINESTYLE
  5
1B
102
{ACAD_REACTORS
330
E
102
}
330
E
100
AcDbMlineStyle
  2
STANDARD
 70
     0
  3

 62
     0
 51
90.0
 52
90.0
 71
     2
 49
0.5
 62
   256
  6
BYLAYER
 49
-0.5
 62
   256
  6
BYLAYER
  0
ACDBPLACEHOLDER
  5
616
102
{ACAD_REACTORS
330
615
102
}
330
615
  0
SCALE
  5
A37
102
{ACAD_REACTORS
330
A36
102
}
330
A36
100
AcDbScale
 70
     0
300
1:1
140
1.0
141
1.0
290
     1
  0
SCALE
  5
A38
102
{ACAD_REACTORS
330
A36
102
}
330
A36
100
AcDbScale
 70
     0
300
1:2
140
1.0
141
2.0
290
     0
  0
SCALE
  5
A39
102
{ACAD_REACTORS
330
A36
102
}
330
A36
100
AcDbScale
 70
     0
300
1:4
140
1.0
141
4.0
290
     0
  0
SCALE
  5
A3A
102
{ACAD_REACTORS
330
A36
102
}
330
A36
100
AcDbScale
 70
     0
300
1:5
140
1.0
141
5.0
290
     0
  0
SCALE
  5
A3B
102
{ACAD_REACTORS
330
A36
102
}
330
A36
100
AcDbScale
 70
     0
300
1:8
140
1.0
141
8.0
290
     0
  0
SCALE
  5
A3C
102
{ACAD_REACTORS
330
A36
102
}
330
A36
100
AcDbScale
 70
     0
300
1:10
140
1.0
141
10.0
290
     0
  0
SCALE
  5
A3D
102
{ACAD_REACTORS
330
A36
102
}
330
A36
100
AcDbScale
 70
     0
300
1:16
140
1.0
141
16.0
290
     0
  0
SCALE
  5
A3E
102
{ACAD_REACTORS
330
A36
102
}
330
A36
100
AcDbScale
 70
     0
300
1:20
140
1.0
141
20.0
290
     0
  0
SCALE
  5
A3F
102
{ACAD_REACTORS
330
A36
102
}
330
A36
100
AcDbScale
 70
     0
300
1:30
140
1.0
141
30.0
290
     0
  0
SCALE
  5
A40
102
{ACAD_REACTORS
330
A36
102
}
330
A36
100
AcDbScale
 70
     0
300
1:40
140
1.0
141
40.0
290
     0
  0
SCALE
  5
A41
102
{ACAD_REACTORS
330
A36
102
}
330
A36
100
AcDbScale
 70
     0
300
1:50
140
1.0
141
50.0
290
     0
  0
SCALE
  5
A42
102
{ACAD_REACTORS
330
A36
102
}
330
A36
100
AcDbScale
 70
     0
300
1:100
140
1.0
141
100.0
290
     0
  0
SCALE
  5
A43
102
{ACAD_REACTORS
330
A36
102
}
330
A36
100
AcDbScale
 70
     0
300
2:1
140
2.0
141
1.0
290
     0
  0
SCALE
  5
A44
102
{ACAD_REACTORS
330
A36
102
}
330
A36
100
AcDbScale
 70
     0
300
4:1
140
4.0
141
1.0
290
     0
  0
SCALE
  5
A45
102
{ACAD_REACTORS
330
A36
102
}
330
A36
100
AcDbScale
 70
     0
300
8:1
140
8.0
141
1.0
290
     0
  0
SCALE
  5
A46
102
{ACAD_REACTORS
330
A36
102
}
330
A36
100
AcDbScale
 70
     0
300
10:1
140
10.0
141
1.0
290
     0
  0
SCALE
  5
A47
102
{ACAD_REACTORS
330
A36
102
}
330
A36
100
AcDbScale
 70
     0
300
100:1
140
100.0
141
1.0
290
     0
  0
SCALE
  5
A48
102
{ACAD_REACTORS
330
A36
102
}
330
A36
100
AcDbScale
 70
     0
300
1/128" = 1'-0"
140
0.0078125
141
12.0
290
     0
  0
SCALE
  5
A49
102
{ACAD_REACTORS
330
A36
102
}
330
A36
100
AcDbScale
 70
     0
300
1/64" = 1'-0"
140
0.015625
141
12.0
290
     0
  0
SCALE
  5
A4A
102
{ACAD_REACTORS
330
A36
102
}
330
A36
100
AcDbScale
 70
     0
300
1/32" = 1'-0"
140
0.03125
141
12.0
290
     0
  0
SCALE
  5
A4B
102
{ACAD_REACTORS
330
A36
102
}
330
A36
100
AcDbScale
 70
     0
300
1/16" = 1'-0"
140
0.0625
141
12.0
290
     0
  0
SCALE
  5
A4C
102
{ACAD_REACTORS
330
A36
102
}
330
A36
100
AcDbScale
 70
     0
300
3/32" = 1'-0"
140
0.09375
141
12.0
290
     0
  0
SCALE
  5
A4D
102
{ACAD_REACTORS
330
A36
102
}
330
A36
100
AcDbScale
 70
     0
300
1/8" = 1'-0"
140
0.125
141
12.0
290
     0
  0
SCALE
  5
A4E
102
{ACAD_REACTORS
330
A36
102
}
330
A36
100
AcDbScale
 70
     0
300
3/16" = 1'-0"
140
0.1875
141
12.0
290
     0
  0
SCALE
  5
A4F
102
{ACAD_REACTORS
330
A36
102
}
330
A36
100
AcDbScale
 70
     0
300
1/4" = 1'-0"
140
0.25
141
12.0
290
     0
  0
SCALE
  5
A50
102
{ACAD_REACTORS
330
A36
102
}
330
A36
100
AcDbScale
 70
     0
300
3/8" = 1'-0"
140
0.375
141
12.0
290
     0
  0
SCALE
  5
A51
102
{ACAD_REACTORS
330
A36
102
}
330
A36
100
AcDbScale
 70
     0
300
1/2" = 1'-0"
140
0.5
141
12.0
290
     0
  0
SCALE
  5
A52
102
{ACAD_REACTORS
330
A36
102
}
330
A36
100
AcDbScale
 70
     0
300
3/4" = 1'-0"
140
0.75
141
12.0
290
     0
  0
SCALE
  5
A53
102
{ACAD_REACTORS
330
A36
102
}
330
A36
100
AcDbScale
 70
     0
300
1" = 1'-0"
140
1.0
141
12.0
290
     0
  0
SCALE
  5
A54
102
{ACAD_REACTORS
330
A36
102
}
330
A36
100
AcDbScale
 70
     0
300
1-1/2" = 1'-0"
140
1.5
141
12.0
290
     0
  0
SCALE
  5
A55
102
{ACAD_REACTORS
330
A36
102
}
330
A36
100
AcDbScale
 70
     0
300
3" = 1'-0"
140
3.0
141
12.0
290
     0
  0
SCALE
  5
A56
102
{ACAD_REACTORS
330
A36
102
}
330
A36
100
AcDbScale
 70
     0
300
6" = 1'-0"
140
6.0
141
12.0
290
     0
  0
SCALE
  5
A57
102
{ACAD_REACTORS
330
A36
102
}
330
A36
100
AcDbScale
 70
     0
300
1'-0" = 1'-0"
140
12.0
141
12.0
290
     0
  0
DICTIONARYVAR
  5
6DF
102
{ACAD_REACTORS
330
6DE
102
}
330
6DE
100
DictionaryVariables
280
     0
  1
1
  0
DICTIONARYVAR
  5
A93
102
{ACAD_REACTORS
330
6DE
102
}
330
6DE
100
DictionaryVariables
280
     0
  1
0
  0
DICTIONARYVAR
  5
6E0
102
{ACAD_REACTORS
330
6DE
102
}
330
6DE
100
DictionaryVariables
280
     0
  1

  0
DICTIONARYVAR
  5
A92
102
{ACAD_REACTORS
330
6DE
102
}
330
6DE
100
DictionaryVariables
280
     0
  1
127
  0
ENDSEC
  0
EOF
