  0
SECTION
  2
HEADER
  9
$ACADVER
  1
AC1015
  9
$ACADMAINTVER
 70
     6
  9
$DWGCODEPAGE
  3
ANSI_932
  9
$INSBASE
 10
0.0
 20
0.0
 30
0.0
  9
$EXTMIN
 10
9124.181534319152
 20
-3901.771722220947
 30
-0.0000000000000131
  9
$EXTMAX
 10
9193.460544997244
 20
-3822.070723074327
 30
0.0000000000000108
  9
$LIMMIN
 10
0.0
 20
0.0
  9
$LIMMAX
 10
420.0
 20
297.0
  9
$ORTHOMODE
 70
     1
  9
$REGENMODE
 70
     1
  9
$FILLMODE
 70
     1
  9
$QTEXTMODE
 70
     0
  9
$MIRRTEXT
 70
     1
  9
$LTSCALE
 40
5.0
  9
$ATTMODE
 70
     0
  9
$TEXTSIZE
 40
53.44730959687513
  9
$TRACEWID
 40
1.0
  9
$TEXTSTYLE
  7
STANDARD
  9
$CLAYER
  8
寸法線
  9
$CELTYPE
  6
BYLAYER
  9
$CECOLOR
 62
   256
  9
$CELTSCALE
 40
1.0
  9
$DISPSILH
 70
     0
  9
$DIMSCALE
 40
1.0
  9
$DIMASZ
 40
2.5
  9
$DIMEXO
 40
1.5
  9
$DIMDLI
 40
0.38
  9
$DIMRND
 40
0.0
  9
$DIMDLE
 40
0.0
  9
$DIMEXE
 40
1.0
  9
$DIMTP
 40
0.0
  9
$DIMTM
 40
0.0
  9
$DIMTXT
 40
2.500000000000003
  9
$DIMCEN
 40
0.0
  9
$DIMTSZ
 40
0.0
  9
$DIMTOL
 70
     0
  9
$DIMLIM
 70
     0
  9
$DIMTIH
 70
     0
  9
$DIMTOH
 70
     0
  9
$DIMSE1
 70
     0
  9
$DIMSE2
 70
     0
  9
$DIMTAD
 70
     3
  9
$DIMZIN
 70
     8
  9
$DIMBLK
  1

  9
$DIMASO
 70
     1
  9
$DIMSHO
 70
     0
  9
$DIMPOST
  1

  9
$DIMAPOST
  1

  9
$DIMALT
 70
     0
  9
$DIMALTD
 70
     0
  9
$DIMALTF
 40
25.4
  9
$DIMLFAC
 40
1.0
  9
$DIMTOFL
 70
     1
  9
$DIMTVP
 40
0.0
  9
$DIMTIX
 70
     0
  9
$DIMSOXD
 70
     0
  9
$DIMSAH
 70
     1
  9
$DIMBLK1
  1
OPEN
  9
$DIMBLK2
  1
OPEN
  9
$DIMSTYLE
  2
STANDARD
  9
$DIMCLRD
 70
     8
  9
$DIMCLRE
 70
     8
  9
$DIMCLRT
 70
   256
  9
$DIMTFAC
 40
1.0
  9
$DIMGAP
 40
1.0
  9
$DIMJUST
 70
     0
  9
$DIMSD1
 70
     0
  9
$DIMSD2
 70
     0
  9
$DIMTOLJ
 70
     1
  9
$DIMTZIN
 70
     0
  9
$DIMALTZ
 70
     0
  9
$DIMALTTZ
 70
     0
  9
$DIMUPT
 70
     0
  9
$DIMDEC
 70
     2
  9
$DIMTDEC
 70
     2
  9
$DIMALTU
 70
     2
  9
$DIMALTTD
 70
     0
  9
$DIMTXSTY
  7
STANDARD
  9
$DIMAUNIT
 70
     0
  9
$DIMADEC
 70
     2
  9
$DIMALTRND
 40
0.0
  9
$DIMAZIN
 70
     2
  9
$DIMDSEP
 70
    46
  9
$DIMATFIT
 70
     1
  9
$DIMFRAC
 70
     0
  9
$DIMLDRBLK
  1
OPEN
  9
$DIMLUNIT
 70
     2
  9
$DIMLWD
 70
    -2
  9
$DIMLWE
 70
    -2
  9
$DIMTMOVE
 70
     0
  9
$LUNITS
 70
     2
  9
$LUPREC
 70
     2
  9
$SKETCHINC
 40
0.1
  9
$FILLETRAD
 40
15.5
  9
$AUNITS
 70
     0
  9
$AUPREC
 70
     1
  9
$MENU
  1
FM
  9
$ELEVATION
 40
0.0
  9
$PELEVATION
 40
0.0
  9
$THICKNESS
 40
0.0
  9
$LIMCHECK
 70
     0
  9
$CHAMFERA
 40
0.0
  9
$CHAMFERB
 40
0.0
  9
$CHAMFERC
 40
0.0
  9
$CHAMFERD
 40
0.0
  9
$SKPOLY
 70
     0
  9
$TDCREATE
 40
2448636.619629629
  9
$TDUCREATE
 40
2448636.244629629
  9
$TDUPDATE
 40
2456821.613782824
  9
$TDUUPDATE
 40
2456821.238782824
  9
$TDINDWG
 40
48.8511348495
  9
$TDUSRTIMER
 40
2456821.238622014
  9
$USRTIMER
 70
     1
  9
$ANGBASE
 50
0.0
  9
$ANGDIR
 70
     0
  9
$PDMODE
 70
     3
  9
$PDSIZE
 40
0.0
  9
$PLINEWID
 40
0.0
  9
$SPLFRAME
 70
     0
  9
$SPLINETYPE
 70
     6
  9
$SPLINESEGS
 70
     8
  9
$HANDSEED
  5
12CA0F
  9
$SURFTAB1
 70
     6
  9
$SURFTAB2
 70
     6
  9
$SURFTYPE
 70
     6
  9
$SURFU
 70
     6
  9
$SURFV
 70
     6
  9
$UCSBASE
  2

  9
$UCSNAME
  2

  9
$UCSORG
 10
0.0
 20
0.0
 30
0.0
  9
$UCSXDIR
 10
1.0
 20
0.0
 30
0.0
  9
$UCSYDIR
 10
0.0
 20
1.0
 30
0.0
  9
$UCSORTHOREF
  2

  9
$UCSORTHOVIEW
 70
     0
  9
$UCSORGTOP
 10
0.0
 20
0.0
 30
0.0
  9
$UCSORGBOTTOM
 10
0.0
 20
0.0
 30
0.0
  9
$UCSORGLEFT
 10
0.0
 20
0.0
 30
0.0
  9
$UCSORGRIGHT
 10
0.0
 20
0.0
 30
0.0
  9
$UCSORGFRONT
 10
0.0
 20
0.0
 30
0.0
  9
$UCSORGBACK
 10
0.0
 20
0.0
 30
0.0
  9
$PUCSBASE
  2

  9
$PUCSNAME
  2

  9
$PUCSORG
 10
0.0
 20
0.0
 30
0.0
  9
$PUCSXDIR
 10
1.0
 20
0.0
 30
0.0
  9
$PUCSYDIR
 10
0.0
 20
1.0
 30
0.0
  9
$PUCSORTHOREF
  2

  9
$PUCSORTHOVIEW
 70
     0
  9
$PUCSORGTOP
 10
0.0
 20
0.0
 30
0.0
  9
$PUCSORGBOTTOM
 10
0.0
 20
0.0
 30
0.0
  9
$PUCSORGLEFT
 10
0.0
 20
0.0
 30
0.0
  9
$PUCSORGRIGHT
 10
0.0
 20
0.0
 30
0.0
  9
$PUCSORGFRONT
 10
0.0
 20
0.0
 30
0.0
  9
$PUCSORGBACK
 10
0.0
 20
0.0
 30
0.0
  9
$USERI1
 70
     0
  9
$USERI2
 70
     0
  9
$USERI3
 70
     0
  9
$USERI4
 70
     0
  9
$USERI5
 70
     0
  9
$USERR1
 40
0.0
  9
$USERR2
 40
0.0
  9
$USERR3
 40
0.0
  9
$USERR4
 40
0.0
  9
$USERR5
 40
0.0
  9
$WORLDVIEW
 70
     0
  9
$SHADEDGE
 70
     3
  9
$SHADEDIF
 70
    70
  9
$TILEMODE
 70
     1
  9
$MAXACTVP
 70
    16
  9
$PINSBASE
 10
0.0
 20
0.0
 30
0.0
  9
$PLIMCHECK
 70
     0
  9
$PEXTMIN
 10
1.000000000000000E+20
 20
1.000000000000000E+20
 30
1.000000000000000E+20
  9
$PEXTMAX
 10
-1.000000000000000E+20
 20
-1.000000000000000E+20
 30
-1.000000000000000E+20
  9
$PLIMMIN
 10
0.0
 20
0.0
  9
$PLIMMAX
 10
0.0
 20
0.0
  9
$UNITMODE
 70
     0
  9
$VISRETAIN
 70
     0
  9
$PLINEGEN
 70
     0
  9
$PSLTSCALE
 70
     0
  9
$TREEDEPTH
 70
  3020
  9
$CMLSTYLE
  2
STANDARD
  9
$CMLJUST
 70
     0
  9
$CMLSCALE
 40
1.0
  9
$PROXYGRAPHICS
 70
     1
  9
$MEASUREMENT
 70
     0
  9
$CELWEIGHT
370
    -1
  9
$ENDCAPS
280
     0
  9
$JOINSTYLE
280
     0
  9
$LWDISPLAY
290
     0
  9
$INSUNITS
 70
     0
  9
$HYPERLINKBASE
  1

  9
$STYLESHEET
  1
spax form.ctb
  9
$XEDIT
290
     1
  9
$CEPSNTYPE
380
     0
  9
$PSTYLEMODE
290
     1
  9
$FINGERPRINTGUID
  2
{BBAEEBA6-8B94-11D3-9160-00E0294F7E09}
  9
$VERSIONGUID
  2
{2269B6F7-D753-4AAE-BD5C-3A2CC530C44F}
  9
$EXTNAMES
290
     1
  9
$PSVPSCALE
 40
0.0
  9
$OLESTARTUP
290
     0
  0
ENDSEC
  0
SECTION
  2
CLASSES
  0
CLASS
  1
LWPOLYLINE
  2
AcDbPolyline
  3
ObjectDBX Classes
 90
        0
280
     0
281
     1
  0
CLASS
  1
ACDBDICTIONARYWDFLT
  2
AcDbDictionaryWithDefault
  3
ObjectDBX Classes
 90
        0
280
     0
281
     0
  0
CLASS
  1
ACDBPLACEHOLDER
  2
AcDbPlaceHolder
  3
ObjectDBX Classes
 90
        0
280
     0
281
     0
  0
CLASS
  1
LAYOUT
  2
AcDbLayout
  3
ObjectDBX Classes
 90
        0
280
     0
281
     0
  0
CLASS
  1
DICTIONARYVAR
  2
AcDbDictionaryVar
  3
ObjectDBX Classes
 90
        0
280
     0
281
     0
  0
CLASS
  1
MATERIAL
  2
AcDbMaterial
  3
ObjectDBX Classes
 90
     1153
280
     0
281
     0
  0
CLASS
  1
VISUALSTYLE
  2
AcDbVisualStyle
  3
ObjectDBX Classes
 90
     4095
280
     0
281
     0
  0
CLASS
  1
TABLESTYLE
  2
AcDbTableStyle
  3
ObjectDBX Classes
 90
     4095
280
     0
281
     0
  0
CLASS
  1
SCALE
  2
AcDbScale
  3
ObjectDBX Classes
 90
     1153
280
     0
281
     0
  0
CLASS
  1
MLEADERSTYLE
  2
AcDbMLeaderStyle
  3
ACDB_MLEADERSTYLE_CLASS
 90
     4095
280
     0
281
     0
  0
CLASS
  1
CELLSTYLEMAP
  2
AcDbCellStyleMap
  3
ObjectDBX Classes
 90
     1152
280
     0
281
     0
  0
CLASS
  1
SORTENTSTABLE
  2
AcDbSortentsTable
  3
ObjectDBX Classes
 90
        0
280
     0
281
     0
  0
CLASS
  1
MULTILEADER
  2
AcDbMLeader
  3
ACDB_MLEADER_CLASS
 90
     1025
280
     0
281
     1
  0
CLASS
  1
DIMASSOC
  2
AcDbDimAssoc
  3
"AcDbDimAssoc|Product Desc:     AcDim ARX App For Dimension|Company:          Autodesk, Inc.|WEB Address:      www.autodesk.com"
 90
        0
280
     0
281
     0
  0
CLASS
  1
RASTERVARIABLES
  2
AcDbRasterVariables
  3
ISM
 90
        0
280
     0
281
     0
  0
CLASS
  1
AEC_VARS_DWG_SETUP
  2
AecDbVarsDwgSetup
  3
AecBase60
 90
      129
280
     0
281
     0
  0
CLASS
  1
AEC_DISP_REP_2D_SECTION
  2
AecDbDispRep2dSection
  3
AecBase60
 90
      129
280
     0
281
     0
  0
CLASS
  1
AEC_DISP_PROPS_2D_SECTION
  2
AecDbDispProps2dSection
  3
AecBase60
 90
      129
280
     0
281
     0
  0
CLASS
  1
AEC_DISP_REP_CLIP_VOLUME_MODEL
  2
AecDbDispRepClipVolModel
  3
AecBase60
 90
      129
280
     0
281
     0
  0
CLASS
  1
AEC_DISP_PROPS_CLIP_VOLUME
  2
AecDbDispPropsClipVol
  3
AecBase60
 90
      129
280
     0
281
     0
  0
CLASS
  1
AEC_DISP_REP_CLIP_VOLUME_PLAN
  2
AecDbDispRepClipVolPlan
  3
AecBase60
 90
      129
280
     0
281
     0
  0
CLASS
  1
AEC_DISP_REP_CLIP_VOLUME_RESULT
  2
AecDbDispRepClipVolResult
  3
AecBase60
 90
      129
280
     0
281
     0
  0
CLASS
  1
AEC_DISP_REP_CLIP_VOLUME_RESULT_SUBDIV
  2
AecDbDispRepClipVolResSubDiv
  3
AecBase60
 90
      129
280
     0
281
     0
  0
CLASS
  1
AEC_DISP_PROPS_CLIP_VOLUME_RESULT
  2
AecDbDispPropsClipVolResSubDiv
  3
AecBase60
 90
      129
280
     0
281
     0
  0
CLASS
  1
AEC_DISP_REP_DISPLAYTHEME
  2
AecDbDispRepDisplayTheme
  3
AecBase60
 90
      129
280
     0
281
     0
  0
CLASS
  1
AEC_DISP_PROPS_DISPLAYTHEME
  2
AecDbDispPropsDisplayTheme
  3
AecBase60
 90
      129
280
     0
281
     0
  0
CLASS
  1
AEC_DISP_REP_ENT_REF
  2
AecDbDispRepEntRef
  3
AecBase60
 90
      129
280
     0
281
     0
  0
CLASS
  1
AEC_DISP_PROPS_ENT_REF
  2
AecDbDispPropsEntRef
  3
AecBase60
 90
      129
280
     0
281
     0
  0
CLASS
  1
AEC_DISP_REP_LAYOUT_CURVE
  2
AecDbDispRepLayoutCurve
  3
AecBase60
 90
      129
280
     0
281
     0
  0
CLASS
  1
AEC_DISP_PROPS_LAYOUT_CURVE
  2
AecDbDispPropsLayoutCurve
  3
AecBase60
 90
      129
280
     0
281
     0
  0
CLASS
  1
AEC_DISP_REP_LAYOUT_GRID2D
  2
AecDbDispRepLayoutGrid2d
  3
AecBase60
 90
      129
280
     0
281
     0
  0
CLASS
  1
AEC_DISP_PROPS_LAYOUT_GRID2D
  2
AecDbDispPropsLayoutGrid2d
  3
AecBase60
 90
      129
280
     0
281
     0
  0
CLASS
  1
AEC_DISP_REP_LAYOUT_GRID3D
  2
AecDbDispRepLayoutGrid3d
  3
AecBase60
 90
      129
280
     0
281
     0
  0
CLASS
  1
AEC_DISP_PROPS_LAYOUT_GRID3D
  2
AecDbDispPropsLayoutGrid3d
  3
AecBase60
 90
      129
280
     0
281
     0
  0
CLASS
  1
AEC_DISP_REP_MASKBLOCK_REF
  2
AecDbDispRepMaskBlockRef
  3
AecBase60
 90
      129
280
     0
281
     0
  0
CLASS
  1
AEC_DISP_PROPS_MASKBLOCK
  2
AecDbDispPropsMaskBlock
  3
AecBase60
 90
      129
280
     0
281
     0
  0
CLASS
  1
AEC_DISP_REP_MASKBLOCK_REF_RCP
  2
AecDbDispRepMaskBlockRefRcp
  3
AecArchBase60
 90
      129
280
     0
281
     0
  0
CLASS
  1
AEC_DISP_REP_MASS_ELEM_MODEL
  2
AecDbDispRepMassElemModel
  3
AecBase60
 90
      129
280
     0
281
     0
  0
CLASS
  1
AEC_DISP_PROPS_MASS_ELEM_MODEL
  2
AecDbDispPropsMassElem
  3
AecBase60
 90
      129
280
     0
281
     0
  0
CLASS
  1
AEC_DISP_REP_MASS_ELEM_SCHEM
  2
AecDbDispRepMassElemSchem
  3
AecBase60
 90
      129
280
     0
281
     0
  0
CLASS
  1
AEC_DISPREPAECDBDISPREPMASSELEMPLAN50
  2
AecDbDispRepMassElemPlan50
  3
AecArchDACHBase60
 90
      129
280
     0
281
     0
  0
CLASS
  1
AEC_DISPROPSMASSELEMPLANCOMMON
  2
AecDbDispPropsMassElemPlanCommon
  3
AecArchDACHBase60
 90
      129
280
     0
281
     0
  0
CLASS
  1
AEC_DISPREPAECDBDISPREPMASSELEMPLAN100
  2
AecDbDispRepMassElemPlan100
  3
AecArchDACHBase60
 90
      129
280
     0
281
     0
  0
CLASS
  1
AEC_DISP_REP_MASS_ELEM_RCP
  2
AecDbDispRepMassElemRcp
  3
AecArchBase60
 90
      129
280
     0
281
     0
  0
CLASS
  1
AEC_DISP_REP_MASS_GROUP_MODEL
  2
AecDbDispRepMassGroupModel
  3
AecBase60
 90
      129
280
     0
281
     0
  0
CLASS
  1
AEC_DISP_PROPS_MASS_GROUP
  2
AecDbDispPropsMassGroup
  3
AecBase60
 90
      129
280
     0
281
     0
  0
CLASS
  1
AEC_DISP_REP_MASS_GROUP_PLAN
  2
AecDbDispRepMassGroupPlan
  3
AecBase60
 90
      129
280
     0
281
     0
  0
CLASS
  1
AEC_DISPREPAECDBDISPREPMASSGROUPPLAN50
  2
AecDbDispRepMassGroupPlan50
  3
AecArchDACHBase60
 90
      129
280
     0
281
     0
  0
CLASS
  1
AEC_DISPROPSMASSGROUPPLANCOMMON
  2
AecDbDispPropsMassGroupPlanCommon
  3
AecArchDACHBase60
 90
      129
280
     0
281
     0
  0
CLASS
  1
AEC_DISPREPAECDBDISPREPMASSGROUPPLAN100
  2
AecDbDispRepMassGroupPlan100
  3
AecArchDACHBase60
 90
      129
280
     0
281
     0
  0
CLASS
  1
AEC_DISP_REP_MASS_GROUP_RCP
  2
AecDbDispRepMassGroupRcp
  3
AecArchBase60
 90
      129
280
     0
281
     0
  0
CLASS
  1
AEC_DISP_REP_MVBLOCK_REF
  2
AecDbDispRepMvBlockRef
  3
AecBase60
 90
      129
280
     0
281
     0
  0
CLASS
  1
AEC_DISP_REP_MVBLOCK_REF_MODEL
  2
AecDbDispRepMvBlockRefModel
  3
AecBase60
 90
      129
280
     0
281
     0
  0
CLASS
  1
AEC_AECDBDISPREPMVBLOCKREFPLAN100
  2
AecDbDispRepMvBlockRefPlan100
  3
AecBase60
 90
      129
280
     0
281
     0
  0
CLASS
  1
AEC_AECDBDISPREPMVBLOCKREFPLAN50
  2
AecDbDispRepMvBlockRefPlan50
  3
AecBase60
 90
      129
280
     0
281
     0
  0
CLASS
  1
AEC_DISP_REP_POLYGON_MODEL
  2
AecDbDispRepPolygonModel
  3
AecBase60
 90
      129
280
     0
281
     0
  0
CLASS
  1
AEC_DISP_PROPS_POLYGON_MODEL
  2
AecDbDispPropsPolygonModel
  3
AecBase60
 90
      129
280
     0
281
     0
  0
CLASS
  1
AEC_DISP_REP_POLYGON_TRUECOLOUR
  2
AecDbDispRepPolygonTrueColour
  3
AecBase60
 90
      129
280
     0
281
     0
  0
CLASS
  1
AEC_DISP_PROPS_POLYGON_TRUECOLOUR
  2
AecDbDispPropsPolygonTrueColour
  3
AecBase60
 90
      129
280
     0
281
     0
  0
CLASS
  1
AEC_DISP_REP_SLICE
  2
AecDbDispRepSlice
  3
AecBase60
 90
      129
280
     0
281
     0
  0
CLASS
  1
AEC_DISP_PROPS_SLICE
  2
AecDbDispPropsSlice
  3
AecBase60
 90
      129
280
     0
281
     0
  0
CLASS
  1
AEC_DISP_REP_ANCHOR
  2
AecDbDispRepAnchor
  3
AecBase60
 90
      129
280
     0
281
     0
  0
CLASS
  1
AEC_DISP_REP_ANCHOR_ENT_TO_NODE
  2
AecDbDispRepAnchorEntToNode
  3
AecBase60
 90
      129
280
     0
281
     0
  0
CLASS
  1
AEC_DISP_PROPS_ENT
  2
AecDbDispPropsEnt
  3
AecBase60
 90
      129
280
     0
281
     0
  0
CLASS
  1
AEC_DISP_REP_MATERIAL
  2
AecDbDispRepMaterial
  3
AecBase60
 90
      129
280
     0
281
     0
  0
CLASS
  1
AEC_DISP_PROPS_MATERIAL
  2
AecDbDispPropsMaterial
  3
AecBase60
 90
      129
280
     0
281
     0
  0
CLASS
  1
AEC_DISP_REP_EDITINPLACEPROFILE
  2
AecDbDispRepEditInPlaceProfile
  3
AecBase60
 90
      129
280
     0
281
     0
  0
CLASS
  1
AEC_DISP_PROPS_EDITINPLACEPROFILE_MODEL
  2
AecDbDispPropsEditInPlaceProfile
  3
AecBase60
 90
      129
280
     0
281
     0
  0
CLASS
  1
SUN
  2
AcDbSun
  3
SCENEOE
 90
     1153
280
     0
281
     0
  0
ENDSEC
  0
SECTION
  2
TABLES
  0
TABLE
  2
VPORT
  5
8
330
0
100
AcDbSymbolTable
 70
     1
  0
VPORT
  5
12AFF3
330
8
100
AcDbSymbolTableRecord
100
AcDbViewportTableRecord
  2
*Active
 70
     0
 10
0.0
 20
0.0
 11
1.0
 21
1.0
 12
9158.821039658198
 22
-3861.921222647637
 13
0.0
 23
0.0
 14
1.0
 24
1.0
 15
20.0
 25
20.0
 16
0.0
 26
0.0
 36
1.0
 17
0.0
 27
0.0
 37
0.0
 40
81.29501912955217
 41
1.731829573934837
 42
50.0
 43
0.0
 44
0.0
 50
0.0
 51
0.0
 71
    16
 72
   100
 73
     1
 74
     0
 75
     0
 76
     0
 77
     0
 78
     0
281
     0
 65
     1
110
0.0
120
0.0
130
0.0
111
1.0
121
0.0
131
0.0
112
0.0
122
1.0
132
0.0
 79
     0
146
0.0
  0
ENDTAB
  0
TABLE
  2
LTYPE
  5
5
330
0
100
AcDbSymbolTable
 70
     3
  0
LTYPE
  5
12
330
5
100
AcDbSymbolTableRecord
100
AcDbLinetypeTableRecord
  2
BYBLOCK
 70
     0
  3

 72
    65
 73
     0
 40
0.0
  0
LTYPE
  5
13
330
5
100
AcDbSymbolTableRecord
100
AcDbLinetypeTableRecord
  2
BYLAYER
 70
     0
  3

 72
    65
 73
     0
 40
0.0
  0
LTYPE
  5
14
330
5
100
AcDbSymbolTableRecord
100
AcDbLinetypeTableRecord
  2
CONTINUOUS
 70
     0
  3
Solid line
 72
    65
 73
     0
 40
0.0
  0
LTYPE
  5
27
330
5
100
AcDbSymbolTableRecord
100
AcDbLinetypeTableRecord
  2
HIDDEN
 70
     0
  3
_ _ _ _ _ _ _ _ _ _ _ _ _ _ _ _ _ _ _ _ _ _ _
 72
    65
 73
     2
 40
0.375
 49
0.25
 74
     0
 49
-0.125
 74
     0
  0
LTYPE
  5
514
330
5
100
AcDbSymbolTableRecord
100
AcDbLinetypeTableRecord
  2
CENTER
 70
     0
  3
Center ____ _ ____ _ ____ _ ____ _ ____ _ ____
 72
    65
 73
     4
 40
2.0
 49
1.25
 74
     0
 49
-0.25
 74
     0
 49
0.25
 74
     0
 49
-0.25
 74
     0
  0
ENDTAB
  0
TABLE
  2
LAYER
  5
2
102
{ACAD_XDICTIONARY
360
8BF
102
}
330
0
100
AcDbSymbolTable
 70
    13
  0
LAYER
  5
F
102
{ACAD_XDICTIONARY
360
A60
102
}
330
2
100
AcDbSymbolTableRecord
100
AcDbLayerTableRecord
  2
0
 70
     0
 62
     7
  6
CONTINUOUS
370
    -3
390
616
  0
LAYER
  5
34
102
{ACAD_XDICTIONARY
360
A66
102
}
330
2
100
AcDbSymbolTableRecord
100
AcDbLayerTableRecord
  2
寸法線
 70
     0
 62
     7
  6
CONTINUOUS
370
    -3
390
616
  0
LAYER
  5
2F4
102
{ACAD_XDICTIONARY
360
A6E
102
}
330
2
100
AcDbSymbolTableRecord
100
AcDbLayerTableRecord
  2
文字
 70
     0
 62
     7
  6
CONTINUOUS
370
    -3
390
616
  0
LAYER
  5
305
102
{ACAD_XDICTIONARY
360
A72
102
}
330
2
100
AcDbSymbolTableRecord
100
AcDbLayerTableRecord
  2
姿図
 70
     0
 62
     8
  6
CONTINUOUS
370
    -3
390
616
  0
ENDTAB
  0
TABLE
  2
STYLE
  5
3
330
0
100
AcDbSymbolTable
 70
     1
  0
STYLE
  5
10
330
3
100
AcDbSymbolTableRecord
100
AcDbTextStyleTableRecord
  2
STANDARD
 70
     0
 40
0.0
 41
1.0
 50
0.0
 71
     0
 42
53.44730959687513
  3
MONOTXT
  4
BIGFONT
  0
ENDTAB
  0
TABLE
  2
VIEW
  5
6
330
0
100
AcDbSymbolTable
 70
     0
  0
ENDTAB
  0
TABLE
  2
UCS
  5
7
330
0
100
AcDbSymbolTable
 70
     0
  0
ENDTAB
  0
TABLE
  2
APPID
  5
9
330
0
100
AcDbSymbolTable
 70
    18
  0
APPID
  5
11
330
9
100
AcDbSymbolTableRecord
100
AcDbRegAppTableRecord
  2
ACAD
 70
     0
  0
APPID
  5
8BB
330
9
100
AcDbSymbolTableRecord
100
AcDbRegAppTableRecord
  2
ACAD_PSEXT
 70
     0
  0
APPID
  5
A5A
330
9
100
AcDbSymbolTableRecord
100
AcDbRegAppTableRecord
  2
ACAD_MLEADERVER
 70
     0
  0
APPID
  5
A5E
330
9
100
AcDbSymbolTableRecord
100
AcDbRegAppTableRecord
  2
ACAD_DSTYLE_DIMJAG
 70
     0
  0
APPID
  5
A5F
330
9
100
AcDbSymbolTableRecord
100
AcDbRegAppTableRecord
  2
ACAD_DSTYLE_DIMTALN
 70
     0
  0
APPID
  5
12C0
330
9
100
AcDbSymbolTableRecord
100
AcDbRegAppTableRecord
  2
ACAD_EXEMPT_FROM_CAD_STANDARDS
 70
     0
  0
APPID
  5
1C50
330
9
100
AcDbSymbolTableRecord
100
AcDbRegAppTableRecord
  2
AcAecLayerStandard
 70
     0
  0
APPID
  5
5088
330
9
100
AcDbSymbolTableRecord
100
AcDbRegAppTableRecord
  2
ACAD_DSTYLE_DIMRADIAL_EXTENSION
 70
     0
  0
APPID
  5
14AF3
330
9
100
AcDbSymbolTableRecord
100
AcDbRegAppTableRecord
  2
WACOM_STRING
 70
     0
  0
APPID
  5
14AF4
330
9
100
AcDbSymbolTableRecord
100
AcDbRegAppTableRecord
  2
WACOM_DRSYM_ARROW
 70
     0
  0
APPID
  5
1E1A8
330
9
100
AcDbSymbolTableRecord
100
AcDbRegAppTableRecord
  2
GENIUS_GENODEF_13
 70
     0
  0
APPID
  5
1E1A9
330
9
100
AcDbSymbolTableRecord
100
AcDbRegAppTableRecord
  2
GENIUS_GENREC_14
 70
     0
  0
APPID
  5
1E1AA
330
9
100
AcDbSymbolTableRecord
100
AcDbRegAppTableRecord
  2
GENIUS_GENOBJ-N-REC_13
 70
     0
  0
APPID
  5
27C72
330
9
100
AcDbSymbolTableRecord
100
AcDbRegAppTableRecord
  2
ASK_MEN_XD
 70
     0
  0
APPID
  5
29316
330
9
100
AcDbSymbolTableRecord
100
AcDbRegAppTableRecord
  2
ACAD_DSTYLE_DIMBREAK
 70
     0
  0
APPID
  5
12C9AB
330
9
100
AcDbSymbolTableRecord
100
AcDbRegAppTableRecord
  2
AECBASE
 70
     0
  0
APPID
  5
12C9AC
330
9
100
AcDbSymbolTableRecord
100
AcDbRegAppTableRecord
  2
AEC_2DSECTION_XDATA
 70
     0
  0
APPID
  5
12C9AD
330
9
100
AcDbSymbolTableRecord
100
AcDbRegAppTableRecord
  2
AEC_MASSGROUP_XDADA
 70
     0
  0
ENDTAB
  0
TABLE
  2
DIMSTYLE
  5
A
330
0
100
AcDbSymbolTable
 70
     2
100
AcDbDimStyleTable
  0
DIMSTYLE
105
1CC
330
A
100
AcDbSymbolTableRecord
100
AcDbDimStyleTableRecord
  2
STANDARD
 70
     0
 41
2.5
 42
1.5
 44
1.0
 73
     0
 74
     0
 77
     3
 78
     8
 79
     2
140
2.500000000000003
141
0.0
147
1.0
171
     0
172
     1
173
     1
176
     8
177
     8
271
     2
178
   256
179
     2
271
     2
272
     2
274
     0
289
     1
340
10
341
608
343
608
344
608
1001
ACAD_DSTYLE_DIMJAG
1070
   388
1040
1.5
1001
ACAD_DSTYLE_DIMTALN
1070
   392
1070
     0
  0
ENDTAB
  0
TABLE
  2
BLOCK_RECORD
  5
1
330
0
100
AcDbSymbolTable
 70
    82
  0
BLOCK_RECORD
  5
18
102
{ACAD_XDICTIONARY
360
143F
102
}
330
1
100
AcDbSymbolTableRecord
100
AcDbBlockTableRecord
  2
*MODEL_SPACE
340
619
  0
BLOCK_RECORD
  5
15
330
1
100
AcDbSymbolTableRecord
100
AcDbBlockTableRecord
  2
*PAPER_SPACE
340
61A
  0
BLOCK_RECORD
  5
608
330
1
100
AcDbSymbolTableRecord
100
AcDbBlockTableRecord
  2
_OPEN
340
0
102
{BLKREFS
331
FC0AF
331
FC0B0
331
FC0B8
331
FC0B9
331
FC0C1
331
FC0C2
331
FC0FB
331
FC0FC
331
FC104
331
FC105
331
FC116
331
FC117
331
FC131
331
FC132
331
FE459
331
FE45A
331
FE61B
331
FE61C
331
FE8A7
331
FE8A8
331
126247
331
126248
331
126250
331
126251
331
126259
331
12625A
331
12626E
331
12626F
331
126282
331
126283
331
12629A
331
12629B
331
127BB8
331
127BB9
331
127BC1
331
127BC2
331
127BCA
331
127BCB
331
127BD3
331
127BD4
331
127BDC
331
127BDD
331
127BE7
331
127BE8
331
127BF0
331
127BF1
331
127BF9
331
127BFA
331
127C02
331
127C03
331
127C0B
331
127C0C
331
127C14
331
127C15
331
127C1D
331
127C1E
331
127C26
331
127C27
331
127C2F
331
127C30
331
127C38
331
127C39
331
127C41
331
127C42
331
12955D
331
12955E
331
129566
331
129567
331
12956F
331
129570
331
129578
331
129579
331
129583
331
129584
331
12958C
331
12958D
331
129595
331
129596
331
12959E
331
12959F
331
1295A7
331
1295A8
331
1295B2
331
1295B3
331
1295BB
331
1295BC
331
1295C4
331
1295C5
331
1295CD
331
1295CE
331
1295D6
331
1295D7
331
1295DF
331
1295E0
331
1295E8
331
1295E9
331
12AF0A
331
12AF0B
331
12AF13
331
12AF14
331
12AF1C
331
12AF1D
331
12AF25
331
12AF26
331
12AF30
331
12AF31
331
12AF39
331
12AF3A
331
12AF42
331
12AF43
331
12AF4B
331
12AF4C
331
12AF54
331
12AF55
331
12AF5F
331
12AF60
331
12AF68
331
12AF69
331
12AF71
331
12AF72
331
12AF7A
331
12AF7B
331
12AF83
331
12AF84
331
12AF8C
331
12AF8D
331
12AF95
331
12AF96
331
12C8FE
331
12C8FF
331
12C907
331
12C908
331
12C910
331
12C911
331
12C919
331
12C91A
331
12C924
331
12C925
331
12C92D
331
12C92E
331
12C936
331
12C937
331
12C93F
331
12C940
331
12C948
331
12C949
331
12C953
331
12C954
331
12C95C
331
12C95D
331
12C965
331
12C966
331
12C96E
331
12C96F
331
12C977
331
12C978
331
12C980
331
12C981
331
12C989
331
12C98A
102
}
  0
BLOCK_RECORD
  5
89D
330
1
100
AcDbSymbolTableRecord
100
AcDbBlockTableRecord
  2
SUN
340
0
  0
ENDTAB
  0
ENDSEC
  0
SECTION
  2
BLOCKS
  0
BLOCK
  5
39
330
18
100
AcDbEntity
  8
0
100
AcDbBlockBegin
  2
*MODEL_SPACE
 70
     0
 10
0.0
 20
0.0
 30
0.0
  3
*MODEL_SPACE
  1
*MODEL_SPACE
  0
ENDBLK
  5
3A
330
18
100
AcDbEntity
  8
0
100
AcDbBlockEnd
  0
BLOCK
  5
37
330
15
100
AcDbEntity
 67
     1
  8
0
100
AcDbBlockBegin
  2
*PAPER_SPACE
 70
     0
 10
0.0
 20
0.0
 30
0.0
  3
*PAPER_SPACE
  1
*PAPER_SPACE
  0
ENDBLK
  5
38
330
15
100
AcDbEntity
 67
     1
  8
0
100
AcDbBlockEnd
  0
BLOCK
  5
609
330
608
100
AcDbEntity
  8
0
100
AcDbBlockBegin
  2
_OPEN
 70
     0
 10
0.0
 20
0.0
 30
0.0
  3
_OPEN
  1
_OPEN
  0
LINE
  5
60A
330
608
100
AcDbEntity
  8
0
  6
ByBlock
 62
     0
100
AcDbLine
 10
-1.0
 20
0.1666666666666667
 30
0.0
 11
0.0
 21
0.0
 31
0.0
  0
LINE
  5
60B
330
608
100
AcDbEntity
  8
0
  6
ByBlock
 62
     0
100
AcDbLine
 10
0.0
 20
0.0
 30
0.0
 11
-1.0
 21
-0.1666666666666667
 31
0.0
  0
LINE
  5
60C
330
608
100
AcDbEntity
  8
0
  6
ByBlock
 62
     0
100
AcDbLine
 10
0.0
 20
0.0
 30
0.0
 11
-1.0
 21
0.0
 31
0.0
  0
ENDBLK
  5
60D
330
608
100
AcDbEntity
  8
0
100
AcDbBlockEnd
  0
BLOCK
  5
89E
330
89D
100
AcDbEntity
  8
0
100
AcDbBlockBegin
  2
SUN
 70
     0
 10
0.0
 20
0.0
 30
0.0
  3
SUN
  1
SUN
  0
LINE
  5
89F
330
89D
100
AcDbEntity
  8
0
100
AcDbLine
 10
-0.0000000000000568
 20
0.0
 30
0.0
 11
-1.500000000000057
 21
0.0
 31
0.0
  0
LINE
  5
8A0
330
89D
100
AcDbEntity
  8
0
100
AcDbLine
 10
-0.0000000000000568
 20
0.0000000000000284
 30
0.0
 11
-1.500000000000057
 21
0.401923788646684
 31
0.0
  0
LINE
  5
8A1
330
89D
100
AcDbEntity
  8
0
100
AcDbLine
 10
-0.0000000000000568
 20
0.0000000000000284
 30
0.0
 11
-1.500000000000057
 21
-0.4019237886466556
 31
0.0
  0
ENDBLK
  5
8A2
330
89D
100
AcDbEntity
  8
0
100
AcDbBlockEnd
  0
ENDSEC
  0
SECTION
  2
ENTITIES
  0
MTEXT
  5
D0CC6
330
18
100
AcDbEntity
  8
寸法線
100
AcDbMText
 10
2610.774875364868
 20
-2740.315466585338
 30
0.0
 40
2.500000000000003
 41
0.0
 71
     9
 72
     1
  1
\A1;
 73
     1
 44
1.0
  0
MTEXT
  5
F6D77
330
18
100
AcDbEntity
  8
文字
100
AcDbMText
 10
5821.057140836062
 20
-2842.341718131323
 30
0.0
 40
2.5
 41
64.39156592258223
 71
     1
 72
     5
  1
   
 73
     1
 44
1.0
  0
MTEXT
  5
F6D78
330
18
100
AcDbEntity
  8
寸法線
100
AcDbMText
 10
6222.662262480188
 20
-2968.738290481128
 30
0.0
 40
3.000000000000001
 41
0.0
 71
     7
 72
     1
  1
\A1;
 73
     1
 44
1.0
  0
TEXT
  5
12B02B
330
18
100
AcDbEntity
  8
文字
100
AcDbText
 10
9124.181534319152
 20
-3901.771722220947
 30
0.0
 40
6.5
  1
SX-505CBPC
100
AcDbText
  0
LINE
  5
12C740
330
18
100
AcDbEntity
  8
姿図
100
AcDbLine
 10
9148.803339526989
 20
-3827.485300705362
 30
-0.000000000000002
 11
9193.460544997244
 21
-3827.485300705362
 31
-0.000000000000002
  0
SPLINE
  5
12C741
330
18
100
AcDbEntity
  8
姿図
100
AcDbSpline
210
0.0
220
0.0
230
1.0
 70
    24
 71
     3
 72
     8
 73
     4
 74
     0
 42
0.000000001
 43
0.0000000001
 40
0.0
 40
0.0
 40
0.0
 40
0.0
 40
1.0
 40
1.0
 40
1.0
 40
1.0
 10
9150.234177476286
 20
-3842.207870131054
 30
-0.000000000000002
 10
9150.234177476286
 20
-3842.207870131054
 30
-0.000000000000002
 10
9158.329707978908
 20
-3842.132562870564
 30
-0.000000000000002
 10
9158.329707978908
 20
-3842.132562870564
 30
-0.000000000000002
  0
SPLINE
  5
12C742
330
18
100
AcDbEntity
  8
姿図
100
AcDbSpline
210
0.0
220
0.0
230
1.0
 70
    24
 71
     3
 72
     8
 73
     4
 74
     0
 42
0.000000001
 43
0.0000000001
 40
1.0
 40
1.0
 40
1.0
 40
1.0
 40
2.0
 40
2.0
 40
2.0
 40
2.0
 10
9158.329707978908
 20
-3842.132562870564
 30
-0.000000000000002
 10
9158.329707978908
 20
-3842.132562870564
 30
-0.000000000000002
 10
9161.831495591667
 20
-3839.910998686125
 30
-0.000000000000002
 10
9161.831495591667
 20
-3839.910998686125
 30
-0.000000000000002
  0
SPLINE
  5
12C743
330
18
100
AcDbEntity
  8
姿図
100
AcDbSpline
210
0.0
220
0.0
230
1.0
 70
     8
 71
     3
 72
     8
 73
     4
 74
     0
 42
0.000000001
 43
0.0000000001
 40
2.0
 40
2.0
 40
2.0
 40
2.0
 40
3.0
 40
3.0
 40
3.0
 40
3.0
 10
9161.831495591667
 20
-3839.910998686125
 30
-0.000000000000002
 10
9161.831495591667
 20
-3839.910998686125
 30
-0.000000000000002
 10
9162.471607305826
 20
-3839.722730534902
 30
-0.000000000000002
 10
9162.848143608275
 20
-3839.722730534902
 30
-0.000000000000002
  0
SPLINE
  5
12C744
330
18
100
AcDbEntity
  8
姿図
100
AcDbSpline
210
0.0
220
0.0
230
1.0
 70
    24
 71
     3
 72
     8
 73
     4
 74
     0
 42
0.000000001
 43
0.0000000001
 40
0.0
 40
0.0
 40
0.0
 40
0.0
 40
1.0
 40
1.0
 40
1.0
 40
1.0
 10
9151.594341582746
 20
-3843.882087760868
 30
-0.0000000000000049
 10
9151.594341582746
 20
-3843.882087760868
 30
-0.0000000000000049
 10
9151.63199521299
 20
-3842.677171593036
 30
-0.0000000000000049
 10
9151.63199521299
 20
-3842.677171593036
 30
-0.0000000000000049
  0
SPLINE
  5
12C745
330
18
100
AcDbEntity
  8
姿図
100
AcDbSpline
210
0.0
220
0.0
230
1.0
 70
     8
 71
     3
 72
     8
 73
     4
 74
     0
 42
0.000000001
 43
0.0000000001
 40
1.0
 40
1.0
 40
1.0
 40
1.0
 40
2.0
 40
2.0
 40
2.0
 40
2.0
 10
9151.63199521299
 20
-3842.677171593036
 30
-0.0000000000000049
 10
9151.63199521299
 20
-3842.677171593036
 30
-0.0000000000000049
 10
9153.77825213694
 20
-3842.300635290589
 30
-0.0000000000000049
 10
9156.037469951625
 20
-3842.413596181324
 30
-0.0000000000000049
  0
SPLINE
  5
12C746
330
18
100
AcDbEntity
  8
姿図
100
AcDbSpline
210
0.0
220
0.0
230
1.0
 70
    24
 71
     3
 72
     8
 73
     4
 74
     0
 42
0.000000001
 43
0.0000000001
 40
2.0
 40
2.0
 40
2.0
 40
2.0
 40
3.0
 40
3.0
 40
3.0
 40
3.0
 10
9156.037469951625
 20
-3842.413596181324
 30
-0.0000000000000049
 10
9157.558775896756
 20
-3842.477143581197
 30
-0.000000000000002
 10
9157.558775896756
 20
-3842.477143581197
 30
-0.000000000000002
 10
9157.558775896756
 20
-3842.477143581197
 30
-0.000000000000002
  0
LINE
  5
12C747
330
18
100
AcDbEntity
  8
姿図
100
AcDbLine
 10
9148.953954047967
 20
-3839.722730534902
 30
-0.000000000000002
 11
9193.196969585533
 21
-3839.572116013923
 31
-0.000000000000002
  0
LINE
  5
12C748
330
18
100
AcDbEntity
  8
姿図
100
AcDbLine
 10
9169.517469579241
 20
-3866.47426590771
 30
-0.0000000000000049
 11
9170.458810335356
 21
-3870.653818864875
 31
-0.0000000000000049
  0
LINE
  5
12C749
330
18
100
AcDbEntity
  8
姿図
100
AcDbLine
 10
9170.308195814378
 20
-3864.328008983759
 30
-0.0000000000000049
 11
9171.02361478903
 21
-3867.829796596519
 31
-0.0000000000000049
  0
SPLINE
  5
12C74A
330
18
100
AcDbEntity
  8
姿図
100
AcDbSpline
210
0.0
220
0.0
230
1.0
 70
    24
 71
     3
 72
     8
 73
     4
 74
     0
 42
0.000000001
 43
0.0000000001
 40
0.0
 40
0.0
 40
0.0
 40
0.0
 40
1.0
 40
1.0
 40
1.0
 40
1.0
 10
9164.923726689383
 20
-3869.335941806309
 30
-0.0000000000000049
 10
9164.923726689383
 20
-3869.335941806309
 30
-0.0000000000000049
 10
9169.065626016303
 20
-3866.850802210157
 30
-0.0000000000000049
 10
9169.065626016303
 20
-3866.850802210157
 30
-0.0000000000000049
  0
SPLINE
  5
12C74B
330
18
100
AcDbEntity
  8
姿図
100
AcDbSpline
210
0.0
220
0.0
230
1.0
 70
     8
 71
     3
 72
    11
 73
     7
 74
     0
 42
0.000000001
 43
0.0000000001
 40
1.0
 40
1.0
 40
1.0
 40
1.0
 40
2.0
 40
2.0
 40
2.0
 40
3.0
 40
3.0
 40
3.0
 40
3.0
 10
9169.065626016303
 20
-3866.850802210157
 30
-0.0000000000000049
 10
9169.065626016303
 20
-3866.850802210157
 30
-0.0000000000000049
 10
9169.59277683973
 20
-3866.511919537954
 30
-0.0000000000000049
 10
9169.59277683973
 20
-3866.173036865752
 30
-0.0000000000000049
 10
9169.59277683973
 20
-3865.834154193549
 30
-0.0000000000000049
 10
9169.668084100218
 20
-3864.817506176941
 30
-0.0000000000000049
 10
9169.668084100218
 20
-3864.817506176941
 30
-0.0000000000000049
  0
SPLINE
  5
12C74C
330
18
100
AcDbEntity
  8
姿図
100
AcDbSpline
210
0.0
220
0.0
230
1.0
 70
     8
 71
     3
 72
    11
 73
     7
 74
     0
 42
0.000000001
 43
0.0000000001
 40
3.0
 40
3.0
 40
3.0
 40
3.0
 40
4.0
 40
4.0
 40
4.0
 40
5.0
 40
5.0
 40
5.0
 40
5.0
 10
9169.668084100218
 20
-3864.817506176941
 30
-0.0000000000000049
 10
9169.668084100218
 20
-3864.817506176941
 30
-0.0000000000000049
 10
9170.08227403291
 20
-3864.064433572046
 30
-0.0000000000000049
 10
9170.421156705113
 20
-3863.913819051068
 30
-0.0000000000000049
 10
9170.760039377315
 20
-3863.763204530088
 30
-0.0000000000000049
 10
9175.16551411595
 20
-3861.616947606139
 30
-0.0000000000000049
 10
9175.16551411595
 20
-3861.616947606139
 30
-0.0000000000000049
  0
SPLINE
  5
12C74D
330
18
100
AcDbEntity
  8
姿図
100
AcDbSpline
210
0.0
220
0.0
230
1.0
 70
     8
 71
     3
 72
     8
 73
     4
 74
     0
 42
0.000000001
 43
0.0000000001
 40
5.0
 40
5.0
 40
5.0
 40
5.0
 40
6.0
 40
6.0
 40
6.0
 40
6.0
 10
9175.16551411595
 20
-3861.616947606139
 30
-0.0000000000000049
 10
9175.16551411595
 20
-3861.616947606139
 30
-0.0000000000000049
 10
9176.257469393047
 20
-3861.391025824671
 30
-0.0000000000000049
 10
9176.257469393047
 20
-3861.805215757362
 30
-0.0000000000000049
  0
SPLINE
  5
12C74E
330
18
100
AcDbEntity
  8
姿図
100
AcDbSpline
210
0.0
220
0.0
230
1.0
 70
    24
 71
     3
 72
     8
 73
     4
 74
     0
 42
0.000000001
 43
0.0000000001
 40
0.0
 40
0.0
 40
0.0
 40
0.0
 40
1.0
 40
1.0
 40
1.0
 40
1.0
 10
9164.961380319626
 20
-3869.034712764352
 30
-0.0000000000000049
 10
9164.961380319626
 20
-3869.034712764352
 30
-0.0000000000000049
 10
9168.990318755814
 20
-3866.549573168199
 30
-0.0000000000000049
 10
9168.990318755814
 20
-3866.549573168199
 30
-0.0000000000000049
  0
SPLINE
  5
12C74F
330
18
100
AcDbEntity
  8
姿図
100
AcDbSpline
210
0.0
220
0.0
230
1.0
 70
     8
 71
     3
 72
    11
 73
     7
 74
     0
 42
0.000000001
 43
0.0000000001
 40
1.0
 40
1.0
 40
1.0
 40
1.0
 40
2.0
 40
2.0
 40
2.0
 40
3.0
 40
3.0
 40
3.0
 40
3.0
 10
9168.990318755814
 20
-3866.549573168199
 30
-0.0000000000000049
 10
9168.990318755814
 20
-3866.549573168199
 30
-0.0000000000000049
 10
9169.29154779777
 20
-3866.436612277465
 30
-0.0000000000000049
 10
9169.253894167525
 20
-3865.984768714528
 30
-0.0000000000000049
 10
9169.216240537282
 20
-3865.532925151591
 30
-0.0000000000000049
 10
9169.29154779777
 20
-3864.779852546696
 30
-0.0000000000000049
 10
9169.29154779777
 20
-3864.779852546696
 30
-0.0000000000000049
  0
SPLINE
  5
12C750
330
18
100
AcDbEntity
  8
姿図
100
AcDbSpline
210
0.0
220
0.0
230
1.0
 70
     8
 71
     3
 72
    11
 73
     7
 74
     0
 42
0.000000001
 43
0.0000000001
 40
3.0
 40
3.0
 40
3.0
 40
3.0
 40
4.0
 40
4.0
 40
4.0
 40
5.0
 40
5.0
 40
5.0
 40
5.0
 10
9169.29154779777
 20
-3864.779852546696
 30
-0.0000000000000049
 10
9169.29154779777
 20
-3864.779852546696
 30
-0.0000000000000049
 10
9169.894005881688
 20
-3863.951472681312
 30
-0.0000000000000049
 10
9170.195234923645
 20
-3863.800858160334
 30
-0.0000000000000049
 10
9170.496463965603
 20
-3863.650243639355
 30
-0.0000000000000049
 10
9174.939592334482
 20
-3861.391025824671
 30
-0.0000000000000049
 10
9174.939592334482
 20
-3861.391025824671
 30
-0.0000000000000049
  0
SPLINE
  5
12C751
330
18
100
AcDbEntity
  8
姿図
100
AcDbSpline
210
0.0
220
0.0
230
1.0
 70
     8
 71
     3
 72
    11
 73
     7
 74
     0
 42
0.000000001
 43
0.0000000001
 40
5.0
 40
5.0
 40
5.0
 40
5.0
 40
6.0
 40
6.0
 40
6.0
 40
7.0
 40
7.0
 40
7.0
 40
7.0
 10
9174.939592334482
 20
-3861.391025824671
 30
-0.0000000000000049
 10
9174.939592334482
 20
-3861.391025824671
 30
-0.0000000000000049
 10
9176.182162132558
 20
-3861.240411303691
 30
-0.0000000000000049
 10
9176.257469393047
 20
-3861.805215757362
 30
-0.0000000000000049
 10
9176.332776653537
 20
-3862.370020211034
 30
-0.0000000000000049
 10
9176.483391174515
 20
-3864.139740832536
 30
-0.0000000000000049
 10
9176.483391174515
 20
-3864.139740832536
 30
-0.0000000000000049
  0
SPLINE
  5
12C752
330
18
100
AcDbEntity
  8
姿図
100
AcDbSpline
210
0.0
220
0.0
230
1.0
 70
     8
 71
     3
 72
    11
 73
     7
 74
     0
 42
0.000000001
 43
0.0000000001
 40
7.0
 40
7.0
 40
7.0
 40
7.0
 40
8.0
 40
8.0
 40
8.0
 40
9.0
 40
9.0
 40
9.0
 40
9.0
 10
9176.483391174515
 20
-3864.139740832536
 30
-0.0000000000000049
 10
9176.483391174515
 20
-3864.139740832536
 30
-0.0000000000000049
 10
9176.74696658623
 20
-3864.666891655962
 30
-0.0000000000000049
 10
9175.918586720843
 20
-3865.194042479388
 30
-0.0000000000000049
 10
9175.09020685546
 20
-3865.721193302815
 30
-0.0000000000000049
 10
9175.09020685546
 20
-3865.721193302815
 30
-0.0000000000000049
 10
9175.09020685546
 20
-3865.721193302815
 30
-0.0000000000000049
  0
SPLINE
  5
12C753
330
18
100
AcDbEntity
  8
姿図
100
AcDbSpline
210
0.0
220
0.0
230
1.0
 70
    24
 71
     3
 72
     8
 73
     4
 74
     0
 42
0.000000001
 43
0.0000000001
 40
9.0
 40
9.0
 40
9.0
 40
9.0
 40
10.0
 40
10.0
 40
10.0
 40
10.0
 10
9175.09020685546
 20
-3865.721193302815
 30
-0.0000000000000049
 10
9175.09020685546
 20
-3865.721193302815
 30
-0.0000000000000049
 10
9171.550765612457
 20
-3867.641528445296
 30
-0.0000000000000049
 10
9171.550765612457
 20
-3867.641528445296
 30
-0.0000000000000049
  0
SPLINE
  5
12C754
330
18
100
AcDbEntity
  8
姿図
100
AcDbSpline
210
0.0
220
0.0
230
1.0
 70
     8
 71
     3
 72
    11
 73
     7
 74
     0
 42
0.000000001
 43
0.0000000001
 40
10.0
 40
10.0
 40
10.0
 40
10.0
 40
11.0
 40
11.0
 40
11.0
 40
12.0
 40
12.0
 40
12.0
 40
12.0
 10
9171.550765612457
 20
-3867.641528445296
 30
-0.0000000000000049
 10
9171.550765612457
 20
-3867.641528445296
 30
-0.0000000000000049
 10
9170.985961158785
 20
-3867.942757487254
 30
-0.0000000000000049
 10
9170.985961158785
 20
-3868.432254680435
 30
-0.0000000000000049
 10
9170.985961158785
 20
-3868.921751873617
 30
-0.0000000000000049
 10
9170.87300026805
 20
-3870.013707150714
 30
-0.0000000000000049
 10
9170.87300026805
 20
-3870.013707150714
 30
-0.0000000000000049
  0
SPLINE
  5
12C755
330
18
100
AcDbEntity
  8
姿図
100
AcDbSpline
210
0.0
220
0.0
230
1.0
 70
     8
 71
     3
 72
    11
 73
     7
 74
     0
 42
0.000000001
 43
0.0000000001
 40
12.0
 40
12.0
 40
12.0
 40
12.0
 40
13.0
 40
13.0
 40
13.0
 40
14.0
 40
14.0
 40
14.0
 40
14.0
 10
9170.87300026805
 20
-3870.013707150714
 30
-0.0000000000000049
 10
9170.87300026805
 20
-3870.013707150714
 30
-0.0000000000000049
 10
9170.948307528539
 20
-3870.61616523463
 30
-0.0000000000000049
 10
9170.157581293399
 20
-3871.068008797568
 30
-0.0000000000000049
 10
9169.366855058259
 20
-3871.519852360504
 30
-0.0000000000000049
 10
9164.4342294962
 20
-3874.682757301062
 30
-0.0000000000000049
 10
9164.4342294962
 20
-3874.682757301062
 30
-0.0000000000000049
  0
LINE
  5
12C756
330
18
100
AcDbEntity
  8
姿図
100
AcDbLine
 10
9156.188084472604
 20
-3843.693819609644
 30
-0.0000000000000049
 11
9156.225738102848
 21
-3844.446892214539
 31
-0.0000000000000049
  0
SPLINE
  5
12C757
330
18
100
AcDbEntity
  8
姿図
100
AcDbSpline
210
0.0
220
0.0
230
1.0
 70
    24
 71
     3
 72
     8
 73
     4
 74
     0
 42
0.000000001
 43
0.0000000001
 40
0.0
 40
0.0
 40
0.0
 40
0.0
 40
1.0
 40
1.0
 40
1.0
 40
1.0
 10
9160.405291060015
 20
-3844.597506735518
 30
-0.0000000000000049
 10
9160.405291060015
 20
-3844.597506735518
 30
-0.0000000000000049
 10
9160.329983799526
 20
-3843.806780500378
 30
-0.0000000000000049
 10
9160.329983799526
 20
-3843.806780500378
 30
-0.0000000000000049
  0
SPLINE
  5
12C758
330
18
100
AcDbEntity
  8
姿図
100
AcDbSpline
210
0.0
220
0.0
230
1.0
 70
     8
 71
     3
 72
     8
 73
     4
 74
     0
 42
0.000000001
 43
0.0000000001
 40
1.0
 40
1.0
 40
1.0
 40
1.0
 40
2.0
 40
2.0
 40
2.0
 40
2.0
 10
9160.329983799526
 20
-3843.806780500378
 30
-0.0000000000000049
 10
9160.329983799526
 20
-3843.806780500378
 30
-0.0000000000000049
 10
9160.668866471726
 20
-3843.543205088666
 30
-0.0000000000000049
 10
9159.35098941316
 20
-3843.505551458421
 30
-0.0000000000000049
  0
SPLINE
  5
12C759
330
18
100
AcDbEntity
  8
姿図
100
AcDbSpline
210
0.0
220
0.0
230
1.0
 70
    24
 71
     3
 72
     8
 73
     4
 74
     0
 42
0.000000001
 43
0.0000000001
 40
2.0
 40
2.0
 40
2.0
 40
2.0
 40
3.0
 40
3.0
 40
3.0
 40
3.0
 10
9159.35098941316
 20
-3843.505551458421
 30
-0.0000000000000049
 10
9159.35098941316
 20
-3843.505551458421
 30
-0.0000000000000049
 10
9151.365601496538
 20
-3843.890389430306
 30
-0.0000000000000049
 10
9151.365601496538
 20
-3843.890389430306
 30
-0.0000000000000049
  0
LINE
  5
12C75A
330
18
100
AcDbEntity
  8
姿図
100
AcDbLine
 10
9151.627439378839
 20
-3842.822958285841
 30
-0.0000000000000049
 11
9150.234177476286
 21
-3842.207870131054
 31
-0.000000000000002
  0
LINE
  5
12C75B
330
18
100
AcDbEntity
  8
姿図
100
AcDbLine
 10
9150.234177476286
 20
-3842.207870131054
 30
-0.000000000000002
 11
9148.878646787478
 21
-3839.94865231637
 31
-0.000000000000002
  0
LINE
  5
12C75C
330
18
100
AcDbEntity
  8
姿図
100
AcDbLine
 10
9148.878646787478
 20
-3839.94865231637
 30
-0.000000000000002
 11
9148.803339526989
 21
-3827.485300705362
 31
-0.000000000000002
  0
LINE
  5
12C75D
330
18
100
AcDbEntity
  8
姿図
100
AcDbLine
 10
9193.460544997244
 20
-3827.485300705362
 30
-0.000000000000002
 11
9193.309930476265
 21
-3839.685076904657
 31
-0.000000000000002
  0
LINE
  5
12C75E
330
18
100
AcDbEntity
  8
姿図
100
AcDbLine
 10
9193.309930476265
 20
-3839.685076904657
 30
-0.000000000000002
 11
9192.556857871372
 21
-3840.513456770041
 31
-0.000000000000002
  0
LINE
  5
12C75F
330
18
100
AcDbEntity
  8
姿図
100
AcDbLine
 10
9192.556857871372
 20
-3840.513456770041
 30
-0.000000000000002
 11
9161.869149221911
 21
-3840.551110400285
 31
-0.000000000000002
  0
LINE
  5
12C760
330
18
100
AcDbEntity
  8
姿図
100
AcDbLine
 10
9161.869149221911
 20
-3840.551110400285
 30
-0.000000000000002
 11
9158.088144069765
 21
-3842.598937515949
 31
-0.0000000000000049
  0
SPLINE
  5
12C761
330
18
100
AcDbEntity
  8
姿図
100
AcDbSpline
210
0.0
220
0.0
230
1.0
 70
    24
 71
     3
 72
     8
 73
     4
 74
     0
 42
0.000000001
 43
0.0000000001
 40
0.0
 40
0.0
 40
0.0
 40
0.0
 40
0.7095565745219787
 40
0.7095565745219787
 40
0.7095565745219787
 40
0.7095565745219787
 10
9157.807190573127
 20
-3845.237618449679
 30
-0.0000000000000049
 10
9157.807190573127
 20
-3845.237618449679
 30
-0.0000000000000049
 10
9155.285843968497
 20
-3845.408235889089
 30
-0.0000000000000049
 10
9153.821226879165
 20
-3845.507345316187
 30
-0.0000000000000049
  0
SPLINE
  5
12C762
330
18
100
AcDbEntity
  8
姿図
100
AcDbSpline
210
0.0
220
0.0
230
1.0
 70
    24
 71
     3
 72
     8
 73
     4
 74
     0
 42
0.000000001
 43
0.0000000001
 40
1.0
 40
1.0
 40
1.0
 40
1.0
 40
2.0
 40
2.0
 40
2.0
 40
2.0
 10
9148.463980273915
 20
-3871.457410343395
 30
0.0000000000000001
 10
9148.463980273915
 20
-3871.457410343395
 30
0.0000000000000001
 10
9148.049790341223
 20
-3860.19897490022
 30
0.0000000000000001
 10
9148.049790341223
 20
-3860.19897490022
 30
0.0000000000000001
  0
SPLINE
  5
12C763
330
18
100
AcDbEntity
  8
姿図
100
AcDbSpline
210
0.0
220
0.0
230
1.0
 70
    24
 71
     3
 72
     8
 73
     4
 74
     0
 42
0.000000001
 43
0.0000000001
 40
2.0
 40
2.0
 40
2.0
 40
2.0
 40
3.0
 40
3.0
 40
3.0
 40
3.0
 10
9148.049790341223
 20
-3860.19897490022
 30
0.0000000000000001
 10
9148.049790341223
 20
-3860.19897490022
 30
0.0000000000000001
 10
9149.644020685584
 20
-3845.778436785316
 30
0.0000000000000001
 10
9149.644020685584
 20
-3845.778436785316
 30
0.0000000000000001
  0
SPLINE
  5
12C764
330
18
100
AcDbEntity
  8
姿図
100
AcDbSpline
210
0.0
220
0.0
230
1.0
 70
     8
 71
     3
 72
     8
 73
     4
 74
     0
 42
0.000000001
 43
0.0000000001
 40
3.0
 40
3.0
 40
3.0
 40
3.0
 40
4.0
 40
4.0
 40
4.0
 40
4.0
 10
9149.644020685584
 20
-3845.778436785316
 30
0.0000000000000001
 10
9149.644020685584
 20
-3845.778436785316
 30
0.0000000000000001
 10
9149.689203292895
 20
-3845.369739564635
 30
0.0000000000000001
 10
9150.60982622776
 20
-3845.344497583334
 30
-0.0000000000000074
  0
SPLINE
  5
12C765
330
18
100
AcDbEntity
  8
姿図
100
AcDbSpline
210
0.0
220
0.0
230
1.0
 70
     8
 71
     3
 72
     8
 73
     4
 74
     0
 42
0.000000001
 43
0.0000000001
 40
4.0
 40
4.0
 40
4.0
 40
4.0
 40
5.0
 40
5.0
 40
5.0
 40
5.0
 10
9150.60982622776
 20
-3845.344497583334
 30
-0.0000000000000074
 10
9152.288413279211
 20
-3845.222829976783
 30
-0.0000000000000049
 10
9157.317693379944
 20
-3844.823428516986
 30
-0.0000000000000049
 10
9157.317693379944
 20
-3844.823428516986
 30
-0.0000000000000049
  0
SPLINE
  5
12C766
330
18
100
AcDbEntity
  8
姿図
100
AcDbSpline
210
0.0
220
0.0
230
1.0
 70
     8
 71
     3
 72
    11
 73
     7
 74
     0
 42
0.000000001
 43
0.0000000001
 40
5.0
 40
5.0
 40
5.0
 40
5.0
 40
6.0
 40
6.0
 40
6.0
 40
7.0
 40
7.0
 40
7.0
 40
7.0
 10
9157.317693379944
 20
-3844.823428516986
 30
-0.0000000000000049
 10
9157.317693379944
 20
-3844.823428516986
 30
-0.0000000000000049
 10
9157.731883312637
 20
-3844.748121256497
 30
-0.0000000000000049
 10
9157.882497833616
 20
-3845.463540231147
 30
-0.0000000000000049
 10
9158.033112354595
 20
-3846.178959205797
 30
-0.0000000000000049
 10
9160.857134622951
 20
-3857.700970060686
 30
-0.0000000000000049
 10
9160.857134622951
 20
-3857.700970060686
 30
-0.0000000000000049
  0
SPLINE
  5
12C767
330
18
100
AcDbEntity
  8
姿図
100
AcDbSpline
210
0.0
220
0.0
230
1.0
 70
     8
 71
     3
 72
    11
 73
     7
 74
     0
 42
0.000000001
 43
0.0000000001
 40
7.0
 40
7.0
 40
7.0
 40
7.0
 40
8.0
 40
8.0
 40
8.0
 40
9.0
 40
9.0
 40
9.0
 40
9.0
 10
9160.857134622951
 20
-3857.700970060686
 30
-0.0000000000000049
 10
9160.857134622951
 20
-3857.700970060686
 30
-0.0000000000000049
 10
9161.083056404419
 20
-3859.16946164023
 30
-0.0000000000000049
 10
9161.120710034662
 20
-3860.186109656838
 30
-0.0000000000000049
 10
9161.158363664908
 20
-3861.202757673446
 30
-0.0000000000000049
 10
9161.346631816134
 20
-3873.327226612251
 30
-0.0000000000000049
 10
9161.346631816134
 20
-3873.327226612251
 30
-0.0000000000000049
  0
SPLINE
  5
12C768
330
18
100
AcDbEntity
  8
姿図
100
AcDbSpline
210
0.0
220
0.0
230
1.0
 70
    24
 71
     3
 72
     8
 73
     4
 74
     0
 42
0.000000001
 43
0.0000000001
 40
9.0
 40
9.0
 40
9.0
 40
9.0
 40
10.0
 40
10.0
 40
10.0
 40
10.0
 10
9161.346631816134
 20
-3873.327226612251
 30
-0.0000000000000049
 10
9161.346631816134
 20
-3873.327226612251
 30
-0.0000000000000049
 10
9161.384285446376
 20
-3873.854377435678
 30
-0.0000000000000049
 10
9161.384285446376
 20
-3873.854377435678
 30
-0.0000000000000049
  0
SPLINE
  5
12C769
330
18
100
AcDbEntity
  8
姿図
100
AcDbSpline
210
0.0
220
0.0
230
1.0
 70
     8
 71
     3
 72
     8
 73
     4
 74
     0
 42
0.000000001
 43
0.0000000001
 40
10.0
 40
10.0
 40
10.0
 40
10.0
 40
11.0
 40
11.0
 40
11.0
 40
11.0
 10
9161.384285446376
 20
-3873.854377435678
 30
-0.0000000000000049
 10
9161.384285446376
 20
-3873.854377435678
 30
-0.0000000000000049
 10
9161.72316811858
 20
-3874.90867908253
 30
-0.0000000000000049
 10
9163.455235109837
 20
-3874.946332712775
 30
-0.0000000000000049
  0
SPLINE
  5
12C76A
330
18
100
AcDbEntity
  8
姿図
100
AcDbSpline
210
0.0
220
0.0
230
1.0
 70
    24
 71
     3
 72
     8
 73
     4
 74
     0
 42
0.000000001
 43
0.0000000001
 40
0.3703683580158987
 40
0.3703683580158987
 40
0.3703683580158987
 40
0.3703683580158987
 40
1.0
 40
1.0
 40
1.0
 40
1.0
 10
9151.313986962654
 20
-3862.848300571984
 30
0.0000000000000001
 10
9151.302929797002
 20
-3861.576726522248
 30
0.0000000000000001
 10
9151.28800254227
 20
-3859.860092228017
 30
0.0000000000000001
 10
9151.28800254227
 20
-3859.860092228017
 30
0.0000000000000001
  0
SPLINE
  5
12C76B
330
18
100
AcDbEntity
  8
姿図
100
AcDbSpline
210
0.0
220
0.0
230
1.0
 70
     8
 71
     3
 72
    11
 73
     7
 74
     0
 42
0.000000001
 43
0.0000000001
 40
1.0
 40
1.0
 40
1.0
 40
1.0
 40
2.0
 40
2.0
 40
2.0
 40
2.926031263162359
 40
2.926031263162359
 40
2.926031263162359
 40
2.926031263162359
 10
9151.28800254227
 20
-3859.860092228017
 30
0.0000000000000001
 10
9151.28800254227
 20
-3859.860092228017
 30
0.0000000000000001
 10
9151.400963433003
 20
-3858.579868799696
 30
0.0000000000000001
 10
9151.551577953984
 20
-3857.525567152843
 30
0.0000000000000001
 10
9151.691051709096
 20
-3856.549250867054
 30
0.0000000000000001
 10
9153.383185421382
 20
-3847.084258195284
 30
-0.0000000000000042
 10
9153.632752294816
 20
-3845.689372882637
 30
-0.0000000000000048
  0
SPLINE
  5
12C76C
330
18
100
AcDbEntity
  8
姿図
100
AcDbSpline
210
0.0
220
0.0
230
1.0
 70
    24
 71
     3
 72
     8
 73
     4
 74
     0
 42
0.000000001
 43
0.0000000001
 40
0.0
 40
0.0
 40
0.0
 40
0.0
 40
1.0
 40
1.0
 40
1.0
 40
1.0
 10
9157.882497833616
 20
-3844.522199475029
 30
-0.0000000000000049
 10
9157.882497833616
 20
-3844.522199475029
 30
-0.0000000000000049
 10
9161.911436269804
 20
-3844.672813996007
 30
-0.0000000000000049
 10
9161.911436269804
 20
-3844.672813996007
 30
-0.0000000000000049
  0
SPLINE
  5
12C76D
330
18
100
AcDbEntity
  8
姿図
100
AcDbSpline
210
0.0
220
0.0
230
1.0
 70
     8
 71
     3
 72
     8
 73
     4
 74
     0
 42
0.000000001
 43
0.0000000001
 40
1.0
 40
1.0
 40
1.0
 40
1.0
 40
2.0
 40
2.0
 40
2.0
 40
2.0
 10
9161.911436269804
 20
-3844.672813996007
 30
-0.0000000000000049
 10
9162.36327983274
 20
-3844.748121256497
 30
-0.0000000000000049
 10
9162.551547983963
 20
-3845.727115642861
 30
-0.0000000000000049
 10
9162.551547983963
 20
-3845.727115642861
 30
-0.0000000000000049
  0
SPLINE
  5
12C76E
330
18
100
AcDbEntity
  8
姿図
100
AcDbSpline
210
0.0
220
0.0
230
1.0
 70
     8
 71
     3
 72
    11
 73
     7
 74
     0
 42
0.000000001
 43
0.0000000001
 40
2.0
 40
2.0
 40
2.0
 40
2.0
 40
3.0
 40
3.0
 40
3.0
 40
4.0
 40
4.0
 40
4.0
 40
4.0
 10
9162.551547983963
 20
-3845.727115642861
 30
-0.0000000000000049
 10
9162.551547983963
 20
-3845.727115642861
 30
-0.0000000000000049
 10
9164.208307714733
 20
-3855.404098615757
 30
-0.0000000000000049
 10
9164.471883126445
 20
-3856.721975674322
 30
-0.0000000000000049
 10
9164.735458538158
 20
-3858.039852732889
 30
-0.0000000000000049
 10
9164.923726689383
 20
-3860.412031438307
 30
-0.0000000000000049
 10
9164.923726689383
 20
-3860.412031438307
 30
-0.0000000000000049
  0
SPLINE
  5
12C76F
330
18
100
AcDbEntity
  8
姿図
100
AcDbSpline
210
0.0
220
0.0
230
1.0
 70
    24
 71
     3
 72
     8
 73
     4
 74
     0
 42
0.000000001
 43
0.0000000001
 40
4.0
 40
4.0
 40
4.0
 40
4.0
 40
5.0
 40
5.0
 40
5.0
 40
5.0
 10
9164.923726689383
 20
-3860.412031438307
 30
-0.0000000000000049
 10
9164.923726689383
 20
-3860.412031438307
 30
-0.0000000000000049
 10
9164.961380319626
 20
-3873.816723805433
 30
-0.0000000000000049
 10
9164.961380319626
 20
-3873.816723805433
 30
-0.0000000000000049
  0
SPLINE
  5
12C770
330
18
100
AcDbEntity
  8
姿図
100
AcDbSpline
210
0.0
220
0.0
230
1.0
 70
     8
 71
     3
 72
    11
 73
     7
 74
     0
 42
0.000000001
 43
0.0000000001
 40
5.0
 40
5.0
 40
5.0
 40
5.0
 40
6.0
 40
6.0
 40
6.0
 40
7.0
 40
7.0
 40
7.0
 40
7.0
 10
9164.961380319626
 20
-3873.816723805433
 30
-0.0000000000000049
 10
9164.961380319626
 20
-3873.816723805433
 30
-0.0000000000000049
 10
9164.923726689383
 20
-3874.682757301062
 30
-0.0000000000000049
 10
9163.681156891305
 20
-3874.871025452286
 30
-0.0000000000000049
 10
9162.43858709323
 20
-3875.059293603509
 30
-0.0000000000000049
 10
9161.79847537907
 20
-3873.929684696167
 30
-0.0000000000000049
 10
9161.79847537907
 20
-3873.929684696167
 30
-0.0000000000000049
  0
SPLINE
  5
12C771
330
18
100
AcDbEntity
  8
姿図
100
AcDbSpline
210
0.0
220
0.0
230
1.0
 70
    24
 71
     3
 72
     8
 73
     4
 74
     0
 42
0.000000001
 43
0.0000000001
 40
7.0
 40
7.0
 40
7.0
 40
7.0
 40
8.0
 40
8.0
 40
8.0
 40
8.0
 10
9161.79847537907
 20
-3873.929684696167
 30
-0.0000000000000049
 10
9161.79847537907
 20
-3873.929684696167
 30
-0.0000000000000049
 10
9161.534899967355
 20
-3861.089796782712
 30
-0.0000000000000049
 10
9161.534899967355
 20
-3861.089796782712
 30
-0.0000000000000049
  0
SPLINE
  5
12C772
330
18
100
AcDbEntity
  8
姿図
100
AcDbSpline
210
0.0
220
0.0
230
1.0
 70
     8
 71
     3
 72
     8
 73
     4
 74
     0
 42
0.000000001
 43
0.0000000001
 40
8.0
 40
8.0
 40
8.0
 40
8.0
 40
9.0
 40
9.0
 40
9.0
 40
9.0
 10
9161.534899967355
 20
-3861.089796782712
 30
-0.0000000000000049
 10
9161.534899967355
 20
-3859.771919724147
 30
-0.0000000000000049
 10
9161.27132455564
 20
-3857.851584581665
 30
-0.0000000000000049
 10
9161.27132455564
 20
-3857.851584581665
 30
-0.0000000000000049
  0
SPLINE
  5
12C773
330
18
100
AcDbEntity
  8
姿図
100
AcDbSpline
210
0.0
220
0.0
230
1.0
 70
    24
 71
     3
 72
     8
 73
     4
 74
     0
 42
0.000000001
 43
0.0000000001
 40
9.0
 40
9.0
 40
9.0
 40
9.0
 40
10.0
 40
10.0
 40
10.0
 40
10.0
 10
9161.27132455564
 20
-3857.851584581665
 30
-0.0000000000000049
 10
9161.27132455564
 20
-3857.851584581665
 30
-0.0000000000000049
 10
9158.183726875573
 20
-3845.275272079924
 30
-0.0000000000000049
 10
9158.183726875573
 20
-3845.275272079924
 30
-0.0000000000000049
  0
SPLINE
  5
12C774
330
18
100
AcDbEntity
  8
姿図
100
AcDbSpline
210
0.0
220
0.0
230
1.0
 70
     8
 71
     3
 72
     8
 73
     4
 74
     0
 42
0.000000001
 43
0.0000000001
 40
10.0
 40
10.0
 40
10.0
 40
10.0
 40
11.0
 40
11.0
 40
11.0
 40
11.0
 10
9158.183726875573
 20
-3845.275272079924
 30
-0.0000000000000049
 10
9158.033112354595
 20
-3844.333931323805
 30
-0.0000000000000049
 10
9157.543615161412
 20
-3844.484545844783
 30
-0.0000000000000049
 10
9157.543615161412
 20
-3844.484545844783
 30
-0.0000000000000049
  0
SPLINE
  5
12C775
330
18
100
AcDbEntity
  8
姿図
100
AcDbSpline
210
0.0
220
0.0
230
1.0
 70
    24
 71
     3
 72
     8
 73
     4
 74
     0
 42
0.000000001
 43
0.0000000001
 40
11.0
 40
11.0
 40
11.0
 40
11.0
 40
12.0
 40
12.0
 40
12.0
 40
12.0
 10
9157.543615161412
 20
-3844.484545844783
 30
-0.0000000000000049
 10
9157.543615161412
 20
-3844.484545844783
 30
-0.0000000000000049
 10
9150.17706392738
 20
-3845.029030066429
 30
-0.0000000000000049
 10
9150.17706392738
 20
-3845.029030066429
 30
-0.0000000000000049
  0
SPLINE
  5
12C776
330
18
100
AcDbEntity
  8
姿図
100
AcDbSpline
210
0.0
220
0.0
230
1.0
 70
     8
 71
     3
 72
     8
 73
     4
 74
     0
 42
0.000000001
 43
0.0000000001
 40
12.0
 40
12.0
 40
12.0
 40
12.0
 40
13.0
 40
13.0
 40
13.0
 40
13.0
 10
9150.17706392738
 20
-3845.029030066429
 30
-0.0000000000000049
 10
9149.39518904777
 20
-3845.108510762364
 30
-0.0000000000000049
 10
9149.405545453948
 20
-3845.775614701246
 30
0.0000000000000001
 10
9149.405545453948
 20
-3845.775614701246
 30
0.0000000000000001
  0
SPLINE
  5
12C777
330
18
100
AcDbEntity
  8
姿図
100
AcDbSpline
210
0.0
220
0.0
230
1.0
 70
    24
 71
     3
 72
     8
 73
     4
 74
     0
 42
0.000000001
 43
0.0000000001
 40
13.08533307708275
 40
13.08533307708275
 40
13.08533307708275
 40
13.08533307708275
 40
14.0
 40
14.0
 40
14.0
 40
14.0
 10
9149.41892618452
 20
-3845.655188126102
 30
0.0000000000000001
 10
9149.252262147445
 20
-3847.155164459777
 30
0.0000000000000001
 10
9148.275712122691
 20
-3855.944114682564
 30
0.0000000000000001
 10
9148.275712122691
 20
-3855.944114682564
 30
0.0000000000000001
  0
SPLINE
  5
12C778
330
18
100
AcDbEntity
  8
姿図
100
AcDbSpline
210
0.0
220
0.0
230
1.0
 70
     8
 71
     3
 72
     8
 73
     4
 74
     0
 42
0.000000001
 43
0.0000000001
 40
14.0
 40
14.0
 40
14.0
 40
14.0
 40
15.0
 40
15.0
 40
15.0
 40
15.0
 10
9148.275712122691
 20
-3855.944114682564
 30
0.0000000000000001
 10
9148.125097601713
 20
-3857.525567152843
 30
0.0000000000000001
 10
9147.899175820243
 20
-3860.236628530464
 30
0.0000000000000001
 10
9147.899175820243
 20
-3860.236628530464
 30
0.0000000000000001
  0
SPLINE
  5
12C779
330
18
100
AcDbEntity
  8
姿図
100
AcDbSpline
210
0.0
220
0.0
230
1.0
 70
    24
 71
     3
 72
     8
 73
     4
 74
     0
 42
0.000000001
 43
0.0000000001
 40
15.0
 40
15.0
 40
15.0
 40
15.0
 40
16.0
 40
16.0
 40
16.0
 40
16.0
 10
9147.899175820243
 20
-3860.236628530464
 30
0.0000000000000001
 10
9147.899175820243
 20
-3860.236628530464
 30
0.0000000000000001
 10
9148.272320053242
 20
-3871.465867406593
 30
0.0000000000000001
 10
9148.272320053242
 20
-3871.465867406593
 30
0.0000000000000001
  0
LINE
  5
12C77A
330
18
100
AcDbEntity
  8
姿図
100
AcDbLine
 10
9153.5832232734
 20
-3842.176716216662
 30
-0.000000000000002
 11
9153.54655865888
 21
-3841.186771624699
 31
-0.000000000000002
  0
LINE
  5
12C77B
330
18
100
AcDbEntity
  8
姿図
100
AcDbLine
 10
9153.54655865888
 20
-3841.186771624699
 30
-0.000000000000002
 11
9154.609832479877
 21
-3841.150107010182
 31
-0.000000000000002
  0
LINE
  5
12C77C
330
18
100
AcDbEntity
  8
姿図
100
AcDbLine
 10
9154.609832479877
 20
-3841.150107010182
 30
-0.000000000000002
 11
9154.573167865361
 21
-3842.140051602145
 31
-0.000000000000002
  0
SPLINE
  5
12C77D
330
18
100
AcDbEntity
  8
姿図
100
AcDbSpline
210
0.0
220
0.0
230
1.0
 70
    24
 71
     3
 72
     8
 73
     4
 74
     0
 42
0.000000001
 43
0.0000000001
 40
3.0
 40
3.0
 40
3.0
 40
3.0
 40
4.0
 40
4.0
 40
4.0
 40
4.0
 10
9157.558775896756
 20
-3842.477143581197
 30
-0.000000000000002
 10
9157.558775896756
 20
-3842.477143581197
 30
-0.000000000000002
 10
9157.606982488624
 20
-3843.591414361849
 30
-0.000000000000002
 10
9157.606982488624
 20
-3843.591414361849
 30
-0.000000000000002
  0
LINE
  5
12C77E
330
18
100
AcDbEntity
  8
姿図
100
AcDbLine
 10
9158.088144069765
 20
-3842.598937515949
 30
-0.0000000000000049
 11
9158.329707978908
 21
-3842.132562870564
 31
-0.000000000000002
  0
LINE
  5
12C77F
330
18
100
AcDbEntity
  8
姿図
100
AcDbLine
 10
9158.088144069765
 20
-3842.598937515949
 30
-0.0000000000000049
 11
9157.564691190142
 21
-3842.613872570381
 31
-0.0000000000000038
  0
ELLIPSE
  5
12C780
330
18
100
AcDbEntity
  8
姿図
100
AcDbEllipse
 10
9163.591931717798
 20
-3872.944118230298
 30
-0.0000000000000049
 11
0.01775942265674156
 21
-0.8361250763714282
 31
0.0
210
0.0
220
0.0
230
1.0
 40
0.8831958179658853
 41
0.0
 42
6.283185307179586
  0
ELLIPSE
  5
12C781
330
18
100
AcDbEntity
  8
姿図
100
AcDbEllipse
 10
9163.50814734478
 20
-3872.955862364636
 30
-0.0000000000000049
 11
0.02105350911726618
 21
-0.9779140153244454
 31
0.0
210
0.0
220
0.0
230
1.0
 40
0.8835743841866799
 41
0.0
 42
6.283185307179586
  0
ELLIPSE
  5
12C782
330
18
100
AcDbEntity
  8
姿図
100
AcDbEllipse
 10
9163.409611193267
 20
-3872.928936788349
 30
-0.0000000000000049
 11
0.02391793212641805
 21
-1.099938435514315
 31
0.0
210
0.0
220
0.0
230
1.0
 40
0.8832045568248487
 41
0.0
 42
6.283185307179586
  0
ELLIPSE
  5
12C783
330
18
100
AcDbEntity
  8
姿図
100
AcDbEllipse
 10
9175.299810464418
 20
-3863.719789058353
 30
-0.0000000000000049
 11
0.08621913257547106
 21
-0.8318284418577007
 31
0.0
210
0.0
220
0.0
230
1.0
 40
0.8833402404600681
 41
0.0
 42
6.283185307179586
  0
ELLIPSE
  5
12C784
330
18
100
AcDbEntity
  8
姿図
100
AcDbEllipse
 10
9175.217315081754
 20
-3863.738407807913
 30
-0.0000000000000049
 11
0.1011141322230607
 21
-0.9730444962088867
 31
0.0
210
0.0
220
0.0
230
1.0
 40
0.883461432307781
 41
0.0
 42
6.283185307179586
  0
ELLIPSE
  5
12C785
330
18
100
AcDbEntity
  8
姿図
100
AcDbEllipse
 10
9175.116773834132
 20
-3863.719789058353
 30
-0.0000000000000049
 11
0.1140040357642442
 21
-1.094209589496011
 31
0.0
210
0.0
220
0.0
230
1.0
 40
0.8832587106904691
 41
0.0
 42
6.283185307179586
  0
SPLINE
  5
12C786
330
18
100
AcDbEntity
  8
姿図
100
AcDbSpline
210
0.0
220
0.0
230
1.0
 70
     8
 71
     3
 72
     8
 73
     4
 74
     0
 42
0.000000001
 43
0.0000000001
 40
49.0
 40
49.0
 40
49.0
 40
49.0
 40
49.66101424066932
 40
49.66101424066932
 40
49.66101424066932
 40
49.66101424066932
 10
9159.055315856322
 20
-3827.303311567969
 30
-0.000000000000002
 10
9159.055315856322
 20
-3827.303311567969
 30
-0.000000000000002
 10
9159.812775914823
 20
-3827.364515515821
 30
-0.000000000000002
 10
9160.48409331733
 20
-3827.497603975321
 30
-0.000000000000002
  0
SPLINE
  5
12C787
330
18
100
AcDbEntity
  8
姿図
100
AcDbSpline
210
0.0
220
0.0
230
1.0
 70
     8
 71
     3
 72
    14
 73
    10
 74
     0
 42
0.000000001
 43
0.0000000001
 40
46.0
 40
46.0
 40
46.0
 40
46.0
 40
47.0
 40
47.0
 40
47.0
 40
48.0
 40
48.0
 40
48.0
 40
49.0
 40
49.0
 40
49.0
 40
49.0
 10
9154.039542900688
 20
-3823.157678849177
 30
-0.000000000000002
 10
9154.039542900688
 20
-3823.157678849177
 30
-0.000000000000002
 10
9154.083806312605
 20
-3822.058377403799
 30
-0.000000000000002
 10
9156.407355290154
 20
-3822.058377403799
 30
-0.000000000000002
 10
9158.730904267704
 20
-3822.058377403799
 30
-0.000000000000002
 10
9159.055315856322
 20
-3822.88425422872
 30
-0.000000000000002
 10
9159.055315856322
 20
-3823.105571288308
 30
-0.000000000000002
 10
9159.055315856322
 20
-3823.334172200495
 30
-0.000000000000002
 10
9159.055315856322
 20
-3827.303311567969
 30
-0.000000000000002
 10
9159.055315856322
 20
-3827.303311567969
 30
-0.000000000000002
  0
SPLINE
  5
12C788
330
18
100
AcDbEntity
  8
姿図
100
AcDbSpline
210
0.0
220
0.0
230
1.0
 70
     8
 71
     3
 72
     8
 73
     4
 74
     0
 42
0.000000001
 43
0.0000000001
 40
41.0
 40
41.0
 40
41.0
 40
41.0
 40
42.0
 40
42.0
 40
42.0
 40
42.0
 10
9154.069972292813
 20
-3827.485300705362
 30
-0.000000000000002
 10
9154.082623477558
 20
-3826.985623535607
 30
-0.000000000000002
 10
9154.083806312605
 20
-3826.624232387656
 30
-0.000000000000002
 10
9154.083806312605
 20
-3826.624232387656
 30
-0.000000000000002
  0
SPLINE
  5
12C789
330
18
100
AcDbEntity
  8
姿図
100
AcDbSpline
210
0.0
220
0.0
230
1.0
 70
    24
 71
     3
 72
     8
 73
     4
 74
     0
 42
0.000000001
 43
0.0000000001
 40
42.0
 40
42.0
 40
42.0
 40
42.0
 40
43.0
 40
43.0
 40
43.0
 40
43.0
 10
9154.083806312605
 20
-3826.624232387656
 30
-0.000000000000002
 10
9154.083806312605
 20
-3826.624232387656
 30
-0.000000000000002
 10
9153.759394723987
 20
-3826.528421711228
 30
-0.000000000000002
 10
9153.759394723987
 20
-3826.528421711228
 30
-0.000000000000002
  0
SPLINE
  5
12C78A
330
18
100
AcDbEntity
  8
姿図
100
AcDbSpline
210
0.0
220
0.0
230
1.0
 70
    24
 71
     3
 72
     8
 73
     4
 74
     0
 42
0.000000001
 43
0.0000000001
 40
43.0
 40
43.0
 40
43.0
 40
43.0
 40
44.0
 40
44.0
 40
44.0
 40
44.0
 10
9153.759394723987
 20
-3826.528421711228
 30
-0.000000000000002
 10
9153.759394723987
 20
-3826.528421711228
 30
-0.000000000000002
 10
9153.759394723987
 20
-3825.621301915078
 30
-0.000000000000002
 10
9153.759394723987
 20
-3825.621301915078
 30
-0.000000000000002
  0
SPLINE
  5
12C78B
330
18
100
AcDbEntity
  8
姿図
100
AcDbSpline
210
0.0
220
0.0
230
1.0
 70
    24
 71
     3
 72
     8
 73
     4
 74
     0
 42
0.000000001
 43
0.0000000001
 40
44.0
 40
44.0
 40
44.0
 40
44.0
 40
45.0
 40
45.0
 40
45.0
 40
45.0
 10
9153.759394723987
 20
-3825.621301915078
 30
-0.000000000000002
 10
9153.759394723987
 20
-3825.621301915078
 30
-0.000000000000002
 10
9154.128069724527
 20
-3825.569754650562
 30
-0.000000000000002
 10
9154.128069724527
 20
-3825.569754650562
 30
-0.000000000000002
  0
SPLINE
  5
12C78C
330
18
100
AcDbEntity
  8
姿図
100
AcDbSpline
210
0.0
220
0.0
230
1.0
 70
    24
 71
     3
 72
     8
 73
     4
 74
     0
 42
0.000000001
 43
0.0000000001
 40
45.0
 40
45.0
 40
45.0
 40
45.0
 40
46.0
 40
46.0
 40
46.0
 40
46.0
 10
9154.128069724527
 20
-3825.569754650562
 30
-0.000000000000002
 10
9154.128069724527
 20
-3825.569754650562
 30
-0.000000000000002
 10
9154.039542900688
 20
-3823.157678849177
 30
-0.000000000000002
 10
9154.039542900688
 20
-3823.157678849177
 30
-0.000000000000002
  0
ARC
  5
12C78D
330
18
100
AcDbEntity
  8
姿図
100
AcDbCircle
 10
9156.453077919268
 20
-3837.644756634156
 30
-0.000000000000002
 40
12.32150122907895
100
AcDbArc
 50
81.46547474947916
 51
102.6277850518623
  0
ARC
  5
12C78E
330
18
100
AcDbEntity
  8
姿図
100
AcDbCircle
 10
9156.453077919268
 20
-3838.551876430042
 30
-0.000000000000002
 40
12.32150122907895
100
AcDbArc
 50
81.46547474947916
 51
102.6277850518623
  0
LINE
  5
12C78F
330
18
100
AcDbEntity
  8
姿図
100
AcDbLine
 10
9154.469946475117
 20
-3826.727698332543
 30
-0.000000000000002
 11
9158.61128454407
 21
-3826.727698332543
 31
-0.000000000000002
  0
LINE
  5
12C790
330
18
100
AcDbEntity
  8
姿図
100
AcDbLine
 10
9154.083806312605
 20
-3826.624232387825
 30
-0.000000000000002
 11
9154.469946475117
 21
-3826.727698332543
 31
-0.000000000000002
  0
LINE
  5
12C791
330
18
100
AcDbEntity
  8
姿図
100
AcDbLine
 10
9158.28165455693
 20
-3825.459696108304
 30
-0.000000000000002
 11
9158.28165455693
 21
-3826.366815904205
 31
-0.000000000000002
  0
LINE
  5
12C792
330
18
100
AcDbEntity
  8
姿図
100
AcDbLine
 10
9155.144901566699
 20
-3824.122419075479
 30
-0.000000000000002
 11
9155.144901566699
 21
-3824.605519189188
 31
-0.000000000000002
  0
LINE
  5
12C793
330
18
100
AcDbEntity
  8
姿図
100
AcDbLine
 10
9155.144901566699
 20
-3824.605519189188
 30
-0.000000000000002
 11
9157.256828959646
 21
-3824.605519189188
 31
-0.000000000000002
  0
LINE
  5
12C794
330
18
100
AcDbEntity
  8
姿図
100
AcDbLine
 10
9157.256828959646
 20
-3824.605519189188
 30
-0.000000000000002
 11
9157.256828959646
 21
-3824.090912600678
 31
-0.000000000000002
  0
LINE
  5
12C795
330
18
100
AcDbEntity
  8
姿図
100
AcDbLine
 10
9157.256828959646
 20
-3824.090912600678
 30
-0.000000000000002
 11
9155.144901566699
 21
-3824.090912600678
 31
-0.000000000000002
  0
LINE
  5
12C796
330
18
100
AcDbEntity
  8
姿図
100
AcDbLine
 10
9155.144901566699
 20
-3824.090912600678
 30
-0.000000000000002
 11
9155.561701343948
 21
-3823.850273137086
 31
-0.000000000000002
  0
LINE
  5
12C797
330
18
100
AcDbEntity
  8
姿図
100
AcDbLine
 10
9155.561701343948
 20
-3823.850273137086
 30
-0.000000000000002
 11
9157.597093625556
 21
-3823.850273137086
 31
-0.000000000000002
  0
LINE
  5
12C798
330
18
100
AcDbEntity
  8
姿図
100
AcDbLine
 10
9157.597093625556
 20
-3823.850273137086
 30
-0.000000000000002
 11
9157.597093625556
 21
-3824.785516712474
 31
-0.000000000000002
  0
LINE
  5
12C799
330
18
100
AcDbEntity
  8
姿図
100
AcDbLine
 10
9157.597093625556
 20
-3824.785516712474
 30
-0.000000000000002
 11
9155.568746831414
 21
-3824.785516712474
 31
-0.000000000000002
  0
LINE
  5
12C79A
330
18
100
AcDbEntity
  8
姿図
100
AcDbLine
 10
9155.568746831414
 20
-3824.785516712474
 30
-0.000000000000002
 11
9155.144901566699
 21
-3824.605519189188
 31
-0.000000000000002
  0
LINE
  5
12C79B
330
18
100
AcDbEntity
  8
姿図
100
AcDbLine
 10
9157.256828959646
 20
-3824.090912600678
 30
-0.000000000000002
 11
9157.597093625556
 21
-3823.850273137086
 31
-0.000000000000002
  0
LINE
  5
12C79C
330
18
100
AcDbEntity
  8
姿図
100
AcDbLine
 10
9157.256828959646
 20
-3824.605519189188
 30
-0.000000000000002
 11
9157.597093625556
 21
-3824.785516712474
 31
-0.000000000000002
  0
LINE
  5
12C79D
330
18
100
AcDbEntity
  8
姿図
100
AcDbLine
 10
9158.61128454407
 20
-3826.727698332543
 30
-0.000000000000002
 11
9158.28165455693
 21
-3826.366815904205
 31
-0.000000000000002
  0
LINE
  5
12C79E
330
18
100
AcDbEntity
  8
姿図
100
AcDbLine
 10
9158.28165455693
 20
-3825.459696108304
 30
-0.000000000000002
 11
9158.616363001296
 21
-3825.652940118769
 31
-0.000000000000002
  0
LINE
  5
12C79F
330
18
100
AcDbEntity
  8
姿図
100
AcDbLine
 10
9158.616363001296
 20
-3825.652940118769
 30
-0.000000000000002
 11
9158.61128454407
 21
-3826.727698332543
 31
-0.000000000000002
  0
LINE
  5
12C7A0
330
18
100
AcDbEntity
  8
姿図
100
AcDbLine
 10
9170.48532974727
 20
-3863.239907322563
 30
-0.0000000000000049
 11
9173.286314847166
 21
-3862.173644693886
 31
-0.0000000000000049
  0
SPLINE
  5
12C7A1
330
18
100
AcDbEntity
  8
姿図
100
AcDbSpline
210
0.0
220
0.0
230
1.0
 70
    24
 71
     3
 72
     8
 73
     4
 74
     0
 42
0.000000001
 43
0.0000000001
 40
0.0
 40
0.0
 40
0.0
 40
0.0
 40
1.0
 40
1.0
 40
1.0
 40
1.0
 10
9177.006931571752
 20
-3860.048084230012
 30
-0.0000000000000049
 10
9177.006931571752
 20
-3860.048084230012
 30
-0.0000000000000049
 10
9178.18834942476
 20
-3858.888831815148
 30
-0.0000000000000049
 10
9178.18834942476
 20
-3858.888831815148
 30
-0.0000000000000049
  0
SPLINE
  5
12C7A2
330
18
100
AcDbEntity
  8
姿図
100
AcDbSpline
210
0.0
220
0.0
230
1.0
 70
     8
 71
     3
 72
     8
 73
     4
 74
     0
 42
0.000000001
 43
0.0000000001
 40
1.0
 40
1.0
 40
1.0
 40
1.0
 40
2.0
 40
2.0
 40
2.0
 40
2.0
 10
9178.18834942476
 20
-3858.888831815148
 30
-0.0000000000000049
 10
9178.18834942476
 20
-3858.888831815148
 30
-0.0000000000000049
 10
9178.237113388674
 20
-3858.794628703042
 30
-0.0000000000000049
 10
9178.212731406717
 20
-3858.723699300986
 30
-0.0000000000000049
  0
SPLINE
  5
12C7A3
330
18
100
AcDbEntity
  8
姿図
100
AcDbSpline
210
0.0
220
0.0
230
1.0
 70
     8
 71
     3
 72
     8
 73
     4
 74
     0
 42
0.000000001
 43
0.0000000001
 40
1.471433441559662
 40
1.471433441559662
 40
1.471433441559662
 40
1.471433441559662
 40
1.773254205883107
 40
1.773254205883107
 40
1.773254205883107
 40
1.773254205883107
 10
9169.291146292315
 20
-3853.731748620601
 30
-0.0000000000000038
 10
9170.34892163706
 20
-3852.943896713156
 30
-0.0000000000000032
 10
9171.523936653171
 20
-3852.069515681539
 30
-0.0000000000000021
 10
9172.532747843601
 20
-3851.320735585606
 30
-0.0000000000000003
  0
SPLINE
  5
12C7A4
330
18
100
AcDbEntity
  8
姿図
100
AcDbSpline
210
0.0
220
0.0
230
1.0
 70
     8
 71
     3
 72
     8
 73
     4
 74
     0
 42
0.000000001
 43
0.0000000001
 40
0.0
 40
0.0
 40
0.0
 40
0.0
 40
1.0
 40
1.0
 40
1.0
 40
1.0
 10
9180.222028374355
 20
-3861.466672271146
 30
-0.0000000000000049
 10
9180.222028374355
 20
-3861.466672271146
 30
-0.0000000000000049
 10
9180.433708308617
 20
-3861.750389879373
 30
-0.0000000000000049
 10
9180.31623148646
 20
-3861.892248683487
 30
-0.0000000000000049
  0
SPLINE
  5
12C7A5
330
18
100
AcDbEntity
  8
姿図
100
AcDbSpline
210
0.0
220
0.0
230
1.0
 70
    24
 71
     3
 72
     8
 73
     4
 74
     0
 42
0.000000001
 43
0.0000000001
 40
1.0
 40
1.0
 40
1.0
 40
1.0
 40
1.888883729132651
 40
1.888883729132651
 40
1.888883729132651
 40
1.888883729132651
 10
9180.31623148646
 20
-3861.892248683487
 30
-0.0000000000000049
 10
9180.31623148646
 20
-3861.892248683487
 30
-0.0000000000000049
 10
9176.206752234539
 20
-3865.161092929688
 30
-0.0000000000000049
 10
9175.29349221518
 20
-3865.887536495055
 30
-0.0000000000000049
  0
SPLINE
  5
12C7A6
330
18
100
AcDbEntity
  8
姿図
100
AcDbSpline
210
0.0
220
0.0
230
1.0
 70
     8
 71
     3
 72
    11
 73
     7
 74
     0
 42
0.000000001
 43
0.0000000001
 40
0.0
 40
0.0
 40
0.0
 40
0.0
 40
1.0
 40
1.0
 40
1.0
 40
1.788176320105198
 40
1.788176320105198
 40
1.788176320105198
 40
1.788176320105198
 10
9180.908048684872
 20
-3860.189943034125
 30
-0.0000000000000049
 10
9180.908048684872
 20
-3860.189943034125
 30
-0.0000000000000049
 10
9181.14411060109
 20
-3860.356183820196
 30
-0.0000000000000049
 10
9180.789463590807
 20
-3860.663175138473
 30
-0.0000000000000049
 10
9180.509939215306
 20
-3860.905138426016
 30
-0.0000000000000049
 10
9177.67476671332
 20
-3863.189141676695
 30
-0.0000000000000049
 10
9176.486195423362
 20
-3864.145896907185
 30
-0.0000000000000049
  0
SPLINE
  5
12C7A7
330
18
100
AcDbEntity
  8
姿図
100
AcDbSpline
210
0.0
220
0.0
230
1.0
 70
    24
 71
     3
 72
     8
 73
     4
 74
     0
 42
0.000000001
 43
0.0000000001
 40
0.0
 40
0.0
 40
0.0
 40
0.0
 40
1.0
 40
1.0
 40
1.0
 40
1.0
 10
9179.985966458134
 20
-3859.599234107623
 30
-0.0000000000000049
 10
9179.985966458134
 20
-3859.599234107623
 30
-0.0000000000000049
 10
9181.049907488985
 20
-3860.260872436183
 30
-0.0000000000000049
 10
9181.049907488985
 20
-3860.260872436183
 30
-0.0000000000000049
  0
SPLINE
  5
12C7A8
330
18
100
AcDbEntity
  8
姿図
100
AcDbSpline
210
0.0
220
0.0
230
1.0
 70
     8
 71
     3
 72
     8
 73
     4
 74
     0
 42
0.000000001
 43
0.0000000001
 40
1.0
 40
1.0
 40
1.0
 40
1.0
 40
2.0
 40
2.0
 40
2.0
 40
2.0
 10
9181.049907488985
 20
-3860.260872436183
 30
-0.0000000000000049
 10
9181.049907488985
 20
-3860.260872436183
 30
-0.0000000000000049
 10
9181.309243115255
 20
-3860.450386932303
 30
-0.0000000000000049
 10
9181.096454909084
 20
-3860.663175138473
 30
-0.0000000000000049
  0
SPLINE
  5
12C7A9
330
18
100
AcDbEntity
  8
姿図
100
AcDbSpline
210
0.0
220
0.0
230
1.0
 70
    24
 71
     3
 72
     8
 73
     4
 74
     0
 42
0.000000001
 43
0.0000000001
 40
2.0
 40
2.0
 40
2.0
 40
2.0
 40
2.733284138265212
 40
2.733284138265212
 40
2.733284138265212
 40
2.733284138265212
 10
9181.096454909084
 20
-3860.663175138473
 30
-0.0000000000000049
 10
9181.096454909084
 20
-3860.663175138473
 30
-0.0000000000000049
 10
9178.05813618507
 20
-3863.281665375466
 30
-0.0000000000000049
 10
9176.437400591672
 20
-3864.678451135474
 30
-0.0000000000000049
  0
SPLINE
  5
12C7AA
330
18
100
AcDbEntity
  8
姿図
100
AcDbSpline
210
0.0
220
0.0
230
1.0
 70
     8
 71
     3
 72
    11
 73
     7
 74
     0
 42
0.000000001
 43
0.0000000001
 40
0.0
 40
0.0
 40
0.0
 40
0.0
 40
1.0
 40
1.0
 40
1.0
 40
1.768789991941922
 40
1.768789991941922
 40
1.768789991941922
 40
1.768789991941922
 10
9181.002251796977
 20
-3858.322504870602
 30
-0.0000000000000049
 10
9181.002251796977
 20
-3858.322504870602
 30
-0.0000000000000049
 10
9181.309243115255
 20
-3858.298122888645
 30
-0.0000000000000049
 10
9180.670878496743
 20
-3858.771354992992
 30
-0.0000000000000049
 10
9180.180110166824
 20
-3859.135171098679
 30
-0.0000000000000049
 10
9177.509726621109
 20
-3861.231543852234
 30
-0.0000000000000049
 10
9176.30112334553
 20
-3862.181499668663
 30
-0.0000000000000049
  0
SPLINE
  5
12C7AB
330
18
100
AcDbEntity
  8
姿図
100
AcDbSpline
210
0.0
220
0.0
230
1.0
 70
     8
 71
     3
 72
    11
 73
     7
 74
     0
 42
0.000000001
 43
0.0000000001
 40
0.0
 40
0.0
 40
0.0
 40
0.0
 40
1.0
 40
1.0
 40
1.0
 40
1.675127286579802
 40
1.675127286579802
 40
1.675127286579802
 40
1.675127286579802
 10
9180.174372682348
 20
-3856.383029033114
 30
-0.0000000000000049
 10
9180.174372682348
 20
-3856.383029033114
 30
-0.0000000000000049
 10
9180.530127964537
 20
-3856.407411015071
 30
-0.0000000000000049
 10
9180.26968406636
 20
-3856.643472931291
 30
-0.0000000000000049
 10
9180.093851284078
 20
-3856.802844772254
 30
-0.0000000000000049
 10
9176.911637038098
 20
-3859.343983999813
 30
-0.0000000000000049
 10
9173.424806093095
 20
-3862.161105291063
 30
-0.0000000000000049
  0
SPLINE
  5
12C7AC
330
18
100
AcDbEntity
  8
姿図
100
AcDbSpline
210
0.0
220
0.0
230
1.0
 70
    24
 71
     3
 72
     8
 73
     4
 74
     0
 42
0.000000001
 43
0.0000000001
 40
0.0
 40
0.0
 40
0.0
 40
0.0
 40
1.0
 40
1.0
 40
1.0
 40
1.0
 10
9179.181361053554
 20
-3857.896928458262
 30
-0.0000000000000049
 10
9179.181361053554
 20
-3857.896928458262
 30
-0.0000000000000049
 10
9181.002251796977
 20
-3858.322504870602
 30
-0.0000000000000049
 10
9181.002251796977
 20
-3858.322504870602
 30
-0.0000000000000049
  0
SPLINE
  5
12C7AD
330
18
100
AcDbEntity
  8
姿図
100
AcDbSpline
210
0.0
220
0.0
230
1.0
 70
     8
 71
     3
 72
    11
 73
     7
 74
     0
 42
0.000000001
 43
0.0000000001
 40
1.0
 40
1.0
 40
1.0
 40
1.0
 40
2.0
 40
2.0
 40
2.0
 40
2.814388548252564
 40
2.814388548252564
 40
2.814388548252564
 40
2.814388548252564
 10
9181.002251796977
 20
-3858.322504870602
 30
-0.0000000000000049
 10
9181.002251796977
 20
-3858.322504870602
 30
-0.0000000000000049
 10
9181.451101919367
 20
-3858.415599710802
 30
-0.0000000000000049
 10
9181.14411060109
 20
-3858.652769898928
 30
-0.0000000000000049
 10
9180.894100387073
 20
-3858.845918584126
 30
-0.0000000000000049
 10
9177.562811947879
 20
-3861.523494845923
 30
-0.0000000000000049
 10
9176.334774635745
 20
-3862.510818196783
 30
-0.0000000000000049
  0
SPLINE
  5
12C7AE
330
18
100
AcDbEntity
  8
姿図
100
AcDbSpline
210
0.0
220
0.0
230
1.0
 70
    24
 71
     3
 72
     8
 73
     4
 74
     0
 42
0.000000001
 43
0.0000000001
 40
0.0
 40
0.0
 40
0.0
 40
0.0
 40
1.0
 40
1.0
 40
1.0
 40
1.0
 10
9176.202326167171
 20
-3858.393434272659
 30
-0.0000000000000049
 10
9176.202326167171
 20
-3858.393434272659
 30
-0.0000000000000049
 10
9177.71622559232
 20
-3856.974846231525
 30
-0.0000000000000049
 10
9177.71622559232
 20
-3856.974846231525
 30
-0.0000000000000049
  0
SPLINE
  5
12C7AF
330
18
100
AcDbEntity
  8
姿図
100
AcDbSpline
210
0.0
220
0.0
230
1.0
 70
     8
 71
     3
 72
     8
 73
     4
 74
     0
 42
0.000000001
 43
0.0000000001
 40
1.0
 40
1.0
 40
1.0
 40
1.0
 40
1.201957035102942
 40
1.201957035102942
 40
1.201957035102942
 40
1.201957035102942
 10
9177.71622559232
 20
-3856.974846231525
 30
-0.0000000000000049
 10
9177.65400271257
 20
-3856.736026761405
 30
-0.0000000000000049
 10
9177.560002340511
 20
-3856.530973702032
 30
-0.0000000000000049
 10
9177.44959771485
 20
-3856.355788969719
 30
-0.0000000000000049
  0
SPLINE
  5
12C7B0
330
18
100
AcDbEntity
  8
姿図
100
AcDbSpline
210
0.0
220
0.0
230
1.0
 70
     8
 71
     3
 72
     8
 73
     4
 74
     0
 42
0.000000001
 43
0.0000000001
 40
1.371408514633379
 40
1.371408514633379
 40
1.371408514633379
 40
1.371408514633379
 40
2.0
 40
2.0
 40
2.0
 40
2.0
 10
9177.146128664264
 20
-3855.97560357068
 30
-0.0000000000000049
 10
9176.75049943792
 20
-3855.577803796164
 30
-0.0000000000000049
 10
9176.320911261235
 20
-3855.437673096328
 30
-0.0000000000000049
 10
9176.320911261235
 20
-3855.437673096328
 30
-0.0000000000000049
  0
SPLINE
  5
12C7B1
330
18
100
AcDbEntity
  8
姿図
100
AcDbSpline
210
0.0
220
0.0
230
1.0
 70
    24
 71
     3
 72
     8
 73
     4
 74
     0
 42
0.000000001
 43
0.0000000001
 40
2.0
 40
2.0
 40
2.0
 40
2.0
 40
3.0
 40
3.0
 40
3.0
 40
3.0
 10
9176.320911261235
 20
-3855.437673096328
 30
-0.0000000000000049
 10
9176.320911261235
 20
-3855.437673096328
 30
-0.0000000000000049
 10
9174.807565972042
 20
-3856.595817239284
 30
-0.0000000000000049
 10
9174.807565972042
 20
-3856.595817239284
 30
-0.0000000000000049
  0
SPLINE
  5
12C7B2
330
18
100
AcDbEntity
  8
姿図
100
AcDbSpline
210
0.0
220
0.0
230
1.0
 70
    24
 71
     3
 72
     8
 73
     4
 74
     0
 42
0.000000001
 43
0.0000000001
 40
0.1253663450285614
 40
0.1253663450285614
 40
0.1253663450285614
 40
0.1253663450285614
 40
1.0
 40
1.0
 40
1.0
 40
1.0
 10
9177.605766621065
 20
-3856.652476065896
 30
-0.0000000000000049
 10
9178.168236789395
 20
-3856.589129085486
 30
-0.0000000000000049
 10
9180.411542870475
 20
-3856.336481613014
 30
-0.0000000000000049
 10
9180.411542870475
 20
-3856.336481613014
 30
-0.0000000000000049
  0
SPLINE
  5
12C7B3
330
18
100
AcDbEntity
  8
姿図
100
AcDbSpline
210
0.0
220
0.0
230
1.0
 70
     8
 71
     3
 72
    11
 73
     7
 74
     0
 42
0.000000001
 43
0.0000000001
 40
1.0
 40
1.0
 40
1.0
 40
1.0
 40
2.0
 40
2.0
 40
2.0
 40
2.782200575022114
 40
2.782200575022114
 40
2.782200575022114
 40
2.782200575022114
 10
9180.411542870475
 20
-3856.336481613014
 30
-0.0000000000000049
 10
9180.411542870475
 20
-3856.336481613014
 30
-0.0000000000000049
 10
9181.09756318099
 20
-3856.312099631057
 30
-0.0000000000000049
 10
9180.553401674588
 20
-3856.785331735404
 30
-0.0000000000000049
 10
9180.127758231374
 20
-3857.155494159543
 30
-0.0000000000000049
 10
9176.534452022766
 20
-3860.11457586834
 30
-0.0000000000000049
 10
9174.989403044056
 20
-3861.385989214647
 30
-0.0000000000000049
  0
SPLINE
  5
12C7B4
330
18
100
AcDbEntity
  8
姿図
100
AcDbSpline
210
0.0
220
0.0
230
1.0
 70
    24
 71
     3
 72
     8
 73
     4
 74
     0
 42
0.000000001
 43
0.0000000001
 40
1.497633512262794
 40
1.497633512262794
 40
1.497633512262794
 40
1.497633512262794
 40
2.0
 40
2.0
 40
2.0
 40
2.0
 10
9175.403839055476
 20
-3857.285562142339
 30
-0.0000000000000049
 10
9177.641704236225
 20
-3855.60299992022
 30
-0.0000000000000049
 10
9179.276672437567
 20
-3854.373732065476
 30
-0.0000000000000049
 10
9179.276672437567
 20
-3854.373732065476
 30
-0.0000000000000049
  0
SPLINE
  5
12C7B5
330
18
100
AcDbEntity
  8
姿図
100
AcDbSpline
210
0.0
220
0.0
230
1.0
 70
     8
 71
     3
 72
     8
 73
     4
 74
     0
 42
0.000000001
 43
0.0000000001
 40
2.0
 40
2.0
 40
2.0
 40
2.0
 40
3.0
 40
3.0
 40
3.0
 40
3.0
 10
9179.276672437567
 20
-3854.373732065476
 30
-0.0000000000000049
 10
9179.276672437567
 20
-3854.373732065476
 30
-0.0000000000000049
 10
9179.560390045794
 20
-3854.317210198213
 30
-0.0000000000000049
 10
9179.512734353786
 20
-3854.609793981696
 30
-0.0000000000000049
  0
SPLINE
  5
12C7B6
330
18
100
AcDbEntity
  8
姿図
100
AcDbSpline
210
0.0
220
0.0
230
1.0
 70
     8
 71
     3
 72
     8
 73
     4
 74
     0
 42
0.000000001
 43
0.0000000001
 40
3.0
 40
3.0
 40
3.0
 40
3.0
 40
3.496895874988593
 40
3.496895874988593
 40
3.496895874988593
 40
3.496895874988593
 10
9179.512734353786
 20
-3854.609793981696
 30
-0.0000000000000049
 10
9179.501169743267
 20
-3854.680283036291
 30
-0.0000000000000049
 10
9177.942453386806
 20
-3855.959159446756
 30
-0.0000000000000049
 10
9175.963927351928
 20
-3857.539366180227
 30
-0.0000000000000049
  0
SPLINE
  5
12C7B7
330
18
100
AcDbEntity
  8
姿図
100
AcDbSpline
210
0.0
220
0.0
230
1.0
 70
     8
 71
     3
 72
     8
 73
     4
 74
     0
 42
0.000000001
 43
0.0000000001
 40
1.170831255421412
 40
1.170831255421412
 40
1.170831255421412
 40
1.170831255421412
 40
1.26068276038169
 40
1.26068276038169
 40
1.26068276038169
 40
1.26068276038169
 10
9173.564790547574
 20
-3856.373175879218
 30
-0.0000000000000049
 10
9174.540763447721
 20
-3855.621284234919
 30
-0.0000000000000049
 10
9175.978148016224
 20
-3854.512861930495
 30
-0.0000000000000049
 10
9178.09232453726
 20
-3852.880866468592
 30
-0.0000000000000049
  0
SPLINE
  5
12C7B8
330
18
100
AcDbEntity
  8
姿図
100
AcDbSpline
210
0.0
220
0.0
230
1.0
 70
    24
 71
     3
 72
     8
 73
     4
 74
     0
 42
0.000000001
 43
0.0000000001
 40
1.505095709969922
 40
1.505095709969922
 40
1.505095709969922
 40
1.505095709969922
 40
2.0
 40
2.0
 40
2.0
 40
2.0
 10
9173.161137737246
 20
-3856.156029510757
 30
-0.0000000000000049
 10
9176.170315563417
 20
-3853.923703268622
 30
-0.0000000000000049
 10
9177.762773012419
 20
-3852.742355818173
 30
-0.0000000000000049
 10
9177.762773012419
 20
-3852.742355818173
 30
-0.0000000000000049
  0
SPLINE
  5
12C7B9
330
18
100
AcDbEntity
  8
姿図
100
AcDbSpline
210
0.0
220
0.0
230
1.0
 70
     8
 71
     3
 72
     8
 73
     4
 74
     0
 42
0.000000001
 43
0.0000000001
 40
2.0
 40
2.0
 40
2.0
 40
2.0
 40
3.0
 40
3.0
 40
3.0
 40
3.0
 10
9177.762773012419
 20
-3852.742355818173
 30
-0.0000000000000049
 10
9177.762773012419
 20
-3852.742355818173
 30
-0.0000000000000049
 10
9178.237113388674
 20
-3852.553949593959
 30
-0.0000000000000049
 10
9178.212731406717
 20
-3852.90804246829
 30
-0.0000000000000049
  0
SPLINE
  5
12C7BA
330
18
100
AcDbEntity
  8
姿図
100
AcDbSpline
210
0.0
220
0.0
230
1.0
 70
    24
 71
     3
 72
     8
 73
     4
 74
     0
 42
0.000000001
 43
0.0000000001
 40
3.0
 40
3.0
 40
3.0
 40
3.0
 40
4.0
 40
4.0
 40
4.0
 40
4.0
 10
9178.212731406717
 20
-3852.90804246829
 30
-0.0000000000000049
 10
9178.212731406717
 20
-3852.90804246829
 30
-0.0000000000000049
 10
9176.627902579512
 20
-3855.556258190391
 30
-0.0000000000000049
 10
9176.627902579512
 20
-3855.556258190391
 30
-0.0000000000000049
  0
SPLINE
  5
12C7BB
330
18
100
AcDbEntity
  8
姿図
100
AcDbSpline
210
0.0
220
0.0
230
1.0
 70
    24
 71
     3
 72
     8
 73
     4
 74
     0
 42
0.000000001
 43
0.0000000001
 40
1.35127157604843
 40
1.35127157604843
 40
1.35127157604843
 40
1.35127157604843
 40
1.428242292534494
 40
1.428242292534494
 40
1.428242292534494
 40
1.428242292534494
 10
9171.479616449327
 20
-3855.181797682404
 30
-0.0000000000000049
 10
9171.708532153381
 20
-3855.012579679365
 30
-0.0000000000000049
 10
9171.94894762748
 20
-3854.834860869751
 30
-0.0000000000000049
 10
9172.194911450122
 20
-3854.653040635707
 30
-0.0000000000000049
  0
SPLINE
  5
12C7BC
330
18
100
AcDbEntity
  8
姿図
100
AcDbSpline
210
0.0
220
0.0
230
1.0
 70
    24
 71
     3
 72
     8
 73
     4
 74
     0
 42
0.000000001
 43
0.0000000001
 40
1.615278216396081
 40
1.615278216396081
 40
1.615278216396081
 40
1.615278216396081
 40
2.0
 40
2.0
 40
2.0
 40
2.0
 10
9172.194911450122
 20
-3854.653040635707
 30
-0.0000000000000049
 10
9175.189379065901
 20
-3852.43948419928
 30
-0.0000000000000049
 10
9176.155224611117
 20
-3851.725516343376
 30
-0.0000000000000049
 10
9176.155224611117
 20
-3851.725516343376
 30
-0.0000000000000049
  0
SPLINE
  5
12C7BD
330
18
100
AcDbEntity
  8
姿図
100
AcDbSpline
210
0.0
220
0.0
230
1.0
 70
     8
 71
     3
 72
     8
 73
     4
 74
     0
 42
0.000000001
 43
0.0000000001
 40
2.0
 40
2.0
 40
2.0
 40
2.0
 40
3.0
 40
3.0
 40
3.0
 40
3.0
 10
9176.155224611117
 20
-3851.725516343376
 30
-0.0000000000000049
 10
9176.155224611117
 20
-3851.725516343376
 30
-0.0000000000000049
 10
9176.367458681336
 20
-3851.560383829212
 30
-0.0000000000000049
 10
9176.344184971285
 20
-3852.245850003776
 30
-0.0000000000000049
  0
SPLINE
  5
12C7BE
330
18
100
AcDbEntity
  8
姿図
100
AcDbSpline
210
0.0
220
0.0
230
1.0
 70
    24
 71
     3
 72
     8
 73
     4
 74
     0
 42
0.000000001
 43
0.0000000001
 40
1.350304526896445
 40
1.350304526896445
 40
1.350304526896445
 40
1.350304526896445
 40
1.445359962748388
 40
1.445359962748388
 40
1.445359962748388
 40
1.445359962748388
 10
9171.234027205428
 20
-3855.029715307475
 30
-0.0000000000000049
 10
9171.52353883379
 20
-3854.814889287588
 30
-0.0000000000000049
 10
9171.831151190323
 20
-3854.58663200274
 30
-0.0000000000000049
 10
9172.145370456477
 20
-3854.353472199447
 30
-0.0000000000000049
  0
SPLINE
  5
12C7BF
330
18
100
AcDbEntity
  8
姿図
100
AcDbSpline
210
0.0
220
0.0
230
1.0
 70
    24
 71
     3
 72
     8
 73
     4
 74
     0
 42
0.000000001
 43
0.0000000001
 40
1.629831745831646
 40
1.629831745831646
 40
1.629831745831646
 40
1.629831745831646
 40
2.0
 40
2.0
 40
2.0
 40
2.0
 10
9172.145370456477
 20
-3854.353472199447
 30
-0.0000000000000049
 10
9175.120336220705
 20
-3852.145961371499
 30
-0.0000000000000049
 10
9176.03719365301
 20
-3851.465626581152
 30
-0.0000000000000049
 10
9176.03719365301
 20
-3851.465626581152
 30
-0.0000000000000049
  0
SPLINE
  5
12C7C0
330
18
100
AcDbEntity
  8
姿図
100
AcDbSpline
210
0.0
220
0.0
230
1.0
 70
     8
 71
     3
 72
    11
 73
     7
 74
     0
 42
0.000000001
 43
0.0000000001
 40
2.0
 40
2.0
 40
2.0
 40
2.0
 40
3.0
 40
3.0
 40
3.0
 40
4.0
 40
4.0
 40
4.0
 40
4.0
 10
9176.03719365301
 20
-3851.465626581152
 30
-0.0000000000000049
 10
9176.03719365301
 20
-3851.465626581152
 30
-0.0000000000000049
 10
9176.344184971285
 20
-3851.417970889145
 30
-0.0000000000000049
 10
9176.344184971285
 20
-3851.725516343376
 30
-0.0000000000000049
 10
9176.344184971285
 20
-3852.033061797606
 30
-0.0000000000000049
 10
9176.320911261235
 20
-3853.735367446967
 30
-0.0000000000000049
 10
9176.320911261235
 20
-3853.735367446967
 30
-0.0000000000000049
  0
SPLINE
  5
12C7C1
330
18
100
AcDbEntity
  8
姿図
100
AcDbSpline
210
0.0
220
0.0
230
1.0
 70
    24
 71
     3
 72
     8
 73
     4
 74
     0
 42
0.000000001
 43
0.0000000001
 40
1.393847407864564
 40
1.393847407864564
 40
1.393847407864564
 40
1.393847407864564
 40
1.573101002211188
 40
1.573101002211188
 40
1.573101002211188
 40
1.573101002211188
 10
9170.183082441472
 20
-3854.349086098946
 30
-0.0000000000000049
 10
9170.745659574364
 20
-3853.930259707058
 30
-0.0000000000000049
 10
9171.353077222439
 20
-3853.478050530685
 30
-0.0000000000000049
 10
9171.929615863852
 20
-3853.048830100544
 30
-0.0000000000000049
  0
SPLINE
  5
12C7C2
330
18
100
AcDbEntity
  8
姿図
100
AcDbSpline
210
0.0
220
0.0
230
1.0
 70
    24
 71
     3
 72
     8
 73
     4
 74
     0
 42
0.000000001
 43
0.0000000001
 40
1.799348189808347
 40
1.799348189808347
 40
1.799348189808347
 40
1.799348189808347
 40
2.0
 40
2.0
 40
2.0
 40
2.0
 10
9171.929615863852
 20
-3853.048830100544
 30
-0.0000000000000049
 10
9174.235931652616
 20
-3851.331828352898
 30
-0.0000000000000049
 10
9174.500574653764
 20
-3851.134807416872
 30
-0.0000000000000049
 10
9174.500574653764
 20
-3851.134807416872
 30
-0.0000000000000049
  0
SPLINE
  5
12C7C3
330
18
100
AcDbEntity
  8
姿図
100
AcDbSpline
210
0.0
220
0.0
230
1.0
 70
     8
 71
     3
 72
     8
 73
     4
 74
     0
 42
0.000000001
 43
0.0000000001
 40
2.0
 40
2.0
 40
2.0
 40
2.0
 40
3.0
 40
3.0
 40
3.0
 40
3.0
 10
9174.500574653764
 20
-3851.134807416872
 30
-0.0000000000000049
 10
9174.500574653764
 20
-3851.134807416872
 30
-0.0000000000000049
 10
9174.666261303882
 20
-3851.158081126922
 30
-0.0000000000000049
 10
9174.64243345788
 20
-3851.512728137205
 30
-0.0000000000000049
  0
SPLINE
  5
12C7C4
330
18
100
AcDbEntity
  8
姿図
100
AcDbSpline
210
0.0
220
0.0
230
1.0
 70
    24
 71
     3
 72
     8
 73
     4
 74
     0
 42
0.000000001
 43
0.0000000001
 40
1.39197555938905
 40
1.39197555938905
 40
1.39197555938905
 40
1.39197555938905
 40
1.583667207078013
 40
1.583667207078013
 40
1.583667207078013
 40
1.583667207078013
 10
9170.016189288777
 20
-3854.236417339064
 30
-0.0000000000000049
 10
9170.621045369364
 20
-3853.787053726542
 30
-0.0000000000000049
 10
9171.278454417166
 20
-3853.298647121883
 30
-0.0000000000000049
 10
9171.895160083717
 20
-3852.840480137902
 30
-0.0000000000000049
  0
SPLINE
  5
12C7C5
330
18
100
AcDbEntity
  8
姿図
100
AcDbSpline
210
0.0
220
0.0
230
1.0
 70
    24
 71
     3
 72
     8
 73
     4
 74
     0
 42
0.000000001
 43
0.0000000001
 40
1.815455566821609
 40
1.815455566821609
 40
1.815455566821609
 40
1.815455566821609
 40
2.0
 40
2.0
 40
2.0
 40
2.0
 10
9171.895160083717
 20
-3852.840480137902
 30
-0.0000000000000049
 10
9174.156544492242
 20
-3851.160437728253
 30
-0.0000000000000049
 10
9174.3819895597
 20
-3850.992948612758
 30
-0.0000000000000049
 10
9174.3819895597
 20
-3850.992948612758
 30
-0.0000000000000049
  0
SPLINE
  5
12C7C6
330
18
100
AcDbEntity
  8
姿図
100
AcDbSpline
210
0.0
220
0.0
230
1.0
 70
     8
 71
     3
 72
     8
 73
     4
 74
     0
 42
0.000000001
 43
0.0000000001
 40
2.0
 40
2.0
 40
2.0
 40
2.0
 40
3.0
 40
3.0
 40
3.0
 40
3.0
 10
9174.3819895597
 20
-3850.992948612758
 30
-0.0000000000000049
 10
9174.3819895597
 20
-3850.992948612758
 30
-0.0000000000000049
 10
9174.619159747828
 20
-3850.897637228744
 30
-0.0000000000000049
 10
9174.64243345788
 20
-3851.158081126922
 30
-0.0000000000000049
  0
SPLINE
  5
12C7C7
330
18
100
AcDbEntity
  8
姿図
100
AcDbSpline
210
0.0
220
0.0
230
1.0
 70
    24
 71
     3
 72
     8
 73
     4
 74
     0
 42
0.000000001
 43
0.0000000001
 40
3.0
 40
3.0
 40
3.0
 40
3.0
 40
4.0
 40
4.0
 40
4.0
 40
4.0
 10
9174.64243345788
 20
-3851.158081126922
 30
-0.0000000000000049
 10
9174.64243345788
 20
-3851.158081126922
 30
-0.0000000000000049
 10
9174.59477776587
 20
-3852.81328522023
 30
-0.0000000000000049
 10
9174.59477776587
 20
-3852.81328522023
 30
-0.0000000000000049
  0
SPLINE
  5
12C7C8
330
18
100
AcDbEntity
  8
姿図
100
AcDbSpline
210
0.0
220
0.0
230
1.0
 70
    24
 71
     3
 72
     8
 73
     4
 74
     0
 42
0.000000001
 43
0.0000000001
 40
1.477297502654241
 40
1.477297502654241
 40
1.477297502654241
 40
1.477297502654241
 40
1.790999460430504
 40
1.790999460430504
 40
1.790999460430504
 40
1.790999460430504
 10
9169.17848197485
 20
-3853.651060373827
 30
-0.0000000000000049
 10
9170.28171883121
 20
-3852.828990636445
 30
-0.0000000000000049
 10
9171.498096687246
 20
-3851.922614622173
 30
-0.0000000000000049
 10
9172.499770500912
 20
-3851.176223922665
 30
-0.0000000000000049
  0
SPLINE
  5
12C7C9
330
18
100
AcDbEntity
  8
姿図
100
AcDbSpline
210
0.0
220
0.0
230
1.0
 70
     8
 71
     3
 72
     8
 73
     4
 74
     0
 42
0.000000001
 43
0.0000000001
 40
0.3537168008125633
 40
0.3537168008125633
 40
0.3537168008125633
 40
0.3537168008125633
 40
1.0
 40
1.0
 40
1.0
 40
1.0
 10
9170.689846356032
 20
-3874.537476674979
 30
-0.0000000000000049
 10
9169.856847538642
 20
-3875.333647801049
 30
-0.0000000000000049
 10
9168.276733089364
 20
-3876.660218582647
 30
-0.0000000000000049
 10
9165.847187602849
 20
-3877.897911566343
 30
-0.0000000000000049
  0
SPLINE
  5
12C7CA
330
18
100
AcDbEntity
  8
姿図
100
AcDbSpline
210
0.0
220
0.0
230
1.0
 70
     8
 71
     3
 72
     8
 73
     4
 74
     0
 42
0.000000001
 43
0.0000000001
 40
1.0
 40
1.0
 40
1.0
 40
1.000000000000004
 40
1.288768352431942
 40
1.288768352431942
 40
1.288768352431942
 40
1.288768352431942
 10
9157.345058218394
 20
-3857.250487577921
 30
-0.0000000000000049
 10
9158.24819994438
 20
-3856.594830145654
 30
-0.0000000000000049
 10
9159.337742244548
 20
-3856.296147815984
 30
-0.0000000000000049
 10
9160.518280630979
 20
-3856.317433781814
 30
-0.0000000000000049
  0
SPLINE
  5
12C7CB
330
18
100
AcDbEntity
  8
姿図
100
AcDbSpline
210
0.0
220
0.0
230
1.0
 70
     8
 71
     3
 72
     8
 73
     4
 74
     0
 42
0.000000001
 43
0.0000000001
 40
1.60529487433178
 40
1.60529487433178
 40
1.60529487433178
 40
1.60529487433178
 40
2.0
 40
2.0
 40
2.0
 40
2.0
 10
9164.602684199079
 20
-3857.492011007583
 30
-0.0000000000000049
 10
9166.332301287632
 20
-3858.419114430098
 30
-0.0000000000000049
 10
9168.036548258726
 20
-3859.868228335625
 30
-0.0000000000000049
 10
9169.471790875135
 20
-3861.744848519837
 30
-0.0000000000000049
  0
SPLINE
  5
12C7CC
330
18
100
AcDbEntity
  8
姿図
100
AcDbSpline
210
0.0
220
0.0
230
1.0
 70
     8
 71
     3
 72
     8
 73
     4
 74
     0
 42
0.000000001
 43
0.0000000001
 40
2.0
 40
2.0
 40
2.0
 40
2.0
 40
2.10277645146085
 40
2.10277645146085
 40
2.10277645146085
 40
2.10277645146085
 10
9169.471790875135
 20
-3861.744848519837
 30
-0.0000000000000049
 10
9169.845738540587
 20
-3862.233497768936
 30
-0.0000000000000049
 10
9170.186913369325
 20
-3862.732203051876
 30
-0.0000000000000049
 10
9170.494892517101
 20
-3863.236267023264
 30
-0.0000000000000049
  0
SPLINE
  5
12C7CD
330
18
100
AcDbEntity
  8
姿図
100
AcDbSpline
210
0.0
220
0.0
230
1.0
 70
     8
 71
     3
 72
     8
 73
     4
 74
     0
 42
0.000000001
 43
0.0000000001
 40
2.529370585629382
 40
2.529370585629382
 40
2.529370585629382
 40
2.529370585629382
 40
2.999999999999997
 40
3.0
 40
3.0
 40
3.0
 10
9172.583925705712
 20
-3869.453979267359
 30
-0.0000000000000049
 10
9172.698970986934
 20
-3871.595290128399
 30
-0.0000000000000049
 10
9172.081144871561
 20
-3873.440133778126
 30
-0.0000000000000049
 10
9170.689846355914
 20
-3874.537476675093
 30
-0.0000000000000049
  0
ELLIPSE
  5
12C7CE
330
18
100
AcDbEntity
  8
姿図
100
AcDbEllipse
 10
9172.283449403743
 20
-3858.95899040031
 30
-0.0000000000000049
 11
4.054927212088714
 21
-4.230447512169554
 31
0.0
210
0.0
220
0.0
230
1.0
 40
0.589675754012904
 41
2.589251650966877
 42
2.665859109793177
  0
ELLIPSE
  5
12C7CF
330
18
100
AcDbEntity
  8
姿図
100
AcDbEllipse
 10
9172.283449403743
 20
-3858.95899040031
 30
-0.0000000000000049
 11
4.054927212088714
 21
-4.230447512169554
 31
0.0
210
0.0
220
0.0
230
1.0
 40
0.589675754012904
 41
6.96598111917236
 42
7.147828363455014
  0
ELLIPSE
  5
12C7D0
330
18
100
AcDbEntity
  8
姿図
100
AcDbEllipse
 10
9172.283449403743
 20
-3858.95899040031
 30
-0.0000000000000049
 11
4.054927212088714
 21
-4.230447512169554
 31
0.0
210
0.0
220
0.0
230
1.0
 40
0.589675754012904
 41
7.339249712863026
 42
7.52230142153515
  0
ELLIPSE
  5
12C7D1
330
18
100
AcDbEntity
  8
姿図
100
AcDbEllipse
 10
9172.283449403743
 20
-3858.95899040031
 30
-0.0000000000000049
 11
4.054927212088714
 21
-4.230447512169554
 31
0.0
210
0.0
220
0.0
230
1.0
 40
0.589675754012904
 41
7.690618598159064
 42
7.896541804765815
  0
ELLIPSE
  5
12C7D2
330
18
100
AcDbEntity
  8
姿図
100
AcDbEllipse
 10
9172.283449403743
 20
-3858.95899040031
 30
-0.0000000000000049
 11
4.054927212088714
 21
-4.230447512169554
 31
0.0
210
0.0
220
0.0
230
1.0
 40
0.589675754012904
 41
8.489247713282603
 42
8.60769396429671
  0
ARC
  5
12C7D3
330
18
100
AcDbEntity
  8
姿図
100
AcDbCircle
 10
9171.43870246526
 20
-3853.998202251756
 30
-0.0000000000000049
 40
0.3408897658120933
100
AcDbArc
 50
158.3286271790616
 51
250.9430020259657
  0
ARC
  5
12C7D4
330
18
100
AcDbEntity
  8
姿図
100
AcDbCircle
 10
9174.894209463615
 20
-3856.104542863245
 30
-0.0000000000000049
 40
0.4076504892408688
100
AcDbArc
 50
160.424734316495
 51
224.4606610653978
  0
ARC
  5
12C7D5
330
18
100
AcDbEntity
  8
姿図
100
AcDbCircle
 10
9176.31611952974
 20
-3857.838647940183
 30
-0.0000000000000049
 40
0.4341244699115849
100
AcDbArc
 50
120.2647657538531
 51
138.5457551610351
  0
ARC
  5
12C7D6
330
18
100
AcDbEntity
  8
姿図
100
AcDbCircle
 10
9176.988891201585
 20
-3858.649184571912
 30
-0.0000000000000049
 40
0.6213813402939103
100
AcDbArc
 50
210.0537915452814
 51
255.6920591719458
  0
ARC
  5
12C7D7
330
18
100
AcDbEntity
  8
姿図
100
AcDbCircle
 10
9177.343432378262
 20
-3860.586265463802
 30
-0.0000000000000049
 40
0.3701595316725921
100
AcDbArc
 50
203.2404029724889
 51
273.6673327535127
  0
SPLINE
  5
12C7D8
330
18
100
AcDbEntity
  8
姿図
100
AcDbSpline
210
0.0
220
0.0
230
1.0
 70
     8
 71
     3
 72
     8
 73
     4
 74
     0
 42
0.000000001
 43
0.0000000001
 40
0.0
 40
0.0
 40
0.0
 40
0.0
 40
1.0
 40
1.0
 40
1.0
 40
1.0
 10
9172.221040374377
 20
-3869.951483793186
 30
-0.0000000000000049
 10
9172.608754508285
 20
-3869.386383319539
 30
-0.0000000000000049
 10
9175.526457173408
 20
-3865.583563896213
 30
-0.0000000000000049
 10
9175.526457173408
 20
-3865.583563896213
 30
-0.0000000000000049
  0
LINE
  5
12C7D9
330
18
100
AcDbEntity
  8
姿図
100
AcDbLine
 10
9170.48532974727
 20
-3863.239907322563
 30
-0.0000000000000049
 11
9170.424936253643
 21
-3863.684798120433
 31
-0.0000000000000037
  0
SPLINE
  5
12C7DA
330
18
100
AcDbEntity
  8
姿図
100
AcDbSpline
210
0.0
220
0.0
230
1.0
 70
     8
 71
     3
 72
     8
 73
     4
 74
     0
 42
0.000000001
 43
0.0000000001
 40
1.0
 40
1.0
 40
1.0
 40
1.000000000000004
 40
1.3232756381818
 40
1.3232756381818
 40
1.3232756381818
 40
1.3232756381818
 10
9157.345058218394
 20
-3857.250487577921
 30
-0.0000000000000049
 10
9157.994663009313
 20
-3856.762707288006
 30
-0.0000000000000049
 10
9159.239339895337
 20
-3856.476088373655
 30
-0.0000000000000049
 10
9160.583771828013
 20
-3856.584935789585
 30
-0.0000000000000049
  0
SPLINE
  5
12C7DB
330
18
100
AcDbEntity
  8
姿図
100
AcDbSpline
210
0.0
220
0.0
230
1.0
 70
     8
 71
     3
 72
     8
 73
     4
 74
     0
 42
0.000000001
 43
0.0000000001
 40
1.637973628497519
 40
1.637973628497519
 40
1.637973628497519
 40
1.637973628497519
 40
2.0
 40
2.0
 40
2.0
 40
2.0
 10
9164.670163194442
 20
-3857.979191519969
 30
-0.0000000000000049
 10
9166.251195507664
 20
-3858.90822431485
 30
-0.0000000000000049
 10
9167.793915349617
 20
-3860.269826027296
 30
-0.0000000000000049
 10
9169.11033016882
 20
-3861.991075516592
 30
-0.0000000000000049
  0
SPLINE
  5
12C7DC
330
18
100
AcDbEntity
  8
姿図
100
AcDbSpline
210
0.0
220
0.0
230
1.0
 70
     8
 71
     3
 72
     8
 73
     4
 74
     0
 42
0.000000001
 43
0.0000000001
 40
2.0
 40
2.0
 40
2.0
 40
2.0
 40
2.120984681128046
 40
2.120984681128046
 40
2.120984681128046
 40
2.120984681128046
 10
9169.11033016882
 20
-3861.991075516592
 30
-0.0000000000000049
 10
9169.550527688974
 20
-3862.566295547497
 30
-0.0000000000000049
 10
9169.94531143821
 20
-3863.155450362908
 30
-0.0000000000000049
 10
9170.29387302339
 20
-3863.751140183304
 30
-0.0000000000000049
  0
SPLINE
  5
12C7DD
330
18
100
AcDbEntity
  8
姿図
100
AcDbSpline
210
0.0
220
0.0
230
1.0
 70
     8
 71
     3
 72
     8
 73
     4
 74
     0
 42
0.000000001
 43
0.0000000001
 40
2.546094283791052
 40
2.546094283791052
 40
2.546094283791052
 40
2.546094283791052
 40
2.999999999999997
 40
3.0
 40
3.0
 40
3.0
 10
9172.221040374377
 20
-3869.951483793185
 30
-0.0000000000000049
 10
9172.272645149085
 20
-3872.015904821934
 30
-0.0000000000000049
 10
9171.633657886101
 20
-3873.806328632013
 30
-0.0000000000000049
 10
9170.2613883626
 20
-3874.931982192625
 30
-0.0000000000000049
  0
LINE
  5
12C7DE
330
18
100
AcDbEntity
  8
姿図
100
AcDbLine
 10
9172.76796820576
 20
-3851.297818722426
 30
-0.0000000000000006
 11
9172.988038668975
 21
-3852.028551672795
 31
-0.0000000000000047
  0
ARC
  5
12C7DF
330
18
100
AcDbEntity
  8
姿図
100
AcDbCircle
 10
9172.571590984122
 20
-3851.374386701
 30
-0.0000000000000131
 40
0.2107763471577729
100
AcDbArc
 50
12.21988422707157
 51
109.9221245031951
  0
ARC
  5
12C7E0
330
18
100
AcDbEntity
  8
姿図
100
AcDbCircle
 10
9172.628841849993
 20
-3851.480769549877
 30
0.0000000000000108
 40
0.1866679613239698
100
AcDbArc
 50
21.70349578704212
 51
132.1870109952145
  0
LINE
  5
12C7E1
330
18
100
AcDbEntity
  8
姿図
100
AcDbLine
 10
9151.069884704575
 20
-3844.9630390054
 30
-0.0000000000000099
 11
9151.365601496538
 21
-3843.890389430306
 31
-0.0000000000000049
  0
ARC
  5
12C7E2
330
18
100
AcDbEntity
  8
姿図
100
AcDbCircle
 10
9153.85923176095
 20
-3845.73528500169
 30
0.0000000000000053
 40
0.2310862853044932
100
AcDbArc
 50
99.4659745679147
 51
168.5402467014619
  0
LINE
  5
12C7E3
330
18
100
AcDbEntity
  8
姿図
100
AcDbLine
 10
9174.603256459872
 20
-3856.390069168497
 30
-0.0000000000000049
 11
9174.177619906532
 21
-3856.691014783006
 31
-0.0000000000000049
  0
ARC
  5
12C7E4
330
18
100
AcDbEntity
  8
姿図
100
AcDbCircle
 10
9168.184373541222
 20
-3862.827258018118
 30
0.0000000000000001
 40
9.090624742504378
100
AcDbArc
 50
51.83017275106009
 51
60.70781871908433
  0
ARC
  5
12C7E5
330
18
100
AcDbEntity
  8
姿図
100
AcDbCircle
 10
9172.832352878455
 20
-3854.617765725887
 30
0.0000000000000001
 40
0.3452512268373638
100
AcDbArc
 50
169.7868767132635
 51
234.5447167800267
  0
LINE
  5
12C7E6
330
18
100
AcDbEntity
  8
姿図
100
AcDbLine
 10
9172.557606324797
 20
-3854.826841647233
 30
0.0000000000000001
 11
9171.782145910727
 21
-3855.36562250766
 31
-0.0000000000000006
  0
LINE
  5
12C7E7
330
18
100
AcDbEntity
  8
姿図
100
AcDbLine
 10
9171.249990930468
 20
-3854.282092704345
 30
-0.0000000000000049
 11
9170.674642310358
 21
-3854.673553854358
 31
-0.0000000000000049
  0
LINE
  5
12C7E8
330
18
100
AcDbEntity
  8
姿図
100
AcDbLine
 10
9176.451051101267
 20
-3858.960380324704
 30
-0.0000000000000049
 11
9171.563008807396
 21
-3862.829662759833
 31
-0.0000000000000049
  0
LINE
  5
12C7E9
330
18
100
AcDbEntity
  8
姿図
100
AcDbLine
 10
9177.062892084803
 20
-3860.827750913952
 30
-0.0000000000000049
 11
9176.08720450016
 21
-3861.542273298396
 31
-0.0000000000000049
  0
LINE
  5
12C7EA
330
18
100
AcDbEntity
  8
姿図
100
AcDbLine
 10
9152.831627028027
 20
-3861.689160812715
 30
-0.0000000000000049
 11
9153.760499843598
 21
-3860.397184136372
 31
-0.0000000000000049
  0
LINE
  5
12C7EB
330
18
100
AcDbEntity
  8
姿図
100
AcDbLine
 10
9153.543427298693
 20
-3861.496773551796
 30
-0.0000000000000049
 11
9154.397451836689
 21
-3860.159769483957
 31
-0.0000000000000049
  0
LINE
  5
12C7EC
330
18
100
AcDbEntity
  8
姿図
100
AcDbLine
 10
9154.187920468254
 20
-3861.423713320893
 30
-0.0000000000000049
 11
9155.071775299137
 21
-3860.040008928696
 31
-0.0000000000000049
  0
LINE
  5
12C7ED
330
18
100
AcDbEntity
  8
姿図
100
AcDbLine
 10
9154.852873942842
 20
-3861.431164209018
 30
-0.0000000000000049
 11
9155.829751488458
 21
-3860.009206644302
 31
-0.0000000000000049
  0
LINE
  5
12C7EE
330
18
100
AcDbEntity
  8
姿図
100
AcDbLine
 10
9155.50594484477
 20
-3861.509485571774
 30
-0.0000000000000049
 11
9156.501595125701
 21
-3860.060202132789
 31
-0.0000000000000049
  0
LINE
  5
12C7EF
330
18
100
AcDbEntity
  8
姿図
100
AcDbLine
 10
9156.03722671187
 20
-3861.620046195951
 30
-0.0000000000000049
 11
9157.225583426687
 21
-3860.18795070278
 31
-0.0000000000000049
  0
LINE
  5
12C7F0
330
18
100
AcDbEntity
  8
姿図
100
AcDbLine
 10
9156.704828326134
 20
-3861.814199616834
 30
-0.0000000000000049
 11
9157.903068991684
 21
-3860.370192917941
 31
-0.0000000000000049
  0
LINE
  5
12C7F1
330
18
100
AcDbEntity
  8
姿図
100
AcDbLine
 10
9157.371126946553
 20
-3862.066094730165
 30
-0.0000000000000049
 11
9158.671556615922
 21
-3860.656771734283
 31
-0.0000000000000049
  0
LINE
  5
12C7F2
330
18
100
AcDbEntity
  8
姿図
100
AcDbLine
 10
9158.088897938293
 20
-3862.400122730819
 30
-0.0000000000000049
 11
9159.41967202272
 21
-3860.95791438716
 31
-0.0000000000000049
  0
LINE
  5
12C7F3
330
18
100
AcDbEntity
  8
姿図
100
AcDbLine
 10
9158.699453984074
 20
-3862.734751241086
 30
-0.0000000000000049
 11
9160.12125975105
 21
-3861.322261269055
 31
-0.0000000000000049
  0
LINE
  5
12C7F4
330
18
100
AcDbEntity
  8
姿図
100
AcDbLine
 10
9164.714915729819
 20
-3878.134155129422
 30
-0.0000000000000049
 11
9166.268446377095
 21
-3877.53740702751
 31
-0.0000000000000049
  0
LINE
  5
12C7F5
330
18
100
AcDbEntity
  8
姿図
100
AcDbLine
 10
9165.178452829587
 20
-3877.581209188788
 30
-0.0000000000000049
 11
9166.89374662687
 21
-3876.819045200938
 31
-0.0000000000000049
  0
LINE
  5
12C7F6
330
18
100
AcDbEntity
  8
姿図
100
AcDbLine
 10
9165.496591205982
 20
-3877.099446404175
 30
-0.0000000000000049
 11
9167.301375070143
 21
-3876.090891372191
 31
-0.0000000000000049
  0
LINE
  5
12C7F7
330
18
100
AcDbEntity
  8
姿図
100
AcDbLine
 10
9165.718757086146
 20
-3876.610212808357
 30
-0.0000000000000049
 11
9167.57056391791
 21
-3875.340261854347
 31
-0.0000000000000049
  0
LINE
  5
12C7F8
330
18
100
AcDbEntity
  8
姿図
100
AcDbLine
 10
9165.93751850626
 20
-3875.888392889894
 30
-0.0000000000000049
 11
9167.72091231352
 21
-3874.60858492908
 31
-0.0000000000000049
  0
LINE
  5
12C7F9
330
18
100
AcDbEntity
  8
姿図
100
AcDbLine
 10
9166.059165985474
 20
-3875.138038874359
 30
-0.0000000000000049
 11
9167.800555739906
 21
-3873.82496573088
 31
-0.0000000000000049
  0
LINE
  5
12C7FA
330
18
100
AcDbEntity
  8
姿図
100
AcDbLine
 10
9166.094993324019
 20
-3874.421888376677
 30
-0.0000000000000049
 11
9167.800394784124
 21
-3873.135951755989
 31
-0.0000000000000049
  0
LINE
  5
12C7FB
330
18
100
AcDbEntity
  8
姿図
100
AcDbLine
 10
9164.947902528413
 20
-3869.018630132178
 30
-0.0000000000000049
 11
9166.238004662944
 21
-3867.838239655602
 31
-0.0000000000000049
  0
LINE
  5
12C7FC
330
18
100
AcDbEntity
  8
姿図
100
AcDbLine
 10
9164.945313748816
 20
-3868.097024596856
 30
-0.0000000000000049
 11
9165.901068239444
 21
-3867.174376130472
 31
-0.0000000000000049
  0
LINE
  5
12C7FD
330
18
100
AcDbEntity
  8
姿図
100
AcDbLine
 10
9164.942564603061
 20
-3867.118328708595
 30
-0.0000000000000049
 11
9165.491265651279
 21
-3866.573222797331
 31
-0.0000000000000049
  0
LINE
  5
12C7FE
330
18
100
AcDbEntity
  8
姿図
100
AcDbLine
 10
9164.93904458358
 20
-3865.865201772797
 30
-0.0000000000000049
 11
9164.977244903239
 21
-3865.827251744954
 31
-0.0000000000000049
  0
LINE
  5
12C7FF
330
18
100
AcDbEntity
  8
姿図
100
AcDbLine
 10
9160.800776753822
 20
-3864.189941918415
 30
-0.0000000000000049
 11
9161.191819885305
 21
-3863.801460935512
 31
-0.0000000000000049
  0
LINE
  5
12C800
330
18
100
AcDbEntity
  8
姿図
100
AcDbLine
 10
9160.246154447628
 20
-3863.819689127134
 30
-0.0000000000000049
 11
9161.175959360131
 21
-3862.895976377221
 31
-0.0000000000000049
  0
LINE
  5
12C801
330
18
100
AcDbEntity
  8
姿図
100
AcDbLine
 10
9159.760162652477
 20
-3863.427954358728
 30
-0.0000000000000049
 11
9161.168372072007
 21
-3862.028971649693
 31
-0.0000000000000049
  0
LINE
  5
12C802
330
18
100
AcDbEntity
  8
姿図
100
AcDbLine
 10
9159.255546594059
 20
-3863.080193931713
 30
-0.0000000000000049
 11
9160.659173044067
 21
-3861.685764164183
 31
-0.0000000000000049
  0
LINE
  5
12C803
330
18
100
AcDbEntity
  8
姿図
100
AcDbLine
 10
9151.924441879455
 20
-3862.166216251293
 30
-0.0000000000000049
 11
9153.08770940599
 21
-3860.727431352444
 31
-0.0000000000000049
  0
LINE
  5
12C804
330
18
100
AcDbEntity
  8
姿図
100
AcDbLine
 10
9165.715808262314
 20
-3877.960589352774
 30
-0.0000000000000049
 11
9163.577330194385
 21
-3878.864512550814
 31
-0.0000000000000049
  0
LINE
  5
12C805
330
18
100
AcDbEntity
  8
姿図
100
AcDbLine
 10
9151.930358608271
 20
-3861.873362824735
 30
-0.0000000000000049
 11
9151.02818361167
 21
-3863.077739523265
 31
-0.0000000000000049
  0
SPLINE
  5
12C806
330
18
100
AcDbEntity
  8
姿図
100
AcDbSpline
210
0.0
220
0.0
230
1.0
 70
     8
 71
     3
 72
     8
 73
     4
 74
     0
 42
0.000000001
 43
0.0000000001
 40
0.1965331616420136
 40
0.1965331616420136
 40
0.1965331616420136
 40
0.1965331616420136
 40
1.0
 40
1.0
 40
1.0
 40
1.0
 10
9151.930358608213
 20
-3861.873362824822
 30
-0.0000000000000049
 10
9152.169547058627
 20
-3861.519141824239
 30
-0.0000000000000049
 10
9152.457507060022
 20
-3861.204899028349
 30
-0.0000000000000049
 10
9152.79513728968
 20
-3860.938153979252
 30
-0.0000000000000049
  0
SPLINE
  5
12C807
330
18
100
AcDbEntity
  8
姿図
100
AcDbSpline
210
0.0
220
0.0
230
1.0
 70
     8
 71
     3
 72
     8
 73
     4
 74
     0
 42
0.000000001
 43
0.0000000001
 40
1.0
 40
1.0
 40
1.0
 40
1.0
 40
1.717304937524366
 40
1.717304937524366
 40
1.717304937524366
 40
1.717304937524366
 10
9152.79513728968
 20
-3860.938153979252
 30
-0.0000000000000049
 10
9154.82971626662
 20
-3859.331673025527
 30
-0.0000000000000049
 10
9158.114638420422
 20
-3859.876131173562
 30
-0.0000000000000049
 10
9161.16015030552
 20
-3862.023171124093
 30
-0.0000000000000049
  0
SPLINE
  5
12C808
330
18
100
AcDbEntity
  8
姿図
100
AcDbSpline
210
0.0
220
0.0
230
1.0
 70
     8
 71
     3
 72
     8
 73
     4
 74
     0
 42
0.000000001
 43
0.0000000001
 40
2.035708011477609
 40
2.035708011477609
 40
2.035708011477609
 40
2.035708011477609
 40
2.200999776031781
 40
2.200999776031781
 40
2.200999776031781
 40
2.200999776031781
 10
9164.938790209719
 20
-3865.7746446805
 30
-0.0000000000000049
 10
9165.508346236933
 20
-3866.550789916109
 30
-0.0000000000000049
 10
9165.995672219677
 20
-3867.348441610638
 30
-0.0000000000000049
 10
9166.398448264805
 20
-3868.148297022465
 30
-0.0000000000000049
  0
SPLINE
  5
12C809
330
18
100
AcDbEntity
  8
姿図
100
AcDbSpline
210
0.0
220
0.0
230
1.0
 70
     8
 71
     3
 72
     8
 73
     4
 74
     0
 42
0.000000001
 43
0.0000000001
 40
2.512333742069994
 40
2.512333742069994
 40
2.512333742069994
 40
2.512333742069994
 40
3.0
 40
3.0
 40
3.0
 40
3.0
 10
9167.759001648205
 20
-3872.562448498166
 30
-0.0000000000000049
 10
9167.983342219304
 20
-3874.744741534701
 30
-0.0000000000000049
 10
9167.433684045385
 20
-3876.629743350557
 30
-0.0000000000000049
 10
9166.05044960179
 20
-3877.721737334951
 30
-0.0000000000000049
  0
SPLINE
  5
12C80A
330
18
100
AcDbEntity
  8
姿図
100
AcDbSpline
210
0.0
220
0.0
230
1.0
 70
     8
 71
     3
 72
     8
 73
     4
 74
     0
 42
0.000000001
 43
0.0000000001
 40
3.0
 40
3.0
 40
3.0
 40
3.0
 40
4.0
 40
4.0
 40
4.0
 40
4.0
 10
9166.05044960179
 20
-3877.721737334951
 30
-0.0000000000000049
 10
9165.94272064442
 20
-3877.807334687072
 30
-0.0000000000000049
 10
9165.830918382959
 20
-3877.886962279662
 30
-0.0000000000000049
 10
9165.715808262314
 20
-3877.960589352774
 30
-0.0000000000000049
  0
ELLIPSE
  5
12C80B
330
18
100
AcDbEntity
  8
姿図
100
AcDbEllipse
 10
9158.130281375734
 20
-3870.305736793959
 30
-0.0000000000000049
 11
6.345720350116849
 21
-8.034347898309269
 31
0.0
210
0.0
220
0.0
230
1.0
 40
0.599100293292208
 41
1.823284194715306
 42
7.027023732040409
  0
SPLINE
  5
12C80C
330
18
100
AcDbEntity
  8
姿図
100
AcDbSpline
210
0.0
220
0.0
230
1.0
 70
     8
 71
     3
 72
    11
 73
     7
 74
     0
 42
0.000000001
 43
0.0000000001
 40
1.006377578182846
 40
1.006377578182846
 40
1.006377578182846
 40
1.006377578182846
 40
2.0
 40
2.0
 40
2.0
 40
2.914863247510368
 40
2.914863247510368
 40
2.914863247510368
 40
2.914863247510368
 10
9164.283245785193
 20
-3876.983728732685
 30
-0.0000000000000049
 10
9161.90234821554
 20
-3878.799084320228
 30
-0.0000000000000049
 10
9157.482804889074
 20
-3877.105413084527
 30
-0.0000000000000049
 10
9154.377433702986
 20
-3873.173665155303
 30
-0.0000000000000049
 10
9151.518208804624
 20
-3869.553566011059
 30
-0.0000000000000049
 10
9150.762583552723
 20
-3865.290017919689
 30
-0.0000000000000049
 10
9152.470023000944
 20
-3863.15594130492
 30
-0.0000000000000049
  0
SPLINE
  5
12C80D
330
18
100
AcDbEntity
  8
姿図
100
AcDbSpline
210
0.0
220
0.0
230
1.0
 70
     8
 71
     3
 72
     8
 73
     4
 74
     0
 42
0.000000001
 43
0.0000000001
 40
0.9229664054401968
 40
0.9229664054401968
 40
0.9229664054401968
 40
0.9229664054401968
 40
1.0
 40
1.0
 40
1.0
 40
1.0
 10
9164.135121599722
 20
-3877.156505363476
 30
-0.0000000000000049
 10
9164.105812799824
 20
-3877.181328181124
 30
-0.0000000000000049
 10
9164.07601762263
 20
-3877.205691445361
 30
-0.0000000000000049
 10
9164.045735058971
 20
-3877.229587486328
 30
-0.0000000000000049
  0
SPLINE
  5
12C80E
330
18
100
AcDbEntity
  8
姿図
100
AcDbSpline
210
0.0
220
0.0
230
1.0
 70
     8
 71
     3
 72
    11
 73
     7
 74
     0
 42
0.000000001
 43
0.0000000001
 40
1.0
 40
1.0
 40
1.0
 40
1.0
 40
2.0
 40
2.0
 40
2.0
 40
2.939685942522726
 40
2.939685942522726
 40
2.939685942522726
 40
2.939685942522726
 10
9164.045735058971
 20
-3877.229587486328
 30
-0.0000000000000049
 10
9161.676032802538
 20
-3879.101982244359
 30
-0.0000000000000049
 10
9157.219633409894
 20
-3877.41189748476
 30
-0.0000000000000049
 10
9154.094330359254
 20
-3873.454913581323
 30
-0.0000000000000049
 10
9151.157527016447
 20
-3869.736591432476
 30
-0.0000000000000049
 10
9150.44002456055
 20
-3865.339429647273
 30
-0.0000000000000049
 10
9152.33134887574
 20
-3863.268238481396
 30
-0.0000000000000049
  0
ELLIPSE
  5
12C80F
330
18
100
AcDbEntity
  8
姿図
100
AcDbEllipse
 10
9158.089743861474
 20
-3870.351066640602
 30
-0.0000000000000049
 11
5.658528960203296
 21
-7.164946380137482
 31
0.0
210
0.0
220
0.0
230
1.0
 40
0.599147451823625
 41
1.762902223085391
 42
6.905133460343203
  0
ARC
  5
12C810
330
18
100
AcDbEntity
  8
姿図
100
AcDbCircle
 10
9170.887675562297
 20
-3878.665794147878
 30
0.0000000000000021
 40
25.3380709606828
100
AcDbArc
 50
122.3084529787678
 51
135.7349311667313
  0
SPLINE
  5
12C811
330
18
100
AcDbEntity
  8
姿図
100
AcDbSpline
210
0.0
220
0.0
230
1.0
 70
     8
 71
     3
 72
     8
 73
     4
 74
     0
 42
0.000000001
 43
0.0000000001
 40
0.0
 40
0.0
 40
0.0
 40
0.0
 40
1.0
 40
1.0
 40
1.0
 40
1.0
 10
9148.437715998705
 20
-3870.619423943715
 30
-0.000000000000002
 10
9148.437715998705
 20
-3870.619423943715
 30
-0.000000000000002
 10
9148.511045227739
 20
-3869.556150122718
 30
-0.000000000000002
 10
9149.39099597615
 20
-3869.299497821098
 30
-0.000000000000002
  0
SPLINE
  5
12C812
330
18
100
AcDbEntity
  8
姿図
100
AcDbSpline
210
0.0
220
0.0
230
1.0
 70
    24
 71
     3
 72
     8
 73
     4
 74
     0
 42
0.000000001
 43
0.0000000001
 40
1.0
 40
1.0
 40
1.0
 40
1.0
 40
1.393833769293731
 40
1.393833769293731
 40
1.393833769293731
 40
1.393833769293731
 10
9149.39099597615
 20
-3869.299497821098
 30
-0.000000000000002
 10
9149.39099597615
 20
-3869.299497821098
 30
-0.000000000000002
 10
9149.931248286233
 20
-3869.140265561284
 30
-0.000000000000002
 10
9150.5862136991
 20
-3868.947223123807
 30
-0.000000000000002
  0
SPLINE
  5
12C813
330
18
100
AcDbEntity
  8
姿図
100
AcDbSpline
210
0.0
220
0.0
230
1.0
 70
    24
 71
     3
 72
     8
 73
     4
 74
     0
 42
0.000000001
 43
0.0000000001
 40
0.4012857163103425
 40
0.4012857163103425
 40
0.4012857163103425
 40
0.4012857163103425
 40
1.0
 40
1.0
 40
1.0
 40
1.0
 10
9151.935502306085
 20
-3872.069656667846
 30
-0.000000000000002
 10
9151.112758423707
 20
-3872.354452627132
 30
-0.000000000000002
 10
9150.087623651974
 20
-3872.709306971192
 30
-0.000000000000002
 10
9150.087623651974
 20
-3872.709306971192
 30
-0.000000000000002
  0
SPLINE
  5
12C814
330
18
100
AcDbEntity
  8
姿図
100
AcDbSpline
210
0.0
220
0.0
230
1.0
 70
     8
 71
     3
 72
    11
 73
     7
 74
     0
 42
0.000000001
 43
0.0000000001
 40
1.0
 40
1.0
 40
1.0
 40
1.0
 40
2.0
 40
2.0
 40
2.0
 40
3.0
 40
3.0
 40
3.0
 40
3.0
 10
9150.087623651974
 20
-3872.709306971192
 30
-0.000000000000002
 10
9150.087623651974
 20
-3872.709306971192
 30
-0.000000000000002
 10
9148.877691372909
 20
-3872.709306971192
 30
-0.000000000000002
 10
9148.767697529358
 20
-3871.242722390506
 30
-0.000000000000002
 10
9148.657703685807
 20
-3869.77613780982
 30
-0.000000000000002
 10
9149.39099597615
 20
-3869.372827050131
 30
-0.000000000000002
 10
9150.634904722392
 20
-3869.110441850121
 30
-0.0000000000000049
  0
ARC
  5
12C815
330
18
100
AcDbEntity
  8
姿図
100
AcDbCircle
 10
9149.667167375326
 20
-3871.376328024512
 30
0.0000000000000001
 40
1.39771826662869
100
AcDbArc
 50
183.6729462863089
 51
287.5066316715707
  0
ARC
  5
12C816
330
18
100
AcDbEntity
  8
姿図
100
AcDbCircle
 10
9149.862953267462
 20
-3871.321854627064
 30
0.0000000000000001
 40
1.405525093659503
100
AcDbArc
 50
185.5344879553507
 51
279.1980740969914
  0
ARC
  5
12C817
330
18
100
AcDbEntity
  8
姿図
100
AcDbCircle
 10
9177.91016806756
 20
-3883.497807271284
 30
0.0
 40
31.4649624131975
100
AcDbArc
 50
106.8206178016316
 51
115.8532184889598
  0
ARC
  5
12C818
330
18
100
AcDbEntity
  8
姿図
100
AcDbCircle
 10
9198.722131979443
 20
-3891.648507069832
 30
-0.0000000000000049
 40
40.56018356058101
100
AcDbArc
 50
123.532898720332
 51
134.5035428112622
  0
ARC
  5
12C819
330
18
100
AcDbEntity
  8
姿図
100
AcDbCircle
 10
9191.385434119544
 20
-3822.762680898423
 30
0.0
 40
38.04261702582006
100
AcDbArc
 50
233.5901345256827
 51
246.6642495118394
  0
ARC
  5
12C81A
330
18
100
AcDbEntity
  8
姿図
100
AcDbCircle
 10
9176.259294986152
 20
-3857.766096874181
 30
0.0
 40
0.0922363223659767
100
AcDbArc
 50
307.9750042488748
 51
52.02499575112518
  0
ENDSEC
  0
SECTION
  2
OBJECTS
  0
DICTIONARY
  5
C
330
0
100
AcDbDictionary
281
     1
  3
ACAD_GROUP
350
D
  3
ACAD_IMAGE_VARS
350
12C9A7
  3
ACAD_LAYOUT
350
617
  3
ACAD_MLINESTYLE
350
E
  3
ACAD_PLOTSETTINGS
350
618
  3
ACAD_PLOTSTYLENAME
350
615
  3
ACAD_SCALELIST
350
A36
  3
AcadDim
350
AB4
  3
AcDbVariableDictionary
350
6DE
  3
AEC_DISP_REPS
350
12C9B0
  3
AEC_DISPLAY_PROPS_DEFAULTS
350
12C9B2
  3
AEC_VARS
350
12C9AE
  3
APPDATA
350
12C9A6
  3
DWGPROPS
350
12CA0E
  0
DICTIONARY
  5
8BF
330
2
100
AcDbDictionary
280
     1
281
     1
  3
ACAD_LAYERSTATES
360
8C0
  0
DICTIONARY
  5
A60
330
F
100
AcDbDictionary
280
     1
281
     1
  3
ADSK_XREC_LAYER_RECONCILED
360
A61
  0
DICTIONARY
  5
A66
330
34
100
AcDbDictionary
280
     1
281
     1
  3
ADSK_XREC_LAYER_RECONCILED
360
A67
  0
DICTIONARY
  5
A6E
330
2F4
100
AcDbDictionary
280
     1
281
     1
  3
ADSK_XREC_LAYER_RECONCILED
360
A6F
  0
DICTIONARY
  5
A72
330
305
100
AcDbDictionary
280
     1
281
     1
  3
ADSK_XREC_LAYER_RECONCILED
360
A73
  0
DICTIONARY
  5
143F
330
18
100
AcDbDictionary
280
     1
281
     1
  3
ACAD_SORTENTS
360
1440
  0
DICTIONARY
  5
D
102
{ACAD_REACTORS
330
C
102
}
330
C
100
AcDbDictionary
281
     1
  0
RASTERVARIABLES
  5
12C9A7
102
{ACAD_REACTORS
330
C
102
}
330
C
100
AcDbRasterVariables
 90
        0
 70
     1
 71
     1
 72
     0
  0
DICTIONARY
  5
617
102
{ACAD_REACTORS
330
C
102
}
330
C
100
AcDbDictionary
281
     1
  3
Model
350
619
  3
ﾚｲｱｳﾄ1
350
61A
  0
DICTIONARY
  5
E
102
{ACAD_REACTORS
330
C
102
}
330
C
100
AcDbDictionary
281
     1
  3
STANDARD
350
1B
  0
DICTIONARY
  5
618
102
{ACAD_REACTORS
330
C
102
}
330
C
100
AcDbDictionary
281
     1
  0
ACDBDICTIONARYWDFLT
  5
615
102
{ACAD_REACTORS
330
C
102
}
330
C
100
AcDbDictionary
281
     1
  3
Normal
350
616
100
AcDbDictionaryWithDefault
340
616
  0
DICTIONARY
  5
A36
102
{ACAD_REACTORS
330
C
102
}
330
C
100
AcDbDictionary
281
     1
  3
A0
350
A37
  3
A1
350
A38
  3
A2
350
A39
  3
A3
350
A3A
  3
A4
350
A3B
  3
A5
350
A3C
  3
A6
350
A3D
  3
A7
350
A3E
  3
A8
350
A3F
  3
A9
350
A40
  3
B0
350
A41
  3
B1
350
A42
  3
B2
350
A43
  3
B3
350
A44
  3
B4
350
A45
  3
B5
350
A46
  3
B6
350
A47
  3
B7
350
A48
  3
B8
350
A49
  3
B9
350
A4A
  3
C0
350
A4B
  3
C1
350
A4C
  3
C2
350
A4D
  3
C3
350
A4E
  3
C4
350
A4F
  3
C5
350
A50
  3
C6
350
A51
  3
C7
350
A52
  3
C8
350
A53
  3
C9
350
A54
  3
D0
350
A55
  3
D1
350
A56
  3
D2
350
A57
  0
XRECORD
  5
AB4
102
{ACAD_REACTORS
330
C
102
}
330
C
100
AcDbXrecord
280
     1
 90
   990106
  3
OPEN
 60
     0
 61
     0
 62
     1
 63
     3
 64
     1
 65
     0
 66
     0
 67
     3
 68
     1
 69
     0
 70
     0
 71
     0
 72
     0
 40
0.0
170
     2
  0
DICTIONARY
  5
6DE
102
{ACAD_REACTORS
330
C
102
}
330
C
100
AcDbDictionary
281
     1
  3
DIMASSOC
350
6DF
  3
INDEXCTL
350
A93
  3
PROJECTNAME
350
6E0
  3
SORTENTS
350
A92
  0
DICTIONARY
  5
12C9B0
102
{ACAD_REACTORS
330
C
102
}
330
C
100
AcDbDictionary
281
     1
  3
AecDbDispRep2dSection
350
12C9B1
  3
AecDbDispRepAnchor
350
12C9EB
  3
AecDbDispRepAnchorEntToNode
350
12C9EC
  3
AecDbDispRepClipVolModel
350
12C9B8
  3
AecDbDispRepClipVolPlan
350
12C9BA
  3
AecDbDispRepClipVolResSubDiv
350
12C9BD
  3
AecDbDispRepClipVolResult
350
12C9BC
  3
AecDbDispRepDisplayTheme
350
12C9BF
  3
AecDbDispRepEditInPlaceProfile
350
12C9F0
  3
AecDbDispRepEntRef
350
12C9C1
  3
AecDbDispRepLayoutCurve
350
12C9C3
  3
AecDbDispRepLayoutGrid2d
350
12C9C5
  3
AecDbDispRepLayoutGrid3d
350
12C9C7
  3
AecDbDispRepMaskBlockRef
350
12C9C9
  3
AecDbDispRepMaskBlockRefRcp
350
12C9CB
  3
AecDbDispRepMassElemModel
350
12C9CD
  3
AecDbDispRepMassElemPlan100
350
12C9D3
  3
AecDbDispRepMassElemPlan50
350
12C9D1
  3
AecDbDispRepMassElemRcp
350
12C9D5
  3
AecDbDispRepMassElemSchem
350
12C9CF
  3
AecDbDispRepMassGroupModel
350
12C9D7
  3
AecDbDispRepMassGroupPlan
350
12C9D9
  3
AecDbDispRepMassGroupPlan100
350
12C9DD
  3
AecDbDispRepMassGroupPlan50
350
12C9DB
  3
AecDbDispRepMassGroupRcp
350
12C9DF
  3
AecDbDispRepMaterial
350
12C9EE
  3
AecDbDispRepMvBlockRef
350
12C9E1
  3
AecDbDispRepMvBlockRefModel
350
12C9E2
  3
AecDbDispRepMvBlockRefPlan100
350
12C9E3
  3
AecDbDispRepMvBlockRefPlan50
350
12C9E4
  3
AecDbDispRepPolygonModel
350
12C9E5
  3
AecDbDispRepPolygonTrueColour
350
12C9E7
  3
AecDbDispRepSlice
350
12C9E9
  0
DICTIONARY
  5
12C9B2
102
{ACAD_REACTORS
330
C
102
}
330
C
100
AcDbDictionary
281
     1
  3
*A1
350
12C9B3
  3
*A10
350
12C9CA
  3
*A11
350
12C9CC
  3
*A12
350
12C9CE
  3
*A13
350
12C9D0
  3
*A14
350
12C9D2
  3
*A15
350
12C9D4
  3
*A16
350
12C9D6
  3
*A17
350
12C9D8
  3
*A18
350
12C9DA
  3
*A19
350
12C9DC
  3
*A2
350
12C9B9
  3
*A20
350
12C9DE
  3
*A21
350
12C9E0
  3
*A22
350
12C9E6
  3
*A23
350
12C9E8
  3
*A24
350
12C9EA
  3
*A25
350
12C9ED
  3
*A26
350
12C9EF
  3
*A27
350
12C9F1
  3
*A3
350
12C9BB
  3
*A4
350
12C9BE
  3
*A5
350
12C9C0
  3
*A6
350
12C9C2
  3
*A7
350
12C9C4
  3
*A8
350
12C9C6
  3
*A9
350
12C9C8
  0
DICTIONARY
  5
12C9AE
102
{ACAD_REACTORS
330
C
102
}
330
C
100
AcDbDictionary
281
     1
  3
AEC_VARS_DWG_SETUP
350
12C9AF
  0
DICTIONARY
  5
12C9A6
102
{ACAD_REACTORS
330
C
102
}
330
C
100
AcDbDictionary
281
     1
  0
XRECORD
  5
12CA0E
102
{ACAD_REACTORS
330
C
102
}
330
C
100
AcDbXrecord
280
     1
  1
DWGPROPS COOKIE
  2

  3

  4

  6

  7

  8
SPAX
  9

300
=
301
=
302
=
303
=
304
=
305
=
306
=
307
=
308
=
309
=
 40
0.0
 41
2448636.244629629
 42
2456821.238782824
  1

 90
        0
  0
DICTIONARY
  5
8C0
102
{ACAD_REACTORS
330
8BF
102
}
330
8BF
100
AcDbDictionary
281
     1
  0
XRECORD
  5
A61
102
{ACAD_REACTORS
330
A60
102
}
330
A60
100
AcDbXrecord
280
     1
290
     1
  0
XRECORD
  5
A67
102
{ACAD_REACTORS
330
A66
102
}
330
A66
100
AcDbXrecord
280
     1
290
     1
  0
XRECORD
  5
A6F
102
{ACAD_REACTORS
330
A6E
102
}
330
A6E
100
AcDbXrecord
280
     1
290
     1
  0
XRECORD
  5
A73
102
{ACAD_REACTORS
330
A72
102
}
330
A72
100
AcDbXrecord
280
     1
290
     1
  0
SORTENTSTABLE
  5
1440
102
{ACAD_REACTORS
330
143F
102
}
330
143F
100
AcDbSortentsTable
330
18
331
0
  5
FB8E1
331
D0CC6
  5
D0CC6
331
F6D77
  5
F6D77
331
F6D78
  5
F6D78
  0
LAYOUT
  5
619
102
{ACAD_REACTORS
330
617
102
}
330
617
100
AcDbPlotSettings
  1

  2
JUST PDF 2
  4
A4
  6

 40
3.174999952316284
 41
3.174999952316284
 42
3.175003051757812
 43
3.17498779296875
 44
209.8886566162109
 45
297.0530090332031
 46
14.27171755861491
 47
9.855173074625668
 48
9117.44086834287
 49
-4311.034703001
140
9467.431305332684
141
-3769.049352723666
142
1.0
143
2.0
 70
  3748
 72
     1
 73
     0
 74
     4
  7
spax form.ctb
 75
     0
147
2.049951397771953
148
-9117.44086834287
149
4311.034703001
100
AcDbLayout
  1
Model
 70
     1
 71
     0
 10
0.0
 20
0.0
 11
12.0
 21
9.0
 12
0.0
 22
0.0
 32
0.0
 14
9124.181534319152
 24
-3901.771722220947
 34
-0.0000000000000131
 15
9193.460544997244
 25
-3822.070723074327
 35
0.0000000000000108
146
0.0
 13
0.0
 23
0.0
 33
0.0
 16
1.0
 26
0.0
 36
0.0
 17
0.0
 27
1.0
 37
0.0
 76
     0
330
18
331
12AFF3
1001
ACAD_PSEXT
1000
JUST PDF 2
1000
JUST PDF 2
1000
JUST PDF 2 Port:
1000

1070
     0
  0
LAYOUT
  5
61A
102
{ACAD_REACTORS
330
617
102
}
330
617
100
AcDbPlotSettings
  1

  2
Canon LASER SHOT LBP-750
  4

  6

 40
0.0
 41
0.0
 42
0.0
 43
0.0
 44
0.0
 45
0.0
 46
0.0
 47
0.0
 48
0.0
 49
0.0
140
0.0
141
0.0
142
1.0
143
1.0
 70
   688
 72
     0
 73
     0
 74
     5
  7
spax form.ctb
 75
    16
147
1.0
148
0.0
149
0.0
100
AcDbLayout
  1
ﾚｲｱｳﾄ1
 70
     0
 71
     1
 10
0.0
 20
0.0
 11
12.0
 21
9.0
 12
0.0
 22
0.0
 32
0.0
 14
1.000000000000000E+20
 24
1.000000000000000E+20
 34
1.000000000000000E+20
 15
-1.000000000000000E+20
 25
-1.000000000000000E+20
 35
-1.000000000000000E+20
146
0.0
 13
0.0
 23
0.0
 33
0.0
 16
1.0
 26
0.0
 36
0.0
 17
0.0
 27
1.0
 37
0.0
 76
     0
330
15
  0
MLINESTYLE
  5
1B
102
{ACAD_REACTORS
330
E
102
}
330
E
100
AcDbMlineStyle
  2
STANDARD
 70
     0
  3

 62
     0
 51
90.0
 52
90.0
 71
     2
 49
0.5
 62
   256
  6
BYLAYER
 49
-0.5
 62
   256
  6
BYLAYER
  0
ACDBPLACEHOLDER
  5
616
102
{ACAD_REACTORS
330
615
102
}
330
615
  0
SCALE
  5
A37
102
{ACAD_REACTORS
330
A36
102
}
330
A36
100
AcDbScale
 70
     0
300
1:1
140
1.0
141
1.0
290
     1
  0
SCALE
  5
A38
102
{ACAD_REACTORS
330
A36
102
}
330
A36
100
AcDbScale
 70
     0
300
1:2
140
1.0
141
2.0
290
     0
  0
SCALE
  5
A39
102
{ACAD_REACTORS
330
A36
102
}
330
A36
100
AcDbScale
 70
     0
300
1:4
140
1.0
141
4.0
290
     0
  0
SCALE
  5
A3A
102
{ACAD_REACTORS
330
A36
102
}
330
A36
100
AcDbScale
 70
     0
300
1:5
140
1.0
141
5.0
290
     0
  0
SCALE
  5
A3B
102
{ACAD_REACTORS
330
A36
102
}
330
A36
100
AcDbScale
 70
     0
300
1:8
140
1.0
141
8.0
290
     0
  0
SCALE
  5
A3C
102
{ACAD_REACTORS
330
A36
102
}
330
A36
100
AcDbScale
 70
     0
300
1:10
140
1.0
141
10.0
290
     0
  0
SCALE
  5
A3D
102
{ACAD_REACTORS
330
A36
102
}
330
A36
100
AcDbScale
 70
     0
300
1:16
140
1.0
141
16.0
290
     0
  0
SCALE
  5
A3E
102
{ACAD_REACTORS
330
A36
102
}
330
A36
100
AcDbScale
 70
     0
300
1:20
140
1.0
141
20.0
290
     0
  0
SCALE
  5
A3F
102
{ACAD_REACTORS
330
A36
102
}
330
A36
100
AcDbScale
 70
     0
300
1:30
140
1.0
141
30.0
290
     0
  0
SCALE
  5
A40
102
{ACAD_REACTORS
330
A36
102
}
330
A36
100
AcDbScale
 70
     0
300
1:40
140
1.0
141
40.0
290
     0
  0
SCALE
  5
A41
102
{ACAD_REACTORS
330
A36
102
}
330
A36
100
AcDbScale
 70
     0
300
1:50
140
1.0
141
50.0
290
     0
  0
SCALE
  5
A42
102
{ACAD_REACTORS
330
A36
102
}
330
A36
100
AcDbScale
 70
     0
300
1:100
140
1.0
141
100.0
290
     0
  0
SCALE
  5
A43
102
{ACAD_REACTORS
330
A36
102
}
330
A36
100
AcDbScale
 70
     0
300
2:1
140
2.0
141
1.0
290
     0
  0
SCALE
  5
A44
102
{ACAD_REACTORS
330
A36
102
}
330
A36
100
AcDbScale
 70
     0
300
4:1
140
4.0
141
1.0
290
     0
  0
SCALE
  5
A45
102
{ACAD_REACTORS
330
A36
102
}
330
A36
100
AcDbScale
 70
     0
300
8:1
140
8.0
141
1.0
290
     0
  0
SCALE
  5
A46
102
{ACAD_REACTORS
330
A36
102
}
330
A36
100
AcDbScale
 70
     0
300
10:1
140
10.0
141
1.0
290
     0
  0
SCALE
  5
A47
102
{ACAD_REACTORS
330
A36
102
}
330
A36
100
AcDbScale
 70
     0
300
100:1
140
100.0
141
1.0
290
     0
  0
SCALE
  5
A48
102
{ACAD_REACTORS
330
A36
102
}
330
A36
100
AcDbScale
 70
     0
300
1/128" = 1'-0"
140
0.0078125
141
12.0
290
     0
  0
SCALE
  5
A49
102
{ACAD_REACTORS
330
A36
102
}
330
A36
100
AcDbScale
 70
     0
300
1/64" = 1'-0"
140
0.015625
141
12.0
290
     0
  0
SCALE
  5
A4A
102
{ACAD_REACTORS
330
A36
102
}
330
A36
100
AcDbScale
 70
     0
300
1/32" = 1'-0"
140
0.03125
141
12.0
290
     0
  0
SCALE
  5
A4B
102
{ACAD_REACTORS
330
A36
102
}
330
A36
100
AcDbScale
 70
     0
300
1/16" = 1'-0"
140
0.0625
141
12.0
290
     0
  0
SCALE
  5
A4C
102
{ACAD_REACTORS
330
A36
102
}
330
A36
100
AcDbScale
 70
     0
300
3/32" = 1'-0"
140
0.09375
141
12.0
290
     0
  0
SCALE
  5
A4D
102
{ACAD_REACTORS
330
A36
102
}
330
A36
100
AcDbScale
 70
     0
300
1/8" = 1'-0"
140
0.125
141
12.0
290
     0
  0
SCALE
  5
A4E
102
{ACAD_REACTORS
330
A36
102
}
330
A36
100
AcDbScale
 70
     0
300
3/16" = 1'-0"
140
0.1875
141
12.0
290
     0
  0
SCALE
  5
A4F
102
{ACAD_REACTORS
330
A36
102
}
330
A36
100
AcDbScale
 70
     0
300
1/4" = 1'-0"
140
0.25
141
12.0
290
     0
  0
SCALE
  5
A50
102
{ACAD_REACTORS
330
A36
102
}
330
A36
100
AcDbScale
 70
     0
300
3/8" = 1'-0"
140
0.375
141
12.0
290
     0
  0
SCALE
  5
A51
102
{ACAD_REACTORS
330
A36
102
}
330
A36
100
AcDbScale
 70
     0
300
1/2" = 1'-0"
140
0.5
141
12.0
290
     0
  0
SCALE
  5
A52
102
{ACAD_REACTORS
330
A36
102
}
330
A36
100
AcDbScale
 70
     0
300
3/4" = 1'-0"
140
0.75
141
12.0
290
     0
  0
SCALE
  5
A53
102
{ACAD_REACTORS
330
A36
102
}
330
A36
100
AcDbScale
 70
     0
300
1" = 1'-0"
140
1.0
141
12.0
290
     0
  0
SCALE
  5
A54
102
{ACAD_REACTORS
330
A36
102
}
330
A36
100
AcDbScale
 70
     0
300
1-1/2" = 1'-0"
140
1.5
141
12.0
290
     0
  0
SCALE
  5
A55
102
{ACAD_REACTORS
330
A36
102
}
330
A36
100
AcDbScale
 70
     0
300
3" = 1'-0"
140
3.0
141
12.0
290
     0
  0
SCALE
  5
A56
102
{ACAD_REACTORS
330
A36
102
}
330
A36
100
AcDbScale
 70
     0
300
6" = 1'-0"
140
6.0
141
12.0
290
     0
  0
SCALE
  5
A57
102
{ACAD_REACTORS
330
A36
102
}
330
A36
100
AcDbScale
 70
     0
300
1'-0" = 1'-0"
140
12.0
141
12.0
290
     0
  0
DICTIONARYVAR
  5
6DF
102
{ACAD_REACTORS
330
6DE
102
}
330
6DE
100
DictionaryVariables
280
     0
  1
1
  0
DICTIONARYVAR
  5
A93
102
{ACAD_REACTORS
330
6DE
102
}
330
6DE
100
DictionaryVariables
280
     0
  1
0
  0
DICTIONARYVAR
  5
6E0
102
{ACAD_REACTORS
330
6DE
102
}
330
6DE
100
DictionaryVariables
280
     0
  1

  0
DICTIONARYVAR
  5
A92
102
{ACAD_REACTORS
330
6DE
102
}
330
6DE
100
DictionaryVariables
280
     0
  1
127
  0
ENDSEC
  0
EOF
