  0
SECTION
  2
HEADER
  9
$ACADVER
  1
AC1015
  9
$ACADMAINTVER
 70
     6
  9
$DWGCODEPAGE
  3
ANSI_932
  9
$INSBASE
 10
0.0
 20
0.0
 30
0.0
  9
$EXTMIN
 10
11168.74515579724
 20
-3310.395576220961
 30
-0.0000000000002538
  9
$EXTMAX
 10
11229.27154515528
 20
-3244.808826962125
 30
0.0000000000000939
  9
$LIMMIN
 10
0.0
 20
0.0
  9
$LIMMAX
 10
420.0
 20
297.0
  9
$ORTHOMODE
 70
     1
  9
$REGENMODE
 70
     1
  9
$FILLMODE
 70
     1
  9
$QTEXTMODE
 70
     0
  9
$MIRRTEXT
 70
     1
  9
$LTSCALE
 40
5.0
  9
$ATTMODE
 70
     0
  9
$TEXTSIZE
 40
53.44730959687513
  9
$TRACEWID
 40
1.0
  9
$TEXTSTYLE
  7
STANDARD
  9
$CLAYER
  8
0
  9
$CELTYPE
  6
BYLAYER
  9
$CECOLOR
 62
   256
  9
$CELTSCALE
 40
1.0
  9
$DISPSILH
 70
     0
  9
$DIMSCALE
 40
1.0
  9
$DIMASZ
 40
2.5
  9
$DIMEXO
 40
1.5
  9
$DIMDLI
 40
0.38
  9
$DIMRND
 40
0.0
  9
$DIMDLE
 40
0.0
  9
$DIMEXE
 40
1.0
  9
$DIMTP
 40
0.0
  9
$DIMTM
 40
0.0
  9
$DIMTXT
 40
2.500000000000003
  9
$DIMCEN
 40
0.0
  9
$DIMTSZ
 40
0.0
  9
$DIMTOL
 70
     0
  9
$DIMLIM
 70
     0
  9
$DIMTIH
 70
     0
  9
$DIMTOH
 70
     0
  9
$DIMSE1
 70
     0
  9
$DIMSE2
 70
     0
  9
$DIMTAD
 70
     3
  9
$DIMZIN
 70
     8
  9
$DIMBLK
  1

  9
$DIMASO
 70
     1
  9
$DIMSHO
 70
     0
  9
$DIMPOST
  1

  9
$DIMAPOST
  1

  9
$DIMALT
 70
     0
  9
$DIMALTD
 70
     0
  9
$DIMALTF
 40
25.4
  9
$DIMLFAC
 40
1.0
  9
$DIMTOFL
 70
     1
  9
$DIMTVP
 40
0.0
  9
$DIMTIX
 70
     0
  9
$DIMSOXD
 70
     0
  9
$DIMSAH
 70
     1
  9
$DIMBLK1
  1
OPEN
  9
$DIMBLK2
  1
OPEN
  9
$DIMSTYLE
  2
STANDARD
  9
$DIMCLRD
 70
     8
  9
$DIMCLRE
 70
     8
  9
$DIMCLRT
 70
   256
  9
$DIMTFAC
 40
1.0
  9
$DIMGAP
 40
1.0
  9
$DIMJUST
 70
     0
  9
$DIMSD1
 70
     0
  9
$DIMSD2
 70
     0
  9
$DIMTOLJ
 70
     1
  9
$DIMTZIN
 70
     0
  9
$DIMALTZ
 70
     0
  9
$DIMALTTZ
 70
     0
  9
$DIMUPT
 70
     0
  9
$DIMDEC
 70
     2
  9
$DIMTDEC
 70
     2
  9
$DIMALTU
 70
     2
  9
$DIMALTTD
 70
     0
  9
$DIMTXSTY
  7
STANDARD
  9
$DIMAUNIT
 70
     0
  9
$DIMADEC
 70
     2
  9
$DIMALTRND
 40
0.0
  9
$DIMAZIN
 70
     2
  9
$DIMDSEP
 70
    46
  9
$DIMATFIT
 70
     1
  9
$DIMFRAC
 70
     0
  9
$DIMLDRBLK
  1
OPEN
  9
$DIMLUNIT
 70
     2
  9
$DIMLWD
 70
    -2
  9
$DIMLWE
 70
    -2
  9
$DIMTMOVE
 70
     0
  9
$LUNITS
 70
     2
  9
$LUPREC
 70
     2
  9
$SKETCHINC
 40
0.1
  9
$FILLETRAD
 40
15.5
  9
$AUNITS
 70
     0
  9
$AUPREC
 70
     1
  9
$MENU
  1
FM
  9
$ELEVATION
 40
0.0
  9
$PELEVATION
 40
0.0
  9
$THICKNESS
 40
0.0
  9
$LIMCHECK
 70
     0
  9
$CHAMFERA
 40
0.0
  9
$CHAMFERB
 40
0.0
  9
$CHAMFERC
 40
0.0
  9
$CHAMFERD
 40
0.0
  9
$SKPOLY
 70
     0
  9
$TDCREATE
 40
2448636.619629629
  9
$TDUCREATE
 40
2448636.244629629
  9
$TDUPDATE
 40
2456822.487101435
  9
$TDUUPDATE
 40
2456822.112101435
  9
$TDINDWG
 40
49.4734036806
  9
$TDUSRTIMER
 40
2456822.111943623
  9
$USRTIMER
 70
     1
  9
$ANGBASE
 50
0.0
  9
$ANGDIR
 70
     0
  9
$PDMODE
 70
     3
  9
$PDSIZE
 40
0.0
  9
$PLINEWID
 40
0.0
  9
$SPLFRAME
 70
     0
  9
$SPLINETYPE
 70
     6
  9
$SPLINESEGS
 70
     8
  9
$HANDSEED
  5
153AF8
  9
$SURFTAB1
 70
     6
  9
$SURFTAB2
 70
     6
  9
$SURFTYPE
 70
     6
  9
$SURFU
 70
     6
  9
$SURFV
 70
     6
  9
$UCSBASE
  2

  9
$UCSNAME
  2

  9
$UCSORG
 10
0.0
 20
0.0
 30
0.0
  9
$UCSXDIR
 10
1.0
 20
0.0
 30
0.0
  9
$UCSYDIR
 10
0.0
 20
1.0
 30
0.0
  9
$UCSORTHOREF
  2

  9
$UCSORTHOVIEW
 70
     0
  9
$UCSORGTOP
 10
0.0
 20
0.0
 30
0.0
  9
$UCSORGBOTTOM
 10
0.0
 20
0.0
 30
0.0
  9
$UCSORGLEFT
 10
0.0
 20
0.0
 30
0.0
  9
$UCSORGRIGHT
 10
0.0
 20
0.0
 30
0.0
  9
$UCSORGFRONT
 10
0.0
 20
0.0
 30
0.0
  9
$UCSORGBACK
 10
0.0
 20
0.0
 30
0.0
  9
$PUCSBASE
  2

  9
$PUCSNAME
  2

  9
$PUCSORG
 10
0.0
 20
0.0
 30
0.0
  9
$PUCSXDIR
 10
1.0
 20
0.0
 30
0.0
  9
$PUCSYDIR
 10
0.0
 20
1.0
 30
0.0
  9
$PUCSORTHOREF
  2

  9
$PUCSORTHOVIEW
 70
     0
  9
$PUCSORGTOP
 10
0.0
 20
0.0
 30
0.0
  9
$PUCSORGBOTTOM
 10
0.0
 20
0.0
 30
0.0
  9
$PUCSORGLEFT
 10
0.0
 20
0.0
 30
0.0
  9
$PUCSORGRIGHT
 10
0.0
 20
0.0
 30
0.0
  9
$PUCSORGFRONT
 10
0.0
 20
0.0
 30
0.0
  9
$PUCSORGBACK
 10
0.0
 20
0.0
 30
0.0
  9
$USERI1
 70
     0
  9
$USERI2
 70
     0
  9
$USERI3
 70
     0
  9
$USERI4
 70
     0
  9
$USERI5
 70
     0
  9
$USERR1
 40
0.0
  9
$USERR2
 40
0.0
  9
$USERR3
 40
0.0
  9
$USERR4
 40
0.0
  9
$USERR5
 40
0.0
  9
$WORLDVIEW
 70
     0
  9
$SHADEDGE
 70
     3
  9
$SHADEDIF
 70
    70
  9
$TILEMODE
 70
     1
  9
$MAXACTVP
 70
    16
  9
$PINSBASE
 10
0.0
 20
0.0
 30
0.0
  9
$PLIMCHECK
 70
     0
  9
$PEXTMIN
 10
1.000000000000000E+20
 20
1.000000000000000E+20
 30
1.000000000000000E+20
  9
$PEXTMAX
 10
-1.000000000000000E+20
 20
-1.000000000000000E+20
 30
-1.000000000000000E+20
  9
$PLIMMIN
 10
0.0
 20
0.0
  9
$PLIMMAX
 10
0.0
 20
0.0
  9
$UNITMODE
 70
     0
  9
$VISRETAIN
 70
     0
  9
$PLINEGEN
 70
     0
  9
$PSLTSCALE
 70
     0
  9
$TREEDEPTH
 70
  3020
  9
$CMLSTYLE
  2
STANDARD
  9
$CMLJUST
 70
     0
  9
$CMLSCALE
 40
1.0
  9
$PROXYGRAPHICS
 70
     1
  9
$MEASUREMENT
 70
     0
  9
$CELWEIGHT
370
    -1
  9
$ENDCAPS
280
     0
  9
$JOINSTYLE
280
     0
  9
$LWDISPLAY
290
     0
  9
$INSUNITS
 70
     0
  9
$HYPERLINKBASE
  1

  9
$STYLESHEET
  1
spax form.ctb
  9
$XEDIT
290
     1
  9
$CEPSNTYPE
380
     0
  9
$PSTYLEMODE
290
     1
  9
$FINGERPRINTGUID
  2
{BBAEEBA6-8B94-11D3-9160-00E0294F7E09}
  9
$VERSIONGUID
  2
{7F9D8F3A-9952-411C-BC2C-22F1CFFBE78A}
  9
$EXTNAMES
290
     1
  9
$PSVPSCALE
 40
0.0
  9
$OLESTARTUP
290
     0
  0
ENDSEC
  0
SECTION
  2
CLASSES
  0
CLASS
  1
LWPOLYLINE
  2
AcDbPolyline
  3
ObjectDBX Classes
 90
        0
280
     0
281
     1
  0
CLASS
  1
ACDBDICTIONARYWDFLT
  2
AcDbDictionaryWithDefault
  3
ObjectDBX Classes
 90
        0
280
     0
281
     0
  0
CLASS
  1
ACDBPLACEHOLDER
  2
AcDbPlaceHolder
  3
ObjectDBX Classes
 90
        0
280
     0
281
     0
  0
CLASS
  1
LAYOUT
  2
AcDbLayout
  3
ObjectDBX Classes
 90
        0
280
     0
281
     0
  0
CLASS
  1
DICTIONARYVAR
  2
AcDbDictionaryVar
  3
ObjectDBX Classes
 90
        0
280
     0
281
     0
  0
CLASS
  1
MATERIAL
  2
AcDbMaterial
  3
ObjectDBX Classes
 90
     1153
280
     0
281
     0
  0
CLASS
  1
VISUALSTYLE
  2
AcDbVisualStyle
  3
ObjectDBX Classes
 90
     4095
280
     0
281
     0
  0
CLASS
  1
TABLESTYLE
  2
AcDbTableStyle
  3
ObjectDBX Classes
 90
     4095
280
     0
281
     0
  0
CLASS
  1
SCALE
  2
AcDbScale
  3
ObjectDBX Classes
 90
     1153
280
     0
281
     0
  0
CLASS
  1
MLEADERSTYLE
  2
AcDbMLeaderStyle
  3
ACDB_MLEADERSTYLE_CLASS
 90
     4095
280
     0
281
     0
  0
CLASS
  1
CELLSTYLEMAP
  2
AcDbCellStyleMap
  3
ObjectDBX Classes
 90
     1152
280
     0
281
     0
  0
CLASS
  1
SORTENTSTABLE
  2
AcDbSortentsTable
  3
ObjectDBX Classes
 90
        0
280
     0
281
     0
  0
CLASS
  1
MULTILEADER
  2
AcDbMLeader
  3
ACDB_MLEADER_CLASS
 90
     1025
280
     0
281
     1
  0
CLASS
  1
DIMASSOC
  2
AcDbDimAssoc
  3
"AcDbDimAssoc|Product Desc:     AcDim ARX App For Dimension|Company:          Autodesk, Inc.|WEB Address:      www.autodesk.com"
 90
        0
280
     0
281
     0
  0
CLASS
  1
RASTERVARIABLES
  2
AcDbRasterVariables
  3
ISM
 90
        0
280
     0
281
     0
  0
CLASS
  1
SUN
  2
AcDbSun
  3
SCENEOE
 90
     1153
280
     0
281
     0
  0
ENDSEC
  0
SECTION
  2
TABLES
  0
TABLE
  2
VPORT
  5
8
330
0
100
AcDbSymbolTable
 70
     1
  0
VPORT
  5
14E786
330
8
100
AcDbSymbolTableRecord
100
AcDbViewportTableRecord
  2
*Active
 70
     0
 10
0.0
 20
0.0
 11
1.0
 21
1.0
 12
11199.00835047626
 22
-3277.602201591543
 13
0.0
 23
0.0
 14
1.0
 24
1.0
 15
20.0
 25
20.0
 16
0.0
 26
0.0
 36
1.0
 17
0.0
 27
0.0
 37
0.0
 40
66.8984842440126
 41
2.027568922305764
 42
50.0
 43
0.0
 44
0.0
 50
0.0
 51
0.0
 71
    16
 72
   100
 73
     1
 74
     0
 75
     0
 76
     0
 77
     0
 78
     0
281
     0
 65
     1
110
0.0
120
0.0
130
0.0
111
1.0
121
0.0
131
0.0
112
0.0
122
1.0
132
0.0
 79
     0
146
0.0
  0
ENDTAB
  0
TABLE
  2
LTYPE
  5
5
330
0
100
AcDbSymbolTable
 70
     5
  0
LTYPE
  5
12
330
5
100
AcDbSymbolTableRecord
100
AcDbLinetypeTableRecord
  2
BYBLOCK
 70
     0
  3

 72
    65
 73
     0
 40
0.0
  0
LTYPE
  5
13
330
5
100
AcDbSymbolTableRecord
100
AcDbLinetypeTableRecord
  2
BYLAYER
 70
     0
  3

 72
    65
 73
     0
 40
0.0
  0
LTYPE
  5
14
330
5
100
AcDbSymbolTableRecord
100
AcDbLinetypeTableRecord
  2
CONTINUOUS
 70
     0
  3
Solid line
 72
    65
 73
     0
 40
0.0
  0
LTYPE
  5
27
330
5
100
AcDbSymbolTableRecord
100
AcDbLinetypeTableRecord
  2
HIDDEN
 70
     0
  3
_ _ _ _ _ _ _ _ _ _ _ _ _ _ _ _ _ _ _ _ _ _ _
 72
    65
 73
     2
 40
0.375
 49
0.25
 74
     0
 49
-0.125
 74
     0
  0
LTYPE
  5
514
330
5
100
AcDbSymbolTableRecord
100
AcDbLinetypeTableRecord
  2
CENTER
 70
     0
  3
Center ____ _ ____ _ ____ _ ____ _ ____ _ ____
 72
    65
 73
     4
 40
2.0
 49
1.25
 74
     0
 49
-0.25
 74
     0
 49
0.25
 74
     0
 49
-0.25
 74
     0
  0
LTYPE
  5
14FA3E
330
5
100
AcDbSymbolTableRecord
100
AcDbLinetypeTableRecord
  2
PHANTOM
 70
     0
  3
_____ _ _ _____ _ _ _____ _ _ _____ _ _ ____
 72
    65
 73
     6
 40
2.5
 49
1.25
 74
     0
 49
-0.25
 74
     0
 49
0.25
 74
     0
 49
-0.25
 74
     0
 49
0.25
 74
     0
 49
-0.25
 74
     0
  0
ENDTAB
  0
TABLE
  2
LAYER
  5
2
102
{ACAD_XDICTIONARY
360
8BF
102
}
330
0
100
AcDbSymbolTable
 70
    18
  0
LAYER
  5
F
102
{ACAD_XDICTIONARY
360
A60
102
}
330
2
100
AcDbSymbolTableRecord
100
AcDbLayerTableRecord
  2
0
 70
     0
 62
     7
  6
CONTINUOUS
370
    -3
390
616
  0
LAYER
  5
34
102
{ACAD_XDICTIONARY
360
A66
102
}
330
2
100
AcDbSymbolTableRecord
100
AcDbLayerTableRecord
  2
寸法線
 70
     0
 62
     7
  6
CONTINUOUS
370
    -3
390
616
  0
LAYER
  5
2F4
102
{ACAD_XDICTIONARY
360
A6E
102
}
330
2
100
AcDbSymbolTableRecord
100
AcDbLayerTableRecord
  2
文字
 70
     0
 62
     7
  6
CONTINUOUS
370
    -3
390
616
  0
LAYER
  5
305
102
{ACAD_XDICTIONARY
360
A72
102
}
330
2
100
AcDbSymbolTableRecord
100
AcDbLayerTableRecord
  2
姿図
 70
     0
 62
     8
  6
CONTINUOUS
370
    -3
390
616
  0
ENDTAB
  0
TABLE
  2
STYLE
  5
3
330
0
100
AcDbSymbolTable
 70
     1
  0
STYLE
  5
10
330
3
100
AcDbSymbolTableRecord
100
AcDbTextStyleTableRecord
  2
STANDARD
 70
     0
 40
0.0
 41
1.0
 50
0.0
 71
     0
 42
53.44730959687513
  3
MONOTXT
  4
BIGFONT
  0
ENDTAB
  0
TABLE
  2
VIEW
  5
6
330
0
100
AcDbSymbolTable
 70
     0
  0
ENDTAB
  0
TABLE
  2
UCS
  5
7
330
0
100
AcDbSymbolTable
 70
     0
  0
ENDTAB
  0
TABLE
  2
APPID
  5
9
330
0
100
AcDbSymbolTable
 70
    15
  0
APPID
  5
11
330
9
100
AcDbSymbolTableRecord
100
AcDbRegAppTableRecord
  2
ACAD
 70
     0
  0
APPID
  5
8BB
330
9
100
AcDbSymbolTableRecord
100
AcDbRegAppTableRecord
  2
ACAD_PSEXT
 70
     0
  0
APPID
  5
A5A
330
9
100
AcDbSymbolTableRecord
100
AcDbRegAppTableRecord
  2
ACAD_MLEADERVER
 70
     0
  0
APPID
  5
A5E
330
9
100
AcDbSymbolTableRecord
100
AcDbRegAppTableRecord
  2
ACAD_DSTYLE_DIMJAG
 70
     0
  0
APPID
  5
A5F
330
9
100
AcDbSymbolTableRecord
100
AcDbRegAppTableRecord
  2
ACAD_DSTYLE_DIMTALN
 70
     0
  0
APPID
  5
12C0
330
9
100
AcDbSymbolTableRecord
100
AcDbRegAppTableRecord
  2
ACAD_EXEMPT_FROM_CAD_STANDARDS
 70
     0
  0
APPID
  5
1C50
330
9
100
AcDbSymbolTableRecord
100
AcDbRegAppTableRecord
  2
AcAecLayerStandard
 70
     0
  0
APPID
  5
5088
330
9
100
AcDbSymbolTableRecord
100
AcDbRegAppTableRecord
  2
ACAD_DSTYLE_DIMRADIAL_EXTENSION
 70
     0
  0
APPID
  5
14AF3
330
9
100
AcDbSymbolTableRecord
100
AcDbRegAppTableRecord
  2
WACOM_STRING
 70
     0
  0
APPID
  5
14AF4
330
9
100
AcDbSymbolTableRecord
100
AcDbRegAppTableRecord
  2
WACOM_DRSYM_ARROW
 70
     0
  0
APPID
  5
1E1A8
330
9
100
AcDbSymbolTableRecord
100
AcDbRegAppTableRecord
  2
GENIUS_GENODEF_13
 70
     0
  0
APPID
  5
1E1A9
330
9
100
AcDbSymbolTableRecord
100
AcDbRegAppTableRecord
  2
GENIUS_GENREC_14
 70
     0
  0
APPID
  5
1E1AA
330
9
100
AcDbSymbolTableRecord
100
AcDbRegAppTableRecord
  2
GENIUS_GENOBJ-N-REC_13
 70
     0
  0
APPID
  5
27C72
330
9
100
AcDbSymbolTableRecord
100
AcDbRegAppTableRecord
  2
ASK_MEN_XD
 70
     0
  0
APPID
  5
29316
330
9
100
AcDbSymbolTableRecord
100
AcDbRegAppTableRecord
  2
ACAD_DSTYLE_DIMBREAK
 70
     0
  0
ENDTAB
  0
TABLE
  2
DIMSTYLE
  5
A
330
0
100
AcDbSymbolTable
 70
     3
100
AcDbDimStyleTable
  0
DIMSTYLE
105
1CC
330
A
100
AcDbSymbolTableRecord
100
AcDbDimStyleTableRecord
  2
STANDARD
 70
     0
 41
2.5
 42
1.5
 44
1.0
 73
     0
 74
     0
 77
     3
 78
     8
 79
     2
140
2.500000000000003
141
0.0
147
1.0
171
     0
172
     1
173
     1
176
     8
177
     8
271
     2
178
   256
179
     2
271
     2
272
     2
274
     0
289
     1
340
10
341
608
343
608
344
608
1001
ACAD_DSTYLE_DIMJAG
1070
   388
1040
1.5
1001
ACAD_DSTYLE_DIMTALN
1070
   392
1070
     0
  0
ENDTAB
  0
TABLE
  2
BLOCK_RECORD
  5
1
330
0
100
AcDbSymbolTable
 70
    29
  0
BLOCK_RECORD
  5
18
102
{ACAD_XDICTIONARY
360
143F
102
}
330
1
100
AcDbSymbolTableRecord
100
AcDbBlockTableRecord
  2
*MODEL_SPACE
340
619
  0
BLOCK_RECORD
  5
15
330
1
100
AcDbSymbolTableRecord
100
AcDbBlockTableRecord
  2
*PAPER_SPACE
340
61A
  0
BLOCK_RECORD
  5
608
330
1
100
AcDbSymbolTableRecord
100
AcDbBlockTableRecord
  2
_OPEN
340
0
102
{BLKREFS
331
12C098
331
12C099
331
12C0A1
331
12C0A2
331
12C0AA
331
12C0AB
331
12C0BC
331
12C0BD
331
12C262
331
12C263
331
14D4B4
331
14D4B5
331
14D4BD
331
14D4BE
331
14D4C6
331
14D4C7
331
14D4CF
331
14D4D0
331
14D4D8
331
14D4D9
331
14E733
331
14E734
331
14E73C
331
14E73D
331
14E745
331
14E746
331
14E74E
331
14E74F
331
14E757
331
14E758
331
14F9D3
331
14F9D4
331
14F9DC
331
14F9DD
331
14F9E5
331
14F9E6
331
14F9EE
331
14F9EF
331
14F9F7
331
14F9F8
331
153A61
331
153A62
331
153A6A
331
153A6B
331
153A73
331
153A74
331
153A7C
331
153A7D
331
153A85
331
153A86
102
}
  0
BLOCK_RECORD
  5
89D
330
1
100
AcDbSymbolTableRecord
100
AcDbBlockTableRecord
  2
SUN
340
0
  0
BLOCK_RECORD
  5
1F1F
330
1
100
AcDbSymbolTableRecord
100
AcDbBlockTableRecord
  2
_OPEN30
340
0
  0
ENDTAB
  0
ENDSEC
  0
SECTION
  2
BLOCKS
  0
BLOCK
  5
39
330
18
100
AcDbEntity
  8
0
100
AcDbBlockBegin
  2
*MODEL_SPACE
 70
     0
 10
0.0
 20
0.0
 30
0.0
  3
*MODEL_SPACE
  1
*MODEL_SPACE
  0
ENDBLK
  5
3A
330
18
100
AcDbEntity
  8
0
100
AcDbBlockEnd
  0
BLOCK
  5
37
330
15
100
AcDbEntity
 67
     1
  8
0
100
AcDbBlockBegin
  2
*PAPER_SPACE
 70
     0
 10
0.0
 20
0.0
 30
0.0
  3
*PAPER_SPACE
  1
*PAPER_SPACE
  0
ENDBLK
  5
38
330
15
100
AcDbEntity
 67
     1
  8
0
100
AcDbBlockEnd
  0
BLOCK
  5
609
330
608
100
AcDbEntity
  8
0
100
AcDbBlockBegin
  2
_OPEN
 70
     0
 10
0.0
 20
0.0
 30
0.0
  3
_OPEN
  1
_OPEN
  0
LINE
  5
60A
330
608
100
AcDbEntity
  8
0
  6
ByBlock
 62
     0
100
AcDbLine
 10
-1.0
 20
0.1666666666666667
 30
0.0
 11
0.0
 21
0.0
 31
0.0
  0
LINE
  5
60B
330
608
100
AcDbEntity
  8
0
  6
ByBlock
 62
     0
100
AcDbLine
 10
0.0
 20
0.0
 30
0.0
 11
-1.0
 21
-0.1666666666666667
 31
0.0
  0
LINE
  5
60C
330
608
100
AcDbEntity
  8
0
  6
ByBlock
 62
     0
100
AcDbLine
 10
0.0
 20
0.0
 30
0.0
 11
-1.0
 21
0.0
 31
0.0
  0
ENDBLK
  5
60D
330
608
100
AcDbEntity
  8
0
100
AcDbBlockEnd
  0
BLOCK
  5
89E
330
89D
100
AcDbEntity
  8
0
100
AcDbBlockBegin
  2
SUN
 70
     0
 10
0.0
 20
0.0
 30
0.0
  3
SUN
  1
SUN
  0
LINE
  5
89F
330
89D
100
AcDbEntity
  8
0
100
AcDbLine
 10
-0.0000000000000568
 20
0.0
 30
0.0
 11
-1.500000000000057
 21
0.0
 31
0.0
  0
LINE
  5
8A0
330
89D
100
AcDbEntity
  8
0
100
AcDbLine
 10
-0.0000000000000568
 20
0.0000000000000284
 30
0.0
 11
-1.500000000000057
 21
0.401923788646684
 31
0.0
  0
LINE
  5
8A1
330
89D
100
AcDbEntity
  8
0
100
AcDbLine
 10
-0.0000000000000568
 20
0.0000000000000284
 30
0.0
 11
-1.500000000000057
 21
-0.4019237886466556
 31
0.0
  0
ENDBLK
  5
8A2
330
89D
100
AcDbEntity
  8
0
100
AcDbBlockEnd
  0
BLOCK
  5
1F20
330
1F1F
100
AcDbEntity
  8
0
100
AcDbBlockBegin
  2
_OPEN30
 70
     0
 10
0.0
 20
0.0
 30
0.0
  3
_OPEN30
  1
_OPEN30
  0
LINE
  5
1F21
330
1F1F
100
AcDbEntity
  8
0
  6
ByBlock
 62
     0
100
AcDbLine
 10
-1.0
 20
0.26794919
 30
0.0
 11
0.0
 21
0.0
 31
0.0
  0
LINE
  5
1F22
330
1F1F
100
AcDbEntity
  8
0
  6
ByBlock
 62
     0
100
AcDbLine
 10
0.0
 20
0.0
 30
0.0
 11
-1.0
 21
-0.26794919
 31
0.0
  0
LINE
  5
1F23
330
1F1F
100
AcDbEntity
  8
0
  6
ByBlock
 62
     0
100
AcDbLine
 10
0.0
 20
0.0
 30
0.0
 11
-1.0
 21
0.0
 31
0.0
  0
ENDBLK
  5
1F24
330
1F1F
100
AcDbEntity
  8
0
100
AcDbBlockEnd
  0
ENDSEC
  0
SECTION
  2
ENTITIES
  0
MTEXT
  5
D0CC6
330
18
100
AcDbEntity
  8
寸法線
100
AcDbMText
 10
2610.774875364868
 20
-2740.315466585338
 30
0.0
 40
2.500000000000003
 41
0.0
 71
     9
 72
     1
  1
\A1;
 73
     1
 44
1.0
  0
MTEXT
  5
F6D77
330
18
100
AcDbEntity
  8
文字
100
AcDbMText
 10
5821.057140836062
 20
-2842.341718131323
 30
0.0
 40
2.5
 41
64.39156592258223
 71
     1
 72
     5
  1
   
 73
     1
 44
1.0
  0
MTEXT
  5
F6D78
330
18
100
AcDbEntity
  8
寸法線
100
AcDbMText
 10
6222.662262480188
 20
-2968.738290481128
 30
0.0
 40
3.000000000000001
 41
0.0
 71
     7
 72
     1
  1
\A1;
 73
     1
 44
1.0
  0
TEXT
  5
152839
330
18
100
AcDbEntity
  8
文字
100
AcDbText
 10
11168.74515579724
 20
-3310.395576220961
 30
0.0
 40
6.5
  1
SX-505LE
100
AcDbText
  0
ARC
  5
152BB8
330
18
100
AcDbEntity
  8
姿図
100
AcDbCircle
 10
11218.92559294307
 20
-3268.290600802418
 30
-0.0000000000002538
 40
0.32592
100
AcDbArc
 50
314.9861067648268
 51
24.27584467467958
  0
LINE
  5
152BB9
330
18
100
AcDbEntity
  8
姿図
100
AcDbLine
 10
11182.01080187204
 20
-3251.280844911543
 30
0.0000000000000049
 11
11187.48751191635
 21
-3261.401696988949
 31
0.0000000000000049
  0
LINE
  5
152BBA
330
18
100
AcDbEntity
  8
姿図
100
AcDbLine
 10
11183.09720187204
 20
-3251.280844911543
 30
0.0000000000000049
 11
11188.57391191635
 21
-3261.401696988949
 31
0.0000000000000049
  0
LINE
  5
152BBB
330
18
100
AcDbEntity
  8
姿図
100
AcDbLine
 10
11184.52538130201
 20
-3251.761876458838
 30
0.0000000000000049
 11
11188.20894102392
 21
-3258.569022128791
 31
0.0000000000000049
  0
LINE
  5
152BBC
330
18
100
AcDbEntity
  8
姿図
100
AcDbLine
 10
11190.7217961593
 20
-3257.118885133115
 30
0.0000000000000049
 11
11194.57298378598
 21
-3264.336346579935
 31
0.0000000000000049
  0
LINE
  5
152BBD
330
18
100
AcDbEntity
  8
姿図
100
AcDbLine
 10
11190.17531251625
 20
-3257.07439100456
 30
0.0000000000000049
 11
11194.18851259288
 21
-3264.59547791053
 31
0.0000000000000049
  0
LINE
  5
152BBE
330
18
100
AcDbEntity
  8
姿図
100
AcDbLine
 10
11190.11741321383
 20
-3257.195911592127
 30
0.0000000000000049
 11
11189.39898694744
 21
-3260.17506177405
 31
0.0000000000000049
  0
LINE
  5
152BBF
330
18
100
AcDbEntity
  8
姿図
100
AcDbLine
 10
11189.09514338859
 20
-3255.290013924259
 30
0.0000000000000049
 11
11188.28236737392
 21
-3258.66041103425
 31
0.0000000000000049
  0
LINE
  5
152BC0
330
18
100
AcDbEntity
  8
姿図
100
AcDbLine
 10
11189.46634226675
 20
-3255.7786562375
 30
0.0000000000000049
 11
11188.812421598
 21
-3258.490316390301
 31
0.0000000000000049
  0
LINE
  5
152BC1
330
18
100
AcDbEntity
  8
姿図
100
AcDbLine
 10
11191.28676252574
 20
-3256.066555312354
 30
0.0000000000000049
 11
11195.45663061734
 21
-3263.881251740265
 31
0.0000000000000049
  0
LINE
  5
152BC2
330
18
100
AcDbEntity
  8
姿図
100
AcDbLine
 10
11189.86405208556
 20
-3256.051779398729
 30
0.0000000000000049
 11
11188.57391191635
 21
-3261.401696988949
 31
0.0000000000000049
  0
LINE
  5
152BC3
330
18
100
AcDbEntity
  8
姿図
100
AcDbLine
 10
11214.41500286578
 20
-3254.496983351255
 30
0.000000000000005
 11
11220.76272637415
 21
-3268.571450266412
 31
0.0000000000000035
  0
LINE
  5
152BC4
330
18
100
AcDbEntity
  8
姿図
100
AcDbLine
 10
11213.99151168276
 20
-3254.904065448416
 30
0.000000000000005
 11
11220.17414363381
 21
-3268.612483707169
 31
0.0000000000000036
  0
LINE
  5
152BC5
330
18
100
AcDbEntity
  8
姿図
100
AcDbLine
 10
11214.69733032112
 20
-3254.225595286481
 30
0.0000000000000049
 11
11221.1239708068
 21
-3268.475040583201
 31
0.0000000000000035
  0
LINE
  5
152BC6
330
18
100
AcDbEntity
  8
姿図
100
AcDbLine
 10
11204.32931042805
 20
-3251.857560038559
 30
0.000000000000005
 11
11212.38762289824
 21
-3258.545579938174
 31
0.000000000000005
  0
LINE
  5
152BC7
330
18
100
AcDbEntity
  8
姿図
100
AcDbLine
 10
11202.94694282668
 20
-3251.066995019075
 30
0.000000000000005
 11
11213.54530434432
 21
-3259.863136021984
 31
0.000000000000005
  0
LINE
  5
152BC8
330
18
100
AcDbEntity
  8
姿図
100
AcDbLine
 10
11201.38643954633
 20
-3251.280844911543
 30
0.0000000000000049
 11
11212.39874939101
 21
-3260.427203860726
 31
0.000000000000004
  0
LINE
  5
152BC9
330
18
100
AcDbEntity
  8
姿図
100
AcDbLine
 10
11202.47283954633
 20
-3251.280844911543
 30
0.0000000000000049
 11
11213.48514939101
 21
-3260.427203860726
 31
0.000000000000004
  0
LINE
  5
152BCA
330
18
100
AcDbEntity
  8
姿図
100
AcDbLine
 10
11213.99151168276
 20
-3254.904065448416
 30
0.000000000000005
 11
11213.54530434432
 21
-3259.863136021984
 31
0.000000000000005
  0
LINE
  5
152BCB
330
18
100
AcDbEntity
  8
姿図
100
AcDbLine
 10
11213.21161642899
 20
-3255.087237885825
 30
0.000000000000005
 11
11212.92037967028
 21
-3258.323992451771
 31
0.000000000000005
  0
LINE
  5
152BCC
330
18
100
AcDbEntity
  8
姿図
100
AcDbLine
 10
11212.79595478447
 20
-3255.112618831353
 30
0.000000000000005
 11
11212.48214408971
 21
-3258.600256187255
 31
0.0000000000000049
  0
LINE
  5
152BCD
330
18
100
AcDbEntity
  8
姿図
100
AcDbLine
 10
11214.37052561447
 20
-3257.417236216715
 30
0.0000000000000049
 11
11216.9260131546
 21
-3263.083381692045
 31
0.0000000000000043
  0
ARC
  5
152BCE
330
18
100
AcDbEntity
  8
姿図
100
AcDbCircle
 10
11214.49645276149
 20
-3257.717845930536
 30
-0.0000000000000368
 40
0.32592
100
AcDbArc
 50
24.27584467467958
 51
174.858484833648
  0
LINE
  5
152BCF
330
18
100
AcDbEntity
  8
姿図
100
AcDbLine
 10
11187.48751191635
 20
-3261.401696988949
 30
0.0000000000000049
 11
11192.67200035545
 21
-3266.065463402947
 31
0.0000000000000049
  0
ARC
  5
152BD0
330
18
100
AcDbEntity
  8
姿図
100
AcDbCircle
 10
11188.49558410214
 20
-3258.413910581497
 30
0.0000000000000049
 40
0.32592
100
AcDbArc
 50
208.419208263553
 51
346.4419050861201
  0
ARC
  5
152BD1
330
18
100
AcDbEntity
  8
姿図
100
AcDbCircle
 10
11189.7158244433
 20
-3260.251467582853
 30
0.0000000000000049
 40
0.32592
100
AcDbArc
 50
166.44190508612
 51
228.0266699787512
  0
LINE
  5
152BD2
330
18
100
AcDbEntity
  8
姿図
100
AcDbLine
 10
11188.57391191635
 20
-3261.401696988949
 30
0.0000000000000049
 11
11187.48751191635
 21
-3261.401696988949
 31
0.0000000000000049
  0
LINE
  5
152BD3
330
18
100
AcDbEntity
  8
姿図
100
AcDbLine
 10
11189.49785416138
 20
-3260.493774831196
 30
0.0000000000000049
 11
11194.11646801952
 21
-3264.648502234649
 31
0.0000000000000049
  0
LINE
  5
152BD4
330
18
100
AcDbEntity
  8
姿図
100
AcDbLine
 10
11188.57391191635
 20
-3261.401696988949
 30
0.0000000000000049
 11
11193.15684239189
 21
-3265.524324993735
 31
0.0000000000000049
  0
ELLIPSE
  5
152BD5
330
18
100
AcDbEntity
  8
姿図
100
AcDbEllipse
 10
11220.18513991427
 20
-3270.856598932548
 30
0.0000000000000035
 11
-0.2806144918418402
 21
1.616077800114547
 31
7.113492607458197E-17
210
-7.419382137505987E-18
220
4.272872254132248E-17
230
-1.0
 40
0.6338586263934136
 41
0.805207104083611
 42
2.425367404911971
  0
ELLIPSE
  5
152BD6
330
18
100
AcDbEntity
  8
姿図
100
AcDbEllipse
 10
11220.18513991427
 20
-3270.856598932548
 30
0.0000000000000035
 11
-0.2806144918469327
 21
1.616077800112755
 31
7.113492607454317E-17
210
-7.419382137505973E-18
220
4.272872254132248E-17
230
-1.0
 40
0.6338586263919846
 41
2.425367404914656
 42
2.430507865369412
  0
ELLIPSE
  5
152BD7
330
18
100
AcDbEntity
  8
姿図
100
AcDbEllipse
 10
11220.18512188999
 20
-3270.856602062271
 30
0.0000000000000035
 11
-0.280616811627326
 21
1.616091159890881
 31
7.113551413213316E-17
210
-7.419382137505975E-18
220
4.272872254132251E-17
230
-1.0
 40
0.6338586263920021
 41
2.425367404913896
 42
2.430497531691732
  0
LINE
  5
152BD8
330
18
100
AcDbEntity
  8
姿図
100
AcDbLine
 10
11218.54117182732
 20
-3271.227451354605
 30
0.0000000000000035
 11
11212.39874939101
 21
-3260.427203860726
 31
0.000000000000004
  0
LINE
  5
152BD9
330
18
100
AcDbEntity
  8
姿図
100
AcDbLine
 10
11219.62757182732
 20
-3271.227451354605
 30
0.0000000000000035
 11
11213.48514939101
 21
-3260.427203860726
 31
0.000000000000004
  0
LINE
  5
152BDA
330
18
100
AcDbEntity
  8
姿図
100
AcDbLine
 10
11219.60760051375
 20
-3270.522497160021
 30
0.0000000000000044
 11
11213.53718728628
 21
-3259.848863764309
 31
0.000000000000005
  0
LINE
  5
152BDB
330
18
100
AcDbEntity
  8
姿図
100
AcDbLine
 10
11221.41204610945
 20
-3268.475040583201
 30
0.0000000000000035
 11
11221.1239708068
 21
-3268.475040583201
 31
0.0000000000000035
  0
ELLIPSE
  5
152BDC
330
18
100
AcDbEntity
  8
姿図
100
AcDbEllipse
 10
11221.229549661
 20
-3270.783640583202
 30
0.0000000000000035
 11
2.827126228434339E-16
 21
2.308599999999999
 31
0.0
210
0.0
220
0.0
230
1.0
 40
0.707106781186549
 41
12.63082322034699
 42
12.85638802539369
  0
LINE
  5
152BDD
330
18
100
AcDbEntity
  8
姿図
100
AcDbLine
 10
11220.76272637415
 20
-3268.571450266412
 30
0.0000000000000035
 11
11220.17414363381
 21
-3268.612483707169
 31
0.0000000000000043
  0
ELLIPSE
  5
152BDE
330
18
100
AcDbEntity
  8
姿図
100
AcDbEllipse
 10
11221.41204610945
 20
-3270.783640583202
 30
0.0000000000000035
 11
2.161920057038025E-16
 21
1.7654
 31
0.0
210
0.0
220
0.0
230
1.0
 40
0.7071067811865489
 41
5.440771040056498
 42
10.2625240803483
  0
LINE
  5
152BDF
330
18
100
AcDbEntity
  8
姿図
100
AcDbLine
 10
11221.41204610945
 20
-3273.092240583202
 30
0.0000000000000035
 11
11219.58756919263
 21
-3273.092240583202
 31
0.0000000000000035
  0
LINE
  5
152BE0
330
18
100
AcDbEntity
  8
姿図
100
AcDbLine
 10
11218.54117182733
 20
-3271.227451354605
 30
0.0000000000000035
 11
11219.62757182732
 21
-3271.227451354605
 31
0.0000000000000035
  0
ELLIPSE
  5
152BE1
330
18
100
AcDbEntity
  8
姿図
100
AcDbEllipse
 10
11221.229549661
 20
-3270.783640583202
 30
0.0000000000000035
 11
2.827126228434339E-16
 21
2.308599999999999
 31
0.0
210
0.0
220
0.0
230
1.0
 40
0.707106781186549
 41
7.740621342368763
 42
8.04742827805839
  0
ELLIPSE
  5
152BE2
330
18
100
AcDbEntity
  8
姿図
100
AcDbEllipse
 10
11219.58756919263
 20
-3270.783640583202
 30
0.0000000000000035
 11
2.827126228434339E-16
 21
2.308599999999999
 31
0.0
210
0.0
220
0.0
230
1.0
 40
0.707106781186549
 41
1.346074747128019
 42
3.141592653589806
  0
ELLIPSE
  5
152BE3
330
18
100
AcDbEntity
  8
姿図
100
AcDbEllipse
 10
11220.71772775649
 20
-3270.783640583202
 30
0.0000000000000035
 11
2.827126228434339E-16
 21
2.308599999999999
 31
0.0
210
0.0
220
0.0
230
1.0
 40
0.707106781186549
 41
6.624020325581338
 42
7.437435220040673
  0
LINE
  5
152BE4
330
18
100
AcDbEntity
  8
姿図
100
AcDbLine
 10
11218.90255445155
 20
-3268.774436883415
 30
0.0000000000000041
 11
11219.15599729579
 21
-3268.521116920386
 31
0.0000000000000059
  0
ARC
  5
152BE5
330
18
100
AcDbEntity
  8
姿図
100
AcDbCircle
 10
11219.00516452536
 20
-3268.465090767953
 30
0.0000000000000271
 40
0.32592
100
AcDbArc
 50
209.6281792591708
 51
314.9861067648268
  0
ARC
  5
152BE6
330
18
100
AcDbEntity
  8
姿図
100
AcDbCircle
 10
11219.23841776285
 20
-3268.231950622792
 30
0.0000000000000939
 40
0.32592
100
AcDbArc
 50
314.9861067648268
 51
24.27584467467958
  0
LINE
  5
152BE7
330
18
100
AcDbEntity
  8
姿図
100
AcDbLine
 10
11219.23556887809
 20
-3268.695606885923
 30
0.0000000000000049
 11
11219.46882211558
 21
-3268.462466740762
 31
0.0000000000000049
  0
ARC
  5
152BE8
330
18
100
AcDbEntity
  8
姿図
100
AcDbCircle
 10
11217.2156916914
 20
-3265.318653073247
 30
0.0000000000000271
 40
0.32592
100
AcDbArc
 50
121.3162684827932
 51
209.6281792591708
  0
LINE
  5
152BE9
330
18
100
AcDbEntity
  8
姿図
100
AcDbLine
 10
11218.72185794825
 20
-3268.626215656673
 30
0.0000000000000049
 11
11216.93238511429
 21
-3265.479777961969
 31
0.0000000000000047
  0
LINE
  5
152BEA
330
18
100
AcDbEntity
  8
姿図
100
AcDbLine
 10
11218.06897889709
 20
-3264.846274747236
 30
0.000000000000004
 11
11219.53551883634
 21
-3268.097955105953
 31
0.0000000000000031
  0
ARC
  5
152BEB
330
18
100
AcDbEntity
  8
姿図
100
AcDbCircle
 10
11217.7718778236
 20
-3264.980270264075
 30
-0.0000000000000799
 40
0.32592
100
AcDbArc
 50
24.27584467467958
 51
121.3162684827932
  0
LINE
  5
152BEC
330
18
100
AcDbEntity
  8
姿図
100
AcDbLine
 10
11217.65322880675
 20
-3264.676714244204
 30
0.0000000000000041
 11
11219.22269401655
 21
-3268.156605285577
 31
0.0000000000000032
  0
LINE
  5
152BED
330
18
100
AcDbEntity
  8
姿図
100
AcDbLine
 10
11217.04629095658
 20
-3265.040215939512
 30
0.0000000000000047
 11
11217.60247708878
 21
-3264.701833130338
 31
0.0000000000000047
  0
ARC
  5
152BEE
330
18
100
AcDbEntity
  8
姿図
100
AcDbCircle
 10
11217.03833157221
 20
-3263.353817499977
 30
-0.0000000000000534
 40
0.32592
100
AcDbArc
 50
301.3162684827932
 51
24.27584467467958
  0
ARC
  5
152BEF
330
18
100
AcDbEntity
  8
姿図
100
AcDbCircle
 10
11216.62891208111
 20
-3263.217377208884
 30
-0.0000000000000557
 40
0.32592
100
AcDbArc
 50
301.3162684827932
 51
24.27584467467958
  0
LINE
  5
152BF0
330
18
100
AcDbEntity
  8
姿図
100
AcDbLine
 10
11216.05968773964
 20
-3263.945192731913
 30
0.0000000000000049
 11
11216.79831281593
 21
-3263.495814342621
 31
0.0000000000000052
  0
LINE
  5
152BF1
330
18
100
AcDbEntity
  8
姿図
100
AcDbLine
 10
11216.50929963801
 20
-3264.057180022675
 30
0.0000000000000049
 11
11217.20773230703
 21
-3263.632254633714
 31
0.0000000000000051
  0
ARC
  5
152BF2
330
18
100
AcDbEntity
  8
姿図
100
AcDbCircle
 10
11216.33989890319
 20
-3263.778742888938
 30
-0.0000000000000114
 40
0.32592
100
AcDbArc
 50
209.6281792591708
 51
301.3162684827932
  0
LINE
  5
152BF3
330
18
100
AcDbEntity
  8
姿図
100
AcDbLine
 10
11216.05659232607
 20
-3263.939867777658
 30
0.0000000000000047
 11
11213.99410257751
 21
-3260.313383280854
 31
0.0000000000000049
  0
ARC
  5
152BF4
330
18
100
AcDbEntity
  8
姿図
100
AcDbCircle
 10
11214.27740915462
 20
-3260.152258392134
 30
-0.0000000000000115
 40
0.32592
100
AcDbArc
 50
174.858484833648
 51
209.6281792591708
  0
LINE
  5
152BF5
330
18
100
AcDbEntity
  8
姿図
100
AcDbLine
 10
11214.79355383498
 20
-3257.583850413697
 30
0.0000000000000048
 11
11217.3354326457
 21
-3263.219821983137
 31
0.0000000000000043
  0
LINE
  5
152BF6
330
18
100
AcDbEntity
  8
姿図
100
AcDbLine
 10
11214.1718441354
 20
-3257.688638289924
 30
0.000000000000005
 11
11213.95280052853
 21
-3260.123050751521
 31
0.000000000000005
  0
LINE
  5
152BF7
330
18
100
AcDbEntity
  8
姿図
100
AcDbLine
 10
11213.48514939101
 20
-3260.427203860726
 30
0.000000000000004
 11
11212.39874939101
 21
-3260.427203860726
 31
0.000000000000004
  0
ARC
  5
152BF8
330
18
100
AcDbEntity
  8
姿図
100
AcDbCircle
 10
11212.5957710442
 20
-3258.294784811158
 30
0.0000000000000026
 40
0.32592
100
AcDbArc
 50
230.3089243458876
 51
354.858484833648
  0
LINE
  5
152BF9
330
18
100
AcDbEntity
  8
姿図
100
AcDbLine
 10
11220.48047962621
 20
-3269.608478920035
 30
0.0000000000000049
 11
11222.81714913511
 21
-3269.608478920035
 31
0.0000000000000049
  0
LINE
  5
152BFA
330
18
100
AcDbEntity
  8
姿図
100
AcDbLine
 10
11220.48436882846
 20
-3271.964939395811
 30
0.0000000000000049
 11
11222.81457366272
 21
-3271.964939395811
 31
0.0000000000000049
  0
ELLIPSE
  5
152BFB
330
18
100
AcDbEntity
  8
姿図
100
AcDbEllipse
 10
11221.41204610945
 20
-3270.783640583202
 30
0.0000000000000035
 11
2.827126228434339E-16
 21
2.308599999999999
 31
0.0
210
0.0
220
0.0
230
1.0
 40
0.707106781186549
 41
11.52963932725482
 42
16.74160325339606
  0
LINE
  5
152BFC
330
18
100
AcDbEntity
  8
姿図
 48
2.0
100
AcDbLine
 10
11193.04078116739
 20
-3256.066555312354
 30
0.0000000000000049
 11
11191.25829303442
 21
-3256.066555312354
 31
0.0000000000000049
  0
LINE
  5
152BFD
330
18
100
AcDbEntity
  8
姿図
 48
2.0
100
AcDbLine
 10
11198.48078116739
 20
-3251.266555312355
 30
0.0000000000000049
 11
11191.44078116739
 21
-3251.266555312355
 31
0.0000000000000049
  0
LINE
  5
152BFE
330
18
100
AcDbEntity
  8
姿図
 48
2.0
100
AcDbLine
 10
11193.04078116739
 20
-3252.866555312355
 30
0.0000000000000049
 11
11191.25829303442
 21
-3252.866555312355
 31
0.0000000000000049
  0
LINE
  5
152BFF
330
18
100
AcDbEntity
  8
姿図
100
AcDbLine
 10
11182.01080187204
 20
-3248.933765346981
 30
0.0000000000000049
 11
11210.93867255242
 21
-3248.933765346981
 31
0.0000000000000049
  0
LINE
  5
152C00
330
18
100
AcDbEntity
  8
姿図
100
AcDbLine
 10
11183.09720187204
 20
-3250.020165346981
 30
0.0000000000000049
 11
11201.38643954633
 21
-3250.020165346981
 31
0.0000000000000049
  0
LINE
  5
152C01
330
18
100
AcDbEntity
  8
姿図
100
AcDbLine
 10
11199.90306976395
 20
-3244.808826962125
 30
0.0000000000000049
 11
11190.17189531975
 21
-3244.808826962125
 31
0.0000000000000049
  0
LINE
  5
152C02
330
18
100
AcDbEntity
  8
姿図
100
AcDbLine
 10
11199.90306976395
 20
-3245.597454680111
 30
0.0000000000000049
 11
11190.17189531975
 21
-3245.597454680111
 31
0.0000000000000049
  0
LINE
  5
152C03
330
18
100
AcDbEntity
  8
姿図
100
AcDbLine
 10
11199.90306976395
 20
-3247.174710116089
 30
0.0000000000000049
 11
11190.17189531975
 21
-3247.174710116089
 31
0.0000000000000049
  0
ARC
  5
152C04
330
18
100
AcDbEntity
  8
姿図
100
AcDbCircle
 10
11191.44078116739
 20
-3251.586555312354
 30
0.0000000000000049
 40
0.3200000000000001
100
AcDbArc
 50
90.0
 51
180.0
  0
LINE
  5
152C05
330
18
100
AcDbEntity
  8
姿図
100
AcDbLine
 10
11191.12078116739
 20
-3251.586555312354
 30
0.0000000000000049
 11
11191.12078116739
 21
-3252.866555312355
 31
0.0000000000000049
  0
LINE
  5
152C06
330
18
100
AcDbEntity
  8
姿図
100
AcDbLine
 10
11190.17189531975
 20
-3244.808826962125
 30
0.0000000000000049
 11
11190.17189531975
 21
-3245.597454680111
 31
0.0000000000000049
  0
LINE
  5
152C07
330
18
100
AcDbEntity
  8
姿図
100
AcDbLine
 10
11190.17189531975
 20
-3248.933765346981
 30
0.0000000000000049
 11
11190.17189531975
 21
-3247.174710116089
 31
0.0000000000000049
  0
LINE
  5
152C08
330
18
100
AcDbEntity
  8
姿図
100
AcDbLine
 10
11188.42293065016
 20
-3251.509507915292
 30
0.0000000000000049
 11
11189.36078116739
 21
-3254.509165952555
 31
0.0000000000000049
  0
LINE
  5
152C09
330
18
100
AcDbEntity
  8
姿図
100
AcDbLine
 10
11188.98960086893
 20
-3250.020165346981
 30
0.0000000000000049
 11
11189.88295219898
 21
-3252.877495431101
 31
0.0000000000000049
  0
LINE
  5
152C0A
330
18
100
AcDbEntity
  8
姿図
100
AcDbLine
 10
11187.89019598203
 20
-3251.280844911543
 30
0.0000000000000049
 11
11189.0893765006
 21
-3255.116351119204
 31
0.0000000000000049
  0
ARC
  5
152C0B
330
18
100
AcDbEntity
  8
姿図
100
AcDbCircle
 10
11190.43425070968
 20
-3257.272317400931
 30
0.0000000000000049
 40
0.32592
100
AcDbArc
 50
28.08407320681781
 51
166.44190508612
  0
ARC
  5
152C0C
330
18
100
AcDbEntity
  8
姿図
100
AcDbCircle
 10
11188.77830589273
 20
-3255.213608115454
 30
0.0000000000000049
 40
0.32592
100
AcDbArc
 50
346.4419050861201
 51
17.3619833593784
  0
LINE
  5
152C0D
330
18
100
AcDbEntity
  8
姿図
100
AcDbLine
 10
11182.01080187204
 20
-3251.280844911543
 30
0.0000000000000049
 11
11183.09720187204
 21
-3251.280844911543
 31
0.0000000000000049
  0
LINE
  5
152C0E
330
18
100
AcDbEntity
  8
姿図
100
AcDbLine
 10
11183.09720187204
 20
-3251.280844911543
 30
0.0000000000000049
 11
11183.09720187204
 21
-3250.020165346981
 31
0.0000000000000049
  0
ARC
  5
152C0F
330
18
100
AcDbEntity
  8
姿図
100
AcDbCircle
 10
11184.81202438024
 20
-3251.606764911543
 30
0.0000000000000041
 40
0.32592
100
AcDbArc
 50
90.0
 51
208.419208263553
  0
ARC
  5
152C10
330
18
100
AcDbEntity
  8
姿図
100
AcDbCircle
 10
11188.11186004229
 20
-3251.606764911543
 30
0.0000000000000024
 40
0.32592
100
AcDbArc
 50
17.3619833593784
 51
90.0
  0
LINE
  5
152C11
330
18
100
AcDbEntity
  8
姿図
100
AcDbLine
 10
11188.11186004229
 20
-3251.280844911543
 30
0.000000000000005
 11
11184.81202438024
 21
-3251.280844911543
 31
0.000000000000005
  0
ARC
  5
152C12
330
18
100
AcDbEntity
  8
姿図
100
AcDbCircle
 10
11190.00078116739
 20
-3253.506555312355
 30
0.0000000000000049
 40
0.6400000000000001
100
AcDbArc
 50
90.0
 51
180.0
  0
LINE
  5
152C13
330
18
100
AcDbEntity
  8
姿図
100
AcDbLine
 10
11190.93829303442
 20
-3253.186555312355
 30
0.0000000000000049
 11
11190.93829303442
 21
-3255.746555312354
 31
0.0000000000000049
  0
LINE
  5
152C14
330
18
100
AcDbEntity
  8
姿図
100
AcDbLine
 10
11189.68078116739
 20
-3253.186555312355
 30
0.0000000000000049
 11
11189.68078116739
 21
-3255.746555312354
 31
0.0000000000000049
  0
ARC
  5
152C15
330
18
100
AcDbEntity
  8
姿図
100
AcDbCircle
 10
11190.00078116739
 20
-3255.426555312355
 30
0.0000000000000049
 40
0.6400000000000001
100
AcDbArc
 50
180.0
 51
270.0
  0
ARC
  5
152C16
330
18
100
AcDbEntity
  8
姿図
100
AcDbCircle
 10
11190.00078116739
 20
-3255.746555312354
 30
0.0000000000000049
 40
0.3200000000000001
100
AcDbArc
 50
180.0
 51
270.0
  0
LINE
  5
152C17
330
18
100
AcDbEntity
  8
姿図
100
AcDbLine
 10
11189.36078116739
 20
-3253.506555312355
 30
0.0000000000000049
 11
11189.36078116739
 21
-3255.426555312355
 31
0.0000000000000049
  0
LINE
  5
152C18
330
18
100
AcDbEntity
  8
姿図
100
AcDbLine
 10
11190.93829303442
 20
-3255.746555312354
 30
0.0000000000000049
 11
11189.68078116739
 21
-3255.746555312354
 31
0.0000000000000049
  0
ARC
  5
152C19
330
18
100
AcDbEntity
  8
姿図
100
AcDbCircle
 10
11190.00078116739
 20
-3253.186555312355
 30
0.0000000000000049
 40
0.3200000000000001
100
AcDbArc
 50
90.0
 51
180.0
  0
LINE
  5
152C1A
330
18
100
AcDbEntity
  8
姿図
100
AcDbLine
 10
11190.93829303442
 20
-3253.186555312355
 30
0.0000000000000049
 11
11189.68078116739
 21
-3253.186555312355
 31
0.0000000000000049
  0
LINE
  5
152C1B
330
18
100
AcDbEntity
  8
姿図
100
AcDbLine
 10
11182.01080187204
 20
-3251.280844911543
 30
0.0000000000000049
 11
11182.01080187204
 21
-3248.933765346981
 31
0.0000000000000049
  0
ARC
  5
152C1C
330
18
100
AcDbEntity
  8
姿図
100
AcDbCircle
 10
11191.25829303442
 20
-3255.746555312354
 30
0.0000000000000049
 40
0.3200000000000001
100
AcDbArc
 50
180.0
 51
270.0
  0
LINE
  5
152C1D
330
18
100
AcDbEntity
  8
姿図
100
AcDbLine
 10
11191.25829303442
 20
-3256.066555312354
 30
0.0000000000000049
 11
11190.00078116739
 21
-3256.066555312354
 31
0.0000000000000049
  0
ARC
  5
152C1E
330
18
100
AcDbEntity
  8
姿図
100
AcDbCircle
 10
11191.25829303442
 20
-3253.186555312355
 30
0.0000000000000049
 40
0.3200000000000001
100
AcDbArc
 50
90.0
 51
180.0
  0
LINE
  5
152C1F
330
18
100
AcDbEntity
  8
姿図
100
AcDbLine
 10
11191.25829303442
 20
-3252.866555312355
 30
0.0000000000000049
 11
11190.00078116739
 21
-3252.866555312355
 31
0.0000000000000049
  0
LINE
  5
152C20
330
18
100
AcDbEntity
  8
姿図
100
AcDbLine
 10
11193.03748254185
 20
-3245.597454680113
 30
0.0000000000000049
 11
11193.03748254185
 21
-3247.174710116089
 31
0.0000000000000049
  0
LINE
  5
152C21
330
18
100
AcDbEntity
  8
姿図
100
AcDbLine
 10
11199.90306976395
 20
-3244.808826962125
 30
0.0000000000000049
 11
11199.90306976395
 21
-3245.597454680111
 31
0.0000000000000049
  0
LINE
  5
152C22
330
18
100
AcDbEntity
  8
姿図
100
AcDbLine
 10
11199.90306976395
 20
-3248.933765346981
 30
0.0000000000000049
 11
11199.90306976395
 21
-3247.174710116089
 31
0.0000000000000049
  0
LINE
  5
152C23
330
18
100
AcDbEntity
  8
姿図
100
AcDbLine
 10
11197.03748254185
 20
-3245.597454680113
 30
0.0000000000000049
 11
11197.03748254185
 21
-3247.174710116089
 31
0.0000000000000049
  0
ARC
  5
152C24
330
18
100
AcDbEntity
  8
姿図
 48
2.0
100
AcDbCircle
 10
11199.92078116739
 20
-3253.506555312355
 30
0.0000000000000049
 40
0.6400000000000001
100
AcDbArc
 50
0.0
 51
90.0
  0
LINE
  5
152C25
330
18
100
AcDbEntity
  8
姿図
100
AcDbLine
 10
11198.98326930035
 20
-3253.186555312355
 30
0.0000000000000049
 11
11198.98326930035
 21
-3255.746555312354
 31
0.0000000000000049
  0
LINE
  5
152C26
330
18
100
AcDbEntity
  8
姿図
100
AcDbLine
 10
11200.24078116739
 20
-3253.186555312355
 30
0.0000000000000049
 11
11200.24078116739
 21
-3255.746555312354
 31
0.0000000000000049
  0
LINE
  5
152C27
330
18
100
AcDbEntity
  8
姿図
100
AcDbLine
 10
11196.56078116739
 20
-3253.186555312355
 30
0.0000000000000049
 11
11196.56078116739
 21
-3255.746555312354
 31
0.0000000000000049
  0
LINE
  5
152C28
330
18
100
AcDbEntity
  8
姿図
100
AcDbLine
 10
11193.36078116739
 20
-3253.186555312355
 30
0.0000000000000049
 11
11193.36078116739
 21
-3255.746555312354
 31
0.0000000000000049
  0
LINE
  5
152C29
330
18
100
AcDbEntity
  8
姿図
100
AcDbLine
 10
11196.88078116739
 20
-3256.066555312354
 30
0.0000000000000049
 11
11193.04078116739
 21
-3256.066555312354
 31
0.0000000000000049
  0
LINE
  5
152C2A
330
18
100
AcDbEntity
  8
姿図
100
AcDbLine
 10
11196.56078116739
 20
-3255.746555312354
 30
0.0000000000000049
 11
11193.36078116739
 21
-3255.746555312354
 31
0.0000000000000049
  0
ARC
  5
152C2B
330
18
100
AcDbEntity
  8
姿図
 48
2.0
100
AcDbCircle
 10
11193.04078116739
 20
-3255.746555312354
 30
0.0000000000000049
 40
0.3200000000000001
100
AcDbArc
 50
270.0
 51
0.0
  0
ARC
  5
152C2C
330
18
100
AcDbEntity
  8
姿図
 48
2.0
100
AcDbCircle
 10
11199.92078116739
 20
-3255.426555312355
 30
0.0000000000000049
 40
0.6400000000000001
100
AcDbArc
 50
270.0
 51
0.0
  0
ARC
  5
152C2D
330
18
100
AcDbEntity
  8
姿図
100
AcDbCircle
 10
11199.92078116739
 20
-3255.746555312354
 30
0.0000000000000049
 40
0.3200000000000001
100
AcDbArc
 50
270.0
 51
0.0
  0
ARC
  5
152C2E
330
18
100
AcDbEntity
  8
姿図
100
AcDbCircle
 10
11198.66326930035
 20
-3255.746555312354
 30
0.0000000000000049
 40
0.3200000000000001
100
AcDbArc
 50
270.0
 51
0.0
  0
LINE
  5
152C2F
330
18
100
AcDbEntity
  8
姿図
100
AcDbLine
 10
11200.56078116739
 20
-3253.506555312355
 30
0.0000000000000049
 11
11200.56078116739
 21
-3255.426555312355
 31
0.0000000000000049
  0
LINE
  5
152C30
330
18
100
AcDbEntity
  8
姿図
100
AcDbLine
 10
11198.98326930035
 20
-3255.746555312354
 30
0.0000000000000049
 11
11200.24078116739
 21
-3255.746555312354
 31
0.0000000000000049
  0
ARC
  5
152C31
330
18
100
AcDbEntity
  8
姿図
100
AcDbCircle
 10
11196.88078116739
 20
-3255.746555312354
 30
0.0000000000000049
 40
0.3200000000000001
100
AcDbArc
 50
180.0
 51
270.0
  0
LINE
  5
152C32
330
18
100
AcDbEntity
  8
姿図
100
AcDbLine
 10
11199.92078116739
 20
-3256.066555312354
 30
0.0000000000000049
 11
11196.88078116739
 21
-3256.066555312354
 31
0.0000000000000049
  0
LINE
  5
152C33
330
18
100
AcDbEntity
  8
姿図
100
AcDbLine
 10
11196.56078116739
 20
-3253.186555312355
 30
0.0000000000000049
 11
11193.36078116739
 21
-3253.186555312355
 31
0.0000000000000049
  0
LINE
  5
152C34
330
18
100
AcDbEntity
  8
姿図
100
AcDbLine
 10
11196.88078116739
 20
-3252.866555312355
 30
0.0000000000000049
 11
11193.04078116739
 21
-3252.866555312355
 31
0.0000000000000049
  0
ARC
  5
152C35
330
18
100
AcDbEntity
  8
姿図
 48
2.0
100
AcDbCircle
 10
11193.04078116739
 20
-3253.186555312355
 30
0.0000000000000049
 40
0.3200000000000001
100
AcDbArc
 50
0.0
 51
90.0
  0
LINE
  5
152C36
330
18
100
AcDbEntity
  8
姿図
100
AcDbLine
 10
11194.00078116739
 20
-3251.266555312355
 30
0.0000000000000049
 11
11194.00078116739
 21
-3250.020165346981
 31
0.0000000000000049
  0
LINE
  5
152C37
330
18
100
AcDbEntity
  8
姿図
100
AcDbLine
 10
11194.16078116739
 20
-3251.266555312355
 30
0.0000000000000049
 11
11194.16078116739
 21
-3250.020165346981
 31
0.0000000000000049
  0
LINE
  5
152C38
330
18
100
AcDbEntity
  8
姿図
100
AcDbLine
 10
11198.80078116739
 20
-3251.586555312354
 30
0.0000000000000049
 11
11198.80078116739
 21
-3252.866555312355
 31
0.0000000000000049
  0
ARC
  5
152C39
330
18
100
AcDbEntity
  8
姿図
100
AcDbCircle
 10
11199.92078116739
 20
-3253.186555312355
 30
0.0000000000000049
 40
0.3200000000000001
100
AcDbArc
 50
0.0
 51
90.0
  0
LINE
  5
152C3A
330
18
100
AcDbEntity
  8
姿図
100
AcDbLine
 10
11198.98326930035
 20
-3253.186555312355
 30
0.0000000000000049
 11
11200.24078116739
 21
-3253.186555312355
 31
0.0000000000000049
  0
ARC
  5
152C3B
330
18
100
AcDbEntity
  8
姿図
 48
2.0
100
AcDbCircle
 10
11198.48078116739
 20
-3251.586555312354
 30
0.0000000000000049
 40
0.3200000000000001
100
AcDbArc
 50
0.0
 51
90.0
  0
ARC
  5
152C3C
330
18
100
AcDbEntity
  8
姿図
100
AcDbCircle
 10
11198.66326930035
 20
-3253.186555312355
 30
0.0000000000000049
 40
0.3200000000000001
100
AcDbArc
 50
0.0
 51
90.0
  0
ARC
  5
152C3D
330
18
100
AcDbEntity
  8
姿図
100
AcDbCircle
 10
11196.88078116739
 20
-3253.186555312355
 30
0.0000000000000049
 40
0.3200000000000001
100
AcDbArc
 50
90.0
 51
180.0
  0
LINE
  5
152C3E
330
18
100
AcDbEntity
  8
姿図
100
AcDbLine
 10
11195.92078116739
 20
-3251.266555312355
 30
0.0000000000000049
 11
11195.92078116739
 21
-3250.020165346981
 31
0.0000000000000049
  0
LINE
  5
152C3F
330
18
100
AcDbEntity
  8
姿図
100
AcDbLine
 10
11195.76078116739
 20
-3251.266555312355
 30
0.0000000000000049
 11
11195.76078116739
 21
-3250.020165346981
 31
0.0000000000000049
  0
LINE
  5
152C40
330
18
100
AcDbEntity
  8
姿図
100
AcDbLine
 10
11199.92078116739
 20
-3252.866555312355
 30
0.0000000000000049
 11
11196.88078116739
 21
-3252.866555312355
 31
0.0000000000000049
  0
LINE
  5
152C41
330
18
100
AcDbEntity
  8
姿図
100
AcDbLine
 10
11210.93867255242
 20
-3250.315429656222
 30
0.0000000000000046
 11
11214.69733032112
 21
-3254.225595286481
 31
0.0000000000000049
  0
LINE
  5
152C42
330
18
100
AcDbEntity
  8
姿図
100
AcDbLine
 10
11209.27064512288
 20
-3251.283391120856
 30
0.0000000000000048
 11
11212.70631359985
 21
-3254.857548073228
 31
0.0000000000000051
  0
LINE
  5
152C43
330
18
100
AcDbEntity
  8
姿図
100
AcDbLine
 10
11209.80443668338
 20
-3251.380901794031
 30
0.0000000000000047
 11
11213.12197524437
 21
-3254.832167127699
 31
0.000000000000005
  0
LINE
  5
152C44
330
18
100
AcDbEntity
  8
姿図
100
AcDbLine
 10
11209.58067255242
 20
-3250.315429656222
 30
0.0000000000000046
 11
11213.99151168276
 21
-3254.904065448416
 31
0.000000000000005
  0
LINE
  5
152C45
330
18
100
AcDbEntity
  8
姿図
100
AcDbLine
 10
11210.39547255242
 20
-3250.315429656222
 30
0.0000000000000046
 11
11214.41500286578
 21
-3254.496983351255
 31
0.000000000000005
  0
ARC
  5
152C46
330
18
100
AcDbEntity
  8
姿図
100
AcDbCircle
 10
11212.88700780291
 20
-3255.058030245212
 30
0.0000000000000212
 40
0.32592
100
AcDbArc
 50
354.858484833648
 51
43.86819249326457
  0
ARC
  5
152C47
330
18
100
AcDbEntity
  8
姿図
100
AcDbCircle
 10
11212.47134615838
 20
-3255.083411190742
 30
0.0000000000000208
 40
0.32592
100
AcDbArc
 50
354.858484833648
 51
43.86819249326457
  0
LINE
  5
152C48
330
18
100
AcDbEntity
  8
姿図
100
AcDbLine
 10
11214.69733032112
 20
-3254.225595286481
 30
0.0000000000000049
 11
11214.41500286578
 21
-3254.496983351255
 31
0.000000000000005
  0
LINE
  5
152C49
330
18
100
AcDbEntity
  8
姿図
100
AcDbLine
 10
11201.38643954633
 20
-3251.280844911543
 30
0.0000000000000049
 11
11201.38643954633
 21
-3250.020165346981
 31
0.0000000000000049
  0
ARC
  5
152C4A
330
18
100
AcDbEntity
  8
姿図
100
AcDbCircle
 10
11204.53745857401
 20
-3251.606764911543
 30
-0.0000000000000028
 40
0.32592
100
AcDbArc
 50
90.0
 51
230.3089243458876
  0
ARC
  5
152C4B
330
18
100
AcDbEntity
  8
姿図
100
AcDbCircle
 10
11209.56946924192
 20
-3251.606764911543
 30
0.0000000000000292
 40
0.32592
100
AcDbArc
 50
43.86819249326457
 51
90.0
  0
LINE
  5
152C4C
330
18
100
AcDbEntity
  8
姿図
100
AcDbLine
 10
11209.58067255242
 20
-3250.315429656222
 30
0.0000000000000046
 11
11210.39547255242
 21
-3250.315429656222
 31
0.0000000000000046
  0
LINE
  5
152C4D
330
18
100
AcDbEntity
  8
姿図
100
AcDbLine
 10
11204.53745857401
 20
-3251.280844911543
 30
0.000000000000005
 11
11209.56946924192
 21
-3251.280844911543
 31
0.0000000000000052
  0
LINE
  5
152C4E
330
18
100
AcDbEntity
  8
姿図
100
AcDbLine
 10
11202.47283954633
 20
-3251.280844911543
 30
0.0000000000000049
 11
11202.47283954633
 21
-3248.933765346981
 31
0.0000000000000049
  0
LINE
  5
152C4F
330
18
100
AcDbEntity
  8
姿図
100
AcDbLine
 10
11202.94694282668
 20
-3248.933765346981
 30
0.0000000000000049
 11
11202.94694282668
 21
-3251.066995019075
 31
0.0000000000000049
  0
LINE
  5
152C50
330
18
100
AcDbEntity
  8
姿図
100
AcDbLine
 10
11210.39547255242
 20
-3250.315429656222
 30
0.0000000000000046
 11
11210.39547255242
 21
-3248.933765346981
 31
0.0000000000000047
  0
LINE
  5
152C51
330
18
100
AcDbEntity
  8
姿図
100
AcDbLine
 10
11210.93867255242
 20
-3250.315429656222
 30
0.0000000000000046
 11
11210.93867255242
 21
-3248.933765346981
 31
0.0000000000000047
  0
LINE
  5
152C52
330
18
100
AcDbEntity
  8
姿図
100
AcDbLine
 10
11209.58067255242
 20
-3250.315429656222
 30
0.0000000000000046
 11
11209.58067255242
 21
-3248.933765346981
 31
0.0000000000000047
  0
SPLINE
  5
152C53
330
18
100
AcDbEntity
  8
姿図
100
AcDbSpline
210
0.0
220
0.0
230
1.0
 70
     8
 71
     3
 72
     8
 73
     4
 74
     0
 42
0.000000001
 43
0.0000000001
 40
0.0
 40
0.0
 40
0.0
 40
0.0
 40
0.0005796812321887
 40
0.0005796812321887
 40
0.0005796812321887
 40
0.0005796812321887
 10
11210.3369757853
 20
-3258.717126634181
 30
0.0000000000000035
 10
11210.3381246808
 20
-3258.717298966403
 30
0.0000000000000035
 10
11210.339273594
 20
-3258.717471619438
 30
0.0000000000000035
 10
11210.34042252485
 20
-3258.717644593129
 30
0.0000000000000035
  0
SPLINE
  5
15373B
330
18
100
AcDbEntity
  8
姿図
100
AcDbSpline
210
0.0
220
0.0
230
1.0
 70
     8
 71
     3
 72
     8
 73
     4
 74
     0
 42
0.000000001
 43
0.0000000001
 40
7.0
 40
7.0
 40
7.0
 40
7.0
 40
8.0
 40
8.0
 40
8.0
 40
8.0
 10
11221.0211890499
 20
-3268.00512994264
 30
0.0
 10
11221.0211890499
 20
-3268.00512994264
 30
0.0
 10
11221.30215346986
 20
-3268.286094362603
 30
0.0
 10
11221.48946308316
 20
-3268.379749169258
 30
0.0
  0
SPLINE
  5
15373C
330
18
100
AcDbEntity
  8
姿図
100
AcDbSpline
210
0.0
220
0.0
230
1.0
 70
     8
 71
     3
 72
     8
 73
     4
 74
     0
 42
0.000000001
 43
0.0000000001
 40
0.4512593651848881
 40
0.4512593651848881
 40
0.4512593651848881
 40
0.4512593651848881
 40
1.0
 40
1.0
 40
1.0
 40
1.0
 10
11218.7735471678
 20
-3268.694388055504
 30
0.0
 10
11218.86277575415
 20
-3268.52350852592
 30
0.0
 10
11218.93845073134
 20
-3268.164224165699
 30
0.0
 10
11218.83566633523
 20
-3267.411007262925
 30
0.0
  0
SPLINE
  5
15373D
330
18
100
AcDbEntity
  8
姿図
100
AcDbSpline
210
0.0
220
0.0
230
1.0
 70
     8
 71
     3
 72
     8
 73
     4
 74
     0
 42
0.000000001
 43
0.0000000001
 40
0.0
 40
0.0
 40
0.0
 40
0.0
 40
1.0
 40
1.0
 40
1.0
 40
1.0
 10
11217.4186447422
 20
-3278.833810892752
 30
0.0
 10
11217.93058043029
 20
-3278.087655221547
 30
0.0
 10
11221.7830995698
 20
-3273.066432604313
 30
0.0
 10
11221.7830995698
 20
-3273.066432604313
 30
0.0
  0
LINE
  5
15373E
330
18
100
AcDbEntity
  8
姿図
100
AcDbLine
 10
11215.12651752015
 20
-3269.945937252328
 30
0.0
 11
11217.33215259604
 21
-3269.101627698204
 31
0.0
  0
LINE
  5
15373F
330
18
100
AcDbEntity
  8
姿図
100
AcDbLine
 10
11215.00449741504
 20
-3270.872986497101
 30
0.0000000000000024
 11
11217.53348259012
 21
-3269.45562708306
 31
0.0000000000000007
  0
SPLINE
  5
153740
330
18
100
AcDbEntity
  8
姿図
100
AcDbSpline
210
0.0
220
0.0
230
1.0
 70
    24
 71
     3
 72
     8
 73
     4
 74
     0
 42
0.000000001
 43
0.0000000001
 40
0.0
 40
0.0
 40
0.0
 40
0.0
 40
1.0
 40
1.0
 40
1.0
 40
1.0
 10
11223.60026968108
 20
-3265.97100961191
 30
0.0
 10
11223.60026968108
 20
-3265.97100961191
 30
0.0
 10
11225.2978479944
 20
-3264.226743836667
 30
0.0
 10
11225.2978479944
 20
-3264.226743836667
 30
0.0
  0
SPLINE
  5
153741
330
18
100
AcDbEntity
  8
姿図
100
AcDbSpline
210
0.0
220
0.0
230
1.0
 70
     8
 71
     3
 72
     8
 73
     4
 74
     0
 42
0.000000001
 43
0.0000000001
 40
1.0
 40
1.0
 40
1.0
 40
1.0
 40
2.0
 40
2.0
 40
2.0
 40
2.0
 10
11225.2978479944
 20
-3264.226743836667
 30
0.0
 10
11225.2978479944
 20
-3264.226743836667
 30
0.0
 10
11225.36223567397
 20
-3264.10235854658
 30
0.0
 10
11225.33004183418
 20
-3264.008703739926
 30
0.0
  0
SPLINE
  5
153742
330
18
100
AcDbEntity
  8
姿図
100
AcDbSpline
210
0.0
220
0.0
230
1.0
 70
    24
 71
     3
 72
     8
 73
     4
 74
     0
 42
0.000000001
 43
0.0000000001
 40
1.65818313359766
 40
1.65818313359766
 40
1.65818313359766
 40
1.65818313359766
 40
1.793215549939622
 40
1.793215549939622
 40
1.793215549939622
 40
1.793215549939622
 10
11215.4844157348
 20
-3255.970757563897
 30
0.0
 10
11215.97756386105
 20
-3255.602752498626
 30
0.0
 10
11216.42389156098
 20
-3255.269686538104
 30
0.0
 10
11216.78343075992
 20
-3255.001385313116
 30
0.0
  0
SPLINE
  5
153743
330
18
100
AcDbEntity
  8
姿図
100
AcDbSpline
210
0.0
220
0.0
230
1.0
 70
     8
 71
     3
 72
     8
 73
     4
 74
     0
 42
0.000000001
 43
0.0000000001
 40
0.0
 40
0.0
 40
0.0
 40
0.0
 40
1.0
 40
1.0
 40
1.0
 40
1.0
 10
11227.98310690395
 20
-3267.630510716021
 30
0.0
 10
11227.98310690395
 20
-3267.630510716021
 30
0.0
 10
11228.26260796755
 20
-3268.00512994264
 30
0.0
 10
11228.10749219403
 20
-3268.192439555949
 30
0.0
  0
SPLINE
  5
153744
330
18
100
AcDbEntity
  8
姿図
100
AcDbSpline
210
0.0
220
0.0
230
1.0
 70
    24
 71
     3
 72
     8
 73
     4
 74
     0
 42
0.000000001
 43
0.0000000001
 40
1.0
 40
1.0
 40
1.0
 40
1.0
 40
1.888883729132651
 40
1.888883729132651
 40
1.888883729132651
 40
1.888883729132651
 10
11228.10749219403
 20
-3268.192439555949
 30
0.0
 10
11228.10749219403
 20
-3268.192439555949
 30
0.0
 10
11222.68135756396
 20
-3272.508604178585
 30
0.0
 10
11221.47549387333
 20
-3273.46779641322
 30
0.0
  0
SPLINE
  5
153745
330
18
100
AcDbEntity
  8
姿図
100
AcDbSpline
210
0.0
220
0.0
230
1.0
 70
     8
 71
     3
 72
    11
 73
     7
 74
     0
 42
0.000000001
 43
0.0000000001
 40
0.0
 40
0.0
 40
0.0
 40
0.0
 40
1.0
 40
1.0
 40
1.0
 40
1.814174646936442
 40
1.814174646936442
 40
1.814174646936442
 40
1.814174646936442
 10
11228.88892448706
 20
-3265.944724196238
 30
0.0
 10
11228.88892448706
 20
-3265.944724196238
 30
0.0
 10
11229.20061939046
 20
-3266.164227649336
 30
0.0
 10
11228.73234535718
 20
-3266.569577359387
 30
0.0
 10
11228.35108851147
 20
-3266.899602816454
 30
0.0
 10
11224.36907963589
 20
-3270.10673778877
 30
0.0
 10
11222.11279046967
 20
-3271.964939395811
 30
0.0000000000000049
  0
SPLINE
  5
153746
330
18
100
AcDbEntity
  8
姿図
100
AcDbSpline
210
0.0
220
0.0
230
1.0
 70
    24
 71
     3
 72
     8
 73
     4
 74
     0
 42
0.000000001
 43
0.0000000001
 40
0.0
 40
0.0
 40
0.0
 40
0.0
 40
1.0
 40
1.0
 40
1.0
 40
1.0
 10
11227.67141200055
 20
-3265.164755259568
 30
0.0
 10
11227.67141200055
 20
-3265.164755259568
 30
0.0
 10
11229.07623410036
 20
-3266.038379002894
 30
0.0
 10
11229.07623410036
 20
-3266.038379002894
 30
0.0
  0
SPLINE
  5
153747
330
18
100
AcDbEntity
  8
姿図
100
AcDbSpline
210
0.0
220
0.0
230
1.0
 70
     8
 71
     3
 72
     8
 73
     4
 74
     0
 42
0.000000001
 43
0.0000000001
 40
1.0
 40
1.0
 40
1.0
 40
1.0
 40
2.0
 40
2.0
 40
2.0
 40
2.0
 10
11229.07623410036
 20
-3266.038379002894
 30
0.0
 10
11229.07623410036
 20
-3266.038379002894
 30
0.0
 10
11229.4186594872
 20
-3266.288612939424
 30
0.0
 10
11229.13769506723
 20
-3266.569577359387
 30
0.0
  0
SPLINE
  5
153748
330
18
100
AcDbEntity
  8
姿図
100
AcDbSpline
210
0.0
220
0.0
230
1.0
 70
    24
 71
     3
 72
     8
 73
     4
 74
     0
 42
0.000000001
 43
0.0000000001
 40
2.0
 40
2.0
 40
2.0
 40
2.0
 40
2.760018265937639
 40
2.760018265937639
 40
2.760018265937639
 40
2.760018265937639
 10
11229.13769506723
 20
-3266.569577359387
 30
0.0
 10
11229.13769506723
 20
-3266.569577359387
 30
0.0
 10
11224.82805915667
 20
-3270.283716849636
 30
0.0
 10
11222.75959135867
 20
-3272.066368120475
 30
0.0
  0
SPLINE
  5
153749
330
18
100
AcDbEntity
  8
姿図
100
AcDbSpline
210
0.0
220
0.0
230
1.0
 70
     8
 71
     3
 72
    11
 73
     7
 74
     0
 42
0.000000001
 43
0.0000000001
 40
0.0
 40
0.0
 40
0.0
 40
0.0
 40
1.0
 40
1.0
 40
1.0
 40
1.849772278806539
 40
1.849772278806539
 40
1.849772278806539
 40
1.849772278806539
 10
11229.01330977714
 20
-3263.478968739786
 30
0.0
 10
11229.01330977714
 20
-3263.478968739786
 30
0.0
 10
11229.4186594872
 20
-3263.446774899998
 30
0.0
 10
11228.5757662273
 20
-3264.071628063146
 30
0.0
 10
11227.85949890106
 20
-3264.602610959515
 30
0.0
 10
11223.62703391361
 20
-3267.928587939688
 30
0.0
 10
11222.37153175818
 20
-3268.915912407113
 30
0.0
  0
SPLINE
  5
15374A
330
18
100
AcDbEntity
  8
姿図
100
AcDbSpline
210
0.0
220
0.0
230
1.0
 70
     8
 71
     3
 72
    11
 73
     7
 74
     0
 42
0.000000001
 43
0.0000000001
 40
0.0
 40
0.0
 40
0.0
 40
0.0
 40
1.0
 40
1.0
 40
1.0
 40
1.675127286579802
 40
1.675127286579802
 40
1.675127286579802
 40
1.675127286579802
 10
11227.92018258072
 20
-3260.918095120324
 30
0.0
 10
11227.92018258072
 20
-3260.918095120324
 30
0.0
 10
11228.38991997035
 20
-3260.950288960112
 30
0.0
 10
11228.04603122717
 20
-3261.261983863509
 30
0.0
 10
11227.81386255309
 20
-3261.47241759788
 30
0.0
 10
11223.61208372374
 20
-3264.827724369665
 30
0.0
 10
11220.56951943631
 20
-3267.245685293906
 30
0.0000000000000036
  0
SPLINE
  5
15374B
330
18
100
AcDbEntity
  8
姿図
100
AcDbSpline
210
0.0
220
0.0
230
1.0
 70
    24
 71
     3
 72
     8
 73
     4
 74
     0
 42
0.000000001
 43
0.0000000001
 40
0.0
 40
0.0
 40
0.0
 40
0.0
 40
1.0
 40
1.0
 40
1.0
 40
1.0
 10
11226.60901528756
 20
-3262.917039899859
 30
0.0
 10
11226.60901528756
 20
-3262.917039899859
 30
0.0
 10
11229.01330977714
 20
-3263.478968739786
 30
0.0
 10
11229.01330977714
 20
-3263.478968739786
 30
0.0
  0
SPLINE
  5
15374C
330
18
100
AcDbEntity
  8
姿図
100
AcDbSpline
210
0.0
220
0.0
230
1.0
 70
     8
 71
     3
 72
    11
 73
     7
 74
     0
 42
0.000000001
 43
0.0000000001
 40
1.0
 40
1.0
 40
1.0
 40
1.0
 40
2.0
 40
2.0
 40
2.0
 40
2.860176820110707
 40
2.860176820110707
 40
2.860176820110707
 40
2.860176820110707
 10
11229.01330977714
 20
-3263.478968739786
 30
0.0
 10
11229.01330977714
 20
-3263.478968739786
 30
0.0
 10
11229.60596910051
 20
-3263.60189067352
 30
0.0
 10
11229.20061939046
 20
-3263.915048933271
 30
0.0
 10
11228.85194696583
 20
-3264.184420409335
 30
0.0
 10
11223.96441397119
 20
-3268.113464768661
 30
0.0
 10
11222.60444988873
 20
-3269.206941368285
 30
0.0
  0
SPLINE
  5
15374D
330
18
100
AcDbEntity
  8
姿図
100
AcDbSpline
210
0.0
220
0.0
230
1.0
 70
    24
 71
     3
 72
     8
 73
     4
 74
     0
 42
0.000000001
 43
0.0000000001
 40
0.0
 40
0.0
 40
0.0
 40
0.0
 40
1.0
 40
1.0
 40
1.0
 40
1.0
 10
11222.67551340806
 20
-3263.57262354644
 30
0.0
 10
11222.67551340806
 20
-3263.57262354644
 30
0.0
 10
11224.6744581876
 20
-3261.699527413349
 30
0.0
 10
11224.6744581876
 20
-3261.699527413349
 30
0.0
  0
SPLINE
  5
15374E
330
18
100
AcDbEntity
  8
姿図
100
AcDbSpline
210
0.0
220
0.0
230
1.0
 70
     8
 71
     3
 72
     8
 73
     4
 74
     0
 42
0.000000001
 43
0.0000000001
 40
1.0
 40
1.0
 40
1.0
 40
1.0
 40
1.201957035102942
 40
1.201957035102942
 40
1.201957035102942
 40
1.201957035102942
 10
11224.6744581876
 20
-3261.699527413349
 30
0.0
 10
11224.59229942687
 20
-3261.384191450394
 30
0.0
 10
11224.46818183366
 20
-3261.113440477276
 30
0.0
 10
11224.32240415092
 20
-3260.88212748495
 30
0.0
  0
SPLINE
  5
15374F
330
18
100
AcDbEntity
  8
姿図
100
AcDbSpline
210
0.0
220
0.0
230
1.0
 70
     8
 71
     3
 72
     8
 73
     4
 74
     0
 42
0.000000001
 43
0.0000000001
 40
1.371408514633379
 40
1.371408514633379
 40
1.371408514633379
 40
1.371408514633379
 40
2.0
 40
2.0
 40
2.0
 40
2.0
 10
11223.92170522447
 20
-3260.380132698479
 30
0.0
 10
11223.39931849025
 20
-3259.854879983959
 30
0.0
 10
11222.83209253794
 20
-3259.669852150381
 30
0.0
 10
11222.83209253794
 20
-3259.669852150381
 30
0.0
  0
SPLINE
  5
153750
330
18
100
AcDbEntity
  8
姿図
100
AcDbSpline
210
0.0
220
0.0
230
1.0
 70
    24
 71
     3
 72
     8
 73
     4
 74
     0
 42
0.000000001
 43
0.0000000001
 40
2.0
 40
2.0
 40
2.0
 40
2.0
 40
3.0
 40
3.0
 40
3.0
 40
3.0
 10
11222.83209253794
 20
-3259.669852150381
 30
0.0
 10
11222.83209253794
 20
-3259.669852150381
 30
0.0
 10
11220.83387943658
 20
-3261.199059540288
 30
0.0
 10
11220.83387943658
 20
-3261.199059540288
 30
0.0
  0
SPLINE
  5
153751
330
18
100
AcDbEntity
  8
姿図
100
AcDbSpline
210
0.0
220
0.0
230
1.0
 70
    24
 71
     3
 72
     8
 73
     4
 74
     0
 42
0.000000001
 43
0.0000000001
 40
0.1253663450285614
 40
0.1253663450285614
 40
0.1253663450285614
 40
0.1253663450285614
 40
1.0
 40
1.0
 40
1.0
 40
1.0
 10
11224.52860874723
 20
-3261.273871554737
 30
0.0
 10
11225.27129137722
 20
-3261.190228537451
 30
0.0
 10
11228.23334084048
 20
-3260.856634153457
 30
0.0
 10
11228.23334084048
 20
-3260.856634153457
 30
0.0
  0
SPLINE
  5
153752
330
18
100
AcDbEntity
  8
姿図
100
AcDbSpline
210
0.0
220
0.0
230
1.0
 70
     8
 71
     3
 72
    11
 73
     7
 74
     0
 42
0.000000001
 43
0.0000000001
 40
1.0
 40
1.0
 40
1.0
 40
1.0
 40
2.0
 40
2.0
 40
2.0
 40
2.79498799956431
 40
2.79498799956431
 40
2.79498799956431
 40
2.79498799956431
 10
11228.23334084048
 20
-3260.856634153457
 30
0.0
 10
11228.23334084048
 20
-3260.856634153457
 30
0.0
 10
11229.13915842359
 20
-3260.82444031367
 30
0.0
 10
11228.42065045378
 20
-3261.449293476818
 30
0.0
 10
11227.8494452402
 20
-3261.946044243011
 30
0.0
 10
11222.95780382163
 20
-3265.973871843335
 30
0.0
 10
11220.79404343724
 20
-3267.743510320252
 30
0.0000000000000036
  0
SPLINE
  5
153753
330
18
100
AcDbEntity
  8
姿図
100
AcDbSpline
210
0.0
220
0.0
230
1.0
 70
    24
 71
     3
 72
     8
 73
     4
 74
     0
 42
0.000000001
 43
0.0000000001
 40
1.434336468963312
 40
1.434336468963312
 40
1.434336468963312
 40
1.434336468963312
 40
2.0
 40
2.0
 40
2.0
 40
2.0
 10
11221.62014917055
 20
-3262.110581566323
 30
0.0
 10
11223.99777995336
 20
-3260.322935121969
 30
0.0
 10
11226.734863934
 20
-3258.265030050562
 30
0.0
 10
11226.734863934
 20
-3258.265030050562
 30
0.0
  0
SPLINE
  5
153754
330
18
100
AcDbEntity
  8
姿図
100
AcDbSpline
210
0.0
220
0.0
230
1.0
 70
     8
 71
     3
 72
     8
 73
     4
 74
     0
 42
0.000000001
 43
0.0000000001
 40
2.0
 40
2.0
 40
2.0
 40
2.0
 40
3.0
 40
3.0
 40
3.0
 40
3.0
 10
11226.734863934
 20
-3258.265030050562
 30
0.0
 10
11226.734863934
 20
-3258.265030050562
 30
0.0
 10
11227.10948316062
 20
-3258.190398876509
 30
0.0
 10
11227.0465588374
 20
-3258.576724953959
 30
0.0
  0
SPLINE
  5
153755
330
18
100
AcDbEntity
  8
姿図
100
AcDbSpline
210
0.0
220
0.0
230
1.0
 70
     8
 71
     3
 72
     8
 73
     4
 74
     0
 42
0.000000001
 43
0.0000000001
 40
3.0
 40
3.0
 40
3.0
 40
3.0
 40
3.381238534568473
 40
3.381238534568473
 40
3.381238534568473
 40
3.381238534568473
 10
11227.0465588374
 20
-3258.576724953959
 30
0.0
 10
11227.03484319293
 20
-3258.648134596448
 30
0.0
 10
11225.8205876769
 20
-3259.658775946183
 30
0.0
 10
11224.32240415092
 20
-3260.88212748495
 30
0.0
  0
SPLINE
  5
153756
330
18
100
AcDbEntity
  8
姿図
100
AcDbSpline
210
0.0
220
0.0
230
1.0
 70
     8
 71
     3
 72
     8
 73
     4
 74
     0
 42
0.000000001
 43
0.0000000001
 40
1.47114458461932
 40
1.47114458461932
 40
1.47114458461932
 40
1.47114458461932
 40
2.0
 40
2.0
 40
2.0
 40
2.0
 10
11218.7096201168
 20
-3260.644512883623
 30
0.0000000000000064
 10
11222.3348587592
 20
-3257.892170356662
 30
0.0
 10
11224.73591915447
 20
-3256.110969497506
 30
0.0
 10
11224.73591915447
 20
-3256.110969497506
 30
0.0
  0
SPLINE
  5
153757
330
18
100
AcDbEntity
  8
姿図
100
AcDbSpline
210
0.0
220
0.0
230
1.0
 70
     8
 71
     3
 72
     8
 73
     4
 74
     0
 42
0.000000001
 43
0.0000000001
 40
2.0
 40
2.0
 40
2.0
 40
2.0
 40
3.0
 40
3.0
 40
3.0
 40
3.0
 10
11224.73591915447
 20
-3256.110969497506
 30
0.0
 10
11224.73591915447
 20
-3256.110969497506
 30
0.0
 10
11225.36223567397
 20
-3255.862198917331
 30
0.0
 10
11225.33004183418
 20
-3256.329741272426
 30
0.0
  0
SPLINE
  5
153758
330
18
100
AcDbEntity
  8
姿図
100
AcDbSpline
210
0.0
220
0.0
230
1.0
 70
    24
 71
     3
 72
     8
 73
     4
 74
     0
 42
0.000000001
 43
0.0000000001
 40
3.0
 40
3.0
 40
3.0
 40
3.0
 40
4.0
 40
4.0
 40
4.0
 40
4.0
 10
11225.33004183418
 20
-3256.329741272426
 30
0.0
 10
11225.33004183418
 20
-3256.329741272426
 30
0.0
 10
11223.23744224799
 20
-3259.826431280256
 30
0.0
 10
11223.23744224799
 20
-3259.826431280256
 30
0.0
  0
SPLINE
  5
153759
330
18
100
AcDbEntity
  8
姿図
100
AcDbSpline
210
0.0
220
0.0
230
1.0
 70
    24
 71
     3
 72
     8
 73
     4
 74
     0
 42
0.000000001
 43
0.0000000001
 40
1.386230271243045
 40
1.386230271243045
 40
1.386230271243045
 40
1.386230271243045
 40
1.428242292534494
 40
1.428242292534494
 40
1.428242292534494
 40
1.428242292534494
 10
11216.86017463396
 20
-3259.021153990886
 30
0.0
 10
11217.0317967474
 20
-3258.894288289672
 30
0.0
 10
11217.20687922473
 20
-3258.764864634345
 30
0.0
 10
11217.38414424905
 20
-3258.633827606771
 30
0.0
  0
SPLINE
  5
15375A
330
18
100
AcDbEntity
  8
姿図
100
AcDbSpline
210
0.0
220
0.0
230
1.0
 70
    24
 71
     3
 72
     8
 73
     4
 74
     0
 42
0.000000001
 43
0.0000000001
 40
1.615278216396081
 40
1.615278216396081
 40
1.615278216396081
 40
1.615278216396081
 40
2.0
 40
2.0
 40
2.0
 40
2.0
 10
11217.38414424905
 20
-3258.633827606771
 30
0.0
 10
11221.33802342267
 20
-3255.711059416693
 30
0.0
 10
11222.61332076302
 20
-3254.768340042732
 30
0.0
 10
11222.61332076302
 20
-3254.768340042732
 30
0.0
  0
SPLINE
  5
15375B
330
18
100
AcDbEntity
  8
姿図
100
AcDbSpline
210
0.0
220
0.0
230
1.0
 70
     8
 71
     3
 72
     8
 73
     4
 74
     0
 42
0.000000001
 43
0.0000000001
 40
2.0
 40
2.0
 40
2.0
 40
2.0
 40
3.0
 40
3.0
 40
3.0
 40
3.0
 10
11222.61332076302
 20
-3254.768340042732
 30
0.0
 10
11222.61332076302
 20
-3254.768340042732
 30
0.0
 10
11222.89355350481
 20
-3254.550299945989
 30
0.0
 10
11222.86282302138
 20
-3255.455385850924
 30
0.0
  0
SPLINE
  5
15375C
330
18
100
AcDbEntity
  8
姿図
100
AcDbSpline
210
0.0
220
0.0
230
1.0
 70
    24
 71
     3
 72
     8
 73
     4
 74
     0
 42
0.000000001
 43
0.0000000001
 40
1.398287012679275
 40
1.398287012679275
 40
1.398287012679275
 40
1.398287012679275
 40
1.445359962748388
 40
1.445359962748388
 40
1.445359962748388
 40
1.445359962748388
 10
11216.71060654697
 20
-3258.689524692725
 30
0.0
 10
11216.90994642311
 20
-3258.54160872666
 30
0.0
 10
11217.11326880562
 20
-3258.39073762543
 30
0.0
 10
11217.31873058354
 20
-3258.238279030805
 30
0.0
  0
SPLINE
  5
15375D
330
18
100
AcDbEntity
  8
姿図
100
AcDbSpline
210
0.0
220
0.0
230
1.0
 70
    24
 71
     3
 72
     8
 73
     4
 74
     0
 42
0.000000001
 43
0.0000000001
 40
1.629831745831646
 40
1.629831745831646
 40
1.629831745831646
 40
1.629831745831646
 40
2.0
 40
2.0
 40
2.0
 40
2.0
 10
11217.31873058354
 20
-3258.238279030805
 30
0.0
 10
11221.2468596157
 20
-3255.323493430129
 30
0.0
 10
11222.45747331133
 20
-3254.425182977724
 30
0.0
 10
11222.45747331133
 20
-3254.425182977724
 30
0.0
  0
SPLINE
  5
15375E
330
18
100
AcDbEntity
  8
姿図
100
AcDbSpline
210
0.0
220
0.0
230
1.0
 70
     8
 71
     3
 72
    11
 73
     7
 74
     0
 42
0.000000001
 43
0.0000000001
 40
2.0
 40
2.0
 40
2.0
 40
2.0
 40
3.0
 40
3.0
 40
3.0
 40
4.0
 40
4.0
 40
4.0
 40
4.0
 10
11222.45747331133
 20
-3254.425182977724
 30
0.0
 10
11222.45747331133
 20
-3254.425182977724
 30
0.0
 10
11222.86282302138
 20
-3254.362258654503
 30
0.0
 10
11222.86282302138
 20
-3254.768340042732
 30
0.0
 10
11222.86282302138
 20
-3255.174421430961
 30
0.0
 10
11222.83209253794
 20
-3257.42213679067
 30
0.0
 10
11222.83209253794
 20
-3257.42213679067
 30
0.0
  0
SPLINE
  5
15375F
330
18
100
AcDbEntity
  8
姿図
100
AcDbSpline
210
0.0
220
0.0
230
1.0
 70
    24
 71
     3
 72
     8
 73
     4
 74
     0
 42
0.000000001
 43
0.0000000001
 40
1.393915750535534
 40
1.393915750535534
 40
1.393915750535534
 40
1.393915750535534
 40
1.3944780908435
 40
1.3944780908435
 40
1.3944780908435
 40
1.3944780908435
 10
11214.72858554419
 20
-3258.231855094789
 30
0.0
 10
11214.73091601451
 20
-3258.230120110522
 30
0.0
 10
11214.73324706714
 20
-3258.228384692734
 30
0.0
 10
11214.735578699
 20
-3258.226648843724
 30
0.0
  0
SPLINE
  5
153760
330
18
100
AcDbEntity
  8
姿図
100
AcDbSpline
210
0.0
220
0.0
230
1.0
 70
    24
 71
     3
 72
     8
 73
     4
 74
     0
 42
0.000000001
 43
0.0000000001
 40
1.497612535952938
 40
1.497612535952938
 40
1.497612535952938
 40
1.497612535952938
 40
1.573101002211188
 40
1.573101002211188
 40
1.573101002211188
 40
1.573101002211188
 10
11216.05786489794
 20
-3257.242235639977
 30
0.0
 10
11216.38544591403
 20
-3256.998358726048
 30
0.0
 10
11216.71326308996
 20
-3256.754305996268
 30
0.0
 10
11217.03384936262
 20
-3256.515636516089
 30
0.0
  0
SPLINE
  5
153761
330
18
100
AcDbEntity
  8
姿図
100
AcDbSpline
210
0.0
220
0.0
230
1.0
 70
    24
 71
     3
 72
     8
 73
     4
 74
     0
 42
0.000000001
 43
0.0000000001
 40
1.799348189808347
 40
1.799348189808347
 40
1.799348189808347
 40
1.799348189808347
 40
2.0
 40
2.0
 40
2.0
 40
2.0
 10
11217.03384936262
 20
-3256.515636516089
 30
0.0
 10
11220.07909651003
 20
-3254.24851650607
 30
0.0
 10
11220.42852972653
 20
-3253.988371106062
 30
0.0
 10
11220.42852972653
 20
-3253.988371106062
 30
0.0
  0
SPLINE
  5
153762
330
18
100
AcDbEntity
  8
姿図
100
AcDbSpline
210
0.0
220
0.0
230
1.0
 70
     8
 71
     3
 72
     8
 73
     4
 74
     0
 42
0.000000001
 43
0.0000000001
 40
2.0
 40
2.0
 40
2.0
 40
2.0
 40
3.0
 40
3.0
 40
3.0
 40
3.0
 10
11220.42852972653
 20
-3253.988371106062
 30
0.0
 10
11220.42852972653
 20
-3253.988371106062
 30
0.0
 10
11220.64730150145
 20
-3254.019101589495
 30
0.0
 10
11220.61583933984
 20
-3254.487375622768
 30
0.0
  0
SPLINE
  5
153763
330
18
100
AcDbEntity
  8
姿図
100
AcDbSpline
210
0.0
220
0.0
230
1.0
 70
    24
 71
     3
 72
     8
 73
     4
 74
     0
 42
0.000000001
 43
0.0000000001
 40
1.392044447518863
 40
1.392044447518863
 40
1.392044447518863
 40
1.392044447518863
 40
1.401746380022638
 40
1.401746380022638
 40
1.401746380022638
 40
1.401746380022638
 10
11214.5082321081
 20
-3258.083080711399
 30
0.0
 10
11214.54865598787
 20
-3258.053048739777
 30
0.0
 10
11214.58925750492
 20
-3258.02288479672
 30
0.0
 10
11214.63002069503
 20
-3257.992600742459
 30
0.0
  0
SPLINE
  5
153764
330
18
100
AcDbEntity
  8
姿図
100
AcDbSpline
210
0.0
220
0.0
230
1.0
 70
    24
 71
     3
 72
     8
 73
     4
 74
     0
 42
0.000000001
 43
0.0000000001
 40
1.503917660399789
 40
1.503917660399789
 40
1.503917660399789
 40
1.503917660399789
 40
1.583667207078013
 40
1.583667207078013
 40
1.583667207078013
 40
1.583667207078013
 10
11215.95300000973
 20
-3257.009724347177
 30
0.0
 10
11216.30150915316
 20
-3256.750807668132
 30
0.0
 10
11216.6495827287
 20
-3256.492214584006
 30
0.0
 10
11216.98835413309
 20
-3256.240532329362
 30
0.0
  0
SPLINE
  5
153765
330
18
100
AcDbEntity
  8
姿図
100
AcDbSpline
210
0.0
220
0.0
230
1.0
 70
    24
 71
     3
 72
     8
 73
     4
 74
     0
 42
0.000000001
 43
0.0000000001
 40
1.815455566821609
 40
1.815455566821609
 40
1.815455566821609
 40
1.815455566821609
 40
2.0
 40
2.0
 40
2.0
 40
2.0
 10
11216.98835413309
 20
-3256.240532329362
 30
0.0
 10
11219.97427412411
 20
-3254.022213233407
 30
0.0
 10
11220.27195059666
 20
-3253.801061492753
 30
0.0
 10
11220.27195059666
 20
-3253.801061492753
 30
0.0
  0
SPLINE
  5
153766
330
18
100
AcDbEntity
  8
姿図
100
AcDbSpline
210
0.0
220
0.0
230
1.0
 70
     8
 71
     3
 72
     8
 73
     4
 74
     0
 42
0.000000001
 43
0.0000000001
 40
2.0
 40
2.0
 40
2.0
 40
2.0
 40
3.0
 40
3.0
 40
3.0
 40
3.0
 10
11220.27195059666
 20
-3253.801061492753
 30
0.0
 10
11220.27195059666
 20
-3253.801061492753
 30
0.0
 10
11220.58510885641
 20
-3253.67521284631
 30
0.0
 10
11220.61583933984
 20
-3254.019101589495
 30
0.0
  0
SPLINE
  5
153767
330
18
100
AcDbEntity
  8
姿図
100
AcDbSpline
210
0.0
220
0.0
230
1.0
 70
    24
 71
     3
 72
     8
 73
     4
 74
     0
 42
0.000000001
 43
0.0000000001
 40
3.0
 40
3.0
 40
3.0
 40
3.0
 40
4.0
 40
4.0
 40
4.0
 40
4.0
 10
11220.61583933984
 20
-3254.019101589495
 30
0.0
 10
11220.61583933984
 20
-3254.019101589495
 30
0.0
 10
11220.56368871966
 20
-3255.830426037048
 30
0.0
 10
11220.56368871966
 20
-3255.830426037048
 30
0.0
  0
SPLINE
  5
153768
330
18
100
AcDbEntity
  8
姿図
100
AcDbSpline
210
0.0
220
0.0
230
1.0
 70
    24
 71
     3
 72
     8
 73
     4
 74
     0
 42
0.000000001
 43
0.0000000001
 40
1.668158027316473
 40
1.668158027316473
 40
1.668158027316473
 40
1.668158027316473
 40
1.810497930033095
 40
1.810497930033095
 40
1.810497930033095
 40
1.810497930033095
 10
11215.41278969813
 20
-3255.811944993977
 30
0.0
 10
11215.9310614441
 20
-3255.42575818772
 30
0.0
 10
11216.39338432319
 20
-3255.081261314171
 30
0.0
 10
11216.75239957176
 20
-3254.813743446715
 30
0.0
  0
SPLINE
  5
153769
330
18
100
AcDbEntity
  8
姿図
100
AcDbSpline
210
0.0
220
0.0
230
1.0
 70
     8
 71
     3
 72
     8
 73
     4
 74
     0
 42
0.000000001
 43
0.0000000001
 40
0.3537168008125633
 40
0.3537168008125633
 40
0.3537168008125633
 40
0.3537168008125633
 40
1.0
 40
1.0
 40
1.0
 40
1.0
 10
11215.39686427344
 20
-3284.889131594883
 30
0.0
 10
11214.29697704862
 20
-3285.940391731213
 30
0.0
 10
11212.21060230207
 20
-3287.69198876237
 30
0.0
 10
11209.00264331467
 20
-3289.326232020097
 30
0.0
  0
SPLINE
  5
15376A
330
18
100
AcDbEntity
  8
姿図
100
AcDbSpline
210
0.0
220
0.0
230
1.0
 70
     8
 71
     3
 72
     8
 73
     4
 74
     0
 42
0.000000001
 43
0.0000000001
 40
1.0
 40
1.0
 40
1.0
 40
1.000000000000004
 40
2.0
 40
2.0
 40
2.0
 40
2.0
 10
11197.77647672417
 20
-3262.063482786639
 30
0.0
 10
11201.90609667606
 20
-3259.065485976188
 30
0.0
 10
11208.98727807296
 20
-3261.720014402305
 30
0.0
 10
11213.78855027036
 20
-3267.997813160869
 30
0.0
  0
SPLINE
  5
15376B
330
18
100
AcDbEntity
  8
姿図
100
AcDbSpline
210
0.0
220
0.0
230
1.0
 70
     8
 71
     3
 72
     8
 73
     4
 74
     0
 42
0.000000001
 43
0.0000000001
 40
2.0
 40
2.0
 40
2.0
 40
2.0
 40
2.101688335254661
 40
2.101688335254661
 40
2.101688335254661
 40
2.101688335254661
 10
11213.78855027036
 20
-3267.997813160869
 30
0.0
 10
11214.27708125976
 20
-3268.636192065692
 30
0.0
 10
11214.72325060142
 20
-3269.287569239995
 30
0.0
 10
11215.12651752015
 20
-3269.945937252328
 30
0.0
  0
SPLINE
  5
15376C
330
18
100
AcDbEntity
  8
姿図
100
AcDbSpline
210
0.0
220
0.0
230
1.0
 70
     8
 71
     3
 72
     8
 73
     4
 74
     0
 42
0.000000001
 43
0.0000000001
 40
2.529370585629382
 40
2.529370585629382
 40
2.529370585629382
 40
2.529370585629382
 40
2.999999999999997
 40
3.0
 40
3.0
 40
3.0
 10
11217.89779661093
 20
-3278.176908552888
 30
0.0
 10
11218.04970179069
 20
-3281.004284068022
 30
0.0
 10
11217.23392746152
 20
-3283.440205848175
 30
0.0
 10
11215.39686427328
 20
-3284.889131595032
 30
0.0
  0
SPLINE
  5
15376D
330
18
100
AcDbEntity
  8
姿図
100
AcDbSpline
210
0.0
220
0.0
230
1.0
 70
    24
 71
     3
 72
     8
 73
     4
 74
     0
 42
0.000000001
 43
0.0000000001
 40
2.0
 40
2.0
 40
2.0
 40
2.0
 40
3.0
 40
3.0
 40
3.0
 40
3.0
 10
11209.14093049013
 20
-3289.138922406788
 30
0.0
 10
11209.12410189206
 20
-3289.152092613975
 30
0.0
 10
11209.10727329399
 20
-3289.16526282116
 30
0.0
 10
11209.09044469591
 20
-3289.178433028346
 30
0.0
  0
ELLIPSE
  5
15376E
330
18
100
AcDbEntity
  8
姿図
100
AcDbEllipse
 10
11217.50104929389
 20
-3264.319380860778
 30
0.0
 11
5.354104405716408
 21
-5.585860479944784
 31
0.0
210
0.0
220
0.0
230
1.0
 40
0.5896757540129041
 41
2.603719815002035
 42
2.665542556623123
  0
ELLIPSE
  5
15376F
330
18
100
AcDbEntity
  8
姿図
100
AcDbEllipse
 10
11217.50104929389
 20
-3264.319380860778
 30
0.0
 11
5.354104405716408
 21
-5.585860479944784
 31
0.0
210
0.0
220
0.0
230
1.0
 40
0.5896757540129041
 41
6.96598111917236
 42
7.147828363455014
  0
ELLIPSE
  5
153770
330
18
100
AcDbEntity
  8
姿図
100
AcDbEllipse
 10
11217.50104929389
 20
-3264.319380860778
 30
0.0
 11
5.354104405716408
 21
-5.585860479944784
 31
0.0
210
0.0
220
0.0
230
1.0
 40
0.5896757540129041
 41
7.339249712863026
 42
7.522358245514032
  0
ELLIPSE
  5
153771
330
18
100
AcDbEntity
  8
姿図
100
AcDbEllipse
 10
11217.50104929389
 20
-3264.319380860778
 30
0.0
 11
5.354104405716408
 21
-5.585860479944784
 31
0.0
210
0.0
220
0.0
230
1.0
 40
0.5896757540129041
 41
7.690618598159064
 42
7.896541804765815
  0
ELLIPSE
  5
153772
330
18
100
AcDbEntity
  8
姿図
100
AcDbEllipse
 10
11217.50104929389
 20
-3264.319380860778
 30
0.0
 11
5.354104405716408
 21
-5.585860479944784
 31
0.0
210
0.0
220
0.0
230
1.0
 40
0.5896757540129041
 41
8.489247713282603
 42
8.560393338508822
  0
ARC
  5
153773
330
18
100
AcDbEntity
  8
姿図
100
AcDbCircle
 10
11220.94828304378
 20
-3260.550383457195
 30
0.0
 40
0.5382595460481064
100
AcDbArc
 50
160.4247343164951
 51
224.4606610653973
  0
ARC
  5
153774
330
18
100
AcDbEntity
  8
姿図
100
AcDbCircle
 10
11223.71408971187
 20
-3263.910314886476
 30
0.0
 40
0.8204686293206894
100
AcDbArc
 50
210.053791545282
 51
255.6920591719379
  0
ARC
  5
153775
330
18
100
AcDbEntity
  8
姿図
100
AcDbCircle
 10
11224.18222400301
 20
-3266.46802623246
 30
0.0
 40
0.4887566843216588
100
AcDbArc
 50
203.2404029724889
 51
273.6673327535192
  0
LINE
  5
153776
330
18
100
AcDbEntity
  8
姿図
100
AcDbLine
 10
11215.12651752015
 20
-3269.945937252328
 30
0.0
 11
11215.00449741504
 21
-3270.872986497101
 31
0.0000000000000024
  0
SPLINE
  5
153777
330
18
100
AcDbEntity
  8
姿図
100
AcDbSpline
210
0.0
220
0.0
230
1.0
 70
     8
 71
     3
 72
     8
 73
     4
 74
     0
 42
0.000000001
 43
0.0000000001
 40
1.0
 40
1.0
 40
1.0
 40
1.000000000000004
 40
2.0
 40
2.0
 40
2.0
 40
2.0
 10
11197.29920592276
 20
-3262.388599608515
 30
0.0
 10
11201.42882587465
 20
-3259.390602798063
 30
0.0
 10
11208.51000727154
 20
-3262.045131224181
 30
0.0
 10
11213.31127946894
 20
-3268.322929982745
 30
0.0
  0
SPLINE
  5
153778
330
18
100
AcDbEntity
  8
姿図
100
AcDbSpline
210
0.0
220
0.0
230
1.0
 70
     8
 71
     3
 72
     8
 73
     4
 74
     0
 42
0.000000001
 43
0.0000000001
 40
2.0
 40
2.0
 40
2.0
 40
2.0
 40
2.132564484647539
 40
2.132564484647539
 40
2.132564484647539
 40
2.132564484647539
 10
11213.31127946894
 20
-3268.322929982745
 30
0.0
 10
11213.94814562161
 20
-3269.155143139895
 30
0.0
 10
11214.5130196572
 20
-3270.009446394766
 30
0.0
 10
11215.00449741504
 20
-3270.872986497101
 30
0.0
  0
SPLINE
  5
153779
330
18
100
AcDbEntity
  8
姿図
100
AcDbSpline
210
0.0
220
0.0
230
1.0
 70
     8
 71
     3
 72
     8
 73
     4
 74
     0
 42
0.000000001
 43
0.0000000001
 40
2.546094283791052
 40
2.546094283791052
 40
2.546094283791052
 40
2.546094283791052
 40
2.999999999999997
 40
3.0
 40
3.0
 40
3.0
 10
11217.4186447422
 20
-3278.833810892751
 30
0.0
 10
11217.48678341329
 20
-3281.559661480728
 30
0.0
 10
11216.64306801693
 20
-3283.923727592955
 30
0.0
 10
11214.8311306091
 20
-3285.410034590084
 30
0.0
  0
LINE
  5
15377A
330
18
100
AcDbEntity
  8
姿図
100
AcDbLine
 10
11220.56411023926
 20
-3260.927390877785
 30
0.0
 11
11220.25164354348
 21
-3261.164265835398
 31
0.0
  0
LINE
  5
15377B
330
18
100
AcDbEntity
  8
姿図
100
AcDbLine
 10
11223.1247956115
 20
-3264.481192487168
 30
0.0
 11
11220.28329689611
 21
-3266.611059405267
 31
0.0
  0
LINE
  5
15377C
330
18
100
AcDbEntity
  8
姿図
100
AcDbLine
 10
11223.79515731515
 20
-3266.766459601271
 30
0.0
 11
11221.69103989055
 21
-3268.496397250769
 31
0.0
  0
ARC
  5
15377D
330
18
100
AcDbEntity
  8
姿図
100
AcDbCircle
 10
11224.93023723681
 20
-3296.709441583277
 30
0.0000000000000064
 40
41.5337503854207
100
AcDbArc
 50
107.2374735211745
 51
109.3647903437316
  0
ARC
  5
15377E
330
18
100
AcDbEntity
  8
姿図
100
AcDbCircle
 10
11224.93023723681
 20
-3296.709441583277
 30
0.0000000000000064
 40
41.5337503854207
100
AcDbArc
 50
111.6533357350527
 51
120.7691310972364
  0
ARC
  5
15377F
330
18
100
AcDbEntity
  8
姿図
100
AcDbCircle
 10
11244.80768393648
 20
-3296.316738567253
 30
0.0000000000000077
 40
40.04891986041995
100
AcDbArc
 50
123.2895801966522
 51
128.9466049504413
  0
ARC
  5
153780
330
18
100
AcDbEntity
  8
姿図
100
AcDbCircle
 10
11252.4020296005
 20
-3307.46836531736
 30
0.0
 40
53.53944229996694
100
AcDbArc
 50
129.5266400491482
 51
130.4738201314819
  0
ARC
  5
153781
330
18
100
AcDbEntity
  8
姿図
100
AcDbCircle
 10
11252.4020296005
 20
-3307.46836531736
 30
0.0
 40
53.53944229996694
100
AcDbArc
 50
132.0505380091045
 51
134.5035428112344
  0
ARC
  5
153782
330
18
100
AcDbEntity
  8
姿図
100
AcDbCircle
 10
11242.71758842531
 20
-3216.539074771303
 30
0.0000000000000064
 40
50.21625447384613
100
AcDbArc
 50
235.3380818267513
 51
236.1443390403398
  0
ARC
  5
153783
330
18
100
AcDbEntity
  8
姿図
100
AcDbCircle
 10
11242.71758842531
 20
-3216.539074771303
 30
0.0000000000000064
 40
50.21625447384613
100
AcDbArc
 50
239.4704600071814
 51
243.4674153811249
  0
ARC
  5
153784
330
18
100
AcDbEntity
  8
姿図
100
AcDbCircle
 10
11242.71758842543
 20
-3216.5390747711
 30
0.0000000000000064
 40
50.21625447408249
100
AcDbArc
 50
243.4674153811016
 51
246.6642495118363
  0
ARC
  5
153785
330
18
100
AcDbEntity
  8
姿図
100
AcDbCircle
 10
11222.75108476936
 20
-3262.743583859101
 30
0.0000000000000064
 40
0.1217519455230893
100
AcDbArc
 50
307.9750042488749
 51
52.02499575112508
  0
SPLINE
  5
153786
330
18
100
AcDbEntity
  8
姿図
100
AcDbSpline
210
0.0
220
0.0
230
1.0
 70
     8
 71
     3
 72
     8
 73
     4
 74
     0
 42
0.000000001
 43
0.0000000001
 40
1.799348189808347
 40
1.799348189808347
 40
1.799348189808347
 40
1.799348189808347
 40
2.0
 40
2.0
 40
2.0
 40
2.0
 10
11216.78343075992
 20
-3255.001385313116
 30
0.0
 10
11217.44948550492
 20
-3254.530856987845
 30
0.0
 10
11218.14313752534
 20
-3253.992334756464
 30
0.0
 10
11218.14313752534
 20
-3253.992334756464
 30
0.0
  0
SPLINE
  5
153787
330
18
100
AcDbEntity
  8
姿図
100
AcDbSpline
210
0.0
220
0.0
230
1.0
 70
     8
 71
     3
 72
     8
 73
     4
 74
     0
 42
0.000000001
 43
0.0000000001
 40
2.0
 40
2.0
 40
2.0
 40
2.0
 40
3.0
 40
3.0
 40
3.0
 40
3.0
 10
11218.14313752534
 20
-3253.992334756464
 30
0.0
 10
11218.14313752534
 20
-3253.992334756464
 30
0.0
 10
11218.41907200137
 20
-3254.072426559301
 30
0.0
 10
11218.37947634631
 20
-3254.35492359343
 30
0.0
  0
SPLINE
  5
153788
330
18
100
AcDbEntity
  8
姿図
100
AcDbSpline
210
0.0
220
0.0
230
1.0
 70
    24
 71
     3
 72
     8
 73
     4
 74
     0
 42
0.000000001
 43
0.0000000001
 40
1.815455566821609
 40
1.815455566821609
 40
1.815455566821609
 40
1.815455566821609
 40
2.0
 40
2.0
 40
2.0
 40
2.0
 10
11216.75239957172
 20
-3254.813743446748
 30
0.0
 10
11217.74604462403
 20
-3254.075538203213
 30
0.0
 10
11218.04372109658
 20
-3253.854386462559
 30
0.0
 10
11218.04372109658
 20
-3253.854386462559
 30
0.0
  0
SPLINE
  5
153789
330
18
100
AcDbEntity
  8
姿図
100
AcDbSpline
210
0.0
220
0.0
230
1.0
 70
     8
 71
     3
 72
     8
 73
     4
 74
     0
 42
0.000000001
 43
0.0000000001
 40
2.0
 40
2.0
 40
2.0
 40
2.0
 40
3.0
 40
3.0
 40
3.0
 40
3.0
 10
11218.04372109658
 20
-3253.854386462559
 30
0.0
 10
11218.04372109658
 20
-3253.854386462559
 30
0.0
 10
11218.35687935633
 20
-3253.728537816116
 30
0.0
 10
11218.38760983976
 20
-3254.072426559301
 30
0.0
  0
SPLINE
  5
15378A
330
18
100
AcDbEntity
  8
姿図
100
AcDbSpline
210
0.0
220
0.0
230
1.0
 70
    24
 71
     3
 72
     8
 73
     4
 74
     0
 42
0.000000001
 43
0.0000000001
 40
3.0
 40
3.0
 40
3.0
 40
3.0
 40
3.592161918876025
 40
3.592161918876025
 40
3.592161918876025
 40
3.592161918876025
 10
11218.38760983976
 20
-3254.072426559301
 30
0.0
 10
11218.38760983976
 20
-3254.072426559301
 30
0.0
 10
11218.36932292555
 20
-3254.707577870518
 30
0.0
 10
11218.35440672554
 20
-3255.225655654498
 30
0.0
  0
SPLINE
  5
15378B
330
18
100
AcDbEntity
  8
姿図
100
AcDbSpline
210
0.0
220
0.0
230
1.0
 70
     8
 71
     3
 72
     8
 73
     4
 74
     0
 42
0.000000001
 43
0.0000000001
 40
1.481300126080063
 40
1.481300126080063
 40
1.481300126080063
 40
1.481300126080063
 40
2.0
 40
2.0
 40
2.0
 40
2.0
 10
11218.97758886375
 20
-3260.789324874539
 30
0.0000000000000061
 10
11222.48667424207
 20
-3258.12670939084
 30
0.0
 10
11224.79640553055
 20
-3256.413260048389
 30
0.0
 10
11224.79640553055
 20
-3256.413260048389
 30
0.0
  0
SPLINE
  5
15378C
330
18
100
AcDbEntity
  8
姿図
100
AcDbSpline
210
0.0
220
0.0
230
1.0
 70
     8
 71
     3
 72
     8
 73
     4
 74
     0
 42
0.000000001
 43
0.0000000001
 40
2.0
 40
2.0
 40
2.0
 40
2.0
 40
3.0
 40
3.0
 40
3.0
 40
3.0
 10
11224.79640553055
 20
-3256.413260048389
 30
0.0
 10
11224.79640553055
 20
-3256.413260048389
 30
0.0
 10
11225.24377305421
 20
-3256.199943422378
 30
0.0
 10
11225.17151065126
 20
-3256.594643553259
 30
0.0
  0
ARC
  5
153797
330
18
100
AcDbEntity
  8
姿図
100
AcDbCircle
 10
11216.90738804512
 20
-3290.668222758841
 30
0.0
 40
34.427815785867
100
AcDbArc
 50
123.7818528605674
 51
135.650561434725
  0
LINE
  5
153798
330
18
100
AcDbEntity
  8
姿図
100
AcDbLine
 10
11192.62654004128
 20
-3267.303400305873
 30
0.0
 11
11193.92132306106
 21
-3265.647086962403
 31
0.0
  0
LINE
  5
153799
330
18
100
AcDbEntity
  8
姿図
100
AcDbLine
 10
11193.57642272051
 20
-3267.087183645563
 30
0.0
 11
11194.77478423388
 21
-3265.367457058193
 31
0.0
  0
LINE
  5
15379A
330
18
100
AcDbEntity
  8
姿図
100
AcDbLine
 10
11194.4311201757
 20
-3267.024924739382
 30
0.0
 11
11195.67133935631
 21
-3265.245129681489
 31
0.0
  0
LINE
  5
15379B
330
18
100
AcDbEntity
  8
姿図
100
AcDbLine
 10
11195.30855693106
 20
-3267.070037259504
 30
0.0
 11
11196.67360852804
 21
-3265.244677565867
 31
0.0
  0
LINE
  5
15379C
330
18
100
AcDbEntity
  8
姿図
100
AcDbLine
 10
11196.1665472867
 20
-3267.208078385647
 30
0.0
 11
11197.55783119134
 21
-3265.347640606191
 31
0.0
  0
LINE
  5
15379D
330
18
100
AcDbEntity
  8
姿図
100
AcDbLine
 10
11196.86204868367
 20
-3267.382218864033
 30
0.0
 11
11198.50682032768
 21
-3265.554694815135
 31
0.0
  0
LINE
  5
15379E
330
18
100
AcDbEntity
  8
姿図
100
AcDbLine
 10
11197.73307664049
 20
-3267.673945450138
 30
0.0
 11
11199.39152838719
 21
-3265.831221287136
 31
0.0
  0
LINE
  5
15379F
330
18
100
AcDbEntity
  8
姿図
100
AcDbLine
 10
11198.59932122048
 20
-3268.041830059738
 30
0.0
 11
11200.39083681509
 21
-3266.250314465126
 31
0.0
  0
LINE
  5
1537A0
330
18
100
AcDbEntity
  8
姿図
100
AcDbLine
 10
11199.52915935014
 20
-3268.520872272012
 30
0.0
 11
11201.36247843021
 21
-3266.687553191932
 31
0.0
  0
LINE
  5
1537A1
330
18
100
AcDbEntity
  8
姿図
100
AcDbLine
 10
11200.31742682696
 20
-3268.99501940481
 30
0.0
 11
11202.26934393766
 21
-3267.205762053332
 31
0.0
  0
LINE
  5
1537A2
330
18
100
AcDbEntity
  8
姿図
100
AcDbLine
 10
11207.44173127637
 20
-3289.643521519223
 30
0.0
 11
11209.52426799726
 21
-3288.938146178277
 31
0.0
  0
LINE
  5
1537A3
330
18
100
AcDbEntity
  8
姿図
100
AcDbLine
 10
11208.08299960149
 20
-3288.938146178277
 30
0.0
 11
11210.38786185443
 21
-3288.02298028373
 31
0.0
  0
LINE
  5
1537A4
330
18
100
AcDbEntity
  8
姿図
100
AcDbLine
 10
11208.52854485724
 20
-3288.319029090736
 30
0.0
 11
11210.96461781145
 21
-3287.083339911065
 31
0.0
  0
LINE
  5
1537A5
330
18
100
AcDbEntity
  8
姿図
100
AcDbLine
 10
11208.84778926355
 20
-3287.684958066729
 30
0.0
 11
11211.35980640068
 21
-3286.10668414176
 31
0.0
  0
LINE
  5
1537A6
330
18
100
AcDbEntity
  8
姿図
100
AcDbLine
 10
11209.1748781901
 20
-3286.743659802763
 30
0.0
 11
11211.59710344286
 21
-3285.148743879292
 31
0.0
  0
LINE
  5
1537A7
330
18
100
AcDbEntity
  8
姿図
100
AcDbLine
 10
11209.37527682358
 20
-3285.759540550482
 30
0.0
 11
11211.74381556777
 21
-3284.118481563434
 31
0.0
  0
LINE
  5
1537A8
330
18
100
AcDbEntity
  8
姿図
100
AcDbLine
 10
11209.46056628795
 20
-3284.816021922873
 30
0.0
 11
11211.78015581258
 21
-3283.208877752239
 31
0.0
  0
LINE
  5
1537A9
330
18
100
AcDbEntity
  8
姿図
100
AcDbLine
 10
11209.49187994342
 20
-3283.78034860466
 30
0.0
 11
11211.75904371205
 21
-3282.209527993542
 31
0.0
  0
LINE
  5
1537AA
330
18
100
AcDbEntity
  8
姿図
100
AcDbLine
 10
11209.32993967423
 20
-3282.74393088186
 30
0.0
 11
11211.59216441745
 21
-3281.029588693644
 31
0.0
  0
LINE
  5
1537AB
330
18
100
AcDbEntity
  8
姿図
100
AcDbLine
 10
11209.20038745888
 20
-3281.707513159061
 30
0.0
 11
11211.39540339314
 21
-3280.044102646383
 31
0.0
  0
LINE
  5
1537AC
330
18
100
AcDbEntity
  8
姿図
100
AcDbLine
 10
11208.97367108202
 20
-3280.662998422803
 30
0.0
 11
11211.1267284484
 21
-3279.031384637342
 31
0.0
  0
LINE
  5
1537AD
330
18
100
AcDbEntity
  8
姿図
100
AcDbLine
 10
11208.64979054365
 20
-3279.691356807678
 30
0.0
 11
11210.75501348342
 21
-3277.915074952246
 31
0.0
  0
LINE
  5
1537AE
330
18
100
AcDbEntity
  8
姿図
100
AcDbLine
 10
11208.32591000527
 20
-3278.849267407904
 30
0.0
 11
11210.42497652734
 21
-3277.078180029911
 31
0.0
  0
LINE
  5
1537AF
330
18
100
AcDbEntity
  8
姿図
100
AcDbLine
 10
11207.87247725155
 20
-3277.926207873536
 30
0.0
 11
11209.99862905476
 21
-3276.132267289573
 31
0.0
  0
LINE
  5
1537B0
330
18
100
AcDbEntity
  8
姿図
100
AcDbLine
 10
11207.50541319835
 20
-3277.093733181204
 30
0.0
 11
11209.58904410493
 21
-3275.237999405026
 31
0.0
  0
LINE
  5
1537B1
330
18
100
AcDbEntity
  8
姿図
100
AcDbLine
 10
11207.06128023516
 20
-3276.273089154584
 30
0.0
 11
11209.07993875342
 21
-3274.422652179517
 31
0.0
  0
LINE
  5
1537B2
330
18
100
AcDbEntity
  8
姿図
100
AcDbLine
 10
11206.4474028827
 20
-3275.237999405026
 30
0.0
 11
11208.44093347834
 21
-3273.410596359016
 31
0.0
  0
LINE
  5
1537B3
330
18
100
AcDbEntity
  8
姿図
100
AcDbLine
 10
11205.79964180595
 20
-3274.169193628389
 30
0.0
 11
11207.7429250362
 21
-3272.387850667328
 31
0.0
  0
LINE
  5
1537B4
330
18
100
AcDbEntity
  8
姿図
100
AcDbLine
 10
11205.05471656769
 20
-3273.327104228614
 30
0.0
 11
11207.0310423635
 21
-3271.515472249117
 31
0.0
  0
LINE
  5
1537B5
330
18
100
AcDbEntity
  8
姿図
100
AcDbLine
 10
11204.39103094018
 20
-3272.537398396511
 30
0.0
 11
11206.3566425533
 21
-3270.735587751151
 31
0.0
  0
LINE
  5
1537B6
330
18
100
AcDbEntity
  8
姿図
100
AcDbLine
 10
11203.66203025268
 20
-3271.772477644416
 30
0.0
 11
11205.60531348292
 21
-3269.991134683355
 31
0.0
  0
LINE
  5
1537B7
330
18
100
AcDbEntity
  8
姿図
100
AcDbLine
 10
11203.01426917592
 20
-3271.027552406154
 30
0.0
 11
11204.95755240617
 21
-3269.246209445093
 31
0.0
  0
LINE
  5
1537B8
330
18
100
AcDbEntity
  8
姿図
100
AcDbLine
 10
11202.3017319915
 20
-3270.509343544755
 30
0.0
 11
11204.26093288643
 21
-3268.713409391072
 31
0.0
  0
LINE
  5
1537B9
330
18
100
AcDbEntity
  8
姿図
100
AcDbLine
 10
11201.68093636178
 20
-3269.966416356908
 30
0.0
 11
11203.61418781236
 21
-3268.194269193884
 31
0.0
  0
LINE
  5
1537BA
330
18
100
AcDbEntity
  8
姿図
100
AcDbLine
 10
11201.03322121421
 20
-3269.480553447605
 30
0.0
 11
11202.96018096388
 21
-3267.714173677073
 31
0.0
  0
LINE
  5
1537BB
330
18
100
AcDbEntity
  8
姿図
100
AcDbLine
 10
11191.40361999729
 20
-3267.885053644191
 30
0.0
 11
11193.01562526523
 21
-3266.047367638736
 31
0.0
  0
LINE
  5
1537BC
330
18
100
AcDbEntity
  8
姿図
100
AcDbLine
 10
11208.77225787222
 20
-3289.467488433183
 30
0.0
 11
11205.90121247622
 21
-3290.547346150465
 31
0.0
  0
LINE
  5
1537BD
330
18
100
AcDbEntity
  8
姿図
100
AcDbLine
 10
11191.42696701361
 20
-3267.498759854214
 30
0.0
 11
11190.17207611384
 21
-3269.040845256884
 31
0.0
  0
SPLINE
  5
1537BE
330
18
100
AcDbEntity
  8
姿図
100
AcDbSpline
210
0.0
220
0.0
230
1.0
 70
     8
 71
     3
 72
    17
 73
    13
 74
     0
 42
0.000000001
 43
0.0000000001
 40
0.1965331616420136
 40
0.1965331616420136
 40
0.1965331616420136
 40
0.1965331616420136
 40
1.0
 40
1.0
 40
1.0
 40
2.0
 40
2.0
 40
2.0
 40
3.0
 40
3.0
 40
3.0
 40
4.0
 40
4.0
 40
4.0
 40
4.0
 10
11191.42696701352
 20
-3267.498759854328
 30
0.0
 10
11191.76152108116
 20
-3267.043827489669
 30
0.0
 10
11192.15833957489
 20
-3266.644259342087
 30
0.0
 10
11192.61820995744
 20
-3266.310029939389
 30
0.0
 10
11196.48149750424
 20
-3263.503908712377
 30
0.0
 10
11203.33106482752
 20
-3266.345454373274
 30
0.0
 10
11207.91701082557
 20
-3272.659100618217
 30
0.0
 10
11212.50295682362
 20
-3278.970722609795
 30
0.0
 10
11213.08999029943
 20
-3286.364308024881
 30
0.0
 10
11209.22670275263
 20
-3289.169923188552
 30
0.0
 10
11209.07994438367
 20
-3289.277208616888
 30
0.0
 10
11208.92812538131
 20
-3289.376397031766
 30
0.0
 10
11208.77225787222
 20
-3289.467488433183
 30
0.0
  0
ELLIPSE
  5
1537BF
330
18
100
AcDbEntity
  8
姿図
100
AcDbEllipse
 10
11199.16439230767
 20
-3278.959589216288
 30
0.0
 11
7.951014185429435
 21
-10.94311369033677
 31
0.0
210
0.0
220
0.0
230
1.0
 40
0.599100293292208
 41
0.0
 42
6.283185307179586
  0
SPLINE
  5
1537C0
330
18
100
AcDbEntity
  8
姿図
100
AcDbSpline
210
0.0
220
0.0
230
1.0
 70
     8
 71
     3
 72
    11
 73
     7
 74
     0
 42
0.000000001
 43
0.0000000001
 40
1.006377578182846
 40
1.006377578182846
 40
1.006377578182846
 40
1.006377578182846
 40
2.0
 40
2.0
 40
2.0
 40
2.914863247510368
 40
2.914863247510368
 40
2.914863247510368
 40
2.914863247510368
 10
11206.93289730601
 20
-3288.101896581398
 30
0.0
 10
11203.69347190158
 20
-3290.372112590523
 30
0.0
 10
11197.94890422341
 20
-3287.9017683294
 30
0.0
 10
11194.05796016318
 20
-3282.546566178788
 30
0.0
 10
11190.47543058186
 20
-3277.615842472269
 30
0.0
 10
11189.70408361654
 20
-3271.947273336028
 30
0.0
 10
11192.07135806043
 20
-3269.220573302959
 30
0.0
  0
SPLINE
  5
1537C1
330
18
100
AcDbEntity
  8
姿図
100
AcDbSpline
210
0.0
220
0.0
230
1.0
 70
     8
 71
     3
 72
    14
 73
    10
 74
     0
 42
0.000000001
 43
0.0000000001
 40
0.9229664054401968
 40
0.9229664054401968
 40
0.9229664054401968
 40
0.9229664054401968
 40
1.0
 40
1.0
 40
1.0
 40
2.0
 40
2.0
 40
2.0
 40
2.939685942522726
 40
2.939685942522726
 40
2.939685942522726
 40
2.939685942522726
 10
11206.72818663055
 20
-3288.322127910303
 30
0.0
 10
11206.68817802615
 20
-3288.353342663184
 30
0.0
 10
11206.64755171502
 20
-3288.383924938289
 30
0.0
 10
11206.60630677184
 20
-3288.413864556783
 30
0.0
 10
11203.3786347816
 20
-3290.759974206635
 30
0.0
 10
11197.58522165142
 20
-3288.292409354893
 30
0.0
 10
11193.66930351713
 20
-3282.902834771
 30
0.0
 10
11189.98957029427
 20
-3277.838327298338
 30
0.0
 10
11189.27563908771
 20
-3271.9953917539
 30
0.0
 10
11191.88233127476
 20
-3269.361464586204
 30
0.0
  0
ELLIPSE
  5
1537C2
330
18
100
AcDbEntity
  8
姿図
100
AcDbEllipse
 10
11199.10847230846
 20
-3279.017280437186
 30
0.0
 11
7.089947410359697
 21
-9.758925471904096
 31
0.0
210
0.0
220
0.0
230
1.0
 40
0.599147451823625
 41
0.0
 42
6.283185307179586
  0
ENDSEC
  0
SECTION
  2
OBJECTS
  0
DICTIONARY
  5
C
330
0
100
AcDbDictionary
281
     1
  3
ACAD_GROUP
350
D
  3
ACAD_IMAGE_VARS
350
153AD4
  3
ACAD_LAYOUT
350
617
  3
ACAD_MLINESTYLE
350
E
  3
ACAD_PLOTSETTINGS
350
618
  3
ACAD_PLOTSTYLENAME
350
615
  3
ACAD_SCALELIST
350
A36
  3
AcadDim
350
AB4
  3
AcDbVariableDictionary
350
6DE
  3
APPDATA
350
153AD3
  3
DWGPROPS
350
153AF7
  0
DICTIONARY
  5
8BF
330
2
100
AcDbDictionary
280
     1
281
     1
  3
ACAD_LAYERSTATES
360
8C0
  0
DICTIONARY
  5
A60
330
F
100
AcDbDictionary
280
     1
281
     1
  3
ADSK_XREC_LAYER_RECONCILED
360
A61
  0
DICTIONARY
  5
A66
330
34
100
AcDbDictionary
280
     1
281
     1
  3
ADSK_XREC_LAYER_RECONCILED
360
A67
  0
DICTIONARY
  5
A6E
330
2F4
100
AcDbDictionary
280
     1
281
     1
  3
ADSK_XREC_LAYER_RECONCILED
360
A6F
  0
DICTIONARY
  5
A72
330
305
100
AcDbDictionary
280
     1
281
     1
  3
ADSK_XREC_LAYER_RECONCILED
360
A73
  0
DICTIONARY
  5
143F
330
18
100
AcDbDictionary
280
     1
281
     1
  3
ACAD_SORTENTS
360
1440
  0
DICTIONARY
  5
D
102
{ACAD_REACTORS
330
C
102
}
330
C
100
AcDbDictionary
281
     1
  0
RASTERVARIABLES
  5
153AD4
102
{ACAD_REACTORS
330
C
102
}
330
C
100
AcDbRasterVariables
 90
        0
 70
     1
 71
     1
 72
     0
  0
DICTIONARY
  5
617
102
{ACAD_REACTORS
330
C
102
}
330
C
100
AcDbDictionary
281
     1
  3
Model
350
619
  3
ﾚｲｱｳﾄ1
350
61A
  0
DICTIONARY
  5
E
102
{ACAD_REACTORS
330
C
102
}
330
C
100
AcDbDictionary
281
     1
  3
STANDARD
350
1B
  0
DICTIONARY
  5
618
102
{ACAD_REACTORS
330
C
102
}
330
C
100
AcDbDictionary
281
     1
  0
ACDBDICTIONARYWDFLT
  5
615
102
{ACAD_REACTORS
330
C
102
}
330
C
100
AcDbDictionary
281
     1
  3
Normal
350
616
100
AcDbDictionaryWithDefault
340
616
  0
DICTIONARY
  5
A36
102
{ACAD_REACTORS
330
C
102
}
330
C
100
AcDbDictionary
281
     1
  3
A0
350
A37
  3
A1
350
A38
  3
A2
350
A39
  3
A3
350
A3A
  3
A4
350
A3B
  3
A5
350
A3C
  3
A6
350
A3D
  3
A7
350
A3E
  3
A8
350
A3F
  3
A9
350
A40
  3
B0
350
A41
  3
B1
350
A42
  3
B2
350
A43
  3
B3
350
A44
  3
B4
350
A45
  3
B5
350
A46
  3
B6
350
A47
  3
B7
350
A48
  3
B8
350
A49
  3
B9
350
A4A
  3
C0
350
A4B
  3
C1
350
A4C
  3
C2
350
A4D
  3
C3
350
A4E
  3
C4
350
A4F
  3
C5
350
A50
  3
C6
350
A51
  3
C7
350
A52
  3
C8
350
A53
  3
C9
350
A54
  3
D0
350
A55
  3
D1
350
A56
  3
D2
350
A57
  0
XRECORD
  5
AB4
102
{ACAD_REACTORS
330
C
102
}
330
C
100
AcDbXrecord
280
     1
 90
   990106
  3
OPEN
 60
     0
 61
     0
 62
     1
 63
     3
 64
     1
 65
     0
 66
     0
 67
     3
 68
     1
 69
     0
 70
     0
 71
     0
 72
     0
 40
0.0
170
     2
  0
DICTIONARY
  5
6DE
102
{ACAD_REACTORS
330
C
102
}
330
C
100
AcDbDictionary
281
     1
  3
DIMASSOC
350
6DF
  3
INDEXCTL
350
A93
  3
PROJECTNAME
350
6E0
  3
SORTENTS
350
A92
  0
DICTIONARY
  5
153AD3
102
{ACAD_REACTORS
330
C
102
}
330
C
100
AcDbDictionary
281
     1
  0
XRECORD
  5
153AF7
102
{ACAD_REACTORS
330
C
102
}
330
C
100
AcDbXrecord
280
     1
  1
DWGPROPS COOKIE
  2

  3

  4

  6

  7

  8
SPAX
  9

300
=
301
=
302
=
303
=
304
=
305
=
306
=
307
=
308
=
309
=
 40
0.0
 41
2448636.244629629
 42
2456822.112101435
  1

 90
        0
  0
DICTIONARY
  5
8C0
102
{ACAD_REACTORS
330
8BF
102
}
330
8BF
100
AcDbDictionary
281
     1
  0
XRECORD
  5
A61
102
{ACAD_REACTORS
330
A60
102
}
330
A60
100
AcDbXrecord
280
     1
290
     1
  0
XRECORD
  5
A67
102
{ACAD_REACTORS
330
A66
102
}
330
A66
100
AcDbXrecord
280
     1
290
     1
  0
XRECORD
  5
A6F
102
{ACAD_REACTORS
330
A6E
102
}
330
A6E
100
AcDbXrecord
280
     1
290
     1
  0
XRECORD
  5
A73
102
{ACAD_REACTORS
330
A72
102
}
330
A72
100
AcDbXrecord
280
     1
290
     1
  0
SORTENTSTABLE
  5
1440
102
{ACAD_REACTORS
330
143F
102
}
330
143F
100
AcDbSortentsTable
330
18
331
0
  5
12AF7B
331
D0CC6
  5
D0CC6
331
F6D77
  5
F6D77
331
F6D78
  5
F6D78
  0
LAYOUT
  5
619
102
{ACAD_REACTORS
330
617
102
}
330
617
100
AcDbPlotSettings
  1

  2
JUST PDF 2.pc3
  4
A4
  6

 40
3.174999952316284
 41
3.174999952316284
 42
3.175003051757812
 43
3.17498779296875
 44
209.8886566162109
 45
297.0530090332031
 46
14.27
 47
9.86
 48
10751.72026733055
 49
-3130.408039105734
140
11101.71070432037
141
-2588.422688828401
142
1.0
143
2.0
 70
  3764
 72
     1
 73
     0
 74
     4
  7
spax form.ctb
 75
    17
147
0.5
148
-10751.72026733055
149
3130.408039105734
100
AcDbLayout
  1
Model
 70
     1
 71
     0
 10
0.0
 20
0.0
 11
12.0
 21
9.0
 12
0.0
 22
0.0
 32
0.0
 14
11168.74515579724
 24
-3310.395576220961
 34
-0.0000000000002538
 15
11229.27154515528
 25
-3244.808826962125
 35
0.0000000000000939
146
0.0
 13
0.0
 23
0.0
 33
0.0
 16
1.0
 26
0.0
 36
0.0
 17
0.0
 27
1.0
 37
0.0
 76
     0
330
18
331
14E786
1001
ACAD_PSEXT
1000
DocuCentre Color f360
1000
FX DocuCentre Color f360
1000
192.168.6.107
1000

1070
     0
  0
LAYOUT
  5
61A
102
{ACAD_REACTORS
330
617
102
}
330
617
100
AcDbPlotSettings
  1

  2
Canon LASER SHOT LBP-750
  4

  6

 40
0.0
 41
0.0
 42
0.0
 43
0.0
 44
0.0
 45
0.0
 46
0.0
 47
0.0
 48
0.0
 49
0.0
140
0.0
141
0.0
142
1.0
143
1.0
 70
   688
 72
     0
 73
     0
 74
     5
  7
spax form2.ctb
 75
    16
147
1.0
148
0.0
149
0.0
100
AcDbLayout
  1
ﾚｲｱｳﾄ1
 70
     0
 71
     1
 10
0.0
 20
0.0
 11
12.0
 21
9.0
 12
0.0
 22
0.0
 32
0.0
 14
1.000000000000000E+20
 24
1.000000000000000E+20
 34
1.000000000000000E+20
 15
-1.000000000000000E+20
 25
-1.000000000000000E+20
 35
-1.000000000000000E+20
146
0.0
 13
0.0
 23
0.0
 33
0.0
 16
1.0
 26
0.0
 36
0.0
 17
0.0
 27
1.0
 37
0.0
 76
     0
330
15
  0
MLINESTYLE
  5
1B
102
{ACAD_REACTORS
330
E
102
}
330
E
100
AcDbMlineStyle
  2
STANDARD
 70
     0
  3

 62
     0
 51
90.0
 52
90.0
 71
     2
 49
0.5
 62
   256
  6
BYLAYER
 49
-0.5
 62
   256
  6
BYLAYER
  0
ACDBPLACEHOLDER
  5
616
102
{ACAD_REACTORS
330
615
102
}
330
615
  0
SCALE
  5
A37
102
{ACAD_REACTORS
330
A36
102
}
330
A36
100
AcDbScale
 70
     0
300
1:1
140
1.0
141
1.0
290
     1
1001
ACAD
1000
AcRTDxfName
1000
SCALE
  0
SCALE
  5
A38
102
{ACAD_REACTORS
330
A36
102
}
330
A36
100
AcDbScale
 70
     0
300
1:2
140
1.0
141
2.0
290
     0
1001
ACAD
1000
AcRTDxfName
1000
SCALE
  0
SCALE
  5
A39
102
{ACAD_REACTORS
330
A36
102
}
330
A36
100
AcDbScale
 70
     0
300
1:4
140
1.0
141
4.0
290
     0
1001
ACAD
1000
AcRTDxfName
1000
SCALE
  0
SCALE
  5
A3A
102
{ACAD_REACTORS
330
A36
102
}
330
A36
100
AcDbScale
 70
     0
300
1:5
140
1.0
141
5.0
290
     0
1001
ACAD
1000
AcRTDxfName
1000
SCALE
  0
SCALE
  5
A3B
102
{ACAD_REACTORS
330
A36
102
}
330
A36
100
AcDbScale
 70
     0
300
1:8
140
1.0
141
8.0
290
     0
1001
ACAD
1000
AcRTDxfName
1000
SCALE
  0
SCALE
  5
A3C
102
{ACAD_REACTORS
330
A36
102
}
330
A36
100
AcDbScale
 70
     0
300
1:10
140
1.0
141
10.0
290
     0
1001
ACAD
1000
AcRTDxfName
1000
SCALE
  0
SCALE
  5
A3D
102
{ACAD_REACTORS
330
A36
102
}
330
A36
100
AcDbScale
 70
     0
300
1:16
140
1.0
141
16.0
290
     0
1001
ACAD
1000
AcRTDxfName
1000
SCALE
  0
SCALE
  5
A3E
102
{ACAD_REACTORS
330
A36
102
}
330
A36
100
AcDbScale
 70
     0
300
1:20
140
1.0
141
20.0
290
     0
1001
ACAD
1000
AcRTDxfName
1000
SCALE
  0
SCALE
  5
A3F
102
{ACAD_REACTORS
330
A36
102
}
330
A36
100
AcDbScale
 70
     0
300
1:30
140
1.0
141
30.0
290
     0
1001
ACAD
1000
AcRTDxfName
1000
SCALE
  0
SCALE
  5
A40
102
{ACAD_REACTORS
330
A36
102
}
330
A36
100
AcDbScale
 70
     0
300
1:40
140
1.0
141
40.0
290
     0
1001
ACAD
1000
AcRTDxfName
1000
SCALE
  0
SCALE
  5
A41
102
{ACAD_REACTORS
330
A36
102
}
330
A36
100
AcDbScale
 70
     0
300
1:50
140
1.0
141
50.0
290
     0
1001
ACAD
1000
AcRTDxfName
1000
SCALE
  0
SCALE
  5
A42
102
{ACAD_REACTORS
330
A36
102
}
330
A36
100
AcDbScale
 70
     0
300
1:100
140
1.0
141
100.0
290
     0
1001
ACAD
1000
AcRTDxfName
1000
SCALE
  0
SCALE
  5
A43
102
{ACAD_REACTORS
330
A36
102
}
330
A36
100
AcDbScale
 70
     0
300
2:1
140
2.0
141
1.0
290
     0
1001
ACAD
1000
AcRTDxfName
1000
SCALE
  0
SCALE
  5
A44
102
{ACAD_REACTORS
330
A36
102
}
330
A36
100
AcDbScale
 70
     0
300
4:1
140
4.0
141
1.0
290
     0
1001
ACAD
1000
AcRTDxfName
1000
SCALE
  0
SCALE
  5
A45
102
{ACAD_REACTORS
330
A36
102
}
330
A36
100
AcDbScale
 70
     0
300
8:1
140
8.0
141
1.0
290
     0
1001
ACAD
1000
AcRTDxfName
1000
SCALE
  0
SCALE
  5
A46
102
{ACAD_REACTORS
330
A36
102
}
330
A36
100
AcDbScale
 70
     0
300
10:1
140
10.0
141
1.0
290
     0
1001
ACAD
1000
AcRTDxfName
1000
SCALE
  0
SCALE
  5
A47
102
{ACAD_REACTORS
330
A36
102
}
330
A36
100
AcDbScale
 70
     0
300
100:1
140
100.0
141
1.0
290
     0
1001
ACAD
1000
AcRTDxfName
1000
SCALE
  0
SCALE
  5
A48
102
{ACAD_REACTORS
330
A36
102
}
330
A36
100
AcDbScale
 70
     0
300
1/128" = 1'-0"
140
0.0078125
141
12.0
290
     0
1001
ACAD
1000
AcRTDxfName
1000
SCALE
  0
SCALE
  5
A49
102
{ACAD_REACTORS
330
A36
102
}
330
A36
100
AcDbScale
 70
     0
300
1/64" = 1'-0"
140
0.015625
141
12.0
290
     0
1001
ACAD
1000
AcRTDxfName
1000
SCALE
  0
SCALE
  5
A4A
102
{ACAD_REACTORS
330
A36
102
}
330
A36
100
AcDbScale
 70
     0
300
1/32" = 1'-0"
140
0.03125
141
12.0
290
     0
1001
ACAD
1000
AcRTDxfName
1000
SCALE
  0
SCALE
  5
A4B
102
{ACAD_REACTORS
330
A36
102
}
330
A36
100
AcDbScale
 70
     0
300
1/16" = 1'-0"
140
0.0625
141
12.0
290
     0
1001
ACAD
1000
AcRTDxfName
1000
SCALE
  0
SCALE
  5
A4C
102
{ACAD_REACTORS
330
A36
102
}
330
A36
100
AcDbScale
 70
     0
300
3/32" = 1'-0"
140
0.09375
141
12.0
290
     0
1001
ACAD
1000
AcRTDxfName
1000
SCALE
  0
SCALE
  5
A4D
102
{ACAD_REACTORS
330
A36
102
}
330
A36
100
AcDbScale
 70
     0
300
1/8" = 1'-0"
140
0.125
141
12.0
290
     0
1001
ACAD
1000
AcRTDxfName
1000
SCALE
  0
SCALE
  5
A4E
102
{ACAD_REACTORS
330
A36
102
}
330
A36
100
AcDbScale
 70
     0
300
3/16" = 1'-0"
140
0.1875
141
12.0
290
     0
1001
ACAD
1000
AcRTDxfName
1000
SCALE
  0
SCALE
  5
A4F
102
{ACAD_REACTORS
330
A36
102
}
330
A36
100
AcDbScale
 70
     0
300
1/4" = 1'-0"
140
0.25
141
12.0
290
     0
1001
ACAD
1000
AcRTDxfName
1000
SCALE
  0
SCALE
  5
A50
102
{ACAD_REACTORS
330
A36
102
}
330
A36
100
AcDbScale
 70
     0
300
3/8" = 1'-0"
140
0.375
141
12.0
290
     0
1001
ACAD
1000
AcRTDxfName
1000
SCALE
  0
SCALE
  5
A51
102
{ACAD_REACTORS
330
A36
102
}
330
A36
100
AcDbScale
 70
     0
300
1/2" = 1'-0"
140
0.5
141
12.0
290
     0
1001
ACAD
1000
AcRTDxfName
1000
SCALE
  0
SCALE
  5
A52
102
{ACAD_REACTORS
330
A36
102
}
330
A36
100
AcDbScale
 70
     0
300
3/4" = 1'-0"
140
0.75
141
12.0
290
     0
1001
ACAD
1000
AcRTDxfName
1000
SCALE
  0
SCALE
  5
A53
102
{ACAD_REACTORS
330
A36
102
}
330
A36
100
AcDbScale
 70
     0
300
1" = 1'-0"
140
1.0
141
12.0
290
     0
1001
ACAD
1000
AcRTDxfName
1000
SCALE
  0
SCALE
  5
A54
102
{ACAD_REACTORS
330
A36
102
}
330
A36
100
AcDbScale
 70
     0
300
1-1/2" = 1'-0"
140
1.5
141
12.0
290
     0
1001
ACAD
1000
AcRTDxfName
1000
SCALE
  0
SCALE
  5
A55
102
{ACAD_REACTORS
330
A36
102
}
330
A36
100
AcDbScale
 70
     0
300
3" = 1'-0"
140
3.0
141
12.0
290
     0
1001
ACAD
1000
AcRTDxfName
1000
SCALE
  0
SCALE
  5
A56
102
{ACAD_REACTORS
330
A36
102
}
330
A36
100
AcDbScale
 70
     0
300
6" = 1'-0"
140
6.0
141
12.0
290
     0
1001
ACAD
1000
AcRTDxfName
1000
SCALE
  0
SCALE
  5
A57
102
{ACAD_REACTORS
330
A36
102
}
330
A36
100
AcDbScale
 70
     0
300
1'-0" = 1'-0"
140
12.0
141
12.0
290
     0
1001
ACAD
1000
AcRTDxfName
1000
SCALE
  0
DICTIONARYVAR
  5
6DF
102
{ACAD_REACTORS
330
6DE
102
}
330
6DE
100
DictionaryVariables
280
     0
  1
1
  0
DICTIONARYVAR
  5
A93
102
{ACAD_REACTORS
330
6DE
102
}
330
6DE
100
DictionaryVariables
280
     0
  1
0
  0
DICTIONARYVAR
  5
6E0
102
{ACAD_REACTORS
330
6DE
102
}
330
6DE
100
DictionaryVariables
280
     0
  1

  0
DICTIONARYVAR
  5
A92
102
{ACAD_REACTORS
330
6DE
102
}
330
6DE
100
DictionaryVariables
280
     0
  1
127
  0
ENDSEC
  0
EOF
