  0
SECTION
  2
HEADER
  9
$ACADVER
  1
AC1015
  9
$ACADMAINTVER
 70
     6
  9
$DWGCODEPAGE
  3
ANSI_932
  9
$INSBASE
 10
0.0
 20
0.0
 30
0.0
  9
$EXTMIN
 10
9541.971482928773
 20
-5064.376932514987
 30
-0.0000000000000122
  9
$EXTMAX
 10
9611.304816262107
 20
-4975.639168873628
 30
0.0000000000000222
  9
$LIMMIN
 10
0.0
 20
0.0
  9
$LIMMAX
 10
420.0
 20
297.0
  9
$ORTHOMODE
 70
     1
  9
$REGENMODE
 70
     1
  9
$FILLMODE
 70
     1
  9
$QTEXTMODE
 70
     0
  9
$MIRRTEXT
 70
     1
  9
$LTSCALE
 40
5.0
  9
$ATTMODE
 70
     0
  9
$TEXTSIZE
 40
53.44730959687513
  9
$TRACEWID
 40
1.0
  9
$TEXTSTYLE
  7
STANDARD
  9
$CLAYER
  8
寸法線
  9
$CELTYPE
  6
BYLAYER
  9
$CECOLOR
 62
   256
  9
$CELTSCALE
 40
1.0
  9
$DISPSILH
 70
     0
  9
$DIMSCALE
 40
1.0
  9
$DIMASZ
 40
2.5
  9
$DIMEXO
 40
1.5
  9
$DIMDLI
 40
0.38
  9
$DIMRND
 40
0.0
  9
$DIMDLE
 40
0.0
  9
$DIMEXE
 40
1.0
  9
$DIMTP
 40
0.0
  9
$DIMTM
 40
0.0
  9
$DIMTXT
 40
2.500000000000003
  9
$DIMCEN
 40
0.0
  9
$DIMTSZ
 40
0.0
  9
$DIMTOL
 70
     0
  9
$DIMLIM
 70
     0
  9
$DIMTIH
 70
     0
  9
$DIMTOH
 70
     0
  9
$DIMSE1
 70
     0
  9
$DIMSE2
 70
     0
  9
$DIMTAD
 70
     3
  9
$DIMZIN
 70
     8
  9
$DIMBLK
  1

  9
$DIMASO
 70
     1
  9
$DIMSHO
 70
     0
  9
$DIMPOST
  1

  9
$DIMAPOST
  1

  9
$DIMALT
 70
     0
  9
$DIMALTD
 70
     0
  9
$DIMALTF
 40
25.4
  9
$DIMLFAC
 40
1.0
  9
$DIMTOFL
 70
     1
  9
$DIMTVP
 40
0.0
  9
$DIMTIX
 70
     0
  9
$DIMSOXD
 70
     0
  9
$DIMSAH
 70
     1
  9
$DIMBLK1
  1
OPEN
  9
$DIMBLK2
  1
OPEN
  9
$DIMSTYLE
  2
STANDARD
  9
$DIMCLRD
 70
     8
  9
$DIMCLRE
 70
     8
  9
$DIMCLRT
 70
   256
  9
$DIMTFAC
 40
1.0
  9
$DIMGAP
 40
1.0
  9
$DIMJUST
 70
     0
  9
$DIMSD1
 70
     0
  9
$DIMSD2
 70
     0
  9
$DIMTOLJ
 70
     1
  9
$DIMTZIN
 70
     0
  9
$DIMALTZ
 70
     0
  9
$DIMALTTZ
 70
     0
  9
$DIMUPT
 70
     0
  9
$DIMDEC
 70
     2
  9
$DIMTDEC
 70
     2
  9
$DIMALTU
 70
     2
  9
$DIMALTTD
 70
     0
  9
$DIMTXSTY
  7
STANDARD
  9
$DIMAUNIT
 70
     0
  9
$DIMADEC
 70
     2
  9
$DIMALTRND
 40
0.0
  9
$DIMAZIN
 70
     2
  9
$DIMDSEP
 70
    46
  9
$DIMATFIT
 70
     1
  9
$DIMFRAC
 70
     0
  9
$DIMLDRBLK
  1
OPEN
  9
$DIMLUNIT
 70
     2
  9
$DIMLWD
 70
    -2
  9
$DIMLWE
 70
    -2
  9
$DIMTMOVE
 70
     0
  9
$LUNITS
 70
     2
  9
$LUPREC
 70
     2
  9
$SKETCHINC
 40
0.1
  9
$FILLETRAD
 40
15.5
  9
$AUNITS
 70
     0
  9
$AUPREC
 70
     1
  9
$MENU
  1
FM
  9
$ELEVATION
 40
0.0
  9
$PELEVATION
 40
0.0
  9
$THICKNESS
 40
0.0
  9
$LIMCHECK
 70
     0
  9
$CHAMFERA
 40
0.0
  9
$CHAMFERB
 40
0.0
  9
$CHAMFERC
 40
0.0
  9
$CHAMFERD
 40
0.0
  9
$SKPOLY
 70
     0
  9
$TDCREATE
 40
2448636.619629629
  9
$TDUCREATE
 40
2448636.244629629
  9
$TDUPDATE
 40
2456821.605831701
  9
$TDUUPDATE
 40
2456821.230831701
  9
$TDINDWG
 40
48.806758206
  9
$TDUSRTIMER
 40
2456821.230697465
  9
$USRTIMER
 70
     1
  9
$ANGBASE
 50
0.0
  9
$ANGDIR
 70
     0
  9
$PDMODE
 70
     3
  9
$PDSIZE
 40
0.0
  9
$PLINEWID
 40
0.0
  9
$SPLFRAME
 70
     0
  9
$SPLINETYPE
 70
     6
  9
$SPLINESEGS
 70
     8
  9
$HANDSEED
  5
12D51B
  9
$SURFTAB1
 70
     6
  9
$SURFTAB2
 70
     6
  9
$SURFTYPE
 70
     6
  9
$SURFU
 70
     6
  9
$SURFV
 70
     6
  9
$UCSBASE
  2

  9
$UCSNAME
  2

  9
$UCSORG
 10
0.0
 20
0.0
 30
0.0
  9
$UCSXDIR
 10
1.0
 20
0.0
 30
0.0
  9
$UCSYDIR
 10
0.0
 20
1.0
 30
0.0
  9
$UCSORTHOREF
  2

  9
$UCSORTHOVIEW
 70
     0
  9
$UCSORGTOP
 10
0.0
 20
0.0
 30
0.0
  9
$UCSORGBOTTOM
 10
0.0
 20
0.0
 30
0.0
  9
$UCSORGLEFT
 10
0.0
 20
0.0
 30
0.0
  9
$UCSORGRIGHT
 10
0.0
 20
0.0
 30
0.0
  9
$UCSORGFRONT
 10
0.0
 20
0.0
 30
0.0
  9
$UCSORGBACK
 10
0.0
 20
0.0
 30
0.0
  9
$PUCSBASE
  2

  9
$PUCSNAME
  2

  9
$PUCSORG
 10
0.0
 20
0.0
 30
0.0
  9
$PUCSXDIR
 10
1.0
 20
0.0
 30
0.0
  9
$PUCSYDIR
 10
0.0
 20
1.0
 30
0.0
  9
$PUCSORTHOREF
  2

  9
$PUCSORTHOVIEW
 70
     0
  9
$PUCSORGTOP
 10
0.0
 20
0.0
 30
0.0
  9
$PUCSORGBOTTOM
 10
0.0
 20
0.0
 30
0.0
  9
$PUCSORGLEFT
 10
0.0
 20
0.0
 30
0.0
  9
$PUCSORGRIGHT
 10
0.0
 20
0.0
 30
0.0
  9
$PUCSORGFRONT
 10
0.0
 20
0.0
 30
0.0
  9
$PUCSORGBACK
 10
0.0
 20
0.0
 30
0.0
  9
$USERI1
 70
     0
  9
$USERI2
 70
     0
  9
$USERI3
 70
     0
  9
$USERI4
 70
     0
  9
$USERI5
 70
     0
  9
$USERR1
 40
0.0
  9
$USERR2
 40
0.0
  9
$USERR3
 40
0.0
  9
$USERR4
 40
0.0
  9
$USERR5
 40
0.0
  9
$WORLDVIEW
 70
     0
  9
$SHADEDGE
 70
     3
  9
$SHADEDIF
 70
    70
  9
$TILEMODE
 70
     1
  9
$MAXACTVP
 70
    16
  9
$PINSBASE
 10
0.0
 20
0.0
 30
0.0
  9
$PLIMCHECK
 70
     0
  9
$PEXTMIN
 10
1.000000000000000E+20
 20
1.000000000000000E+20
 30
1.000000000000000E+20
  9
$PEXTMAX
 10
-1.000000000000000E+20
 20
-1.000000000000000E+20
 30
-1.000000000000000E+20
  9
$PLIMMIN
 10
0.0
 20
0.0
  9
$PLIMMAX
 10
0.0
 20
0.0
  9
$UNITMODE
 70
     0
  9
$VISRETAIN
 70
     0
  9
$PLINEGEN
 70
     0
  9
$PSLTSCALE
 70
     0
  9
$TREEDEPTH
 70
  3020
  9
$CMLSTYLE
  2
STANDARD
  9
$CMLJUST
 70
     0
  9
$CMLSCALE
 40
1.0
  9
$PROXYGRAPHICS
 70
     1
  9
$MEASUREMENT
 70
     0
  9
$CELWEIGHT
370
    -1
  9
$ENDCAPS
280
     0
  9
$JOINSTYLE
280
     0
  9
$LWDISPLAY
290
     0
  9
$INSUNITS
 70
     0
  9
$HYPERLINKBASE
  1

  9
$STYLESHEET
  1
spax form.ctb
  9
$XEDIT
290
     1
  9
$CEPSNTYPE
380
     0
  9
$PSTYLEMODE
290
     1
  9
$FINGERPRINTGUID
  2
{BBAEEBA6-8B94-11D3-9160-00E0294F7E09}
  9
$VERSIONGUID
  2
{D15071E0-CACF-4848-A211-514DA36D863F}
  9
$EXTNAMES
290
     1
  9
$PSVPSCALE
 40
0.0
  9
$OLESTARTUP
290
     0
  0
ENDSEC
  0
SECTION
  2
CLASSES
  0
CLASS
  1
LWPOLYLINE
  2
AcDbPolyline
  3
ObjectDBX Classes
 90
        0
280
     0
281
     1
  0
CLASS
  1
ACDBDICTIONARYWDFLT
  2
AcDbDictionaryWithDefault
  3
ObjectDBX Classes
 90
        0
280
     0
281
     0
  0
CLASS
  1
ACDBPLACEHOLDER
  2
AcDbPlaceHolder
  3
ObjectDBX Classes
 90
        0
280
     0
281
     0
  0
CLASS
  1
LAYOUT
  2
AcDbLayout
  3
ObjectDBX Classes
 90
        0
280
     0
281
     0
  0
CLASS
  1
DICTIONARYVAR
  2
AcDbDictionaryVar
  3
ObjectDBX Classes
 90
        0
280
     0
281
     0
  0
CLASS
  1
MATERIAL
  2
AcDbMaterial
  3
ObjectDBX Classes
 90
     1153
280
     0
281
     0
  0
CLASS
  1
VISUALSTYLE
  2
AcDbVisualStyle
  3
ObjectDBX Classes
 90
     4095
280
     0
281
     0
  0
CLASS
  1
TABLESTYLE
  2
AcDbTableStyle
  3
ObjectDBX Classes
 90
     4095
280
     0
281
     0
  0
CLASS
  1
SCALE
  2
AcDbScale
  3
ObjectDBX Classes
 90
     1153
280
     0
281
     0
  0
CLASS
  1
MLEADERSTYLE
  2
AcDbMLeaderStyle
  3
ACDB_MLEADERSTYLE_CLASS
 90
     4095
280
     0
281
     0
  0
CLASS
  1
CELLSTYLEMAP
  2
AcDbCellStyleMap
  3
ObjectDBX Classes
 90
     1152
280
     0
281
     0
  0
CLASS
  1
SORTENTSTABLE
  2
AcDbSortentsTable
  3
ObjectDBX Classes
 90
        0
280
     0
281
     0
  0
CLASS
  1
MULTILEADER
  2
AcDbMLeader
  3
ACDB_MLEADER_CLASS
 90
     1025
280
     0
281
     1
  0
CLASS
  1
DIMASSOC
  2
AcDbDimAssoc
  3
"AcDbDimAssoc|Product Desc:     AcDim ARX App For Dimension|Company:          Autodesk, Inc.|WEB Address:      www.autodesk.com"
 90
        0
280
     0
281
     0
  0
CLASS
  1
RASTERVARIABLES
  2
AcDbRasterVariables
  3
ISM
 90
        0
280
     0
281
     0
  0
CLASS
  1
SUN
  2
AcDbSun
  3
SCENEOE
 90
     1153
280
     0
281
     0
  0
ENDSEC
  0
SECTION
  2
TABLES
  0
TABLE
  2
VPORT
  5
8
330
0
100
AcDbSymbolTable
 70
     1
  0
VPORT
  5
12A532
330
8
100
AcDbSymbolTableRecord
100
AcDbViewportTableRecord
  2
*Active
 70
     0
 10
0.0
 20
0.0
 11
1.0
 21
1.0
 12
9576.638149595441
 22
-5020.008050694308
 13
0.0
 23
0.0
 14
1.0
 24
1.0
 15
20.0
 25
20.0
 16
0.0
 26
0.0
 36
1.0
 17
0.0
 27
0.0
 37
0.0
 40
90.51251891418563
 41
1.731829573934837
 42
50.0
 43
0.0
 44
0.0
 50
0.0
 51
0.0
 71
    16
 72
   100
 73
     1
 74
     0
 75
     0
 76
     0
 77
     0
 78
     0
281
     0
 65
     1
110
0.0
120
0.0
130
0.0
111
1.0
121
0.0
131
0.0
112
0.0
122
1.0
132
0.0
 79
     0
146
0.0
  0
ENDTAB
  0
TABLE
  2
LTYPE
  5
5
330
0
100
AcDbSymbolTable
 70
     4
  0
LTYPE
  5
12
330
5
100
AcDbSymbolTableRecord
100
AcDbLinetypeTableRecord
  2
BYBLOCK
 70
     0
  3

 72
    65
 73
     0
 40
0.0
  0
LTYPE
  5
13
330
5
100
AcDbSymbolTableRecord
100
AcDbLinetypeTableRecord
  2
BYLAYER
 70
     0
  3

 72
    65
 73
     0
 40
0.0
  0
LTYPE
  5
14
330
5
100
AcDbSymbolTableRecord
100
AcDbLinetypeTableRecord
  2
CONTINUOUS
 70
     0
  3
Solid line
 72
    65
 73
     0
 40
0.0
  0
LTYPE
  5
26
330
5
100
AcDbSymbolTableRecord
100
AcDbLinetypeTableRecord
  2
PHANTOM
 70
     0
  3
_____ _ _ _____ _ _ _____ _ _ _____ _ _ ____
 72
    65
 73
     6
 40
2.5
 49
1.25
 74
     0
 49
-0.25
 74
     0
 49
0.25
 74
     0
 49
-0.25
 74
     0
 49
0.25
 74
     0
 49
-0.25
 74
     0
  0
LTYPE
  5
27
330
5
100
AcDbSymbolTableRecord
100
AcDbLinetypeTableRecord
  2
HIDDEN
 70
     0
  3
_ _ _ _ _ _ _ _ _ _ _ _ _ _ _ _ _ _ _ _ _ _ _
 72
    65
 73
     2
 40
0.375
 49
0.25
 74
     0
 49
-0.125
 74
     0
  0
LTYPE
  5
514
330
5
100
AcDbSymbolTableRecord
100
AcDbLinetypeTableRecord
  2
CENTER
 70
     0
  3
Center ____ _ ____ _ ____ _ ____ _ ____ _ ____
 72
    65
 73
     4
 40
2.0
 49
1.25
 74
     0
 49
-0.25
 74
     0
 49
0.25
 74
     0
 49
-0.25
 74
     0
  0
ENDTAB
  0
TABLE
  2
LAYER
  5
2
102
{ACAD_XDICTIONARY
360
8BF
102
}
330
0
100
AcDbSymbolTable
 70
    12
  0
LAYER
  5
F
102
{ACAD_XDICTIONARY
360
A60
102
}
330
2
100
AcDbSymbolTableRecord
100
AcDbLayerTableRecord
  2
0
 70
     0
 62
     7
  6
CONTINUOUS
370
    -3
390
616
  0
LAYER
  5
34
102
{ACAD_XDICTIONARY
360
A66
102
}
330
2
100
AcDbSymbolTableRecord
100
AcDbLayerTableRecord
  2
寸法線
 70
     0
 62
     7
  6
CONTINUOUS
370
    -3
390
616
  0
LAYER
  5
2F4
102
{ACAD_XDICTIONARY
360
A6E
102
}
330
2
100
AcDbSymbolTableRecord
100
AcDbLayerTableRecord
  2
文字
 70
     0
 62
     7
  6
CONTINUOUS
370
    -3
390
616
  0
LAYER
  5
305
102
{ACAD_XDICTIONARY
360
A72
102
}
330
2
100
AcDbSymbolTableRecord
100
AcDbLayerTableRecord
  2
姿図
 70
     0
 62
     8
  6
CONTINUOUS
370
    -3
390
616
  0
ENDTAB
  0
TABLE
  2
STYLE
  5
3
330
0
100
AcDbSymbolTable
 70
     1
  0
STYLE
  5
10
330
3
100
AcDbSymbolTableRecord
100
AcDbTextStyleTableRecord
  2
STANDARD
 70
     0
 40
0.0
 41
1.0
 50
0.0
 71
     0
 42
53.44730959687513
  3
MONOTXT
  4
BIGFONT
  0
ENDTAB
  0
TABLE
  2
VIEW
  5
6
330
0
100
AcDbSymbolTable
 70
     0
  0
ENDTAB
  0
TABLE
  2
UCS
  5
7
330
0
100
AcDbSymbolTable
 70
     0
  0
ENDTAB
  0
TABLE
  2
APPID
  5
9
330
0
100
AcDbSymbolTable
 70
    15
  0
APPID
  5
11
330
9
100
AcDbSymbolTableRecord
100
AcDbRegAppTableRecord
  2
ACAD
 70
     0
  0
APPID
  5
8BB
330
9
100
AcDbSymbolTableRecord
100
AcDbRegAppTableRecord
  2
ACAD_PSEXT
 70
     0
  0
APPID
  5
A5A
330
9
100
AcDbSymbolTableRecord
100
AcDbRegAppTableRecord
  2
ACAD_MLEADERVER
 70
     0
  0
APPID
  5
A5E
330
9
100
AcDbSymbolTableRecord
100
AcDbRegAppTableRecord
  2
ACAD_DSTYLE_DIMJAG
 70
     0
  0
APPID
  5
A5F
330
9
100
AcDbSymbolTableRecord
100
AcDbRegAppTableRecord
  2
ACAD_DSTYLE_DIMTALN
 70
     0
  0
APPID
  5
12C0
330
9
100
AcDbSymbolTableRecord
100
AcDbRegAppTableRecord
  2
ACAD_EXEMPT_FROM_CAD_STANDARDS
 70
     0
  0
APPID
  5
1C50
330
9
100
AcDbSymbolTableRecord
100
AcDbRegAppTableRecord
  2
AcAecLayerStandard
 70
     0
  0
APPID
  5
5088
330
9
100
AcDbSymbolTableRecord
100
AcDbRegAppTableRecord
  2
ACAD_DSTYLE_DIMRADIAL_EXTENSION
 70
     0
  0
APPID
  5
14AF3
330
9
100
AcDbSymbolTableRecord
100
AcDbRegAppTableRecord
  2
WACOM_STRING
 70
     0
  0
APPID
  5
14AF4
330
9
100
AcDbSymbolTableRecord
100
AcDbRegAppTableRecord
  2
WACOM_DRSYM_ARROW
 70
     0
  0
APPID
  5
1E1A8
330
9
100
AcDbSymbolTableRecord
100
AcDbRegAppTableRecord
  2
GENIUS_GENODEF_13
 70
     0
  0
APPID
  5
1E1A9
330
9
100
AcDbSymbolTableRecord
100
AcDbRegAppTableRecord
  2
GENIUS_GENREC_14
 70
     0
  0
APPID
  5
1E1AA
330
9
100
AcDbSymbolTableRecord
100
AcDbRegAppTableRecord
  2
GENIUS_GENOBJ-N-REC_13
 70
     0
  0
APPID
  5
27C72
330
9
100
AcDbSymbolTableRecord
100
AcDbRegAppTableRecord
  2
ASK_MEN_XD
 70
     0
  0
APPID
  5
29316
330
9
100
AcDbSymbolTableRecord
100
AcDbRegAppTableRecord
  2
ACAD_DSTYLE_DIMBREAK
 70
     0
  0
ENDTAB
  0
TABLE
  2
DIMSTYLE
  5
A
330
0
100
AcDbSymbolTable
 70
     3
100
AcDbDimStyleTable
  0
DIMSTYLE
105
1CC
330
A
100
AcDbSymbolTableRecord
100
AcDbDimStyleTableRecord
  2
STANDARD
 70
     0
 41
2.5
 42
1.5
 44
1.0
 73
     0
 74
     0
 77
     3
 78
     8
 79
     2
140
2.500000000000003
141
0.0
147
1.0
171
     0
172
     1
173
     1
176
     8
177
     8
271
     2
178
   256
179
     2
271
     2
272
     2
274
     0
289
     1
340
10
341
608
343
608
344
608
1001
ACAD_DSTYLE_DIMJAG
1070
   388
1040
1.5
1001
ACAD_DSTYLE_DIMTALN
1070
   392
1070
     0
  0
ENDTAB
  0
TABLE
  2
BLOCK_RECORD
  5
1
330
0
100
AcDbSymbolTable
 70
    48
  0
BLOCK_RECORD
  5
18
102
{ACAD_XDICTIONARY
360
143F
102
}
330
1
100
AcDbSymbolTableRecord
100
AcDbBlockTableRecord
  2
*MODEL_SPACE
340
619
  0
BLOCK_RECORD
  5
15
330
1
100
AcDbSymbolTableRecord
100
AcDbBlockTableRecord
  2
*PAPER_SPACE
340
61A
  0
BLOCK_RECORD
  5
608
330
1
100
AcDbSymbolTableRecord
100
AcDbBlockTableRecord
  2
_OPEN
340
0
102
{BLKREFS
331
108BDF
331
108BE0
331
108BE8
331
108BE9
331
108BFA
331
108BFB
331
108C05
331
108C06
331
108CAC
331
108CAD
331
111765
331
111766
331
11AA1C
331
11AA1D
331
127841
331
127842
331
12784A
331
12784B
331
127853
331
127854
331
12785C
331
12785D
331
127865
331
127866
331
12786E
331
12786F
331
127879
331
12787A
331
128E2C
331
128E2D
331
128E35
331
128E36
331
128E3E
331
128E3F
331
128E47
331
128E48
331
128E50
331
128E51
331
128E59
331
128E5A
331
128E64
331
128E65
331
12A4BC
331
12A4BD
331
12A4C5
331
12A4C6
331
12A4CE
331
12A4CF
331
12A4D7
331
12A4D8
331
12A4E2
331
12A4E3
331
12A4EB
331
12A4EC
331
12A4F4
331
12A4F5
331
12BAC8
331
12BAC9
331
12BAD1
331
12BAD2
331
12BADC
331
12BADD
331
12BAE5
331
12BAE6
331
12BAEE
331
12BAEF
331
12BAF7
331
12BAF8
331
12BB00
331
12BB01
331
12D498
331
12D499
331
12D4A1
331
12D4A2
331
12D4AC
331
12D4AD
331
12D4B5
331
12D4B6
331
12D4BE
331
12D4BF
331
12D4C7
331
12D4C8
331
12D4D0
331
12D4D1
102
}
  0
BLOCK_RECORD
  5
89D
330
1
100
AcDbSymbolTableRecord
100
AcDbBlockTableRecord
  2
SUN
340
0
  0
BLOCK_RECORD
  5
1F1F
330
1
100
AcDbSymbolTableRecord
100
AcDbBlockTableRecord
  2
_OPEN30
340
0
  0
ENDTAB
  0
ENDSEC
  0
SECTION
  2
BLOCKS
  0
BLOCK
  5
39
330
18
100
AcDbEntity
  8
0
100
AcDbBlockBegin
  2
*MODEL_SPACE
 70
     0
 10
0.0
 20
0.0
 30
0.0
  3
*MODEL_SPACE
  1
*MODEL_SPACE
  0
ENDBLK
  5
3A
330
18
100
AcDbEntity
  8
0
100
AcDbBlockEnd
  0
BLOCK
  5
37
330
15
100
AcDbEntity
 67
     1
  8
0
100
AcDbBlockBegin
  2
*PAPER_SPACE
 70
     0
 10
0.0
 20
0.0
 30
0.0
  3
*PAPER_SPACE
  1
*PAPER_SPACE
  0
ENDBLK
  5
38
330
15
100
AcDbEntity
 67
     1
  8
0
100
AcDbBlockEnd
  0
BLOCK
  5
609
330
608
100
AcDbEntity
  8
0
100
AcDbBlockBegin
  2
_OPEN
 70
     0
 10
0.0
 20
0.0
 30
0.0
  3
_OPEN
  1
_OPEN
  0
LINE
  5
60A
330
608
100
AcDbEntity
  8
0
  6
ByBlock
 62
     0
100
AcDbLine
 10
-1.0
 20
0.1666666666666667
 30
0.0
 11
0.0
 21
0.0
 31
0.0
  0
LINE
  5
60B
330
608
100
AcDbEntity
  8
0
  6
ByBlock
 62
     0
100
AcDbLine
 10
0.0
 20
0.0
 30
0.0
 11
-1.0
 21
-0.1666666666666667
 31
0.0
  0
LINE
  5
60C
330
608
100
AcDbEntity
  8
0
  6
ByBlock
 62
     0
100
AcDbLine
 10
0.0
 20
0.0
 30
0.0
 11
-1.0
 21
0.0
 31
0.0
  0
ENDBLK
  5
60D
330
608
100
AcDbEntity
  8
0
100
AcDbBlockEnd
  0
BLOCK
  5
89E
330
89D
100
AcDbEntity
  8
0
100
AcDbBlockBegin
  2
SUN
 70
     0
 10
0.0
 20
0.0
 30
0.0
  3
SUN
  1
SUN
  0
LINE
  5
89F
330
89D
100
AcDbEntity
  8
0
100
AcDbLine
 10
-0.0000000000000568
 20
0.0
 30
0.0
 11
-1.500000000000057
 21
0.0
 31
0.0
  0
LINE
  5
8A0
330
89D
100
AcDbEntity
  8
0
100
AcDbLine
 10
-0.0000000000000568
 20
0.0000000000000284
 30
0.0
 11
-1.500000000000057
 21
0.401923788646684
 31
0.0
  0
LINE
  5
8A1
330
89D
100
AcDbEntity
  8
0
100
AcDbLine
 10
-0.0000000000000568
 20
0.0000000000000284
 30
0.0
 11
-1.500000000000057
 21
-0.4019237886466556
 31
0.0
  0
ENDBLK
  5
8A2
330
89D
100
AcDbEntity
  8
0
100
AcDbBlockEnd
  0
BLOCK
  5
1F20
330
1F1F
100
AcDbEntity
  8
0
100
AcDbBlockBegin
  2
_OPEN30
 70
     0
 10
0.0
 20
0.0
 30
0.0
  3
_OPEN30
  1
_OPEN30
  0
LINE
  5
1F21
330
1F1F
100
AcDbEntity
  8
0
  6
ByBlock
 62
     0
100
AcDbLine
 10
-1.0
 20
0.26794919
 30
0.0
 11
0.0
 21
0.0
 31
0.0
  0
LINE
  5
1F22
330
1F1F
100
AcDbEntity
  8
0
  6
ByBlock
 62
     0
100
AcDbLine
 10
0.0
 20
0.0
 30
0.0
 11
-1.0
 21
-0.26794919
 31
0.0
  0
LINE
  5
1F23
330
1F1F
100
AcDbEntity
  8
0
  6
ByBlock
 62
     0
100
AcDbLine
 10
0.0
 20
0.0
 30
0.0
 11
-1.0
 21
0.0
 31
0.0
  0
ENDBLK
  5
1F24
330
1F1F
100
AcDbEntity
  8
0
100
AcDbBlockEnd
  0
ENDSEC
  0
SECTION
  2
ENTITIES
  0
MTEXT
  5
D0CC6
330
18
100
AcDbEntity
  8
寸法線
100
AcDbMText
 10
2610.774875364868
 20
-2740.315466585338
 30
0.0
 40
2.500000000000003
 41
0.0
 71
     9
 72
     1
  1
\A1;
 73
     1
 44
1.0
  0
MTEXT
  5
F6D77
330
18
100
AcDbEntity
  8
文字
100
AcDbMText
 10
5821.057140836062
 20
-2842.341718131323
 30
0.0
 40
2.5
 41
64.39156592258223
 71
     1
 72
     5
  1
   
 73
     1
 44
1.0
  0
MTEXT
  5
F6D78
330
18
100
AcDbEntity
  8
寸法線
100
AcDbMText
 10
6222.662262480188
 20
-2968.738290481128
 30
0.0
 40
3.000000000000001
 41
0.0
 71
     7
 72
     1
  1
\A1;
 73
     1
 44
1.0
  0
TEXT
  5
12BF2A
330
18
100
AcDbEntity
  8
文字
100
AcDbText
 10
9541.971482928773
 20
-5064.376932514987
 30
0.0
 40
6.5
  1
SX-505/80DF
100
AcDbText
  0
SPLINE
  5
12D080
330
18
100
AcDbEntity
  8
姿図
100
AcDbSpline
210
0.0
220
0.0
230
1.0
 70
    24
 71
     3
 72
     8
 73
     4
 74
     0
 42
0.000000001
 43
0.0000000001
 40
0.0
 40
0.0
 40
0.0
 40
0.0
 40
1.0
 40
1.0
 40
1.0
 40
1.0
 10
9572.056630519097
 20
-5013.852124286201
 30
-0.0000000000000061
 10
9572.056630519097
 20
-5013.852124286201
 30
-0.0000000000000061
 10
9576.333445562706
 20
-4991.081149349962
 30
-0.0000000000000061
 10
9576.333445562706
 20
-4991.081149349962
 30
-0.0000000000000061
  0
SPLINE
  5
12D081
330
18
100
AcDbEntity
  8
姿図
100
AcDbSpline
210
0.0
220
0.0
230
1.0
 70
    24
 71
     3
 72
     8
 73
     4
 74
     0
 42
0.000000001
 43
0.0000000001
 40
6.0
 40
6.0
 40
6.0
 40
6.0
 40
7.0
 40
7.0
 40
7.0
 40
7.0
 10
9590.088490505665
 20
-4990.711886398473
 30
-0.0000000000000061
 10
9590.088490505665
 20
-4990.711886398473
 30
-0.0000000000000061
 10
9593.442869387254
 20
-5020.530590947891
 30
-0.0000000000000061
 10
9593.442869387254
 20
-5020.530590947891
 30
-0.0000000000000061
  0
SPLINE
  5
12D082
330
18
100
AcDbEntity
  8
姿図
100
AcDbSpline
210
0.0
220
0.0
230
1.0
 70
     8
 71
     3
 72
     8
 73
     4
 74
     0
 42
0.000000001
 43
0.0000000001
 40
7.0
 40
7.0
 40
7.0
 40
7.0
 40
8.0
 40
8.0
 40
8.0
 40
8.0
 10
9593.442869387254
 20
-5020.530590947891
 30
-0.0000000000000061
 10
9593.442869387254
 20
-5020.530590947891
 30
-0.0000000000000061
 10
9593.71981660087
 20
-5020.807538161508
 30
-0.0000000000000061
 10
9593.904448076615
 20
-5020.899853899381
 30
-0.0000000000000061
  0
SPLINE
  5
12D083
330
18
100
AcDbEntity
  8
姿図
100
AcDbSpline
210
0.0
220
0.0
230
1.0
 70
     8
 71
     3
 72
    17
 73
    13
 74
     0
 42
0.000000001
 43
0.0000000001
 40
0.0
 40
0.0
 40
0.0
 40
0.0
 40
1.0
 40
1.0
 40
1.0
 40
2.0
 40
2.0
 40
2.0
 40
3.0
 40
3.0
 40
3.0
 40
4.0
 40
4.0
 40
4.0
 40
4.0
 10
9574.918418393136
 20
-5013.390545596841
 30
-0.0000000000000061
 10
9574.918418393136
 20
-5013.390545596841
 30
-0.0000000000000061
 10
9579.113958906253
 20
-4993.341367234191
 30
-0.0000000000000061
 10
9579.113958906253
 20
-4993.341367234191
 30
-0.0000000000000061
 10
9579.113958906253
 20
-4993.341367234191
 30
-0.0000000000000061
 10
9579.804923975156
 20
-4993.293540794845
 30
-0.0000000000000061
 10
9579.804923975156
 20
-4993.293540794845
 30
-0.0000000000000061
 10
9579.804923975156
 20
-4993.293540794845
 30
-0.0000000000000061
 10
9583.710314555641
 20
-4994.008826327015
 30
-0.0000000000000061
 10
9584.41984700245
 20
-4993.005748184518
 30
-0.0000000000000061
 10
9584.41984700245
 20
-4993.005748184518
 30
-0.0000000000000061
 10
9586.804311181353
 20
-4992.829036924115
 30
-0.0000000000000061
 10
9586.804311181353
 20
-4992.829036924115
 30
-0.0000000000000061
  0
SPLINE
  5
12D084
330
18
100
AcDbEntity
  8
姿図
100
AcDbSpline
210
0.0
220
0.0
230
1.0
 70
     8
 71
     3
 72
     8
 73
     4
 74
     0
 42
0.000000001
 43
0.0000000001
 40
0.0
 40
0.0
 40
0.0
 40
0.0
 40
1.0
 40
1.0
 40
1.0
 40
1.0
 10
9591.07367252077
 20
-5021.361432588742
 30
-0.0000000000000061
 10
9591.07367252077
 20
-5021.361432588742
 30
-0.0000000000000061
 10
9591.473226573746
 20
-5021.297965518955
 30
-0.0000000000000061
 10
9591.288595098003
 20
-5019.944962985765
 30
-0.0000000000000061
  0
SPLINE
  5
12D085
330
18
100
AcDbEntity
  8
姿図
100
AcDbSpline
210
0.0
220
0.0
230
1.0
 70
    24
 71
     3
 72
     8
 73
     4
 74
     0
 42
0.000000001
 43
0.0000000001
 40
1.0
 40
1.0
 40
1.0
 40
1.0
 40
2.0
 40
2.0
 40
2.0
 40
2.0
 10
9591.288595098003
 20
-5019.944962985765
 30
-0.0000000000000061
 10
9591.288595098003
 20
-5019.944962985765
 30
-0.0000000000000061
 10
9586.642517102902
 20
-4991.850687571131
 30
-0.0000000000000061
 10
9586.642517102902
 20
-4991.850687571131
 30
-0.0000000000000061
  0
SPLINE
  5
12D086
330
18
100
AcDbEntity
  8
姿図
100
AcDbSpline
210
0.0
220
0.0
230
1.0
 70
    24
 71
     3
 72
     8
 73
     4
 74
     0
 42
0.000000001
 43
0.0000000001
 40
6.0
 40
6.0
 40
6.0
 40
6.0
 40
7.0
 40
7.0
 40
7.0
 40
7.0
 10
9577.041680364195
 20
-4992.866160687725
 30
-0.0000000000000061
 10
9577.041680364195
 20
-4992.866160687725
 30
-0.0000000000000061
 10
9572.948775579627
 20
-5013.605468174073
 30
-0.0000000000000061
 10
9572.948775579627
 20
-5013.605468174073
 30
-0.0000000000000061
  0
ELLIPSE
  5
12D087
330
18
100
AcDbEntity
  8
姿図
100
AcDbEllipse
 10
9593.331441406777
 20
-5023.2466930481
 30
-0.0000000000000061
 11
0.4511210471801071
 21
-1.616967846167547
 31
0.0
210
0.0
220
0.0
230
1.0
 40
0.6435311717170279
 41
0.1727975711782461
 42
3.069675997577924
  0
ELLIPSE
  5
12D088
330
18
100
AcDbEntity
  8
姿図
100
AcDbEllipse
 10
9593.826196064434
 20
-5023.065667655866
 30
-0.0000000000000061
 11
0.4763636317545335
 21
-1.710004800741862
 31
0.0
210
0.0
220
0.0
230
1.0
 40
0.6435771184023121
 41
0.0
 42
6.283185307179586
  0
LINE
  5
12D089
330
18
100
AcDbEntity
  8
姿図
100
AcDbLine
 10
9593.577029804057
 20
-5025.854495691216
 30
-0.0000000000000061
 11
9594.5957236589
 21
-5025.301319882703
 31
-0.0000000000000061
  0
LINE
  5
12D08A
330
18
100
AcDbEntity
  8
姿図
100
AcDbLine
 10
9591.899465644703
 20
-5020.915720666827
 30
-0.0000000000000061
 11
9593.196934491829
 21
-5020.715222423636
 31
-0.0000000000000061
  0
ELLIPSE
  5
12D08B
330
18
100
AcDbEntity
  8
姿図
100
AcDbEllipse
 10
9593.660676831298
 20
-5023.093795107249
 30
-0.0000000000000061
 11
0.6498162486159499
 21
-2.336742114889765
 31
0.0
210
0.0
220
0.0
230
1.0
 40
0.6439476357599927
 41
0.0
 42
6.283185307179586
  0
ELLIPSE
  5
12D08C
330
18
100
AcDbEntity
  8
姿図
100
AcDbEllipse
 10
9592.59724280401
 20
-5023.435651824057
 30
-0.0000000000000061
 11
0.7006620261158656
 21
-2.521373590634141
 31
0.0
210
0.0
220
0.0
230
1.0
 40
0.8372735138002815
 41
2.937168574284825
 42
6.528588851372925
  0
LINE
  5
12D08D
330
18
100
AcDbEntity
  8
姿図
100
AcDbLine
 10
9587.632779148602
 20
-5022.469221443208
 30
-0.0000000000000061
 11
9591.278305527905
 21
-5021.081463778858
 31
-0.0000000000000061
  0
SPLINE
  5
12D08E
330
18
100
AcDbEntity
  8
姿図
100
AcDbSpline
210
0.0
220
0.0
230
1.0
 70
     8
 71
     3
 72
    11
 73
     7
 74
     0
 42
0.000000001
 43
0.0000000001
 40
0.0
 40
0.0
 40
0.0
 40
0.0
 40
1.0
 40
1.0
 40
1.0
 40
2.0
 40
2.0
 40
2.0
 40
2.0
 10
9596.120747002251
 20
-5018.315013238959
 30
-0.0000000000000061
 10
9596.120747002251
 20
-5018.315013238959
 30
-0.0000000000000061
 10
9597.658381011182
 20
-5016.806227898112
 30
-0.0000000000000061
 10
9597.658381011182
 20
-5016.806227898112
 30
-0.0000000000000061
 10
9597.658381011182
 20
-5016.806227898112
 30
-0.0000000000000061
 10
9597.72184808097
 20
-5016.683621058749
 30
-0.0000000000000061
 10
9597.690114546078
 20
-5016.591305320877
 30
-0.0000000000000061
  0
SPLINE
  5
12D08F
330
18
100
AcDbEntity
  8
姿図
100
AcDbSpline
210
0.0
220
0.0
230
1.0
 70
    24
 71
     3
 72
     8
 73
     4
 74
     0
 42
0.000000001
 43
0.0000000001
 40
1.505573087642826
 40
1.505573087642826
 40
1.505573087642826
 40
1.505573087642826
 40
1.793215549939622
 40
1.793215549939622
 40
1.793215549939622
 40
1.793215549939622
 10
9586.217164805039
 20
-5009.987702277395
 30
-0.0000000000000061
 10
9587.367657411027
 20
-5009.129162856828
 30
-0.0000000000000061
 10
9588.510771881074
 20
-5008.276129269605
 30
-0.0000000000000061
 10
9589.265702219463
 20
-5007.712772797849
 30
-0.0000000000000061
  0
SPLINE
  5
12D090
330
18
100
AcDbEntity
  8
姿図
100
AcDbSpline
210
0.0
220
0.0
230
1.0
 70
     8
 71
     3
 72
    11
 73
     7
 74
     0
 42
0.000000001
 43
0.0000000001
 40
0.0
 40
0.0
 40
0.0
 40
0.0
 40
1.0
 40
1.0
 40
1.0
 40
1.888883729132651
 40
1.888883729132651
 40
1.888883729132651
 40
1.888883729132651
 10
9600.305246307988
 20
-5020.161327996403
 30
-0.0000000000000061
 10
9600.305246307988
 20
-5020.161327996403
 30
-0.0000000000000061
 10
9600.580751088199
 20
-5020.530590947891
 30
-0.0000000000000061
 10
9600.427853147348
 20
-5020.715222423636
 30
-0.0000000000000061
 10
9600.427853147348
 20
-5020.715222423636
 30
-0.0000000000000061
 10
9595.079300947398
 20
-5024.96967487674
 30
-0.0000000000000061
 10
9593.890678597401
 20
-5025.915152659083
 30
-0.0000000000000061
  0
SPLINE
  5
12D091
330
18
100
AcDbEntity
  8
姿図
100
AcDbSpline
210
0.0
220
0.0
230
1.0
 70
     8
 71
     3
 72
    11
 73
     7
 74
     0
 42
0.000000001
 43
0.0000000001
 40
0.0
 40
0.0
 40
0.0
 40
0.0
 40
1.0
 40
1.0
 40
1.0
 40
1.814174646936442
 40
1.814174646936442
 40
1.814174646936442
 40
1.814174646936442
 10
9601.19811258522
 20
-5018.499644714704
 30
-0.0000000000000061
 10
9601.19811258522
 20
-5018.499644714704
 30
-0.0000000000000061
 10
9601.505350900325
 20
-5018.716009725342
 30
-0.0000000000000061
 10
9601.043772210965
 20
-5019.115563778319
 30
-0.0000000000000061
 10
9600.66796654452
 20
-5019.440870558336
 30
-0.0000000000000061
 10
9596.742892106871
 20
-5022.602150176551
 30
-0.0000000000000061
 10
9595.297112389226
 20
-5023.765808790386
 30
-0.0000000000000061
  0
SPLINE
  5
12D092
330
18
100
AcDbEntity
  8
姿図
100
AcDbSpline
210
0.0
220
0.0
230
1.0
 70
     8
 71
     3
 72
    14
 73
    10
 74
     0
 42
0.000000001
 43
0.0000000001
 40
0.0
 40
0.0
 40
0.0
 40
0.0
 40
1.0
 40
1.0
 40
1.0
 40
2.0
 40
2.0
 40
2.0
 40
2.760018265937639
 40
2.760018265937639
 40
2.760018265937639
 40
2.760018265937639
 10
9599.998007992881
 20
-5017.730827710237
 30
-0.0000000000000061
 10
9599.998007992881
 20
-5017.730827710237
 30
-0.0000000000000061
 10
9601.382744060964
 20
-5018.591960452576
 30
-0.0000000000000061
 10
9601.382744060964
 20
-5018.591960452576
 30
-0.0000000000000061
 10
9601.382744060964
 20
-5018.591960452576
 30
-0.0000000000000061
 10
9601.720273477558
 20
-5018.838616564703
 30
-0.0000000000000061
 10
9601.443326263941
 20
-5019.115563778319
 30
-0.0000000000000061
 10
9601.443326263941
 20
-5019.115563778319
 30
-0.0000000000000061
 10
9597.195309175915
 20
-5022.776598805247
 30
-0.0000000000000061
 10
9595.156416161693
 20
-5024.533761873697
 30
-0.0000000000000061
  0
SPLINE
  5
12D093
330
18
100
AcDbEntity
  8
姿図
100
AcDbSpline
210
0.0
220
0.0
230
1.0
 70
     8
 71
     3
 72
    11
 73
     7
 74
     0
 42
0.000000001
 43
0.0000000001
 40
0.0
 40
0.0
 40
0.0
 40
0.0
 40
1.0
 40
1.0
 40
1.0
 40
1.887883960454416
 40
1.887883960454416
 40
1.887883960454416
 40
1.887883960454416
 10
9601.320719424582
 20
-5016.069144428538
 30
-0.0000000000000061
 10
9601.320719424582
 20
-5016.069144428538
 30
-0.0000000000000061
 10
9601.720273477558
 20
-5016.037410893644
 30
-0.0000000000000061
 10
9600.889431836711
 20
-5016.65332995726
 30
-0.0000000000000061
 10
9600.15174087012
 20
-5017.200194614782
 30
-0.0000000000000061
 10
9595.63026659887
 20
-5020.754754791716
 30
-0.0000000000000061
 10
9594.625679802584
 20
-5021.54492711824
 30
-0.0000000000000061
  0
SPLINE
  5
12D094
330
18
100
AcDbEntity
  8
姿図
100
AcDbSpline
210
0.0
220
0.0
230
1.0
 70
     8
 71
     3
 72
    11
 73
     7
 74
     0
 42
0.000000001
 43
0.0000000001
 40
0.0
 40
0.0
 40
0.0
 40
0.0
 40
1.0
 40
1.0
 40
1.0
 40
1.675127286579802
 40
1.675127286579802
 40
1.675127286579802
 40
1.675127286579802
 10
9600.243221671604
 20
-5013.544885971095
 30
-0.0000000000000061
 10
9600.243221671604
 20
-5013.544885971095
 30
-0.0000000000000061
 10
9600.70624279437
 20
-5013.576619505989
 30
-0.0000000000000061
 10
9600.367270944369
 20
-5013.883857821094
 30
-0.0000000000000061
 10
9600.138421799054
 20
-5014.091282791105
 30
-0.0000000000000061
 10
9595.996719660494
 20
-5017.398615660493
 30
-0.0000000000000061
 10
9593.329820897185
 20
-5019.525647963168
 30
-0.0000000000000061
  0
SPLINE
  5
12D095
330
18
100
AcDbEntity
  8
姿図
100
AcDbSpline
210
0.0
220
0.0
230
1.0
 70
     8
 71
     3
 72
    14
 73
    10
 74
     0
 42
0.000000001
 43
0.0000000001
 40
0.0
 40
0.0
 40
0.0
 40
0.0
 40
1.0
 40
1.0
 40
1.0
 40
2.0
 40
2.0
 40
2.0
 40
2.903771721635469
 40
2.903771721635469
 40
2.903771721635469
 40
2.903771721635469
 10
9598.950801341394
 20
-5015.515250001305
 30
-0.0000000000000061
 10
9598.950801341394
 20
-5015.515250001305
 30
-0.0000000000000061
 10
9601.320719424582
 20
-5016.069144428538
 30
-0.0000000000000061
 10
9601.320719424582
 20
-5016.069144428538
 30
-0.0000000000000061
 10
9601.320719424582
 20
-5016.069144428538
 30
-0.0000000000000061
 10
9601.904904953304
 20
-5016.190308834494
 30
-0.0000000000000061
 10
9601.505350900325
 20
-5016.498989583005
 30
-0.0000000000000061
 10
9601.14424524598
 20
-5016.777966514522
 30
-0.0000000000000061
 10
9595.844190585003
 20
-5021.039206719514
 30
-0.0000000000000061
 10
9594.827504110062
 20
-5021.85672704342
 30
-0.0000000000000061
  0
SPLINE
  5
12D096
330
18
100
AcDbEntity
  8
姿図
100
AcDbSpline
210
0.0
220
0.0
230
1.0
 70
     8
 71
     3
 72
    11
 73
     7
 74
     0
 42
0.000000001
 43
0.0000000001
 40
0.0
 40
0.0
 40
0.0
 40
0.0
 40
1.0
 40
1.0
 40
1.0
 40
1.201957035102942
 40
1.201957035102942
 40
1.201957035102942
 40
1.201957035102942
 10
9595.073540350762
 20
-5016.161460166411
 30
-0.0000000000000061
 10
9595.073540350762
 20
-5016.161460166411
 30
-0.0000000000000061
 10
9597.043904380973
 20
-5014.315145408967
 30
-0.0000000000000061
 10
9597.043904380973
 20
-5014.315145408967
 30
-0.0000000000000061
 10
9596.962920319495
 20
-5014.004318093875
 30
-0.0000000000000061
 10
9596.84057734951
 20
-5013.737438296075
 30
-0.0000000000000061
 10
9596.69688398418
 20
-5013.509432598035
 30
-0.0000000000000061
  0
SPLINE
  5
12D097
330
18
100
AcDbEntity
  8
姿図
100
AcDbSpline
210
0.0
220
0.0
230
1.0
 70
     8
 71
     3
 72
    11
 73
     7
 74
     0
 42
0.000000001
 43
0.0000000001
 40
1.371408514633379
 40
1.371408514633379
 40
1.371408514633379
 40
1.371408514633379
 40
2.0
 40
2.0
 40
2.0
 40
3.0
 40
3.0
 40
3.0
 40
3.0
 10
9596.301914218273
 20
-5013.014615292055
 30
-0.0000000000000061
 10
9595.786996526955
 20
-5012.496872597981
 30
-0.0000000000000061
 10
9595.227880725017
 20
-5012.314490277267
 30
-0.0000000000000061
 10
9595.227880725017
 20
-5012.314490277267
 30
-0.0000000000000061
 10
9595.227880725017
 20
-5012.314490277267
 30
-0.0000000000000061
 10
9593.25823791151
 20
-5013.821833184712
 30
-0.0000000000000061
 10
9593.25823791151
 20
-5013.821833184712
 30
-0.0000000000000061
  0
SPLINE
  5
12D098
330
18
100
AcDbEntity
  8
姿図
100
AcDbSpline
210
0.0
220
0.0
230
1.0
 70
     8
 71
     3
 72
    14
 73
    10
 74
     0
 42
0.000000001
 43
0.0000000001
 40
0.1253663450285614
 40
0.1253663450285614
 40
0.1253663450285614
 40
0.1253663450285614
 40
1.0
 40
1.0
 40
1.0
 40
2.0
 40
2.0
 40
2.0
 40
2.79498799956431
 40
2.79498799956431
 40
2.79498799956431
 40
2.79498799956431
 10
9596.900140283991
 20
-5013.895575543084
 30
-0.0000000000000061
 10
9597.63220409836
 20
-5013.813128446832
 30
-0.0000000000000061
 10
9600.551902420115
 20
-5013.484303768116
 30
-0.0000000000000061
 10
9600.551902420115
 20
-5013.484303768116
 30
-0.0000000000000061
 10
9600.551902420115
 20
-5013.484303768116
 30
-0.0000000000000061
 10
9601.444768697347
 20
-5013.452570233223
 30
-0.0000000000000061
 10
9600.736533895859
 20
-5014.068489296838
 30
-0.0000000000000061
 10
9600.173495727802
 20
-5014.558137561116
 30
-0.0000000000000061
 10
9595.351794599028
 20
-5018.528375611119
 30
-0.0000000000000061
 10
9593.398445860543
 20
-5020.135688623261
 30
-0.0000000000000061
  0
SPLINE
  5
12D099
330
18
100
AcDbEntity
  8
姿図
100
AcDbSpline
210
0.0
220
0.0
230
1.0
 70
     8
 71
     3
 72
    14
 73
    10
 74
     0
 42
0.000000001
 43
0.0000000001
 40
1.443519435933286
 40
1.443519435933286
 40
1.443519435933286
 40
1.443519435933286
 40
2.0
 40
2.0
 40
2.0
 40
3.0
 40
3.0
 40
3.0
 40
3.529837330600595
 40
3.529837330600595
 40
3.529837330600595
 40
3.529837330600595
 10
9594.147672253666
 20
-5014.63430452898
 30
-0.0000000000000061
 10
9596.46378709345
 20
-5012.892909486495
 30
-0.0000000000000061
 10
9599.074850614159
 20
-5010.929754209184
 30
-0.0000000000000061
 10
9599.074850614159
 20
-5010.929754209184
 30
-0.0000000000000061
 10
9599.074850614159
 20
-5010.929754209184
 30
-0.0000000000000061
 10
9599.444113565647
 20
-5010.856190105567
 30
-0.0000000000000061
 10
9599.382088929266
 20
-5011.23699252429
 30
-0.0000000000000061
 10
9599.366039572911
 20
-5011.334817172544
 30
-0.0000000000000061
 10
9597.060511115678
 20
-5013.220816512959
 30
-0.0000000000000061
 10
9594.896112045359
 20
-5014.972645056029
 30
-0.0000000000000061
  0
SPLINE
  5
12D09A
330
18
100
AcDbEntity
  8
姿図
100
AcDbSpline
210
0.0
220
0.0
230
1.0
 70
     8
 71
     3
 72
    14
 73
    10
 74
     0
 42
0.000000001
 43
0.0000000001
 40
1.47114458461932
 40
1.47114458461932
 40
1.47114458461932
 40
1.47114458461932
 40
2.0
 40
2.0
 40
2.0
 40
3.0
 40
3.0
 40
3.0
 40
4.0
 40
4.0
 40
4.0
 40
4.0
 10
9592.507612092306
 20
-5012.216634194594
 30
-0.0000000000000061
 10
9594.737756354256
 20
-5010.562225632759
 30
-0.0000000000000061
 10
9597.10448658395
 20
-5008.806492238125
 30
-0.0000000000000061
 10
9597.10448658395
 20
-5008.806492238125
 30
-0.0000000000000061
 10
9597.10448658395
 20
-5008.806492238125
 30
-0.0000000000000061
 10
9597.72184808097
 20
-5008.561278559401
 30
-0.0000000000000061
 10
9597.690114546078
 20
-5009.02213603206
 30
-0.0000000000000061
 10
9597.690114546078
 20
-5009.02213603206
 30
-0.0000000000000061
 10
9595.627434777996
 20
-5012.468830651523
 30
-0.0000000000000061
 10
9595.627434777996
 20
-5012.468830651523
 30
-0.0000000000000061
  0
SPLINE
  5
12D09B
330
18
100
AcDbEntity
  8
姿図
100
AcDbSpline
210
0.0
220
0.0
230
1.0
 70
    24
 71
     3
 72
     8
 73
     4
 74
     0
 42
0.000000001
 43
0.0000000001
 40
1.361944250330177
 40
1.361944250330177
 40
1.361944250330177
 40
1.361944250330177
 40
1.428242292534494
 40
1.428242292534494
 40
1.428242292534494
 40
1.428242292534494
 10
9589.051636656783
 20
-5011.889226827134
 30
-0.0000000000000061
 10
9589.311709245567
 20
-5011.696977176543
 30
-0.0000000000000061
 10
9589.582089242524
 20
-5011.497108131577
 30
-0.0000000000000061
 10
9589.857826756155
 20
-5011.293278728032
 30
-0.0000000000000061
  0
SPLINE
  5
12D09C
330
18
100
AcDbEntity
  8
姿図
100
AcDbSpline
210
0.0
220
0.0
230
1.0
 70
     8
 71
     3
 72
    11
 73
     7
 74
     0
 42
0.000000001
 43
0.0000000001
 40
1.615278216396081
 40
1.615278216396081
 40
1.615278216396081
 40
1.615278216396081
 40
2.0
 40
2.0
 40
2.0
 40
3.0
 40
3.0
 40
3.0
 40
3.0
 10
9592.208286427855
 20
-5009.55578285149
 30
-0.0000000000000061
 10
9593.755173688025
 20
-5008.412300039009
 30
-0.0000000000000061
 10
9595.012236931081
 20
-5007.483059589722
 30
-0.0000000000000061
 10
9595.012236931081
 20
-5007.483059589722
 30
-0.0000000000000061
 10
9595.012236931081
 20
-5007.483059589722
 30
-0.0000000000000061
 10
9595.288462927996
 20
-5007.268137012488
 30
-0.0000000000000061
 10
9595.258171826506
 20
-5008.160282073019
 30
-0.0000000000000061
  0
SPLINE
  5
12D09D
330
18
100
AcDbEntity
  8
姿図
100
AcDbSpline
210
0.0
220
0.0
230
1.0
 70
    24
 71
     3
 72
     8
 73
     4
 74
     0
 42
0.000000001
 43
0.0000000001
 40
1.360826806385313
 40
1.360826806385313
 40
1.360826806385313
 40
1.360826806385313
 40
1.445359962748388
 40
1.445359962748388
 40
1.445359962748388
 40
1.445359962748388
 10
9588.733198808482
 20
-5011.690047376865
 30
-0.0000000000000061
 10
9589.0727672671
 20
-5011.438077738006
 30
-0.0000000000000061
 10
9589.429657511942
 20
-5011.173254831688
 30
-0.0000000000000061
 10
9589.793348369893
 20
-5010.903385673325
 30
-0.0000000000000061
  0
SPLINE
  5
12D09E
330
18
100
AcDbEntity
  8
姿図
100
AcDbSpline
210
0.0
220
0.0
230
1.0
 70
    24
 71
     3
 72
     8
 73
     4
 74
     0
 42
0.000000001
 43
0.0000000001
 40
1.629831745831646
 40
1.629831745831646
 40
1.629831745831646
 40
1.629831745831646
 40
2.0
 40
2.0
 40
2.0
 40
2.0
 10
9592.162151296472
 20
-5009.145665240851
 30
-0.0000000000000061
 10
9593.665313333728
 20
-5008.030275439291
 30
-0.0000000000000061
 10
9594.858617773529
 20
-5007.144808956425
 30
-0.0000000000000061
 10
9594.858617773529
 20
-5007.144808956425
 30
-0.0000000000000061
  0
SPLINE
  5
12D09F
330
18
100
AcDbEntity
  8
姿図
100
AcDbSpline
210
0.0
220
0.0
230
1.0
 70
     8
 71
     3
 72
    11
 73
     7
 74
     0
 42
0.000000001
 43
0.0000000001
 40
2.0
 40
2.0
 40
2.0
 40
2.0
 40
3.0
 40
3.0
 40
3.0
 40
4.0
 40
4.0
 40
4.0
 40
4.0
 10
9594.858617773529
 20
-5007.144808956425
 30
-0.0000000000000061
 10
9594.858617773529
 20
-5007.144808956425
 30
-0.0000000000000061
 10
9595.258171826506
 20
-5007.082784320041
 30
-0.0000000000000061
 10
9595.258171826506
 20
-5007.483059589722
 30
-0.0000000000000061
 10
9595.258171826506
 20
-5007.883334859403
 30
-0.0000000000000061
 10
9595.227880725017
 20
-5010.098912568335
 30
-0.0000000000000061
 10
9595.227880725017
 20
-5010.098912568335
 30
-0.0000000000000061
  0
SPLINE
  5
12D0A0
330
18
100
AcDbEntity
  8
姿図
100
AcDbSpline
210
0.0
220
0.0
230
1.0
 70
    24
 71
     3
 72
     8
 73
     4
 74
     0
 42
0.000000001
 43
0.0000000001
 40
1.404660919629103
 40
1.404660919629103
 40
1.404660919629103
 40
1.404660919629103
 40
1.573101002211188
 40
1.573101002211188
 40
1.573101002211188
 40
1.573101002211188
 10
9587.37252593164
 20
-5010.7985673747
 30
-0.0000000000000061
 10
9588.066838126326
 20
-5010.281667105667
 30
-0.0000000000000061
 10
9588.807432685777
 20
-5009.730310626614
 30
-0.0000000000000061
 10
9589.512540357418
 20
-5009.2053733607
 30
-0.0000000000000061
  0
SPLINE
  5
12D0A1
330
18
100
AcDbEntity
  8
姿図
100
AcDbSpline
210
0.0
220
0.0
230
1.0
 70
     8
 71
     3
 72
    11
 73
     7
 74
     0
 42
0.000000001
 43
0.0000000001
 40
1.799348189808347
 40
1.799348189808347
 40
1.799348189808347
 40
1.799348189808347
 40
2.0
 40
2.0
 40
2.0
 40
3.0
 40
3.0
 40
3.0
 40
3.0
 10
9591.963596546584
 20
-5007.38061554528
 30
-0.0000000000000061
 10
9592.514246809644
 20
-5006.970668447565
 30
-0.0000000000000061
 10
9592.85868385853
 20
-5006.714242585255
 30
-0.0000000000000061
 10
9592.85868385853
 20
-5006.714242585255
 30
-0.0000000000000061
 10
9592.85868385853
 20
-5006.714242585255
 30
-0.0000000000000061
 10
9593.074327652468
 20
-5006.744533686745
 30
-0.0000000000000061
 10
9593.043315334276
 20
-5007.206112376105
 30
-0.0000000000000061
  0
SPLINE
  5
12D0A2
330
18
100
AcDbEntity
  8
姿図
100
AcDbSpline
210
0.0
220
0.0
230
1.0
 70
    24
 71
     3
 72
     8
 73
     4
 74
     0
 42
0.000000001
 43
0.0000000001
 40
1.402850150975759
 40
1.402850150975759
 40
1.402850150975759
 40
1.402850150975759
 40
1.583667207078013
 40
1.583667207078013
 40
1.583667207078013
 40
1.583667207078013
 10
9587.156801337345
 20
-5010.651027194731
 30
-0.0000000000000061
 10
9587.906323593985
 20
-5010.094187245987
 30
-0.0000000000000061
 10
9588.710577583688
 20
-5009.49668564222
 30
-0.0000000000000061
 10
9589.467695614972
 20
-5008.934202591184
 30
-0.0000000000000061
  0
SPLINE
  5
12D0A3
330
18
100
AcDbEntity
  8
姿図
100
AcDbSpline
210
0.0
220
0.0
230
1.0
 70
     8
 71
     3
 72
    14
 73
    10
 74
     0
 42
0.000000001
 43
0.0000000001
 40
1.815455566821609
 40
1.815455566821609
 40
1.815455566821609
 40
1.815455566821609
 40
2.0
 40
2.0
 40
2.0
 40
3.0
 40
3.0
 40
3.0
 40
4.0
 40
4.0
 40
4.0
 40
4.0
 10
9591.93238070114
 20
-5007.103122720119
 30
-0.0000000000000061
 10
9592.410923165642
 20
-5006.747600840626
 30
-0.0000000000000061
 10
9592.704343484276
 20
-5006.529611109511
 30
-0.0000000000000061
 10
9592.704343484276
 20
-5006.529611109511
 30
-0.0000000000000061
 10
9592.704343484276
 20
-5006.529611109511
 30
-0.0000000000000061
 10
9593.013024232787
 20
-5006.405561836745
 30
-0.0000000000000061
 10
9593.043315334276
 20
-5006.744533686745
 30
-0.0000000000000061
 10
9593.043315334276
 20
-5006.744533686745
 30
-0.0000000000000061
 10
9592.981290697893
 20
-5008.898807975997
 30
-0.0000000000000061
 10
9592.981290697893
 20
-5008.898807975997
 30
-0.0000000000000061
  0
SPLINE
  5
12D0A4
330
18
100
AcDbEntity
  8
姿図
100
AcDbSpline
210
0.0
220
0.0
230
1.0
 70
    24
 71
     3
 72
     8
 73
     4
 74
     0
 42
0.000000001
 43
0.0000000001
 40
1.510185474351763
 40
1.510185474351763
 40
1.510185474351763
 40
1.510185474351763
 40
1.810497930033095
 40
1.810497930033095
 40
1.810497930033095
 40
1.810497930033095
 10
9586.073786075134
 20
-5009.88345720462
 30
-0.0000000000000061
 10
9587.288570263872
 20
-5008.978268701125
 30
-0.0000000000000061
 10
9588.48848503408
 20
-5008.084160047722
 30
-0.0000000000000061
 10
9589.235114712706
 20
-5007.527813819541
 30
-0.0000000000000061
  0
SPLINE
  5
12D0A5
330
18
100
AcDbEntity
  8
姿図
100
AcDbSpline
210
0.0
220
0.0
230
1.0
 70
     8
 71
     3
 72
    11
 73
     7
 74
     0
 42
0.000000001
 43
0.0000000001
 40
1.0
 40
1.0
 40
1.0
 40
1.000000000000004
 40
2.0
 40
2.0
 40
2.0
 40
2.10277645146085
 40
2.10277645146085
 40
2.10277645146085
 40
2.10277645146085
 10
9570.530508061367
 20
-5014.673896978031
 30
-0.0000000000000061
 10
9574.601083044201
 20
-5011.718765281311
 30
-0.0000000000000061
 10
9581.581018287381
 20
-5014.335339476626
 30
-0.0000000000000061
 10
9586.313642286734
 20
-5020.523378780871
 30
-0.0000000000000061
 10
9586.80034108386
 20
-5021.159363502061
 30
-0.0000000000000061
 10
9587.244385516
 20
-5021.80843631024
 30
-0.0000000000000061
 10
9587.645225244683
 20
-5022.464483536131
 30
-0.0000000000000061
  0
SPLINE
  5
12D0A6
330
18
100
AcDbEntity
  8
姿図
100
AcDbSpline
210
0.0
220
0.0
230
1.0
 70
     8
 71
     3
 72
     8
 73
     4
 74
     0
 42
0.000000001
 43
0.0000000001
 40
2.529370585629382
 40
2.529370585629382
 40
2.529370585629382
 40
2.529370585629382
 40
2.999999999999997
 40
3.0
 40
3.0
 40
3.0
 10
9590.364134958483
 20
-5030.556934297689
 30
-0.0000000000000061
 10
9590.51386821038
 20
-5033.343884228448
 30
-0.0000000000000061
 10
9589.709757755989
 20
-5035.744977397783
 30
-0.0000000000000061
 10
9587.898960747298
 20
-5037.173186522558
 30
-0.0000000000000061
  0
ELLIPSE
  5
12D0A7
330
18
100
AcDbEntity
  8
姿図
100
AcDbEllipse
 10
9589.973060302209
 20
-5016.89754040561
 30
-0.0000000000000061
 11
5.277551857870765
 21
-5.505994302663387
 31
0.0
210
0.0
220
0.0
230
1.0
 40
0.5896757540129041
 41
2.589251650966877
 42
2.614621634798047
  0
ELLIPSE
  5
12D0A8
330
18
100
AcDbEntity
  8
姿図
100
AcDbEllipse
 10
9589.973060302209
 20
-5016.89754040561
 30
-0.0000000000000061
 11
5.277551857870765
 21
-5.505994302663387
 31
0.0
210
0.0
220
0.0
230
1.0
 40
0.5896757540129041
 41
6.96598111917236
 42
7.147828363455014
  0
ELLIPSE
  5
12D0A9
330
18
100
AcDbEntity
  8
姿図
100
AcDbEllipse
 10
9589.973060302209
 20
-5016.89754040561
 30
-0.0000000000000061
 11
5.277551857870765
 21
-5.505994302663387
 31
0.0
210
0.0
220
0.0
230
1.0
 40
0.5896757540129041
 41
7.339249712863026
 42
7.531924593532864
  0
ELLIPSE
  5
12D0AA
330
18
100
AcDbEntity
  8
姿図
100
AcDbEllipse
 10
9589.973060302209
 20
-5016.89754040561
 30
-0.0000000000000061
 11
5.277551857870765
 21
-5.505994302663387
 31
0.0
210
0.0
220
0.0
230
1.0
 40
0.5896757540129041
 41
7.728897397957168
 42
7.896541804765815
  0
ELLIPSE
  5
12D0AB
330
18
100
AcDbEntity
  8
姿図
100
AcDbEllipse
 10
9589.973060302209
 20
-5016.89754040561
 30
-0.0000000000000061
 11
5.277551857870765
 21
-5.505994302663387
 31
0.0
210
0.0
220
0.0
230
1.0
 40
0.5896757540129041
 41
8.489247713282603
 42
8.60769396429671
  0
ARC
  5
12D0AC
330
18
100
AcDbEntity
  8
姿図
100
AcDbCircle
 10
9588.87360880988
 20
-5010.44099622108
 30
-0.0000000000000061
 40
0.4436734182372752
100
AcDbArc
 50
158.3286271790336
 51
250.9430020259656
  0
ARC
  5
12D0AD
330
18
100
AcDbEntity
  8
姿図
100
AcDbCircle
 10
9593.371005785264
 20
-5013.182431819317
 30
-0.0000000000000061
 40
0.5305635549859548
100
AcDbArc
 50
160.4247343165085
 51
224.460661065416
  0
ARC
  5
12D0AE
330
18
100
AcDbEntity
  8
姿図
100
AcDbCircle
 10
9595.221644210736
 20
-5015.439396985856
 30
-0.0000000000000061
 40
0.5650198592711317
100
AcDbArc
 50
120.2647657538528
 51
124.6443451644839
  0
ARC
  5
12D0AF
330
18
100
AcDbEntity
  8
姿図
100
AcDbCircle
 10
9596.097267175332
 20
-5016.494323223224
 30
-0.0000000000000061
 40
0.8087376358169283
100
AcDbArc
 50
210.0537915453266
 51
255.6920591719458
  0
ARC
  5
12D0B0
330
18
100
AcDbEntity
  8
姿図
100
AcDbCircle
 10
9596.558708120583
 20
-5019.015464621118
 30
-0.0000000000000061
 40
0.4817684811365542
100
AcDbArc
 50
203.2404029724748
 51
273.6673327535127
  0
SPLINE
  5
12D0B1
330
18
100
AcDbEntity
  8
姿図
100
AcDbSpline
210
0.0
220
0.0
230
1.0
 70
     8
 71
     3
 72
     8
 73
     4
 74
     0
 42
0.000000001
 43
0.0000000001
 40
0.0
 40
0.0
 40
0.0
 40
0.0
 40
1.0
 40
1.0
 40
1.0
 40
1.0
 10
9589.891833964064
 20
-5031.204444301507
 30
-0.0000000000000061
 10
9590.396450037471
 20
-5030.468957103195
 30
-0.0000000000000061
 10
9594.193886172732
 20
-5025.51952751716
 30
-0.0000000000000061
 10
9594.193886172732
 20
-5025.51952751716
 30
-0.0000000000000061
  0
LINE
  5
12D0B2
330
18
100
AcDbEntity
  8
姿図
100
AcDbLine
 10
9587.51220391837
 20
-5023.357443123383
 30
-0.0000000000000037
 11
9591.07367252077
 21
-5021.361432588742
 31
-0.0000000000000061
  0
LINE
  5
12D0B3
330
18
100
AcDbEntity
  8
姿図
100
AcDbLine
 10
9587.632779148602
 20
-5022.469221443208
 30
-0.0000000000000061
 11
9587.51220391837
 21
-5023.357443123383
 31
-0.0000000000000037
  0
SPLINE
  5
12D0B4
330
18
100
AcDbEntity
  8
姿図
100
AcDbSpline
210
0.0
220
0.0
230
1.0
 70
     8
 71
     3
 72
    11
 73
     7
 74
     0
 42
0.000000001
 43
0.0000000001
 40
1.0
 40
1.0
 40
1.0
 40
1.000000000000004
 40
2.0
 40
2.0
 40
2.0
 40
2.132564484647539
 40
2.132564484647539
 40
2.132564484647539
 40
2.132564484647539
 10
9570.060061238923
 20
-5014.994365306121
 30
-0.0000000000000061
 10
9574.130636221757
 20
-5012.0392336094
 30
-0.0000000000000061
 10
9581.110571464937
 20
-5014.655807804716
 30
-0.0000000000000061
 10
9585.843195464291
 20
-5020.84384710896
 30
-0.0000000000000061
 10
9586.470955756677
 20
-5021.664161350306
 30
-0.0000000000000061
 10
9587.0277532694
 20
-5022.506249846959
 30
-0.0000000000000061
 10
9587.51220391837
 20
-5023.357443123383
 30
-0.0000000000000061
  0
SPLINE
  5
12D0B5
330
18
100
AcDbEntity
  8
姿図
100
AcDbSpline
210
0.0
220
0.0
230
1.0
 70
     8
 71
     3
 72
     8
 73
     4
 74
     0
 42
0.000000001
 43
0.0000000001
 40
2.546094283791052
 40
2.546094283791052
 40
2.546094283791052
 40
2.546094283791052
 40
2.999999999999997
 40
3.0
 40
3.0
 40
3.0
 10
9589.891833964064
 20
-5031.204444301506
 30
-0.0000000000000061
 10
9589.958998393999
 20
-5033.891320900231
 30
-0.0000000000000061
 10
9589.127346371524
 20
-5036.221585788117
 30
-0.0000000000000061
 10
9587.341315896881
 20
-5037.686641689099
 30
-0.0000000000000061
  0
LINE
  5
12D0B6
330
18
100
AcDbEntity
  8
姿図
100
AcDbLine
 10
9588.575109459043
 20
-5010.769240397876
 30
-0.0000000000000061
 11
9587.973716159446
 21
-5011.2006669681
 31
-0.0000000000000061
  0
LINE
  5
12D0B7
330
18
100
AcDbEntity
  8
姿図
100
AcDbLine
 10
9592.992325852147
 20
-5013.55404881857
 30
-0.0000000000000061
 11
9592.68371312462
 21
-5013.782081879178
 31
-0.0000000000000061
  0
LINE
  5
12D0B8
330
18
100
AcDbEntity
  8
姿図
100
AcDbLine
 10
9595.490542566595
 20
-5017.02905849674
 30
-0.0000000000000061
 11
9593.236080549661
 21
-5018.692344443856
 31
-0.0000000000000061
  0
LINE
  5
12D0B9
330
18
100
AcDbEntity
  8
姿図
100
AcDbLine
 10
9596.116031626736
 20
-5019.205565623894
 30
-0.0000000000000061
 11
9593.904448076615
 21
-5020.899853899381
 31
-0.0000000000000061
  0
SPLINE
  5
12D0BA
330
18
100
AcDbEntity
  8
姿図
100
AcDbSpline
210
0.0
220
0.0
230
1.0
 70
     8
 71
     3
 72
     8
 73
     4
 74
     0
 42
0.000000001
 43
0.0000000001
 40
0.3537168008125633
 40
0.3537168008125633
 40
0.3537168008125633
 40
0.3537168008125633
 40
1.0
 40
1.0
 40
1.0
 40
1.0
 10
9587.898960747452
 20
-5037.173186522412
 30
-0.0000000000000061
 10
9586.814799620412
 20
-5038.209415827106
 30
-0.0000000000000061
 10
9584.758255689716
 20
-5039.935968666858
 30
-0.0000000000000061
 10
9581.596163838125
 20
-5041.546845647857
 30
-0.0000000000000061
  0
ARC
  5
12D0BB
330
18
100
AcDbEntity
  8
姿図
100
AcDbCircle
 10
9589.38819664156
 20
-5042.862485242128
 30
-0.0000000000000061
 40
33.91473023496308
100
AcDbArc
 50
123.781852860515
 51
135.6505614347181
  0
LINE
  5
12D0BC
330
18
100
AcDbEntity
  8
姿図
100
AcDbLine
 10
9565.469211625254
 20
-5019.845874040045
 30
-0.0000000000000061
 11
9566.744698199871
 21
-5018.214245110178
 31
-0.0000000000000061
  0
LINE
  5
12D0BD
330
18
100
AcDbEntity
  8
姿図
100
AcDbLine
 10
9566.404937987363
 20
-5019.632879705687
 30
-0.0000000000000061
 11
9567.58544004717
 21
-5017.938782593883
 31
-0.0000000000000061
  0
LINE
  5
12D0BE
330
18
100
AcDbEntity
  8
姿図
100
AcDbLine
 10
9567.24689769243
 20
-5019.571548658112
 30
-0.0000000000000061
 11
9568.468633605165
 21
-5017.818278289832
 31
-0.0000000000000061
  0
LINE
  5
12D0BF
330
18
100
AcDbEntity
  8
姿図
100
AcDbLine
 10
9568.111257808725
 20
-5019.61598885611
 30
-0.0000000000000061
 11
9569.455965732004
 21
-5017.817832912192
 31
-0.0000000000000061
  0
LINE
  5
12D0C0
330
18
100
AcDbEntity
  8
姿図
100
AcDbLine
 10
9568.956461339407
 20
-5019.751972724027
 30
-0.0000000000000061
 11
9570.327010624307
 21
-5017.919261470962
 31
-0.0000000000000061
  0
LINE
  5
12D0C1
330
18
100
AcDbEntity
  8
姿図
100
AcDbLine
 10
9569.641597521231
 20
-5019.923517947348
 30
-0.0000000000000061
 11
9571.261856760202
 21
-5018.123229904046
 31
-0.0000000000000061
  0
LINE
  5
12D0C2
330
18
100
AcDbEntity
  8
姿図
100
AcDbLine
 10
9570.499644350757
 20
-5020.210896865942
 30
-0.0000000000000061
 11
9572.13337981475
 21
-5018.395635239285
 31
-0.0000000000000061
  0
LINE
  5
12D0C3
330
18
100
AcDbEntity
  8
姿図
100
AcDbLine
 10
9571.352979091209
 20
-5020.573298807727
 30
-0.0000000000000061
 11
9573.117795322389
 21
-5018.808482576546
 31
-0.0000000000000061
  0
LINE
  5
12D0C4
330
18
100
AcDbEntity
  8
姿図
100
AcDbLine
 10
9573.04547937997
 20
-5021.512282555695
 30
-0.0000000000000061
 11
9574.96830662705
 21
-5019.749690912538
 31
-0.0000000000000061
  0
LINE
  5
12D0C5
330
18
100
AcDbEntity
  8
姿図
100
AcDbLine
 10
9580.063608703544
 20
-5041.853055357607
 30
-0.0000000000000061
 11
9582.11510890712
 21
-5041.158192385427
 31
-0.0000000000000061
  0
LINE
  5
12D0C6
330
18
100
AcDbEntity
  8
姿図
100
AcDbLine
 10
9580.695320061304
 20
-5041.158192385427
 30
-0.0000000000000061
 11
9582.96583242907
 21
-5040.256665415873
 31
-0.0000000000000061
  0
LINE
  5
12D0C7
330
18
100
AcDbEntity
  8
姿図
100
AcDbLine
 10
9581.134225255011
 20
-5040.54830214033
 30
-0.0000000000000061
 11
9583.533992861196
 21
-5039.331028716902
 31
-0.0000000000000061
  0
LINE
  5
12D0C8
330
18
100
AcDbEntity
  8
姿図
100
AcDbLine
 10
9581.448711889489
 20
-5039.923680820676
 30
-0.0000000000000061
 11
9583.923291865201
 21
-5038.368928270146
 31
-0.0000000000000061
  0
LINE
  5
12D0C9
330
18
100
AcDbEntity
  8
姿図
100
AcDbLine
 10
9581.77092613554
 20
-5038.996410938333
 30
-0.0000000000000061
 11
9584.157052415712
 21
-5037.425264408783
 31
-0.0000000000000061
  0
LINE
  5
12D0CA
330
18
100
AcDbEntity
  8
姿図
100
AcDbLine
 10
9581.968338182709
 20
-5038.026958238582
 30
-0.0000000000000061
 11
9584.301578056537
 21
-5036.410356326001
 31
-0.0000000000000061
  0
LINE
  5
12D0CB
330
18
100
AcDbEntity
  8
姿図
100
AcDbLine
 10
9582.052356558846
 20
-5037.09750108318
 30
-0.0000000000000061
 11
9584.337376714431
 21
-5035.51430854681
 31
-0.0000000000000061
  0
LINE
  5
12D0CC
330
18
100
AcDbEntity
  8
姿図
100
AcDbLine
 10
9582.0832035398
 20
-5036.077262639439
 30
-0.0000000000000061
 11
9584.31657925232
 21
-5034.529852324335
 31
-0.0000000000000061
  0
LINE
  5
12D0CD
330
18
100
AcDbEntity
  8
姿図
100
AcDbLine
 10
9581.923676703189
 20
-5035.056290885143
 30
-0.0000000000000061
 11
9584.152186997719
 21
-5033.367497927571
 31
-0.0000000000000061
  0
LINE
  5
12D0CE
330
18
100
AcDbEntity
  8
姿図
100
AcDbLine
 10
9581.796055233905
 20
-5034.035319130849
 30
-0.0000000000000061
 11
9583.958358347605
 21
-5032.396698802496
 31
-0.0000000000000061
  0
LINE
  5
12D0CF
330
18
100
AcDbEntity
  8
姿図
100
AcDbLine
 10
9581.572717662651
 20
-5033.006371034722
 30
-0.0000000000000061
 11
9583.693687526535
 21
-5031.399073559747
 31
-0.0000000000000061
  0
LINE
  5
12D0D0
330
18
100
AcDbEntity
  8
姿図
100
AcDbLine
 10
9581.253663989433
 20
-5032.04921001507
 30
-0.0000000000000061
 11
9583.327512314025
 21
-5030.299400491197
 31
-0.0000000000000061
  0
LINE
  5
12D0D1
330
18
100
AcDbEntity
  8
姿図
100
AcDbLine
 10
9580.934610316215
 20
-5031.219670464704
 30
-0.0000000000000061
 11
9583.002393973591
 21
-5029.474978003794
 31
-0.0000000000000061
  0
LINE
  5
12D0D2
330
18
100
AcDbEntity
  8
姿図
100
AcDbLine
 10
9580.487935173713
 20
-5030.310367496035
 30
-0.0000000000000061
 11
9582.582400454145
 21
-5028.543162415669
 31
-0.0000000000000061
  0
LINE
  5
12D0D3
330
18
100
AcDbEntity
  8
姿図
100
AcDbLine
 10
9580.126341559388
 20
-5029.490299362946
 30
-0.0000000000000061
 11
9582.178919641765
 21
-5027.662222008329
 31
-0.0000000000000061
  0
LINE
  5
12D0D4
330
18
100
AcDbEntity
  8
姿図
100
AcDbLine
 10
9579.688827610533
 20
-5028.681885580471
 30
-0.0000000000000061
 11
9581.677401602825
 21
-5026.859026087539
 31
-0.0000000000000061
  0
LINE
  5
12D0D5
330
18
100
AcDbEntity
  8
姿図
100
AcDbLine
 10
9579.084099011556
 20
-5027.662222008329
 30
-0.0000000000000061
 11
9581.047919568371
 21
-5025.862053164582
 31
-0.0000000000000061
  0
LINE
  5
12D0D6
330
18
100
AcDbEntity
  8
姿図
100
AcDbLine
 10
9578.44599166512
 20
-5026.609344886712
 30
-0.0000000000000061
 11
9580.360313704425
 21
-5024.854549684016
 31
-0.0000000000000061
  0
LINE
  5
12D0D7
330
18
100
AcDbEntity
  8
姿図
100
AcDbLine
 10
9577.712168216722
 20
-5025.779805336347
 30
-0.0000000000000061
 11
9579.65904038074
 21
-5023.99517251933
 31
-0.0000000000000061
  0
LINE
  5
12D0D8
330
18
100
AcDbEntity
  8
姿図
100
AcDbLine
 10
9577.058373646722
 20
-5025.001868669457
 30
-0.0000000000000061
 11
9578.99469130394
 21
-5023.226910817007
 31
-0.0000000000000061
  0
LINE
  5
12D0D9
330
18
100
AcDbEntity
  8
姿図
100
AcDbLine
 10
9576.340237421884
 20
-5024.248347704903
 30
-0.0000000000000061
 11
9578.25455946119
 21
-5022.493552502207
 31
-0.0000000000000061
  0
LINE
  5
12D0DA
330
18
100
AcDbEntity
  8
姿図
100
AcDbLine
 10
9575.702130075451
 20
-5023.514524256503
 30
-0.0000000000000061
 11
9577.616452114755
 21
-5021.759729053807
 31
-0.0000000000000061
  0
LINE
  5
12D0DB
330
18
100
AcDbEntity
  8
姿図
100
AcDbLine
 10
9575.000211994373
 20
-5023.004038379356
 30
-0.0000000000000061
 11
9576.930214473787
 21
-5021.234869439892
 31
-0.0000000000000061
  0
LINE
  5
12D0DC
330
18
100
AcDbEntity
  8
姿図
100
AcDbLine
 10
9574.388668222795
 20
-5022.469202558589
 30
-0.0000000000000061
 11
9576.293107988311
 21
-5020.723466106865
 31
-0.0000000000000061
  0
LINE
  5
12D0DD
330
18
100
AcDbEntity
  8
姿図
100
AcDbLine
 10
9573.750606121039
 20
-5021.990580574474
 30
-0.0000000000000061
 11
9575.648847952301
 21
-5020.250525562483
 31
-0.0000000000000061
  0
LINE
  5
12D0DE
330
18
100
AcDbEntity
  8
姿図
100
AcDbLine
 10
9564.26451703617
 20
-5020.418858866676
 30
-0.0000000000000061
 11
9565.852498223814
 21
-5018.60856031276
 31
-0.0000000000000061
  0
LINE
  5
12D0DF
330
18
100
AcDbEntity
  8
姿図
100
AcDbLine
 10
9581.37430615962
 20
-5041.679645732592
 30
-0.0000000000000061
 11
9578.546048604649
 21
-5042.743410085276
 31
-0.0000000000000061
  0
LINE
  5
12D0E0
330
18
100
AcDbEntity
  8
姿図
100
AcDbLine
 10
9564.287516106606
 20
-5020.038322100708
 30
-0.0000000000000061
 11
9563.051327130679
 21
-5021.557425454695
 31
-0.0000000000000061
  0
SPLINE
  5
12D0E1
330
18
100
AcDbEntity
  8
姿図
100
AcDbSpline
210
0.0
220
0.0
230
1.0
 70
     8
 71
     3
 72
    17
 73
    13
 74
     0
 42
0.000000001
 43
0.0000000001
 40
0.1965331616420136
 40
0.1965331616420136
 40
0.1965331616420136
 40
0.1965331616420136
 40
1.0
 40
1.0
 40
1.0
 40
2.0
 40
2.0
 40
2.0
 40
3.0
 40
3.0
 40
3.0
 40
4.0
 40
4.0
 40
4.0
 40
4.0
 10
9564.287516106526
 20
-5020.038322100819
 30
-0.0000000000000061
 10
9564.617084238978
 20
-5019.590169696422
 30
-0.0000000000000061
 10
9565.007988856652
 20
-5019.196556403613
 30
-0.0000000000000061
 10
9565.461005686535
 20
-5018.867308097545
 30
-0.0000000000000061
 10
9569.26671778238
 20
-5016.103007131935
 30
-0.0000000000000061
 10
9576.014204449566
 20
-5018.902204593053
 30
-0.0000000000000061
 10
9580.531805053779
 20
-5025.121757135336
 30
-0.0000000000000061
 10
9585.049405657994
 20
-5031.339315592161
 30
-0.0000000000000061
 10
9585.6276904407
 20
-5038.622712726077
 30
-0.0000000000000061
 10
9581.821978344853
 20
-5041.386515170324
 30
-0.0000000000000061
 10
9581.677407149176
 20
-5041.492201699576
 30
-0.0000000000000061
 10
9581.527850739856
 20
-5041.589911886999
 30
-0.0000000000000061
 10
9581.37430615962
 20
-5041.679645732592
 30
-0.0000000000000061
  0
ELLIPSE
  5
12D0E2
330
18
100
AcDbEntity
  8
姿図
100
AcDbEllipse
 10
9571.90962879576
 20
-5031.328348122143
 30
-0.0000000000000061
 11
7.832518416805893
 21
-10.78002598383419
 31
0.0
210
0.0
220
0.0
230
1.0
 40
0.5991002932922082
 41
0.0
 42
6.283185307179586
  0
SPLINE
  5
12D0E3
330
18
100
AcDbEntity
  8
姿図
100
AcDbSpline
210
0.0
220
0.0
230
1.0
 70
     8
 71
     3
 72
    11
 73
     7
 74
     0
 42
0.000000001
 43
0.0000000001
 40
1.006377578182846
 40
1.006377578182846
 40
1.006377578182846
 40
1.006377578182846
 40
2.0
 40
2.0
 40
2.0
 40
2.914863247510368
 40
2.914863247510368
 40
2.914863247510368
 40
2.914863247510368
 10
9579.562358001314
 20
-5040.33440560605
 30
-0.0000000000000061
 10
9576.371210488762
 20
-5042.570788070841
 30
-0.0000000000000061
 10
9570.712255406239
 20
-5040.137259910803
 30
-0.0000000000000061
 10
9566.87929896826
 20
-5034.861867553026
 30
-0.0000000000000061
 10
9563.350160638227
 20
-5030.004627540769
 30
-0.0000000000000061
 10
9562.590309231762
 20
-5024.420538376659
 30
-0.0000000000000061
 10
9564.92230364743
 20
-5021.734474972916
 30
-0.0000000000000061
  0
SPLINE
  5
12D0E4
330
18
100
AcDbEntity
  8
姿図
100
AcDbSpline
210
0.0
220
0.0
230
1.0
 70
     8
 71
     3
 72
    14
 73
    10
 74
     0
 42
0.000000001
 43
0.0000000001
 40
0.9229664054401968
 40
0.9229664054401968
 40
0.9229664054401968
 40
0.9229664054401968
 40
1.0
 40
1.0
 40
1.0
 40
2.0
 40
2.0
 40
2.0
 40
2.939685942522726
 40
2.939685942522726
 40
2.939685942522726
 40
2.939685942522726
 10
9579.360698175504
 20
-5040.551354777485
 30
-0.0000000000000061
 10
9579.321285828408
 20
-5040.582104329821
 30
-0.0000000000000061
 10
9579.281264980416
 20
-5040.61223083034
 30
-0.0000000000000061
 10
9579.240634719978
 20
-5040.641724251906
 30
-0.0000000000000061
 10
9576.061065457821
 20
-5042.952869297275
 30
-0.0000000000000061
 10
9570.353992878145
 20
-5040.52207912445
 30
-0.0000000000000061
 10
9566.496434560398
 20
-5035.212826593566
 30
-0.0000000000000061
 10
9562.871541236751
 20
-5030.223796624991
 30
-0.0000000000000061
 10
9562.168249908964
 20
-5024.467939674831
 30
-0.0000000000000061
 10
9564.73609397085
 20
-5021.873266521397
 30
-0.0000000000000061
  0
ELLIPSE
  5
12D0E5
330
18
100
AcDbEntity
  8
姿図
100
AcDbEllipse
 10
9571.854542184994
 20
-5031.385179557686
 30
-0.0000000000000061
 11
6.984284315275475
 21
-9.61348599113292
 31
0.0
210
0.0
220
0.0
230
1.0
 40
0.5991474518236252
 41
0.0
 42
6.283185307179586
  0
LINE
  5
12D0E6
330
18
100
AcDbEntity
  8
姿図
100
AcDbLine
 10
9572.207087395973
 20
-5021.01063764535
 30
-0.0000000000000122
 11
9574.129914643054
 21
-5019.248046002193
 31
-0.0000000000000122
  0
LINE
  5
12D0E7
330
18
100
AcDbEntity
  8
姿図
100
AcDbLine
 10
9578.916397450394
 20
-4990.294827659201
 30
-0.0000000000000061
 11
9578.977847276441
 21
-4992.638596318563
 31
-0.0000000000000061
  0
LINE
  5
12D0E8
330
18
100
AcDbEntity
  8
姿図
100
AcDbLine
 10
9584.159874960065
 20
-4989.276929364202
 30
-0.0000000000000061
 11
9584.222047725243
 21
-4992.021929240699
 31
-0.0000000000000061
  0
SPLINE
  5
12D0E9
330
18
100
AcDbEntity
  8
姿図
100
AcDbSpline
210
0.0
220
0.0
230
1.0
 70
     8
 71
     3
 72
    11
 73
     7
 74
     0
 42
0.000000001
 43
0.0000000001
 40
1.0
 40
1.0
 40
1.0
 40
1.0
 40
2.0
 40
2.0
 40
2.0
 40
3.0
 40
3.0
 40
3.0
 40
3.0
 10
9576.294297225993
 20
-4991.004030945701
 30
-0.0000000000000061
 10
9576.294297225993
 20
-4991.004030945701
 30
-0.0000000000000061
 10
9576.510456025853
 20
-4990.449536633015
 30
-0.0000000000000061
 10
9577.435818112215
 20
-4990.387363867837
 30
-0.0000000000000061
 10
9578.361180198577
 20
-4990.325191102659
 30
-0.0000000000000061
 10
9578.916397450394
 20
-4990.294827659201
 30
-0.0000000000000061
 10
9578.916397450394
 20
-4990.294827659201
 30
-0.0000000000000061
  0
SPLINE
  5
12D0EA
330
18
100
AcDbEntity
  8
姿図
100
AcDbSpline
210
0.0
220
0.0
230
1.0
 70
     8
 71
     3
 72
     8
 73
     4
 74
     0
 42
0.000000001
 43
0.0000000001
 40
3.0
 40
3.0
 40
3.0
 40
3.0
 40
4.0
 40
4.0
 40
4.0
 40
4.0
 10
9578.916397450394
 20
-4990.294827659201
 30
-0.0000000000000061
 10
9578.916397450394
 20
-4990.294827659201
 30
-0.0000000000000061
 10
9579.808504336777
 20
-4987.831774043392
 30
-0.0000000000000061
 10
9584.222047725243
 20
-4989.307292807661
 30
-0.0000000000000061
  0
SPLINE
  5
12D0EB
330
18
100
AcDbEntity
  8
姿図
100
AcDbSpline
210
0.0
220
0.0
230
1.0
 70
    24
 71
     3
 72
     8
 73
     4
 74
     0
 42
0.000000001
 43
0.0000000001
 40
4.0
 40
4.0
 40
4.0
 40
4.0
 40
5.0
 40
5.0
 40
5.0
 40
5.0
 10
9584.222047725243
 20
-4989.307292807661
 30
-0.0000000000000061
 10
9584.222047725243
 20
-4989.307292807661
 30
-0.0000000000000061
 10
9588.38617711387
 20
-4988.999320738294
 30
-0.0000000000000061
 10
9588.38617711387
 20
-4988.999320738294
 30
-0.0000000000000061
  0
SPLINE
  5
12D0EC
330
18
100
AcDbEntity
  8
姿図
100
AcDbSpline
210
0.0
220
0.0
230
1.0
 70
     8
 71
     3
 72
     8
 73
     4
 74
     0
 42
0.000000001
 43
0.0000000001
 40
5.0
 40
5.0
 40
5.0
 40
5.0
 40
6.0
 40
6.0
 40
6.0
 40
6.0
 10
9588.38617711387
 20
-4988.999320738294
 30
-0.0000000000000061
 10
9588.38617711387
 20
-4988.999320738294
 30
-0.0000000000000061
 10
9589.834947130332
 20
-4988.690625729797
 30
-0.0000000000000061
 10
9590.082192312782
 20
-4990.633886111157
 30
-0.0000000000000061
  0
SPLINE
  5
12D0ED
330
18
100
AcDbEntity
  8
姿図
100
AcDbSpline
210
0.0
220
0.0
230
1.0
 70
    24
 71
     3
 72
     8
 73
     4
 74
     0
 42
0.000000001
 43
0.0000000001
 40
1.0
 40
1.0
 40
1.0
 40
1.0
 40
2.0
 40
2.0
 40
2.0
 40
2.0
 10
9579.081451061345
 20
-4993.269646739054
 30
-0.0000000000000061
 10
9579.081451061345
 20
-4993.269646739054
 30
-0.0000000000000061
 10
9579.774066310381
 20
-4993.221706079405
 30
-0.0000000000000061
 10
9579.774066310381
 20
-4993.221706079405
 30
-0.0000000000000061
  0
SPLINE
  5
12D0EE
330
18
100
AcDbEntity
  8
姿図
100
AcDbSpline
210
0.0
220
0.0
230
1.0
 70
     8
 71
     3
 72
     8
 73
     4
 74
     0
 42
0.000000001
 43
0.0000000001
 40
2.0
 40
2.0
 40
2.0
 40
2.0
 40
3.0
 40
3.0
 40
3.0
 40
3.0
 10
9579.774066310381
 20
-4993.221706079405
 30
-0.0000000000000061
 10
9579.774066310381
 20
-4993.221706079405
 30
-0.0000000000000061
 10
9583.688783842748
 20
-4993.938699874448
 30
-0.0000000000000061
 10
9584.400010812768
 20
-4992.933226155536
 30
-0.0000000000000061
  0
SPLINE
  5
12D0EF
330
18
100
AcDbEntity
  8
姿図
100
AcDbSpline
210
0.0
220
0.0
230
1.0
 70
    24
 71
     3
 72
     8
 73
     4
 74
     0
 42
0.000000001
 43
0.0000000001
 40
3.0
 40
3.0
 40
3.0
 40
3.0
 40
4.0
 40
4.0
 40
4.0
 40
4.0
 10
9584.400010812768
 20
-4992.933226155536
 30
-0.0000000000000061
 10
9584.400010812768
 20
-4992.933226155536
 30
-0.0000000000000061
 10
9586.790169628917
 20
-4992.756092868863
 30
-0.0000000000000061
 10
9586.790169628917
 20
-4992.756092868863
 30
-0.0000000000000061
  0
SPLINE
  5
12D0F0
330
18
100
AcDbEntity
  8
姿図
100
AcDbSpline
210
0.0
220
0.0
230
1.0
 70
    24
 71
     3
 72
     8
 73
     4
 74
     0
 42
0.000000001
 43
0.0000000001
 40
2.0
 40
2.0
 40
2.0
 40
2.0
 40
3.0
 40
3.0
 40
3.0
 40
3.0
 10
9586.627989149783
 20
-4991.775406997379
 30
-0.0000000000000061
 10
9586.627989149783
 20
-4991.775406997379
 30
-0.0000000000000061
 10
9584.159874960065
 20
-4992.021929240699
 30
-0.0000000000000061
 10
9584.159874960065
 20
-4992.021929240699
 30
-0.0000000000000061
  0
SPLINE
  5
12D0F1
330
18
100
AcDbEntity
  8
姿図
100
AcDbSpline
210
0.0
220
0.0
230
1.0
 70
     8
 71
     3
 72
     8
 73
     4
 74
     0
 42
0.000000001
 43
0.0000000001
 40
3.0
 40
3.0
 40
3.0
 40
3.0
 40
4.0
 40
4.0
 40
4.0
 40
4.0
 10
9584.159874960065
 20
-4992.021929240699
 30
-0.0000000000000061
 10
9584.159874960065
 20
-4992.021929240699
 30
-0.0000000000000061
 10
9580.250943084318
 20
-4990.898481832725
 30
-0.0000000000000061
 10
9579.379078493575
 20
-4992.268451484018
 30
-0.0000000000000061
  0
SPLINE
  5
12D0F2
330
18
100
AcDbEntity
  8
姿図
100
AcDbSpline
210
0.0
220
0.0
230
1.0
 70
    24
 71
     3
 72
     8
 73
     4
 74
     0
 42
0.000000001
 43
0.0000000001
 40
4.0
 40
4.0
 40
4.0
 40
4.0
 40
5.0
 40
5.0
 40
5.0
 40
5.0
 10
9579.379078493575
 20
-4992.268451484018
 30
-0.0000000000000061
 10
9579.162919693712
 20
-4992.608232875104
 30
-0.0000000000000061
 10
9579.162919693712
 20
-4992.608232875104
 30
-0.0000000000000061
 10
9579.162919693712
 20
-4992.608232875104
 30
-0.0000000000000061
  0
SPLINE
  5
12D0F3
330
18
100
AcDbEntity
  8
姿図
100
AcDbSpline
210
0.0
220
0.0
230
1.0
 70
    24
 71
     3
 72
     8
 73
     4
 74
     0
 42
0.000000001
 43
0.0000000001
 40
5.0
 40
5.0
 40
5.0
 40
5.0
 40
6.0
 40
6.0
 40
6.0
 40
6.0
 10
9579.162919693712
 20
-4992.608232875104
 30
-0.0000000000000061
 10
9579.162919693712
 20
-4992.608232875104
 30
-0.0000000000000061
 10
9577.004223451624
 20
-4992.793305292376
 30
-0.0000000000000061
 10
9577.004223451624
 20
-4992.793305292376
 30
-0.0000000000000061
  0
LINE
  5
12D0F4
330
18
100
AcDbEntity
  8
姿図
100
AcDbLine
 10
9577.531567867178
 20
-4992.930643719438
 30
-0.0000000000000035
 11
9579.41091546666
 21
-4992.750239650529
 31
-0.000000000000004
  0
LINE
  5
12D0F5
330
18
100
AcDbEntity
  8
姿図
100
AcDbLine
 10
9583.946607911645
 20
-4992.314845276111
 30
-0.0000000000000053
 11
9586.673903279394
 21
-4992.0530442226
 31
-0.0000000000000061
  0
LINE
  5
12D0F6
330
18
100
AcDbEntity
  8
姿図
100
AcDbLine
 10
9578.96961233199
 20
-4993.193754393005
 30
-0.0000000000000035
 11
9579.966942153127
 21
-4993.118781938524
 31
-0.0000000000000038
  0
LINE
  5
12D0F7
330
18
100
AcDbEntity
  8
姿図
100
AcDbLine
 10
9584.222537622118
 20
-4992.798875292976
 30
-0.0000000000000052
 11
9586.765629717394
 21
-4992.607702972335
 31
-0.0000000000000061
  0
SPLINE
  5
12D0F8
330
18
100
AcDbEntity
  8
姿図
100
AcDbSpline
210
0.0
220
0.0
230
1.0
 70
     8
 71
     3
 72
     9
 73
     5
 74
     3
 42
0.000000001
 43
0.0000000001
 44
0.0000000001
 40
0.0
 40
0.0
 40
0.0
 40
0.0
 40
0.3120094600949996
 40
4.67731404817115
 40
4.67731404817115
 40
4.67731404817115
 40
4.67731404817115
 10
9579.41091546666
 20
-4992.750239650529
 30
-0.000000000000004
 10
9579.467367562298
 20
-4992.661160678265
 30
-0.0000000000000045
 10
9580.313637351328
 20
-4991.32578344887
 30
-0.000000000000012
 10
9582.192799231521
 20
-4991.837377818283
 30
-0.0000000000000085
 10
9583.946607911645
 20
-4992.314845276111
 30
-0.0000000000000053
 11
9579.41091546666
 21
-4992.750239650529
 31
-0.000000000000004
 11
9579.584867937656
 21
-4992.491221425256
 31
-0.0000000000000055
 11
9583.946607911645
 21
-4992.314845276111
 31
-0.0000000000000053
  0
SPLINE
  5
12D0F9
330
18
100
AcDbEntity
  8
姿図
100
AcDbSpline
210
0.0
220
0.0
230
1.0
 70
     8
 71
     3
 72
    10
 73
     6
 74
     4
 42
0.000000001
 43
0.0000000001
 44
0.0000000001
 40
0.0
 40
0.0
 40
0.0
 40
0.0
 40
2.342755453418988
 40
4.062641454964476
 40
4.36676967869884
 40
4.36676967869884
 40
4.36676967869884
 40
4.36676967869884
 10
9579.966942153127
 20
-4993.118781938524
 30
-0.0000000000000038
 10
9580.733526825785
 20
-4993.24853443262
 30
-0.0000000000000036
 10
9582.06288395751
 20
-4993.473542066527
 30
-0.0000000000000031
 10
9583.589050775052
 20
-4993.250795782438
 30
-0.0000000000000023
 10
9584.13978442562
 20
-4992.85791024412
 30
-0.0000000000000049
 10
9584.222537622118
 20
-4992.798875292976
 30
-0.0000000000000052
 11
9579.966942153127
 21
-4993.118781938524
 31
-0.0000000000000038
 11
9582.296796612916
 21
-4993.364304464425
 31
-0.000000000000003
 11
9583.970741172232
 21
-4992.969440600987
 31
-0.0000000000000041
 11
9584.222537622118
 21
-4992.798875292976
 31
-0.0000000000000052
  0
ARC
  5
12D0FA
330
18
100
AcDbEntity
  8
姿図
100
AcDbCircle
 10
9577.580788754676
 20
-4993.233903046294
 30
-0.0000000000000035
 40
0.3072277902337326
100
AcDbArc
 50
91.74730622664805
 51
180.3462281534986
  0
ARC
  5
12D0FB
330
18
100
AcDbEntity
  8
姿図
100
AcDbCircle
 10
9578.990463442644
 20
-4993.370834032284
 30
-0.0000000000000035
 40
0.1783030214629486
100
AcDbArc
 50
91.88239147243901
 51
176.8294030759228
  0
LINE
  5
12D0FC
330
18
100
AcDbEntity
  8
姿図
100
AcDbLine
 10
9584.91095428632
 20
-4989.256342426582
 30
-0.0000000000000077
 11
9584.821691631305
 21
-4988.490954466932
 31
-0.0000000000000034
  0
ELLIPSE
  5
12D0FD
330
18
100
AcDbEntity
  8
姿図
100
AcDbEllipse
 10
9581.80581588815
 20
-4988.978215733057
 30
-0.0000000000000034
 11
-3.602345901327196
 21
2.769589598404880E-14
 31
3.999407362317515E-16
210
1.110223024625157E-16
220
-8.535721513524229E-31
230
1.0
 40
0.2588190451025151
 41
5.734445639859379
 42
6.80355156574371
  0
LINE
  5
12D0FE
330
18
100
AcDbEntity
  8
姿図
100
AcDbLine
 10
9578.680286811516
 20
-4990.035856177918
 30
-0.0000000000000034
 11
9578.680286811516
 21
-4988.494650019366
 31
-0.0000000000000034
  0
ELLIPSE
  5
12D0FF
330
18
100
AcDbEntity
  8
姿図
100
AcDbEllipse
 10
9581.80581588815
 20
-4988.978215733057
 30
-0.0000000000000034
 11
3.602345901327196
 21
2.769589598404880E-14
 31
3.999407362317515E-16
210
1.110223024625157E-16
220
8.535721513524229E-31
230
-1.0
 40
0.2588190451025151
 41
5.734445639860233
 42
6.555988579509473
  0
SPLINE
  5
12D100
330
18
100
AcDbEntity
  8
姿図
100
AcDbSpline
210
0.0
220
0.0
230
1.0
 70
     8
 71
     3
 72
    26
 73
    22
 74
     0
 42
0.000000001
 43
0.0000000001
 40
0.0
 40
0.0
 40
0.0
 40
0.0
 40
0.1264422350829495
 40
0.1264422350829495
 40
0.1588844121662647
 40
0.1588844121662647
 40
0.1751106177118944
 40
0.1751106177118944
 40
0.1858741810274541
 40
0.1858741810274541
 40
0.1957084812443391
 40
0.1957084812443391
 40
0.2081347559133095
 40
0.2081347559133095
 40
0.2307818527987925
 40
0.2307818527987925
 40
0.2883799021281352
 40
0.2883799021281352
 40
0.5072725936264543
 40
0.5072725936264543
 40
1.002470307424774
 40
1.002470307424774
 40
1.002470307424774
 40
1.002470307424774
 10
9600.550698825307
 20
-4986.236160086889
 30
0.0000000000000061
 10
9600.553427602068
 20
-4986.236407718795
 30
-0.000000000000002
 10
9600.556679554376
 20
-4986.236092886679
 30
0.0000000000000061
 10
9600.55929944712
 20
-4986.232911586961
 30
0.0000000000000141
 10
9600.559873786317
 20
-4986.231974724948
 30
0.0000000000000061
 10
9600.560495273816
 20
-4986.229930006086
 30
0.0000000000000061
 10
9600.560680624754
 20
-4986.229082838966
 30
0.0000000000000061
 10
9600.560859514675
 20
-4986.227338635176
 30
0.0000000000000061
 10
9600.560895471112
 20
-4986.226566174128
 30
0.0000000000000141
 10
9600.560874069697
 20
-4986.224922680181
 30
0.0000000000000222
 10
9600.560825183711
 20
-4986.22411832921
 30
0.0000000000000061
 10
9600.560641955302
 20
-4986.222272638565
 30
0.0000000000000222
 10
9600.560492436596
 20
-4986.221264795461
 30
0.0000000000000141
 10
9600.560014305693
 20
-4986.218597330552
 30
0.0000000000000141
 10
9600.559614764728
 20
-4986.216946699281
 30
0.0000000000000141
 10
9600.558237281051
 20
-4986.211885732094
 30
0.0000000000000141
 10
9600.556938906497
 20
-4986.208295551072
 30
0.0000000000000222
 10
9600.551000569963
 20
-4986.193455088142
 30
0.0000000000000141
 10
9600.54405084923
 20
-4986.181139559736
 30
-0.000000000000002
 10
9600.52698571985
 20
-4986.153006340704
 30
0.0000000000000061
 10
9600.510555535988
 20
-4986.130053025706
 30
-0.000000000000002
 10
9600.4887542852
 20
-4986.104067582664
 30
0.0000000000000141
  0
SPLINE
  5
12D101
330
18
100
AcDbEntity
  8
姿図
100
AcDbSpline
210
0.0
220
0.0
230
1.0
 70
     8
 71
     3
 72
    16
 73
    12
 74
     0
 42
0.000000001
 43
0.0000000001
 40
15.85860550385592
 40
15.85860550385592
 40
15.85860550385592
 40
15.85860550385592
 40
16.11243786898941
 40
16.11243786898941
 40
16.67677331177295
 40
16.67677331177295
 40
17.2411087545565
 40
17.2411087545565
 40
17.80544419734004
 40
17.80544419734004
 40
18.35651257010812
 40
18.35651257010812
 40
18.35651257010812
 40
18.35651257010812
 10
9597.917093140817
 20
-4982.191312298024
 30
0.0000000000000141
 10
9597.927449430326
 20
-4982.180093743801
 30
0.0000000000000141
 10
9597.937334311631
 20
-4982.16809194391
 30
0.0000000000000141
 10
9597.967504749411
 20
-4982.127250899762
 30
-0.000000000000002
 10
9597.987120677528
 20
-4982.093874070169
 30
0.0000000000000061
 10
9598.021964930766
 20
-4982.017938728731
 30
0.0000000000000061
 10
9598.037197351596
 20
-4981.975382813917
 30
0.0000000000000141
 10
9598.062101199013
 20
-4981.883679589718
 30
0.0000000000000141
 10
9598.071794531994
 20
-4981.834457231805
 30
-0.000000000000002
 10
9598.08509555341
 20
-4981.734035824528
 30
-0.000000000000002
 10
9598.088840880659
 20
-4981.682909402062
 30
0.0000000000000141
 10
9598.08997879454
 20
-4981.632287912733
 30
0.0000000000000061
  0
SPLINE
  5
12D102
330
18
100
AcDbEntity
  8
姿図
100
AcDbSpline
210
0.0
220
0.0
230
1.0
 70
     8
 71
     3
 72
    30
 73
    26
 74
     0
 42
0.000000001
 43
0.0000000001
 40
5.468358937646049
 40
5.468358937646049
 40
5.468358937646049
 40
5.468358937646049
 40
5.554474529312383
 40
5.554474529312383
 40
5.597484804418004
 40
5.597484804418004
 40
5.640495079523625
 40
5.640495079523625
 40
5.653252350784877
 40
5.653252350784877
 40
5.659630986415502
 40
5.659630986415502
 40
5.666009622046128
 40
5.666009622046128
 40
5.672394292855955
 40
5.672394292855955
 40
5.678778963665781
 40
5.678778963665781
 40
5.691548305285435
 40
5.691548305285435
 40
5.734612320533793
 40
5.734612320533793
 40
5.77767633578215
 40
5.77767633578215
 40
5.877831414689104
 40
5.877831414689104
 40
5.877831414689104
 40
5.877831414689104
 10
9600.468723556422
 20
-4985.078894942889
 30
0.0000000000000141
 10
9600.470749861803
 20
-4985.079299201101
 30
0.0000000000000061
 10
9600.472730429372
 20
-4985.079487432229
 30
-0.000000000000002
 10
9600.475596849023
 20
-4985.079034264624
 30
0.0000000000000141
 10
9600.476631757367
 20
-4985.078743643947
 30
0.0000000000000061
 10
9600.478603155712
 20
-4985.077523388134
 30
0.0000000000000061
 10
9600.479549212714
 20
-4985.076676760716
 30
0.0000000000000222
 10
9600.480482268917
 20
-4985.074376443313
 30
0.0000000000000141
 10
9600.480695735105
 20
-4985.073698065623
 30
-0.000000000000002
 10
9600.480918608439
 20
-4985.072413842747
 30
0.0000000000000141
 10
9600.48097760662
 20
-4985.071943138168
 30
0.0000000000000141
 10
9600.481049871443
 20
-4985.070918786028
 30
-0.000000000000002
 10
9600.481063420457
 20
-4985.070365767609
 30
0.0000000000000141
 10
9600.48103888564
 20
-4985.069199193513
 30
0.0000000000000061
 10
9600.481000933345
 20
-4985.068593832207
 30
0.0000000000000141
 10
9600.48088147361
 20
-4985.067375298993
 30
-0.000000000000002
 10
9600.480799704272
 20
-4985.066762201043
 30
-0.000000000000002
 10
9600.480512099663
 20
-4985.06496168038
 30
0.0000000000000061
 10
9600.480260481296
 20
-4985.063812966086
 30
0.0000000000000303
 10
9600.479188923608
 20
-4985.059484413886
 30
-0.000000000000002
 10
9600.478165578608
 20
-4985.056644813986
 30
0.0000000000000222
 10
9600.476056359208
 20
-4985.051302450294
 30
0.0000000000000222
 10
9600.474964037645
 20
-4985.048866091014
 30
-0.000000000000002
 10
9600.471629250378
 20
-4985.041806342092
 30
0.0000000000000141
 10
9600.469228863973
 20
-4985.037372304794
 30
0.0000000000000141
 10
9600.466778292492
 20
-4985.033103579232
 30
0.0000000000000222
  0
SPLINE
  5
12D103
330
18
100
AcDbEntity
  8
姿図
100
AcDbSpline
210
0.0
220
0.0
230
1.0
 70
    12
 71
     2
 72
     6
 73
     3
 74
     0
 42
0.000000001
 43
0.0000000001
 40
22.18928893771569
 40
22.18928893771569
 40
22.18928893771569
 40
29.25375354177516
 40
29.25375354177516
 40
29.25375354177516
 10
9599.670420884942
 20
-4985.929812898537
 30
0.0000000000000222
 41
0.9999999984713707
 10
9599.69258103771
 20
-4984.960084539103
 30
0.0000000000000141
 41
0.9999999989658331
 10
9599.714770664483
 20
-4983.989083159526
 30
0.0000000000000061
 41
0.9999999999300861
  0
SPLINE
  5
12D104
330
18
100
AcDbEntity
  8
姿図
100
AcDbSpline
210
0.0
220
0.0
230
1.0
 70
     8
 71
     3
 72
    26
 73
    22
 74
     0
 42
0.000000001
 43
0.0000000001
 40
5.508613077618151
 40
5.508613077618151
 40
5.508613077618151
 40
5.508613077618151
 40
6.179005067686559
 40
6.179005067686559
 40
6.340002190112532
 40
6.340002190112532
 40
6.392156946112854
 40
6.392156946112854
 40
6.417035445654846
 40
6.417035445654846
 40
6.433276212519534
 40
6.433276212519534
 40
6.447901642471058
 40
6.447901642471058
 40
6.46599523881348
 40
6.46599523881348
 40
6.498353151737191
 40
6.498353151737191
 40
6.578911697646714
 40
6.578911697646714
 40
6.714781857145347
 40
6.714781857145347
 40
6.714781857145347
 40
6.714781857145347
 10
9599.367275140501
 20
-4985.301272018661
 30
0.0000000000000141
 10
9599.316511174113
 20
-4985.279374895018
 30
0.0000000000000061
 10
9599.28108287588
 20
-4985.269884770237
 30
0.0000000000000141
 10
9599.25647867336
 20
-4985.270124257268
 30
0.0000000000000061
 10
9599.250934232283
 20
-4985.270745352725
 30
-0.000000000000002
 10
9599.245856440995
 20
-4985.273899215989
 30
-0.000000000000002
 10
9599.244629704206
 20
-4985.274956442221
 30
0.0000000000000141
 10
9599.24332736599
 20
-4985.277138385763
 30
0.0000000000000141
 10
9599.242941501141
 20
-4985.278012374473
 30
0.0000000000000141
 10
9599.242546092724
 20
-4985.279790277228
 30
0.0000000000000303
 10
9599.242454222005
 20
-4985.280569803035
 30
0.0000000000000141
 10
9599.242448397788
 20
-4985.28221560871
 30
0.0000000000000141
 10
9599.24251783669
 20
-4985.28301390793
 30
0.0000000000000061
 10
9599.242810579432
 20
-4985.284825472367
 30
0.0000000000000061
 10
9599.243059631359
 20
-4985.285802302739
 30
0.0000000000000061
 10
9599.243864509906
 20
-4985.288358471133
 30
0.0000000000000061
 10
9599.244543894716
 20
-4985.289920351787
 30
0.0000000000000141
 10
9599.246876256482
 20
-4985.294644539853
 30
0.0000000000000141
 10
9599.249071381242
 20
-4985.297941493395
 30
-0.000000000000002
 10
9599.254727075013
 20
-4985.305579539675
 30
0.0000000000000222
 10
9599.258852637196
 20
-4985.310197975733
 30
0.0000000000000141
 10
9599.262510769408
 20
-4985.314028220451
 30
0.0000000000000222
  0
SPLINE
  5
12D105
330
18
100
AcDbEntity
  8
姿図
100
AcDbSpline
210
0.0
220
0.0
230
1.0
 70
     8
 71
     3
 72
    10
 73
     6
 74
     0
 42
0.000000001
 43
0.0000000001
 40
0.505347474080478
 40
0.505347474080478
 40
0.505347474080478
 40
0.505347474080478
 40
0.5908081871204214
 40
0.5908081871204214
 40
0.6018930666040991
 40
0.6018930666040991
 40
0.6018930666040991
 40
0.6018930666040991
 10
9599.537759403298
 20
-4985.779919771323
 30
0.0000000000000061
 10
9599.536106947999
 20
-4985.772477830741
 30
-0.000000000000002
 10
9599.53342039657
 20
-4985.764275821336
 30
-0.000000000000002
 10
9599.528967501432
 20
-4985.755712040474
 30
0.0000000000000141
 10
9599.528435907529
 20
-4985.754738811546
 30
0.0000000000000141
 10
9599.527884350548
 20
-4985.753778373792
 30
0.0000000000000061
  0
SPLINE
  5
12D106
330
18
100
AcDbEntity
  8
姿図
100
AcDbSpline
210
0.0
220
0.0
230
1.0
 70
     8
 71
     3
 72
    26
 73
    22
 74
     0
 42
0.000000001
 43
0.0000000001
 40
0.0
 40
0.0
 40
0.0
 40
0.0
 40
0.128245973690629
 40
0.128245973690629
 40
0.1709107023387558
 40
0.1709107023387558
 40
0.1890943956851749
 40
0.1890943956851749
 40
0.2007783270636655
 40
0.2007783270636655
 40
0.2111470640880597
 40
0.2111470640880597
 40
0.2237033505467542
 40
0.2237033505467542
 40
0.2457537947997618
 40
0.2457537947997618
 40
0.2995509632558
 40
0.2995509632558
 40
0.4920237835540287
 40
0.4920237835540287
 40
0.793426644719398
 40
0.793426644719398
 40
0.793426644719398
 40
0.793426644719398
 10
9600.511088794896
 20
-4985.658513653961
 30
0.0000000000000141
 10
9600.513943192382
 20
-4985.658926956266
 30
0.0000000000000141
 10
9600.517263124812
 20
-4985.658848166501
 30
0.0000000000000141
 10
9600.520292339586
 20
-4985.656146579111
 30
0.0000000000000141
 10
9600.521048135402
 20
-4985.65515529348
 30
0.0000000000000141
 10
9600.521790201776
 20
-4985.653006277576
 30
0.0000000000000061
 10
9600.521994137793
 20
-4985.652197759594
 30
-0.000000000000002
 10
9600.522197895047
 20
-4985.650533533811
 30
0.0000000000000141
 10
9600.52224409973
 20
-4985.649802818232
 30
0.0000000000000141
 10
9600.522241400302
 20
-4985.648252865186
 30
0.0000000000000141
 10
9600.522202702976
 20
-4985.647500566526
 30
0.0000000000000222
 10
9600.522045055945
 20
-4985.645798632469
 30
0.0000000000000222
 10
9600.52191482949
 20
-4985.644883527816
 30
-0.000000000000002
 10
9600.521499117402
 20
-4985.642499733771
 30
0.0000000000000222
 10
9600.52115425571
 20
-4985.641042601911
 30
-0.000000000000002
 10
9600.519983594773
 20
-4985.636665424351
 30
0.0000000000000061
 10
9600.518897602566
 20
-4985.633601334229
 30
0.0000000000000061
 10
9600.514089413668
 20
-4985.621375274886
 30
0.0000000000000141
 10
9600.508628006284
 20
-4985.611401162131
 30
0.0000000000000222
 10
9600.49744114771
 20
-4985.592467979996
 30
0.0000000000000061
 10
9600.488658192085
 20
-4985.579338815121
 30
0.0000000000000141
 10
9600.47768656461
 20
-4985.564698870052
 30
0.0000000000000141
  0
SPLINE
  5
12D107
330
18
100
AcDbEntity
  8
姿図
100
AcDbSpline
210
0.0
220
0.0
230
1.0
 70
     8
 71
     3
 72
    30
 73
    26
 74
     0
 42
0.000000001
 43
0.0000000001
 40
16.78601875418834
 40
16.78601875418834
 40
16.78601875418834
 40
16.78601875418834
 40
16.8861738330952
 40
16.8861738330952
 40
16.92923784834355
 40
16.92923784834355
 40
16.97230186359191
 40
16.97230186359191
 40
16.98507120521156
 40
16.98507120521156
 40
16.99145587602139
 40
16.99145587602139
 40
16.99784054683122
 40
16.99784054683122
 40
17.00421918246185
 40
17.00421918246185
 40
17.01059781809247
 40
17.01059781809247
 40
17.02335508935372
 40
17.02335508935372
 40
17.06636536445934
 40
17.06636536445934
 40
17.10937563956496
 40
17.10937563956496
 40
17.1954912312313
 40
17.1954912312313
 40
17.1954912312313
 40
17.1954912312313
 10
9599.345299147873
 20
-4984.230308015299
 30
0.0000000000000141
 10
9599.341270919507
 20
-4984.22993898027
 30
-0.000000000000002
 10
9599.337319425367
 20
-4984.229826110433
 30
0.0000000000000061
 10
9599.331855458759
 20
-4984.230587391288
 30
0.0000000000000303
 10
9599.330069104863
 20
-4984.230963089968
 30
0.0000000000000141
 10
9599.326648322674
 20
-4984.232346877378
 30
0.0000000000000141
 10
9599.32499869375
 20
-4984.233273065315
 30
0.0000000000000141
 10
9599.323345933604
 20
-4984.235651451714
 30
-0.000000000000002
 10
9599.322965149466
 20
-4984.236347469296
 30
0.0000000000000141
 10
9599.322557520247
 20
-4984.237650316295
 30
-0.000000000000002
 10
9599.322447359636
 20
-4984.238126023809
 30
0.0000000000000061
 10
9599.322304796036
 20
-4984.239156991185
 30
0.0000000000000303
 10
9599.322271924135
 20
-4984.239711653957
 30
0.0000000000000141
 10
9599.322294822372
 20
-4984.240877056533
 30
0.0000000000000061
 10
9599.322350359256
 20
-4984.241479529147
 30
0.0000000000000061
 10
9599.32253690565
 20
-4984.242689147769
 30
0.0000000000000061
 10
9599.322668380386
 20
-4984.243296199795
 30
-0.000000000000002
 10
9599.32313681693
 20
-4984.245075287425
 30
-0.0000000000000101
 10
9599.32355395078
 20
-4984.246205071558
 30
-0.000000000000002
 10
9599.32533844418
 20
-4984.250450709813
 30
-0.000000000000002
 10
9599.32706084717
 20
-4984.253207517961
 30
-0.000000000000002
 10
9599.330610791638
 20
-4984.258380151785
 30
0.0000000000000141
 10
9599.33245056111
 20
-4984.26072857141
 30
0.0000000000000061
 10
9599.33751627716
 20
-4984.266859850264
 30
0.0000000000000061
 10
9599.34097466013
 20
-4984.270565017763
 30
0.0000000000000061
 10
9599.344486038292
 20
-4984.274124834862
 30
0.0000000000000061
  0
SPLINE
  5
12D108
330
18
100
AcDbEntity
  8
姿図
100
AcDbSpline
210
0.0
220
0.0
230
1.0
 70
     8
 71
     3
 72
    12
 73
     8
 74
     0
 42
0.000000001
 43
0.0000000001
 40
2.214246753416005
 40
2.214246753416005
 40
2.214246753416005
 40
2.214246753416005
 40
2.273337669201671
 40
2.273337669201671
 40
2.651501823638109
 40
2.651501823638109
 40
2.971189770913845
 40
2.971189770913845
 40
2.971189770913845
 40
2.971189770913845
 10
9599.714770664483
 20
-4983.989083159526
 30
0.0000000000000061
 10
9599.713315500658
 20
-4983.993769871624
 30
0.0000000000000061
 10
9599.711904363196
 20
-4983.998512277757
 30
-0.0000000000000101
 10
9599.701814778067
 20
-4984.033853017086
 30
-0.000000000000002
 10
9599.6939489835
 20
-4984.07010473297
 30
0.0000000000000141
 10
9599.683734698925
 20
-4984.139153834585
 30
0.0000000000000141
 10
9599.680697851274
 20
-4984.171635332568
 30
0.0000000000000061
 10
9599.679436491415
 20
-4984.201776359391
 30
0.0000000000000222
  0
SPLINE
  5
12D109
330
18
100
AcDbEntity
  8
姿図
100
AcDbSpline
210
0.0
220
0.0
230
1.0
 70
     8
 71
     3
 72
    12
 73
     8
 74
     0
 42
0.000000001
 43
0.0000000001
 40
2.214246753415932
 40
2.214246753415932
 40
2.214246753415932
 40
2.214246753415932
 40
2.27333766920167
 40
2.27333766920167
 40
2.65150182363811
 40
2.65150182363811
 40
2.971189770913846
 40
2.971189770913846
 40
2.971189770913846
 40
2.971189770913846
 10
9579.68028460131
 20
-4978.082282693654
 30
0.0000000000000141
 10
9579.684499673114
 20
-4978.085732172847
 30
-0.000000000000002
 10
9579.688570143639
 20
-4978.089282432588
 30
0.0000000000000061
 10
9579.717554957104
 20
-4978.116152672784
 30
0.0000000000000061
 10
9579.739430094955
 20
-4978.146124171884
 30
0.0000000000000061
 10
9579.76636308354
 20
-4978.207678483524
 30
0.0000000000000061
 10
9579.773578482054
 20
-4978.2382867884
 30
0.0000000000000061
 10
9579.77551939004
 20
-4978.268123182133
 30
0.0000000000000061
  0
SPLINE
  5
12D10A
330
18
100
AcDbEntity
  8
姿図
100
AcDbSpline
210
0.0
220
0.0
230
1.0
 70
     8
 71
     3
 72
    14
 73
    10
 74
     0
 42
0.000000001
 43
0.0000000001
 40
0.0518711334186413
 40
0.0518711334186413
 40
0.0518711334186413
 40
0.0518711334186413
 40
0.3761852694724612
 40
0.3761852694724612
 40
0.7523705389449225
 40
0.7523705389449225
 40
1.132719326167469
 40
1.132719326167469
 40
1.510190416961686
 40
1.510190416961686
 40
1.510190416961686
 40
1.510190416961686
 10
9579.661043517988
 20
-4978.186177189021
 30
0.0000000000000141
 10
9579.659547432295
 20
-4978.156285214172
 30
0.0000000000000141
 10
9579.65264360044
 20
-4978.125534096643
 30
-0.000000000000002
 10
9579.62621286743
 20
-4978.064468656724
 30
0.0000000000000141
 10
9579.604741923913
 20
-4978.035021924853
 30
0.0000000000000061
 10
9579.555010540527
 20
-4977.989169039097
 30
0.0000000000000141
 10
9579.523341727663
 20
-4977.969819921264
 30
0.0000000000000061
 10
9579.454291357188
 20
-4977.94586013858
 30
0.0000000000000222
 10
9579.416956851675
 20
-4977.941132907067
 30
0.0000000000000222
 10
9579.381933527871
 20
-4977.943067809194
 30
0.0000000000000141
  0
SPLINE
  5
12D10B
330
18
100
AcDbEntity
  8
姿図
100
AcDbSpline
210
0.0
220
0.0
230
1.0
 70
     8
 71
     3
 72
    14
 73
    10
 74
     0
 42
0.000000001
 43
0.0000000001
 40
0.0516007629148517
 40
0.0516007629148517
 40
0.0516007629148517
 40
0.0516007629148517
 40
0.3775999287975693
 40
0.3775999287975693
 40
0.7551998575951386
 40
0.7551998575951386
 40
1.136339040160537
 40
1.136339040160537
 40
1.513620557812546
 40
1.513620557812546
 40
1.513620557812546
 40
1.513620557812546
 10
9574.294043011456
 20
-4983.09773683918
 30
0.0000000000000061
 10
9574.292277552706
 20
-4983.128089356954
 30
0.0000000000000141
 10
9574.28563533978
 20
-4983.160285359941
 30
0.0000000000000141
 10
9574.26104685148
 20
-4983.22644673965
 30
0.0000000000000141
 10
9574.241387701051
 20
-4983.259895212013
 30
0.0000000000000222
 10
9574.19628254838
 20
-4983.314888988122
 30
0.0000000000000141
 10
9574.167777675126
 20
-4983.340003584085
 30
0.0000000000000141
 10
9574.106117286408
 20
-4983.376596414985
 30
0.0000000000000061
 10
9574.073016108921
 20
-4983.388223423233
 30
0.0000000000000061
 10
9574.042105591821
 20
-4983.392901460703
 30
0.0000000000000061
  0
SPLINE
  5
12D10C
330
18
100
AcDbEntity
  8
姿図
100
AcDbSpline
210
0.0
220
0.0
230
1.0
 70
     8
 71
     3
 72
    14
 73
    10
 74
     0
 42
0.000000001
 43
0.0000000001
 40
1.526591127950939
 40
1.526591127950939
 40
1.526591127950939
 40
1.526591127950939
 40
1.903872645602957
 40
1.903872645602957
 40
2.285011828168357
 40
2.285011828168357
 40
2.662611756965921
 40
2.662611756965921
 40
2.988610922850349
 40
2.988610922850349
 40
2.988610922850349
 40
2.988610922850349
 10
9580.163268923036
 20
-4982.820088723095
 30
0.0000000000000061
 10
9580.127946678369
 20
-4982.8216086855
 30
0.0000000000000141
 10
9580.090316003507
 20
-4982.81660069782
 30
0.0000000000000061
 10
9580.020617097978
 20
-4982.792300346772
 30
0.0000000000000061
 10
9579.988610601345
 20
-4982.772848348193
 30
0.0000000000000061
 10
9579.93827940462
 20
-4982.726785416374
 30
0.0000000000000061
 10
9579.916537293699
 20
-4982.697211235311
 30
0.0000000000000061
 10
9579.889751955727
 20
-4982.635857370197
 30
0.0000000000000061
 10
9579.882754093365
 20
-4982.604937792699
 30
0.0000000000000061
 10
9579.881242850735
 20
-4982.57489190557
 30
0.0000000000000061
  0
SPLINE
  5
12D10D
330
18
100
AcDbEntity
  8
姿図
100
AcDbSpline
210
0.0
220
0.0
230
1.0
 70
     8
 71
     3
 72
    16
 73
    12
 74
     0
 42
0.000000001
 43
0.0000000001
 40
7.430778314876192
 40
7.430778314876192
 40
7.430778314876192
 40
7.430778314876192
 40
7.48439642458809
 40
7.48439642458809
 40
8.051682043090178
 40
8.051682043090178
 40
8.618967661592267
 40
8.618967661592267
 40
9.186253280094355
 40
9.186253280094355
 40
9.198233509684796
 40
9.198233509684796
 40
9.198233509684796
 40
9.198233509684796
 10
9565.401545432216
 20
-4985.123910789023
 30
0.0000000000000061
 10
9565.402085593896
 20
-4985.120533226787
 30
0.0000000000000061
 10
9565.40262212651
 20
-4985.117113309697
 30
-0.000000000000002
 10
9565.408788143362
 20
-4985.077008959027
 30
0.0000000000000061
 10
9565.41396416685
 20
-4985.035525148645
 30
0.0000000000000141
 10
9565.42284970755
 20
-4984.945428544552
 30
0.0000000000000061
 10
9565.426564851301
 20
-4984.896740255222
 30
0.0000000000000141
 10
9565.432245658592
 20
-4984.795696003267
 30
-0.000000000000002
 10
9565.434210154592
 20
-4984.743337996961
 30
0.0000000000000061
 10
9565.435346142043
 20
-4984.690272650694
 30
0.0000000000000141
 10
9565.435369296521
 20
-4984.689173794474
 30
0.0000000000000061
 10
9565.435392109363
 20
-4984.688073583291
 30
0.0000000000000061
  0
SPLINE
  5
12D10E
330
18
100
AcDbEntity
  8
姿図
100
AcDbSpline
210
0.0
220
0.0
230
1.0
 70
     8
 71
     1
 72
     9
 73
     7
 74
     0
 42
0.000000001
 43
0.0000000001
 40
8.843010394358767
 40
8.843010394358767
 40
8.844295783825991
 40
8.845581173293212
 40
8.846866562760436
 40
8.848151952227658
 40
8.84943734169488
 40
8.850046236987634
 40
8.850046236987634
 10
9567.525139158659
 20
-4983.68834522059
 30
0.0000000000000141
 10
9567.46208956291
 20
-4983.971704032313
 30
0.0000000000000141
 10
9567.400257168694
 20
-4984.255957531299
 30
0.0000000000000061
 10
9567.339654063086
 20
-4984.541089827767
 30
0.0000000000000141
 10
9567.280292154237
 20
-4984.827084763559
 30
0.0000000000000061
 10
9567.222183165526
 20
-4985.113925915266
 30
0.0000000000000141
 10
9567.195255630215
 20
-4985.250196927896
 30
0.0000000000000061
  0
SPLINE
  5
12D10F
330
18
100
AcDbEntity
  8
姿図
100
AcDbSpline
210
7.530137708234050E-10
220
1.567454266118629E-11
230
-1.0
 70
    12
 71
     2
 72
     6
 73
     3
 74
     0
 42
0.000000001
 43
0.0000000001
 40
3.438957747159619
 40
3.438957747159619
 40
3.438957747159619
 40
27.9798144579688
 40
27.9798144579688
 40
27.9798144579688
 10
9598.603024678643
 20
-4988.32519081241
 30
0.0000000000000061
 41
1.000002949620377
 10
9598.532728321641
 20
-4984.947083485607
 30
0.0000000000000222
 41
1.000012270378906
 10
9598.463001764017
 20
-4981.597380772256
 30
0.0000000000000222
 41
1.000004411873195
  0
ELLIPSE
  5
12D110
330
18
100
AcDbEntity
  8
姿図
100
AcDbEllipse
 10
9599.162517918565
 20
-4976.328386301014
 30
0.0
 11
0.05121854025141364
 21
-0.5092439049548338
 31
8.523401039058717E-17
210
-1.666545791913228E-17
220
1.656974764790396E-16
230
1.0
 40
0.3266547503873757
 41
1.290961286430822
 42
2.861757613225796
  0
LINE
  5
12D111
330
18
100
AcDbEntity
  8
姿図
100
AcDbLine
 10
9600.581200647031
 20
-4976.8710448253
 30
0.0
 11
9599.897029943484
 21
-4976.93506887963
 31
0.0
  0
ELLIPSE
  5
12D112
330
18
100
AcDbEntity
  8
姿図
100
AcDbEllipse
 10
9599.39439476093
 20
-4978.75457103908
 30
0.0
 11
0.03310067962663127
 21
0.04624056676641723
 31
3.156747423222840E-18
210
-3.231153159914879E-17
220
-4.513815278383456E-17
230
1.0
 40
0.9083744652357183
 41
0.6674062465666986
 42
2.67181090378285
  0
ELLIPSE
  5
12D113
330
18
100
AcDbEntity
  8
姿図
100
AcDbEllipse
 10
9599.39439476093
 20
-4978.205278906684
 30
0.0
 11
0.03310067962664066
 21
0.04624056676643044
 31
3.156747423223735E-18
210
-3.231153159914874E-17
220
-4.513815278383449E-17
230
1.0
 40
0.9083744652357183
 41
0.66740624656714
 42
2.671810903783259
  0
LINE
  5
12D114
330
18
100
AcDbEntity
  8
姿図
100
AcDbLine
 10
9599.523142328087
 20
-4978.060294008072
 30
0.0
 11
9599.345865224996
 21
-4977.683606518106
 31
0.0
  0
LINE
  5
12D115
330
18
100
AcDbEntity
  8
姿図
100
AcDbLine
 10
9599.523142328087
 20
-4977.511001875677
 30
0.0
 11
9599.345865224996
 21
-4977.13431438571
 31
0.0
  0
LINE
  5
12D116
330
18
100
AcDbEntity
  8
姿図
100
AcDbLine
 10
9599.523142328087
 20
-4976.961709743277
 30
0.0
 11
9599.337296816348
 21
-4976.566815658716
 31
0.0
  0
ELLIPSE
  5
12D117
330
18
100
AcDbEntity
  8
姿図
100
AcDbEllipse
 10
9599.39439476093
 20
-4977.655986774285
 30
0.0
 11
0.03310067962664066
 21
0.04624056676643044
 31
3.156747423223735E-18
210
-3.231153159914874E-17
220
-4.513815278383449E-17
230
1.0
 40
0.9083744652357183
 41
0.6674062465669841
 42
2.671810903783383
  0
ELLIPSE
  5
12D118
330
18
100
AcDbEntity
  8
姿図
100
AcDbEllipse
 10
9599.39439476093
 20
-4977.10669464189
 30
0.0
 11
0.03310067962664066
 21
0.04624056676643044
 31
3.156747423223735E-18
210
-3.231153159914874E-17
220
-4.513815278383449E-17
230
1.0
 40
0.9083744652357183
 41
0.6674062465673603
 42
2.671810903782924
  0
LINE
  5
12D119
330
18
100
AcDbEntity
  8
姿図
100
AcDbLine
 10
9599.523142328087
 20
-4978.609586140467
 30
0.0
 11
9599.345865224996
 21
-4978.232898650504
 31
0.0
  0
LINE
  5
12D11A
330
18
100
AcDbEntity
  8
姿図
100
AcDbLine
 10
9599.337296816348
 20
-4976.566815658716
 30
0.0
 11
9599.336540544471
 21
-4976.452958026463
 31
0.0
  0
LINE
  5
12D11B
330
18
100
AcDbEntity
  8
姿図
100
AcDbLine
 10
9599.39439476093
 20
-4978.69964182584
 30
0.0
 11
9599.474612792155
 21
-4978.692135097531
 31
0.0
  0
ELLIPSE
  5
12D11C
330
18
100
AcDbEntity
  8
姿図
100
AcDbEllipse
 10
9599.474612792153
 20
-4978.637205884288
 30
0.0
 11
0.03310067962662644
 21
0.04624056676641969
 31
-6.313494846445589E-18
210
6.462306319828894E-17
220
9.027630556767524E-17
230
1.0
 40
0.9083744652357181
 41
3.80899890015702
 42
5.813403557372653
  0
LINE
  5
12D11D
330
18
100
AcDbEntity
  8
姿図
100
AcDbLine
 10
9599.39439476093
 20
-4977.601057561049
 30
0.0
 11
9599.474612792155
 21
-4977.593550832737
 31
0.0
  0
LINE
  5
12D11E
330
18
100
AcDbEntity
  8
姿図
100
AcDbLine
 10
9599.39439476093
 20
-4978.150349693445
 30
0.0
 11
9599.474612792155
 21
-4978.142842965132
 31
0.0
  0
LINE
  5
12D11F
330
18
100
AcDbEntity
  8
姿図
100
AcDbLine
 10
9599.39439476093
 20
-4977.05176542865
 30
0.0
 11
9599.474612792155
 21
-4977.044258700337
 31
0.0
  0
ELLIPSE
  5
12D120
330
18
100
AcDbEntity
  8
姿図
100
AcDbEllipse
 10
9599.474612792153
 20
-4977.538621619497
 30
0.0
 11
0.03310067962662644
 21
0.04624056676641969
 31
-6.313494846445589E-18
210
6.462306319828894E-17
220
9.027630556767524E-17
230
1.0
 40
0.9083744652357181
 41
3.808998900156833
 42
5.813403557372844
  0
ELLIPSE
  5
12D121
330
18
100
AcDbEntity
  8
姿図
100
AcDbEllipse
 10
9599.474612792153
 20
-4978.087913751892
 30
0.0
 11
0.03310067962662644
 21
0.04624056676641969
 31
-6.313494846445589E-18
210
6.462306319828894E-17
220
9.027630556767524E-17
230
1.0
 40
0.9083744652357181
 41
3.808998900156709
 42
5.813403557372572
  0
ELLIPSE
  5
12D122
330
18
100
AcDbEntity
  8
姿図
100
AcDbEllipse
 10
9599.941559534205
 20
-4977.444940048546
 30
0.0
 11
0.04414327837343477
 21
-0.5099059656834992
 31
0.0
210
0.0
220
0.0
230
1.0
 40
0.3301839125655894
 41
3.14388787013195
 42
4.437113948144849
  0
ELLIPSE
  5
12D123
330
18
100
AcDbEntity
  8
姿図
100
AcDbEllipse
 10
9599.474612792153
 20
-4976.989329487102
 30
0.0
 11
0.03310067962662644
 21
0.04624056676641969
 31
-6.313494846445589E-18
210
6.462306319828894E-17
220
9.027630556767524E-17
230
1.0
 40
0.9083744652357181
 41
3.80899890015702
 42
5.813403557372702
  0
LINE
  5
12D124
330
18
100
AcDbEntity
  8
姿図
100
AcDbLine
 10
9600.46734436972
 20
-4977.93710994972
 30
0.0
 11
9600.64462147281
 21
-4978.313797439687
 31
0.0
  0
LINE
  5
12D125
330
18
100
AcDbEntity
  8
姿図
100
AcDbLine
 10
9601.244032739816
 20
-4978.193585694949
 30
0.0
 11
9601.058187228076
 21
-4977.798691610388
 31
0.0
  0
LINE
  5
12D126
330
18
100
AcDbEntity
  8
姿図
100
AcDbLine
 10
9601.115285172657
 20
-4978.283641380319
 30
0.0
 11
9601.195503203884
 21
-4978.276134652008
 31
0.0
  0
ELLIPSE
  5
12D127
330
18
100
AcDbEntity
  8
姿図
100
AcDbEllipse
 10
9601.115285172657
 20
-4978.338570593561
 30
0.0
 11
0.03310067962664066
 21
0.04624056676643044
 31
3.156747423223735E-18
210
-3.231153159914874E-17
220
-4.513815278383449E-17
230
1.0
 40
0.9083744652357183
 41
0.66740624656764
 42
2.671810903783141
  0
LINE
  5
12D128
330
18
100
AcDbEntity
  8
姿図
100
AcDbLine
 10
9600.596091936875
 20
-4978.396346396748
 30
0.0
 11
9600.515873905651
 21
-4978.403853125055
 31
0.0
  0
ELLIPSE
  5
12D129
330
18
100
AcDbEntity
  8
姿図
100
AcDbEllipse
 10
9600.515873905651
 20
-4978.458782338299
 30
0.0
 11
0.03310067962663663
 21
0.0462405667664333
 31
3.156747423223738E-18
210
-3.231153159914479E-17
220
-4.513815278383740E-17
230
1.0
 40
0.908374465235718
 41
0.6674062465667575
 42
2.671810903783107
  0
ELLIPSE
  5
12D12A
330
18
100
AcDbEntity
  8
姿図
100
AcDbEllipse
 10
9600.596091936875
 20
-4978.34141718351
 30
0.0
 11
0.03310067962663108
 21
0.04624056676641634
 31
3.156747423222771E-18
210
-3.231153159914886E-17
220
-4.513815278383399E-17
230
1.0
 40
0.9083744652357181
 41
3.808998900156757
 42
5.813403557372718
  0
ELLIPSE
  5
12D12B
330
18
100
AcDbEntity
  8
姿図
100
AcDbEllipse
 10
9601.19550320388
 20
-4978.221205438773
 30
0.0
 11
0.03310067962662644
 21
0.04624056676641969
 31
-6.313494846445589E-18
210
6.462306319828894E-17
220
9.027630556767524E-17
230
1.0
 40
0.9083744652357181
 41
3.808998900156673
 42
5.813403557372901
  0
LINE
  5
12D12C
330
18
100
AcDbEntity
  8
姿図
100
AcDbLine
 10
9601.058187228076
 20
-4977.798691610388
 30
0.0
 11
9601.057430956198
 21
-4977.684833978131
 31
0.0
  0
LINE
  5
12D12D
330
18
100
AcDbEntity
  8
姿図
100
AcDbLine
 10
9600.458775961068
 20
-4977.36961122273
 30
0.0
 11
9600.64462147281
 21
-4977.764505307287
 31
0.0
  0
LINE
  5
12D12E
330
18
100
AcDbEntity
  8
姿図
100
AcDbLine
 10
9600.596091936875
 20
-4977.847054264351
 30
0.0
 11
9600.515873905651
 21
-4977.85456099266
 31
0.0
  0
LINE
  5
12D12F
330
18
100
AcDbEntity
  8
姿図
100
AcDbLine
 10
9600.458019689193
 20
-4977.255753590473
 30
0.0
 11
9600.458775961068
 21
-4977.36961122273
 31
0.0
  0
LINE
  5
12D130
330
18
100
AcDbEntity
  8
姿図
100
AcDbLine
 10
9600.880126683562
 20
-4977.066206426955
 30
0.0
 11
9600.628760668364
 21
-4976.886269490197
 31
0.0
  0
LINE
  5
12D131
330
18
100
AcDbEntity
  8
姿図
100
AcDbLine
 10
9601.058187228076
 20
-4977.798691610388
 30
0.0
 11
9600.458775961068
 21
-4977.36961122273
 31
0.0
  0
ELLIPSE
  5
12D132
330
18
100
AcDbEntity
  8
姿図
100
AcDbEllipse
 10
9600.883408330294
 20
-4977.560262252681
 30
0.0
 11
0.05121854025141364
 21
-0.5092439049548338
 31
8.523401039058717E-17
210
-1.666545791913228E-17
220
1.656974764790396E-16
230
1.0
 40
0.3266547503873757
 41
1.29096128643083
 42
2.861757613225647
  0
ELLIPSE
  5
12D133
330
18
100
AcDbEntity
  8
姿図
100
AcDbEllipse
 10
9600.515873905651
 20
-4977.909490205903
 30
0.0
 11
0.03310067962663663
 21
0.0462405667664333
 31
3.156747423223738E-18
210
-3.231153159914479E-17
220
-4.513815278383740E-17
230
1.0
 40
0.908374465235718
 41
0.6674062465679877
 42
2.671810903783201
  0
ELLIPSE
  5
12D134
330
18
100
AcDbEntity
  8
姿図
100
AcDbEllipse
 10
9600.596091936875
 20
-4977.792125051112
 30
0.0
 11
0.03310067962663108
 21
0.04624056676641634
 31
3.156747423222771E-18
210
-3.231153159914886E-17
220
-4.513815278383399E-17
230
1.0
 40
0.9083744652357181
 41
3.808998900156948
 42
5.813403557372959
  0
ELLIPSE
  5
12D135
330
18
100
AcDbEntity
  8
姿図
100
AcDbEllipse
 10
9600.632042315096
 20
-4977.380325315921
 30
0.0
 11
0.05121854025141364
 21
-0.5092439049548338
 31
8.523401039058717E-17
210
-1.666545791913228E-17
220
1.656974764790396E-16
230
1.0
 40
0.3266547503873757
 41
2.861757613225715
 42
4.432553940020625
  0
LINE
  5
12D136
330
18
100
AcDbEntity
  8
姿図
100
AcDbLine
 10
9601.244032739816
 20
-4978.742877827348
 30
0.0
 11
9601.066755636726
 21
-4978.366190337381
 31
0.0
  0
LINE
  5
12D137
330
18
100
AcDbEntity
  8
姿図
100
AcDbLine
 10
9599.159236271833
 20
-4975.834330475287
 30
0.0
 11
9598.907870256637
 21
-4975.654393538526
 31
0.0
  0
ELLIPSE
  5
12D138
330
18
100
AcDbEntity
  8
姿図
100
AcDbEllipse
 10
9598.220669122476
 20
-4976.213064096874
 30
0.0
 11
0.04414327837343477
 21
-0.5099059656834992
 31
0.0
210
0.0
220
0.0
230
1.0
 40
0.3301839125655894
 41
3.143887870131958
 42
4.437113948144826
  0
ELLIPSE
  5
12D139
330
18
100
AcDbEntity
  8
姿図
100
AcDbEllipse
 10
9598.79498349392
 20
-4978.325490651418
 30
0.0
 11
0.0331006796266269
 21
0.04624056676642037
 31
-3.156747423222837E-18
210
3.231153159914450E-17
220
4.513815278383754E-17
230
1.0
 40
0.9083744652357192
 41
0.6674062465669471
 42
2.671810903782859
  0
LINE
  5
12D13A
330
18
100
AcDbEntity
  8
姿図
100
AcDbLine
 10
9598.875201525147
 20
-4978.26305470987
 30
0.0
 11
9598.794983493923
 21
-4978.270561438182
 31
0.0
  0
LINE
  5
12D13B
330
18
100
AcDbEntity
  8
姿図
100
AcDbLine
 10
9598.875201525147
 20
-4976.61517831268
 30
0.0
 11
9598.794983493923
 21
-4976.622685040989
 31
0.0
  0
LINE
  5
12D13C
330
18
100
AcDbEntity
  8
姿図
100
AcDbLine
 10
9598.737129277464
 20
-4976.023877638801
 30
0.0
 11
9598.737885549343
 21
-4976.137735271058
 31
0.0
  0
LINE
  5
12D13D
330
18
100
AcDbEntity
  8
姿図
100
AcDbLine
 10
9598.875201525147
 20
-4977.713762577471
 30
0.0
 11
9598.794983493923
 21
-4977.721269305784
 31
0.0
  0
LINE
  5
12D13E
330
18
100
AcDbEntity
  8
姿図
100
AcDbLine
 10
9598.875201525147
 20
-4977.164470445075
 30
0.0
 11
9598.794983493923
 21
-4977.171977173384
 31
0.0
  0
ELLIPSE
  5
12D13F
330
18
100
AcDbEntity
  8
姿図
100
AcDbEllipse
 10
9598.79498349392
 20
-4977.776198519023
 30
0.0
 11
0.03310067962663634
 21
0.0462405667664335
 31
3.156747423223736E-18
210
-3.231153159914451E-17
220
-4.513815278383755E-17
230
1.0
 40
0.9083744652357192
 41
0.6674062465670006
 42
2.67181090378307
  0
ELLIPSE
  5
12D140
330
18
100
AcDbEntity
  8
姿図
100
AcDbEllipse
 10
9598.79498349392
 20
-4977.226906386628
 30
0.0
 11
0.03310067962663634
 21
0.0462405667664335
 31
3.156747423223736E-18
210
-3.231153159914451E-17
220
-4.513815278383755E-17
230
1.0
 40
0.9083744652357192
 41
0.6674062465671249
 42
2.671810903782978
  0
ELLIPSE
  5
12D141
330
18
100
AcDbEntity
  8
姿図
100
AcDbEllipse
 10
9598.79498349392
 20
-4976.677614254232
 30
0.0
 11
0.03310067962663634
 21
0.0462405667664335
 31
3.156747423223736E-18
210
-3.231153159914451E-17
220
-4.513815278383755E-17
230
1.0
 40
0.9083744652357192
 41
0.6674062465673204
 42
2.671810903783249
  0
LINE
  5
12D142
330
18
100
AcDbEntity
  8
姿図
100
AcDbLine
 10
9598.860310235303
 20
-4975.639168873628
 30
0.0
 11
9598.176139531754
 21
-4975.703192927959
 31
0.0
  0
ELLIPSE
  5
12D143
330
18
100
AcDbEntity
  8
姿図
100
AcDbEllipse
 10
9598.911151903367
 20
-4976.148449364253
 30
0.0
 11
0.05121854025141364
 21
-0.5092439049548338
 31
8.523401039058717E-17
210
-1.666545791913228E-17
220
1.656974764790396E-16
230
1.0
 40
0.3266547503873757
 41
2.861757613225734
 42
4.432553940020584
  0
LINE
  5
12D144
330
18
100
AcDbEntity
  8
姿図
100
AcDbLine
 10
9598.74645395799
 20
-4977.803818262843
 30
0.0
 11
9598.92373106108
 21
-4978.18050575281
 31
0.0
  0
ELLIPSE
  5
12D145
330
18
100
AcDbEntity
  8
姿図
100
AcDbEllipse
 10
9598.875201525147
 20
-4978.208125496631
 30
0.0
 11
0.03310067962663076
 21
0.04624056676641657
 31
3.156747423222791E-18
210
-3.231153159914869E-17
220
-4.513815278383457E-17
230
1.0
 40
0.9083744652357191
 41
3.808998900156817
 42
5.813403557372729
  0
LINE
  5
12D146
330
18
100
AcDbEntity
  8
姿図
100
AcDbLine
 10
9599.337296816348
 20
-4976.566815658716
 30
0.0
 11
9598.737885549343
 21
-4976.137735271058
 31
0.0
  0
LINE
  5
12D147
330
18
100
AcDbEntity
  8
姿図
100
AcDbLine
 10
9598.737885549343
 20
-4976.137735271058
 30
0.0
 11
9598.92373106108
 21
-4976.532629355616
 31
0.0
  0
LINE
  5
12D148
330
18
100
AcDbEntity
  8
姿図
100
AcDbLine
 10
9598.74645395799
 20
-4977.254526130448
 30
0.0
 11
9598.92373106108
 21
-4977.631213620411
 31
0.0
  0
LINE
  5
12D149
330
18
100
AcDbEntity
  8
姿図
100
AcDbLine
 10
9598.74645395799
 20
-4976.705233998049
 30
0.0
 11
9598.92373106108
 21
-4977.081921488015
 31
0.0
  0
ELLIPSE
  5
12D14A
330
18
100
AcDbEntity
  8
姿図
100
AcDbEllipse
 10
9598.875201525147
 20
-4977.658833364235
 30
0.0
 11
0.03310067962663076
 21
0.04624056676641657
 31
3.156747423222791E-18
210
-3.231153159914869E-17
220
-4.513815278383457E-17
230
1.0
 40
0.9083744652357191
 41
3.808998900156848
 42
5.813403557372545
  0
ELLIPSE
  5
12D14B
330
18
100
AcDbEntity
  8
姿図
100
AcDbEllipse
 10
9598.875201525147
 20
-4977.109541231835
 30
0.0
 11
0.03310067962663076
 21
0.04624056676641657
 31
3.156747423222791E-18
210
-3.231153159914869E-17
220
-4.513815278383457E-17
230
1.0
 40
0.9083744652357191
 41
3.808998900156624
 42
5.813403557372816
  0
ELLIPSE
  5
12D14C
330
18
100
AcDbEntity
  8
姿図
100
AcDbEllipse
 10
9598.875201525147
 20
-4976.56024909944
 30
0.0
 11
0.03310067962663076
 21
0.04624056676641657
 31
3.156747423222791E-18
210
-3.231153159914869E-17
220
-4.513815278383457E-17
230
1.0
 40
0.9083744652357191
 41
3.808998900157184
 42
5.813403557372866
  0
LINE
  5
12D14D
330
18
100
AcDbEntity
  8
姿図
100
AcDbLine
 10
9598.74645395799
 20
-4978.353110395239
 30
0.0
 11
9598.92373106108
 21
-4978.729797885206
 31
0.0
  0
LINE
  5
12D14E
330
18
100
AcDbEntity
  8
姿図
100
AcDbLine
 10
9599.39439476093
 20
-4979.248933958235
 30
0.0
 11
9599.474612792155
 21
-4979.241427229927
 31
0.0
  0
LINE
  5
12D14F
330
18
100
AcDbEntity
  8
姿図
100
AcDbLine
 10
9601.244032739816
 20
-4979.292169959744
 30
0.0
 11
9601.066755636726
 21
-4978.915482469777
 31
0.0
  0
LINE
  5
12D150
330
18
100
AcDbEntity
  8
姿図
100
AcDbLine
 10
9600.46734436972
 20
-4979.035694214514
 30
0.0
 11
9600.64462147281
 21
-4979.412381704481
 31
0.0
  0
LINE
  5
12D151
330
18
100
AcDbEntity
  8
姿図
100
AcDbLine
 10
9598.74645395799
 20
-4978.902402527638
 30
0.0
 11
9598.92373106108
 21
-4979.279090017601
 31
0.0
  0
LINE
  5
12D152
330
18
100
AcDbEntity
  8
姿図
100
AcDbLine
 10
9599.523142328087
 20
-4985.201091729235
 30
0.0
 11
9599.358019889805
 21
-4984.850231095065
 31
0.0
  0
LINE
  5
12D153
330
18
100
AcDbEntity
  8
姿図
100
AcDbLine
 10
9601.244032739816
 20
-4985.334383416108
 30
0.0
 11
9601.066755636726
 21
-4984.957695926145
 31
0.0
  0
LINE
  5
12D154
330
18
100
AcDbEntity
  8
姿図
100
AcDbLine
 10
9600.467713776246
 20
-4985.078692604839
 30
0.0
 11
9600.64462147281
 21
-4985.454595160845
 31
0.0
  0
ELLIPSE
  5
12D155
330
18
100
AcDbEntity
  8
姿図
100
AcDbEllipse
 10
9584.715285604583
 20
-4774.291499799731
 30
0.0
 11
-3.894316824764186
 21
-394.6539087303105
 31
-2.190875937283286E-14
210
-5.477393773410843E-19
220
-5.550844883974058E-17
230
1.0
 40
0.0509529088182855
 41
1.005428428192962
 42
1.010474847289326
  0
LINE
  5
12D156
330
18
100
AcDbEntity
  8
姿図
100
AcDbLine
 10
9600.601231006052
 20
-4986.596120640091
 30
0.0
 11
9599.576431097945
 21
-4985.86253159022
 31
0.0
  0
ELLIPSE
  5
12D157
330
18
100
AcDbEntity
  8
姿図
100
AcDbEllipse
 10
9583.840672309334
 20
-4951.63737598605
 30
0.0
 11
-16.90397109709704
 21
34.56738476522219
 31
-1.068012163356273E-15
210
-1.219306866792505E-17
220
2.493393378939953E-17
230
1.0
 40
0.0898112888334005
 41
2.866072935780159
 42
2.880426324101852
  0
ELLIPSE
  5
12D158
330
18
100
AcDbEntity
  8
姿図
100
AcDbEllipse
 10
9598.875201525147
 20
-4985.348923217792
 30
0.0
 11
0.03310067962663076
 21
0.04624056676641657
 31
3.156747423222791E-18
210
-3.231153159914869E-17
220
-4.513815278383457E-17
230
1.0
 40
0.9083744652357191
 41
5.379795226951904
 42
5.813403557372927
  0
ELLIPSE
  5
12D159
330
18
100
AcDbEntity
  8
姿図
100
AcDbEllipse
 10
9599.474612792153
 20
-4985.228711473054
 30
0.0
 11
0.0331006796266243
 21
0.0462405667664167
 31
0.0
210
0.0
220
0.0
230
1.0
 40
0.9083744652357186
 41
3.808998900156733
 42
5.813403557372704
  0
LINE
  5
12D15A
330
18
100
AcDbEntity
  8
姿図
100
AcDbLine
 10
9599.39439476093
 20
-4985.291147414603
 30
0.0
 11
9599.474612792155
 21
-4985.283640686291
 31
0.0
  0
LINE
  5
12D15B
330
18
100
AcDbEntity
  8
姿図
100
AcDbLine
 10
9599.369805072738
 20
-4985.424564994329
 30
0.0
 11
9599.36727514024
 21
-4985.301272018681
 31
0.0
  0
LINE
  5
12D15C
330
18
100
AcDbEntity
  8
姿図
100
AcDbLine
 10
9599.496404764222
 20
-4985.693570513232
 30
0.0
 11
9599.369805075026
 21
-4985.424564994065
 31
0.0
  0
ELLIPSE
  5
12D15D
330
18
100
AcDbEntity
  8
姿図
100
AcDbEllipse
 10
9599.576431097945
 20
-4985.725208557123
 30
0.0
 11
-0.01324600816490776
 21
0.1415488416028186
 31
-7.891868558057537E-18
210
-5.172084878144070E-18
220
5.526967929193043E-17
230
1.0
 40
0.3284334526200731
 41
1.936727186806237
 42
2.86402240480802
  0
ELLIPSE
  5
12D15E
330
18
100
AcDbEntity
  8
姿図
100
AcDbEllipse
 10
9599.39439476093
 20
-4985.346076627843
 30
0.0
 11
0.03310067962663127
 21
0.04624056676641723
 31
3.156747423222840E-18
210
-3.231153159914879E-17
220
-4.513815278383456E-17
230
1.0
 40
0.9083744652357183
 41
0.6674062465667715
 42
1.199235524511626
  0
ELLIPSE
  5
12D15F
330
18
100
AcDbEntity
  8
姿図
100
AcDbEllipse
 10
9599.544744382527
 20
-4985.728173770303
 30
0.0
 11
0.07482858997925201
 21
-0.1353651220991864
 31
8.585950183673096E-18
210
-2.685589719099226E-17
220
4.858239081278762E-17
230
1.0
 40
0.1762382375576921
 41
4.358020013766092
 42
4.80466361244018
  0
LINE
  5
12D160
330
18
100
AcDbEntity
  8
姿図
100
AcDbLine
 10
9601.244032739816
 20
-4985.883675548506
 30
0.0
 11
9601.066755636726
 21
-4985.506988058543
 31
0.0
  0
LINE
  5
12D161
330
18
100
AcDbEntity
  8
姿図
100
AcDbLine
 10
9601.244032739816
 20
-4986.982259813301
 30
0.0
 11
9601.066755636726
 21
-4986.605572323335
 31
0.0
  0
LINE
  5
12D162
330
18
100
AcDbEntity
  8
姿図
100
AcDbLine
 10
9601.244032739816
 20
-4986.432967680906
 30
0.0
 11
9601.066755636726
 21
-4986.056280190939
 31
0.0
  0
ELLIPSE
  5
12D163
330
18
100
AcDbEntity
  8
姿図
100
AcDbEllipse
 10
9601.115285172657
 20
-4986.028660447118
 30
0.0
 11
0.03310067962663127
 21
0.04624056676641723
 31
3.156747423222840E-18
210
-3.231153159914879E-17
220
-4.513815278383456E-17
230
1.0
 40
0.9083744652357183
 41
0.6674062465671117
 42
2.671810903782999
  0
ELLIPSE
  5
12D164
330
18
100
AcDbEntity
  8
姿図
100
AcDbEllipse
 10
9601.115285172657
 20
-4986.577952579514
 30
0.0
 11
0.03310067962663127
 21
0.04624056676641723
 31
3.156747423222840E-18
210
-3.231153159914879E-17
220
-4.513815278383456E-17
230
1.0
 40
0.9083744652357183
 41
0.6674062465671138
 42
2.671810903782835
  0
ELLIPSE
  5
12D165
330
18
100
AcDbEntity
  8
姿図
100
AcDbEllipse
 10
9601.115285172657
 20
-4985.47936831472
 30
0.0
 11
0.03310067962663127
 21
0.04624056676641723
 31
3.156747423222840E-18
210
-3.231153159914879E-17
220
-4.513815278383456E-17
230
1.0
 40
0.9083744652357183
 41
0.6674062465672714
 42
2.671810903782924
  0
LINE
  5
12D166
330
18
100
AcDbEntity
  8
姿図
100
AcDbLine
 10
9600.479499034527
 20
-4985.653026659079
 30
0.0
 11
9600.64462147281
 21
-4986.003887293241
 31
0.0
  0
LINE
  5
12D167
330
18
100
AcDbEntity
  8
姿図
100
AcDbLine
 10
9600.488754284963
 20
-4986.104067582694
 30
0.0
 11
9600.49128421746
 21
-4986.227360558339
 31
0.0
  0
LINE
  5
12D168
330
18
100
AcDbEntity
  8
姿図
100
AcDbLine
 10
9600.596091936875
 20
-4986.086436250304
 30
0.0
 11
9600.515873905651
 21
-4986.093942978614
 31
0.0
  0
LINE
  5
12D169
330
18
100
AcDbEntity
  8
姿図
100
AcDbLine
 10
9600.47768656417
 20
-4985.564698870105
 30
0.0
 11
9600.479499032694
 21
-4985.653026659289
 31
0.0
  0
LINE
  5
12D16A
330
18
100
AcDbEntity
  8
姿図
100
AcDbLine
 10
9600.596091936875
 20
-4985.537144117909
 30
0.0
 11
9600.515873905651
 21
-4985.544650846218
 31
0.0
  0
LINE
  5
12D16B
330
18
100
AcDbEntity
  8
姿図
100
AcDbLine
 10
9600.491284219748
 20
-4986.227360558075
 30
0.0
 11
9600.617883908943
 21
-4986.496366077246
 31
0.0
  0
ELLIPSE
  5
12D16C
330
18
100
AcDbEntity
  8
姿図
100
AcDbEllipse
 10
9600.515873905651
 20
-4986.148872191857
 30
0.0
 11
0.03310067962662729
 21
0.04624056676642016
 31
3.156747423222843E-18
210
-3.231153159914464E-17
220
-4.513815278383751E-17
230
1.0
 40
0.9083744652357179
 41
0.6674062465669202
 42
1.199235524648299
  0
ELLIPSE
  5
12D16D
330
18
100
AcDbEntity
  8
姿図
100
AcDbEllipse
 10
9600.596091936875
 20
-4986.031507037064
 30
0.0
 11
0.03310067962662899
 21
0.04624056676641338
 31
6.313494846445178E-18
210
-6.462306319829825E-17
220
-9.027630556766848E-17
230
1.0
 40
0.9083744652357175
 41
3.808998900156816
 42
5.813403557372785
  0
ELLIPSE
  5
12D16E
330
18
100
AcDbEntity
  8
姿図
100
AcDbEllipse
 10
9600.601231006052
 20
-4986.458797606993
 30
0.0
 11
-0.01324600816490776
 21
0.1415488416028186
 31
-7.891868558057537E-18
210
-5.172084878144070E-18
220
5.526967929193043E-17
230
1.0
 40
0.3284334526200731
 41
2.864022404808038
 42
3.791317622809779
  0
ELLIPSE
  5
12D16F
330
18
100
AcDbEntity
  8
姿図
100
AcDbEllipse
 10
9600.569544290634
 20
-4986.461762820173
 30
0.0
 11
0.07482858997925201
 21
-0.1353651220991864
 31
8.585950183673096E-18
210
-2.685589719099226E-17
220
4.858239081278762E-17
230
1.0
 40
0.1762382375576921
 41
0.7697837615025532
 42
1.216427360176595
  0
ELLIPSE
  5
12D170
330
18
100
AcDbEntity
  8
姿図
100
AcDbEllipse
 10
9583.840672309334
 20
-4951.63737598605
 30
0.0
 11
-16.90397109709704
 21
34.56738476522219
 31
-1.068012163356273E-15
210
-1.219306866792505E-17
220
2.493393378939953E-17
230
1.0
 40
0.0898112888334005
 41
3.072805797846053
 42
3.087159186167753
  0
ELLIPSE
  5
12D171
330
18
100
AcDbEntity
  8
姿図
100
AcDbEllipse
 10
9600.515873905651
 20
-4985.599580059454
 30
0.0
 11
0.03310067962662729
 21
0.04624056676642016
 31
3.156747423222843E-18
210
-3.231153159914464E-17
220
-4.513815278383751E-17
230
1.0
 40
0.9083744652357179
 41
0.6674062465669227
 42
1.462696070731774
  0
ELLIPSE
  5
12D172
330
18
100
AcDbEntity
  8
姿図
100
AcDbEllipse
 10
9600.596091936875
 20
-4985.482214904666
 30
0.0
 11
0.03310067962662899
 21
0.04624056676641338
 31
6.313494846445178E-18
210
-6.462306319829825E-17
220
-9.027630556766848E-17
230
1.0
 40
0.9083744652357175
 41
3.808998900157097
 42
5.813403557372832
  0
ELLIPSE
  5
12D173
330
18
100
AcDbEntity
  8
姿図
100
AcDbEllipse
 10
9583.840164456351
 20
-4951.087004741558
 30
0.0
 11
-16.89223248890911
 21
34.54338016988132
 31
2.134541009419397E-15
210
2.438613733585006E-17
220
-4.986786757879896E-17
230
1.0
 40
0.0898112888334004
 41
3.072872848347417
 42
3.080408125087992
  0
LINE
  5
12D174
330
18
100
AcDbEntity
  8
姿図
100
AcDbLine
 10
9601.115285172657
 20
-4985.973731233876
 30
0.0
 11
9601.195503203884
 21
-4985.966224505567
 31
0.0
  0
LINE
  5
12D175
330
18
100
AcDbEntity
  8
姿図
100
AcDbLine
 10
9601.115285172657
 20
-4985.42443910148
 30
0.0
 11
9601.195503203884
 21
-4985.416932373171
 31
0.0
  0
LINE
  5
12D176
330
18
100
AcDbEntity
  8
姿図
100
AcDbLine
 10
9601.115285172657
 20
-4986.523023366271
 30
0.0
 11
9601.195503203884
 21
-4986.515516637962
 31
0.0
  0
ELLIPSE
  5
12D177
330
18
100
AcDbEntity
  8
姿図
100
AcDbEllipse
 10
9601.19550320388
 20
-4985.911295292331
 30
0.0
 11
0.0331006796266243
 21
0.0462405667664167
 31
0.0
210
0.0
220
0.0
230
1.0
 40
0.9083744652357186
 41
3.808998900156633
 42
5.813403557372653
  0
ELLIPSE
  5
12D178
330
18
100
AcDbEntity
  8
姿図
100
AcDbEllipse
 10
9601.19550320388
 20
-4986.460587424725
 30
0.0
 11
0.0331006796266243
 21
0.0462405667664167
 31
0.0
210
0.0
220
0.0
230
1.0
 40
0.9083744652357186
 41
3.808998900156507
 42
5.813403557372811
  0
ELLIPSE
  5
12D179
330
18
100
AcDbEntity
  8
姿図
100
AcDbEllipse
 10
9601.19550320388
 20
-4987.009879557121
 30
0.0
 11
0.03310067962662644
 21
0.04624056676641969
 31
-6.313494846445589E-18
210
6.462306319828894E-17
220
9.027630556767524E-17
230
1.0
 40
0.9083744652357181
 41
5.379795226951762
 42
5.813403557372785
  0
ELLIPSE
  5
12D17A
330
18
100
AcDbEntity
  8
姿図
100
AcDbEllipse
 10
9601.19550320388
 20
-4985.362003159935
 30
0.0
 11
0.0331006796266243
 21
0.0462405667664167
 31
0.0
210
0.0
220
0.0
230
1.0
 40
0.9083744652357186
 41
3.808998900156414
 42
5.813403557372719
  0
LINE
  5
12D17B
330
18
100
AcDbEntity
  8
姿図
100
AcDbLine
 10
9599.523142328087
 20
-4981.356046802452
 30
0.0
 11
9599.345865224996
 21
-4980.979359312489
 31
0.0
  0
LINE
  5
12D17C
330
18
100
AcDbEntity
  8
姿図
100
AcDbLine
 10
9599.523142328087
 20
-4979.708170405265
 30
0.0
 11
9599.345865224996
 21
-4979.331482915299
 31
0.0
  0
LINE
  5
12D17D
330
18
100
AcDbEntity
  8
姿図
100
AcDbLine
 10
9599.523142328087
 20
-4980.257462537661
 30
0.0
 11
9599.345865224996
 21
-4979.880775047694
 31
0.0
  0
LINE
  5
12D17E
330
18
100
AcDbEntity
  8
姿図
100
AcDbLine
 10
9599.523142328087
 20
-4980.806754670057
 30
0.0
 11
9599.345865224996
 21
-4980.43006718009
 31
0.0
  0
LINE
  5
12D17F
330
18
100
AcDbEntity
  8
姿図
100
AcDbLine
 10
9599.523142328087
 20
-4984.651799596835
 30
0.0
 11
9599.346234631523
 21
-4984.275897040826
 31
0.0
  0
LINE
  5
12D180
330
18
100
AcDbEntity
  8
姿図
100
AcDbLine
 10
9599.523142328087
 20
-4983.003923199645
 30
0.0
 11
9599.345865224996
 21
-4982.627235709679
 31
0.0
  0
LINE
  5
12D181
330
18
100
AcDbEntity
  8
姿図
100
AcDbLine
 10
9599.523142328087
 20
-4983.553215332041
 30
0.0
 11
9599.345865224996
 21
-4983.176527842078
 31
0.0
  0
LINE
  5
12D182
330
18
100
AcDbEntity
  8
姿図
100
AcDbLine
 10
9599.523142328087
 20
-4984.102507464439
 30
0.0
 11
9599.345865224996
 21
-4983.725819974474
 31
0.0
  0
LINE
  5
12D183
330
18
100
AcDbEntity
  8
姿図
100
AcDbLine
 10
9599.523142328087
 20
-4982.454631067249
 30
0.0
 11
9599.345865224996
 21
-4982.077943577284
 31
0.0
  0
LINE
  5
12D184
330
18
100
AcDbEntity
  8
姿図
100
AcDbLine
 10
9599.523142328087
 20
-4981.905338934851
 30
0.0
 11
9599.345865224996
 21
-4981.528651444888
 31
0.0
  0
ELLIPSE
  5
12D185
330
18
100
AcDbEntity
  8
姿図
100
AcDbEllipse
 10
9599.39439476093
 20
-4984.247492363052
 30
0.0
 11
0.03310067962663127
 21
0.04624056676641723
 31
3.156747423222840E-18
210
-3.231153159914879E-17
220
-4.513815278383456E-17
230
1.0
 40
0.9083744652357183
 41
0.6674062465669873
 42
1.830516517602442
  0
ELLIPSE
  5
12D186
330
18
100
AcDbEntity
  8
姿図
100
AcDbEllipse
 10
9599.39439476093
 20
-4984.796784495447
 30
0.0
 11
0.03310067962663127
 21
0.04624056676641723
 31
3.156747423222840E-18
210
-3.231153159914879E-17
220
-4.513815278383456E-17
230
1.0
 40
0.9083744652357183
 41
0.6674062465667715
 42
1.46269607064669
  0
ELLIPSE
  5
12D187
330
18
100
AcDbEntity
  8
姿図
100
AcDbEllipse
 10
9599.39439476093
 20
-4980.951739568672
 30
0.0
 11
0.03310067962663127
 21
0.04624056676641723
 31
3.156747423222840E-18
210
-3.231153159914879E-17
220
-4.513815278383456E-17
230
1.0
 40
0.9083744652357183
 41
0.6674062465669873
 42
2.671810903782851
  0
ELLIPSE
  5
12D188
330
18
100
AcDbEntity
  8
姿図
100
AcDbEllipse
 10
9599.39439476093
 20
-4982.599615965859
 30
0.0
 11
0.03310067962663127
 21
0.04624056676641723
 31
3.156747423222840E-18
210
-3.231153159914879E-17
220
-4.513815278383456E-17
230
1.0
 40
0.9083744652357183
 41
0.6674062465668904
 42
2.671810903783141
  0
ELLIPSE
  5
12D189
330
18
100
AcDbEntity
  8
姿図
100
AcDbEllipse
 10
9599.39439476093
 20
-4983.148908098254
 30
0.0
 11
0.03310067962663127
 21
0.04624056676641723
 31
3.156747423222840E-18
210
-3.231153159914879E-17
220
-4.513815278383456E-17
230
1.0
 40
0.9083744652357183
 41
0.6674062465668275
 42
2.671810903782999
  0
ELLIPSE
  5
12D18A
330
18
100
AcDbEntity
  8
姿図
100
AcDbEllipse
 10
9599.39439476093
 20
-4983.698200230657
 30
0.0
 11
0.03310067962663127
 21
0.04624056676641723
 31
3.156747423222840E-18
210
-3.231153159914879E-17
220
-4.513815278383456E-17
230
1.0
 40
0.9083744652357183
 41
0.6674062465667715
 42
2.671810903782776
  0
ELLIPSE
  5
12D18B
330
18
100
AcDbEntity
  8
姿図
100
AcDbEllipse
 10
9599.39439476093
 20
-4981.501031701067
 30
0.0
 11
0.03310067962663127
 21
0.04624056676641723
 31
3.156747423222840E-18
210
-3.231153159914879E-17
220
-4.513815278383456E-17
230
1.0
 40
0.9083744652357183
 41
0.6674062465671117
 42
2.671810903783074
  0
ELLIPSE
  5
12D18C
330
18
100
AcDbEntity
  8
姿図
100
AcDbEllipse
 10
9599.39439476093
 20
-4982.050323833463
 30
0.0
 11
0.03310067962663127
 21
0.04624056676641723
 31
3.156747423222840E-18
210
-3.231153159914879E-17
220
-4.513815278383456E-17
230
1.0
 40
0.9083744652357183
 41
0.6674062465663877
 42
2.671810903782819
  0
ELLIPSE
  5
12D18D
330
18
100
AcDbEntity
  8
姿図
100
AcDbEllipse
 10
9599.39439476093
 20
-4979.303863171479
 30
0.0
 11
0.03310067962663127
 21
0.04624056676641723
 31
3.156747423222840E-18
210
-3.231153159914879E-17
220
-4.513815278383456E-17
230
1.0
 40
0.9083744652357183
 41
0.6674062465670556
 42
2.671810903782919
  0
ELLIPSE
  5
12D18E
330
18
100
AcDbEntity
  8
姿図
100
AcDbEllipse
 10
9599.39439476093
 20
-4979.853155303877
 30
0.0
 11
0.03310067962663127
 21
0.04624056676641723
 31
3.156747423222840E-18
210
-3.231153159914879E-17
220
-4.513815278383456E-17
230
1.0
 40
0.9083744652357183
 41
0.6674062465668229
 42
2.671810903782974
  0
ELLIPSE
  5
12D18F
330
18
100
AcDbEntity
  8
姿図
100
AcDbEllipse
 10
9599.39439476093
 20
-4980.402447436273
 30
0.0
 11
0.03310067962663127
 21
0.04624056676641723
 31
3.156747423222840E-18
210
-3.231153159914879E-17
220
-4.513815278383456E-17
230
1.0
 40
0.9083744652357183
 41
0.6674062465671117
 42
2.671810903783024
  0
LINE
  5
12D190
330
18
100
AcDbEntity
  8
姿図
100
AcDbLine
 10
9599.346234630142
 20
-4984.275897040986
 30
0.0
 11
9599.345299147053
 21
-4984.230308015349
 31
0.0
  0
LINE
  5
12D191
330
18
100
AcDbEntity
  8
姿図
100
AcDbLine
 10
9599.35801988797
 20
-4984.850231095279
 30
0.0
 11
9599.356207419447
 21
-4984.761903306092
 31
0.0
  0
ELLIPSE
  5
12D192
330
18
100
AcDbEntity
  8
姿図
100
AcDbEllipse
 10
9583.839656603368
 20
-4950.536633497071
 30
0.0
 11
-16.88049388072118
 21
34.51937557454037
 31
-2.133057692126255E-15
210
-2.438613733585014E-17
220
4.986786757879906E-17
230
1.0
 40
0.0898112888334005
 41
2.880054474313594
 42
2.880292129410969
  0
ELLIPSE
  5
12D193
330
18
100
AcDbEntity
  8
姿図
100
AcDbEllipse
 10
9583.840164456351
 20
-4951.087004741558
 30
0.0
 11
-16.89223248890911
 21
34.54338016988132
 31
2.134541009419397E-15
210
2.438613733585006E-17
220
-4.986786757879896E-17
230
1.0
 40
0.0898112888334004
 41
2.872823996859904
 42
2.880359273600474
  0
LINE
  5
12D194
330
18
100
AcDbEntity
  8
姿図
100
AcDbLine
 10
9599.39439476093
 20
-4980.896810355428
 30
0.0
 11
9599.474612792155
 21
-4980.88930362712
 31
0.0
  0
LINE
  5
12D195
330
18
100
AcDbEntity
  8
姿図
100
AcDbLine
 10
9599.39439476093
 20
-4981.446102487825
 30
0.0
 11
9599.474612792155
 21
-4981.438595759515
 31
0.0
  0
LINE
  5
12D196
330
18
100
AcDbEntity
  8
姿図
100
AcDbLine
 10
9599.39439476093
 20
-4979.798226090635
 30
0.0
 11
9599.474612792155
 21
-4979.790719362321
 31
0.0
  0
LINE
  5
12D197
330
18
100
AcDbEntity
  8
姿図
100
AcDbLine
 10
9599.39439476093
 20
-4980.347518223033
 30
0.0
 11
9599.474612792155
 21
-4980.340011494721
 31
0.0
  0
LINE
  5
12D198
330
18
100
AcDbEntity
  8
姿図
100
AcDbLine
 10
9599.39439476093
 20
-4984.192563149809
 30
0.0
 11
9599.474612792155
 21
-4984.185056421499
 31
0.0
  0
LINE
  5
12D199
330
18
100
AcDbEntity
  8
姿図
100
AcDbLine
 10
9599.39439476093
 20
-4984.741855282205
 30
0.0
 11
9599.474612792155
 21
-4984.734348553895
 31
0.0
  0
LINE
  5
12D19A
330
18
100
AcDbEntity
  8
姿図
100
AcDbLine
 10
9599.39439476093
 20
-4982.544686752622
 30
0.0
 11
9599.474612792155
 21
-4982.537180024307
 31
0.0
  0
LINE
  5
12D19B
330
18
100
AcDbEntity
  8
姿図
100
AcDbLine
 10
9599.39439476093
 20
-4983.093978885018
 30
0.0
 11
9599.474612792155
 21
-4983.086472156705
 31
0.0
  0
LINE
  5
12D19C
330
18
100
AcDbEntity
  8
姿図
100
AcDbLine
 10
9599.39439476093
 20
-4983.643271017413
 30
0.0
 11
9599.474612792155
 21
-4983.635764289104
 31
0.0
  0
LINE
  5
12D19D
330
18
100
AcDbEntity
  8
姿図
100
AcDbLine
 10
9599.449900290885
 20
-4983.088784729453
 30
0.0
 11
9599.458180821437
 21
-4983.394222955406
 31
0.0
  0
LINE
  5
12D19E
330
18
100
AcDbEntity
  8
姿図
100
AcDbLine
 10
9599.39439476093
 20
-4981.995394620224
 30
0.0
 11
9599.474612792155
 21
-4981.987887891911
 31
0.0
  0
ELLIPSE
  5
12D19F
330
18
100
AcDbEntity
  8
姿図
100
AcDbEllipse
 10
9599.474612792153
 20
-4984.130127208263
 30
0.0
 11
0.0331006796266243
 21
0.0462405667664167
 31
0.0
210
0.0
220
0.0
230
1.0
 40
0.9083744652357186
 41
3.808998900156664
 42
5.813403557372635
  0
ELLIPSE
  5
12D1A0
330
18
100
AcDbEntity
  8
姿図
100
AcDbEllipse
 10
9599.474612792153
 20
-4984.679419340659
 30
0.0
 11
0.0331006796266243
 21
0.0462405667664167
 31
0.0
210
0.0
220
0.0
230
1.0
 40
0.9083744652357186
 41
3.808998900156701
 42
5.813403557372721
  0
ELLIPSE
  5
12D1A1
330
18
100
AcDbEntity
  8
姿図
100
AcDbEllipse
 10
9599.474612792153
 20
-4980.83437441388
 30
0.0
 11
0.03310067962662542
 21
0.04624056676641824
 31
0.0
210
0.0
220
0.0
230
1.0
 40
0.9083744652357184
 41
3.808998900156944
 42
5.813403557372685
  0
ELLIPSE
  5
12D1A2
330
18
100
AcDbEntity
  8
姿図
100
AcDbEllipse
 10
9599.474612792153
 20
-4982.48225081107
 30
0.0
 11
0.03310067962662542
 21
0.04624056676641824
 31
0.0
210
0.0
220
0.0
230
1.0
 40
0.9083744652357184
 41
3.808998900156665
 42
5.813403557372685
  0
ELLIPSE
  5
12D1A3
330
18
100
AcDbEntity
  8
姿図
100
AcDbEllipse
 10
9583.109347776057
 20
-4982.957014902498
 30
0.0
 11
-16.33657804185923
 21
-3.096934598376082E-13
 31
-9.068622542828936E-16
210
-5.551115123125783E-17
220
-1.052328121613186E-30
230
1.0
 40
0.258819045102515
 41
3.173482583937681
 42
3.237425862011138
  0
ELLIPSE
  5
12D1A4
330
18
100
AcDbEntity
  8
姿図
100
AcDbEllipse
 10
9583.109347776057
 20
-4983.423913215036
 30
0.0
 11
-16.34923549676945
 21
-3.112947552725801E-13
 31
-9.075648841766178E-16
210
-5.551115123125783E-17
220
-1.056950353479716E-30
230
1.0
 40
0.258819045102515
 41
3.048817195001321
 42
3.090682397459626
  0
ELLIPSE
  5
12D1A5
330
18
100
AcDbEntity
  8
姿図
100
AcDbEllipse
 10
9583.109347776057
 20
-4983.423913215036
 30
0.0
 11
-16.34923549676945
 21
-3.112947552725801E-13
 31
-9.075648841766178E-16
210
-5.551115123125783E-17
220
-1.056950353479716E-30
230
1.0
 40
0.258819045102515
 41
3.143468445217585
 42
3.219953961483735
  0
ELLIPSE
  5
12D1A6
330
18
100
AcDbEntity
  8
姿図
100
AcDbEllipse
 10
9599.743341130023
 20
-4984.145324112515
 30
0.0
 11
-0.01942166265001118
 21
-0.2837386263060998
 31
1.578751282616195E-17
210
3.790819955422916E-18
220
5.538156367497356E-17
230
1.0
 40
0.163803715364946
 41
3.940366134145706
 42
4.140498290499586
  0
ELLIPSE
  5
12D1A7
330
18
100
AcDbEntity
  8
姿図
100
AcDbEllipse
 10
9599.474612792153
 20
-4983.03154294347
 30
0.0
 11
0.03310067962662542
 21
0.04624056676641824
 31
0.0
210
0.0
220
0.0
230
1.0
 40
0.9083744652357184
 41
3.808998900156953
 42
5.813403557372611
  0
ELLIPSE
  5
12D1A8
330
18
100
AcDbEntity
  8
姿図
100
AcDbEllipse
 10
9599.474612792153
 20
-4983.580835075864
 30
0.0
 11
0.03310067962662542
 21
0.04624056676641824
 31
0.0
210
0.0
220
0.0
230
1.0
 40
0.9083744652357184
 41
3.808998900157146
 42
5.813403557372803
  0
ELLIPSE
  5
12D1A9
330
18
100
AcDbEntity
  8
姿図
100
AcDbEllipse
 10
9599.474612792153
 20
-4981.383666546276
 30
0.0
 11
0.03310067962662542
 21
0.04624056676641824
 31
0.0
210
0.0
220
0.0
230
1.0
 40
0.9083744652357184
 41
3.808998900156944
 42
5.813403557372685
  0
ELLIPSE
  5
12D1AA
330
18
100
AcDbEntity
  8
姿図
100
AcDbEllipse
 10
9599.474612792153
 20
-4981.932958678671
 30
0.0
 11
0.03310067962662542
 21
0.04624056676641824
 31
0.0
210
0.0
220
0.0
230
1.0
 40
0.9083744652357184
 41
3.808998900157137
 42
5.813403557372877
  0
ELLIPSE
  5
12D1AB
330
18
100
AcDbEntity
  8
姿図
100
AcDbEllipse
 10
9599.474612792153
 20
-4979.735790149086
 30
0.0
 11
0.03310067962662542
 21
0.04624056676641824
 31
0.0
210
0.0
220
0.0
230
1.0
 40
0.9083744652357184
 41
3.808998900156944
 42
5.813403557372635
  0
ELLIPSE
  5
12D1AC
330
18
100
AcDbEntity
  8
姿図
100
AcDbEllipse
 10
9599.474612792153
 20
-4980.285082281482
 30
0.0
 11
0.03310067962662542
 21
0.04624056676641824
 31
0.0
210
0.0
220
0.0
230
1.0
 40
0.9083744652357184
 41
3.808998900157069
 42
5.813403557372808
  0
LINE
  5
12D1AD
330
18
100
AcDbEntity
  8
姿図
100
AcDbLine
 10
9601.244032739816
 20
-4980.940046356934
 30
0.0
 11
9601.066755636726
 21
-4980.56335886697
 31
0.0
  0
LINE
  5
12D1AE
330
18
100
AcDbEntity
  8
姿図
100
AcDbLine
 10
9601.244032739816
 20
-4981.489338489332
 30
0.0
 11
9601.066755636726
 21
-4981.112650999366
 31
0.0
  0
LINE
  5
12D1AF
330
18
100
AcDbEntity
  8
姿図
100
AcDbLine
 10
9601.244032739816
 20
-4979.841462092138
 30
0.0
 11
9601.066755636726
 21
-4979.464774602176
 31
0.0
  0
LINE
  5
12D1B0
330
18
100
AcDbEntity
  8
姿図
100
AcDbLine
 10
9601.244032739816
 20
-4980.390754224534
 30
0.0
 11
9601.066755636726
 21
-4980.014066734572
 31
0.0
  0
LINE
  5
12D1B1
330
18
100
AcDbEntity
  8
姿図
100
AcDbLine
 10
9601.244032739816
 20
-4984.235799151316
 30
0.0
 11
9601.066755636726
 21
-4983.85911166135
 31
0.0
  0
LINE
  5
12D1B2
330
18
100
AcDbEntity
  8
姿図
100
AcDbLine
 10
9601.244032739816
 20
-4984.785091283712
 30
0.0
 11
9601.066755636726
 21
-4984.408403793745
 31
0.0
  0
LINE
  5
12D1B3
330
18
100
AcDbEntity
  8
姿図
100
AcDbLine
 10
9601.244032739816
 20
-4982.587922754123
 30
0.0
 11
9601.066755636726
 21
-4982.211235264157
 31
0.0
  0
LINE
  5
12D1B4
330
18
100
AcDbEntity
  8
姿図
100
AcDbLine
 10
9601.244032739816
 20
-4983.137214886518
 30
0.0
 11
9601.066755636726
 21
-4982.760527396556
 31
0.0
  0
LINE
  5
12D1B5
330
18
100
AcDbEntity
  8
姿図
100
AcDbLine
 10
9601.244032739816
 20
-4983.686507018918
 30
0.0
 11
9601.066755636726
 21
-4983.309819528955
 31
0.0
  0
LINE
  5
12D1B6
330
18
100
AcDbEntity
  8
姿図
100
AcDbLine
 10
9601.244032739816
 20
-4982.038630621728
 30
0.0
 11
9601.066755636726
 21
-4981.661943131761
 31
0.0
  0
ELLIPSE
  5
12D1B7
330
18
100
AcDbEntity
  8
姿図
100
AcDbEllipse
 10
9601.115285172657
 20
-4984.380784049925
 30
0.0
 11
0.03310067962663127
 21
0.04624056676641723
 31
3.156747423222840E-18
210
-3.231153159914879E-17
220
-4.513815278383456E-17
230
1.0
 40
0.9083744652357183
 41
0.6674062465674321
 42
2.671810903783085
  0
ELLIPSE
  5
12D1B8
330
18
100
AcDbEntity
  8
姿図
100
AcDbEllipse
 10
9601.115285172657
 20
-4984.930076182324
 30
0.0
 11
0.03310067962663127
 21
0.04624056676641723
 31
3.156747423222840E-18
210
-3.231153159914879E-17
220
-4.513815278383456E-17
230
1.0
 40
0.9083744652357183
 41
0.6674062465669873
 42
2.671810903782875
  0
ELLIPSE
  5
12D1B9
330
18
100
AcDbEntity
  8
姿図
100
AcDbEllipse
 10
9601.115285172657
 20
-4982.732907652739
 30
0.0
 11
0.03310067962663127
 21
0.04624056676641723
 31
3.156747423222840E-18
210
-3.231153159914879E-17
220
-4.513815278383456E-17
230
1.0
 40
0.9083744652357183
 41
0.6674062465671117
 42
2.671810903782999
  0
ELLIPSE
  5
12D1BA
330
18
100
AcDbEntity
  8
姿図
100
AcDbEllipse
 10
9601.115285172657
 20
-4983.282199785134
 30
0.0
 11
0.03310067962663127
 21
0.04624056676641723
 31
3.156747423222840E-18
210
-3.231153159914879E-17
220
-4.513815278383456E-17
230
1.0
 40
0.9083744652357183
 41
0.6674062465669561
 42
2.671810903782844
  0
ELLIPSE
  5
12D1BB
330
18
100
AcDbEntity
  8
姿図
100
AcDbEllipse
 10
9601.115285172657
 20
-4983.83149191753
 30
0.0
 11
0.03310067962663127
 21
0.04624056676641723
 31
3.156747423222840E-18
210
-3.231153159914879E-17
220
-4.513815278383456E-17
230
1.0
 40
0.9083744652357183
 41
0.6674062465670799
 42
2.671810903782968
  0
ELLIPSE
  5
12D1BC
330
18
100
AcDbEntity
  8
姿図
100
AcDbEllipse
 10
9601.115285172657
 20
-4981.085031255545
 30
0.0
 11
0.03310067962663127
 21
0.04624056676641723
 31
3.156747423222840E-18
210
-3.231153159914879E-17
220
-4.513815278383456E-17
230
1.0
 40
0.9083744652357183
 41
0.6674062465670799
 42
2.671810903783017
  0
ELLIPSE
  5
12D1BD
330
18
100
AcDbEntity
  8
姿図
100
AcDbEllipse
 10
9601.115285172657
 20
-4981.634323387941
 30
0.0
 11
0.03310067962663127
 21
0.04624056676641723
 31
3.156747423222840E-18
210
-3.231153159914879E-17
220
-4.513815278383456E-17
230
1.0
 40
0.9083744652357183
 41
0.667406246567148
 42
2.671810903783085
  0
ELLIPSE
  5
12D1BE
330
18
100
AcDbEntity
  8
姿図
100
AcDbEllipse
 10
9601.115285172657
 20
-4982.18361552034
 30
0.0
 11
0.03310067962663127
 21
0.04624056676641723
 31
3.156747423222840E-18
210
-3.231153159914879E-17
220
-4.513815278383456E-17
230
1.0
 40
0.9083744652357183
 41
0.6674062465669873
 42
2.671810903782924
  0
ELLIPSE
  5
12D1BF
330
18
100
AcDbEntity
  8
姿図
100
AcDbEllipse
 10
9601.115285172657
 20
-4979.437154858351
 30
0.0
 11
0.03310067962664066
 21
0.04624056676643044
 31
3.156747423223735E-18
210
-3.231153159914874E-17
220
-4.513815278383449E-17
230
1.0
 40
0.9083744652357183
 41
0.6674062465670405
 42
2.671810903783109
  0
ELLIPSE
  5
12D1C0
330
18
100
AcDbEntity
  8
姿図
100
AcDbEllipse
 10
9601.115285172657
 20
-4979.986446990747
 30
0.0
 11
0.03310067962663127
 21
0.04624056676641723
 31
3.156747423222840E-18
210
-3.231153159914879E-17
220
-4.513815278383456E-17
230
1.0
 40
0.9083744652357183
 41
0.667406246567148
 42
2.671810903783036
  0
ELLIPSE
  5
12D1C1
330
18
100
AcDbEntity
  8
姿図
100
AcDbEllipse
 10
9601.115285172657
 20
-4980.53573912315
 30
0.0
 11
0.03310067962663127
 21
0.04624056676641723
 31
3.156747423222840E-18
210
-3.231153159914879E-17
220
-4.513815278383456E-17
230
1.0
 40
0.9083744652357183
 41
0.6674062465670241
 42
2.671810903782961
  0
LINE
  5
12D1C2
330
18
100
AcDbEntity
  8
姿図
100
AcDbLine
 10
9600.46734436972
 20
-4980.683570611708
 30
0.0
 11
9600.64462147281
 21
-4981.060258101667
 31
0.0
  0
LINE
  5
12D1C3
330
18
100
AcDbEntity
  8
姿図
100
AcDbLine
 10
9600.596091936875
 20
-4981.142807058731
 30
0.0
 11
9600.515873905651
 21
-4981.15031378704
 31
0.0
  0
LINE
  5
12D1C4
330
18
100
AcDbEntity
  8
姿図
100
AcDbLine
 10
9600.596091936875
 20
-4980.593514926336
 30
0.0
 11
9600.515873905651
 21
-4980.601021654645
 31
0.0
  0
LINE
  5
12D1C5
330
18
100
AcDbEntity
  8
姿図
100
AcDbLine
 10
9600.46734436972
 20
-4980.134278479309
 30
0.0
 11
9600.64462147281
 21
-4980.510965969273
 31
0.0
  0
LINE
  5
12D1C6
330
18
100
AcDbEntity
  8
姿図
100
AcDbLine
 10
9600.596091936875
 20
-4980.044222793937
 30
0.0
 11
9600.515873905651
 21
-4980.051729522249
 31
0.0
  0
LINE
  5
12D1C7
330
18
100
AcDbEntity
  8
姿図
100
AcDbLine
 10
9600.46734436972
 20
-4979.58498634691
 30
0.0
 11
9600.64462147281
 21
-4979.961673836877
 31
0.0
  0
LINE
  5
12D1C8
330
18
100
AcDbEntity
  8
姿図
100
AcDbLine
 10
9600.596091936875
 20
-4979.494930661541
 30
0.0
 11
9600.515873905651
 21
-4979.50243738985
 31
0.0
  0
LINE
  5
12D1C9
330
18
100
AcDbEntity
  8
姿図
100
AcDbLine
 10
9600.46734436972
 20
-4983.979323406088
 30
0.0
 11
9600.64462147281
 21
-4984.356010896051
 31
0.0
  0
LINE
  5
12D1CA
330
18
100
AcDbEntity
  8
姿図
100
AcDbLine
 10
9600.466778291773
 20
-4985.033103579359
 30
0.0
 11
9600.467713774864
 21
-4985.078692604996
 31
0.0
  0
LINE
  5
12D1CB
330
18
100
AcDbEntity
  8
姿図
100
AcDbLine
 10
9600.596091936875
 20
-4984.987851985506
 30
0.0
 11
9600.515873905651
 21
-4984.995358713822
 31
0.0
  0
LINE
  5
12D1CC
330
18
100
AcDbEntity
  8
姿図
100
AcDbLine
 10
9600.46734436972
 20
-4984.528615538484
 30
0.0
 11
9600.64462147281
 21
-4984.90530302845
 31
0.0
  0
LINE
  5
12D1CD
330
18
100
AcDbEntity
  8
姿図
100
AcDbLine
 10
9600.596091936875
 20
-4984.438559853111
 30
0.0
 11
9600.515873905651
 21
-4984.446066581424
 31
0.0
  0
LINE
  5
12D1CE
330
18
100
AcDbEntity
  8
姿図
100
AcDbLine
 10
9600.46734436972
 20
-4982.331447008894
 30
0.0
 11
9600.64462147281
 21
-4982.708134498861
 31
0.0
  0
LINE
  5
12D1CF
330
18
100
AcDbEntity
  8
姿図
100
AcDbLine
 10
9600.596091936875
 20
-4983.889267720715
 30
0.0
 11
9600.515873905651
 21
-4983.896774449025
 31
0.0
  0
LINE
  5
12D1D0
330
18
100
AcDbEntity
  8
姿図
100
AcDbLine
 10
9600.46734436972
 20
-4983.430031273689
 30
0.0
 11
9600.64462147281
 21
-4983.806718763652
 31
0.0
  0
LINE
  5
12D1D1
330
18
100
AcDbEntity
  8
姿図
100
AcDbLine
 10
9600.596091936875
 20
-4983.33997558832
 30
0.0
 11
9600.515873905651
 21
-4983.347482316629
 31
0.0
  0
LINE
  5
12D1D2
330
18
100
AcDbEntity
  8
姿図
100
AcDbLine
 10
9600.46734436972
 20
-4982.880739141294
 30
0.0
 11
9600.64462147281
 21
-4983.257426631257
 31
0.0
  0
LINE
  5
12D1D3
330
18
100
AcDbEntity
  8
姿図
100
AcDbLine
 10
9600.596091936875
 20
-4982.790683455924
 30
0.0
 11
9600.515873905651
 21
-4982.798190184233
 31
0.0
  0
LINE
  5
12D1D4
330
18
100
AcDbEntity
  8
姿図
100
AcDbLine
 10
9600.596091936875
 20
-4982.241391323525
 30
0.0
 11
9600.515873905651
 21
-4982.248898051835
 31
0.0
  0
LINE
  5
12D1D5
330
18
100
AcDbEntity
  8
姿図
100
AcDbLine
 10
9600.46734436972
 20
-4981.782154876499
 30
0.0
 11
9600.64462147281
 21
-4982.158842366465
 31
0.0
  0
LINE
  5
12D1D6
330
18
100
AcDbEntity
  8
姿図
100
AcDbLine
 10
9600.596091936875
 20
-4981.692099191127
 30
0.0
 11
9600.515873905651
 21
-4981.699605919439
 31
0.0
  0
LINE
  5
12D1D7
330
18
100
AcDbEntity
  8
姿図
100
AcDbLine
 10
9600.46734436972
 20
-4981.232862744104
 30
0.0
 11
9600.64462147281
 21
-4981.609550234067
 31
0.0
  0
ELLIPSE
  5
12D1D8
330
18
100
AcDbEntity
  8
姿図
100
AcDbEllipse
 10
9600.515873905651
 20
-4985.050287927059
 30
0.0
 11
0.03310067962662729
 21
0.04624056676642016
 31
3.156747423222843E-18
210
-3.231153159914464E-17
220
-4.513815278383751E-17
230
1.0
 40
0.9083744652357179
 41
0.6674062465666386
 42
1.830516517601721
  0
ELLIPSE
  5
12D1D9
330
18
100
AcDbEntity
  8
姿図
100
AcDbEllipse
 10
9600.596091936875
 20
-4984.93292277227
 30
0.0
 11
0.03310067962662899
 21
0.04624056676641338
 31
6.313494846445178E-18
210
-6.462306319829825E-17
220
-9.027630556766848E-17
230
1.0
 40
0.9083744652357175
 41
3.808998900156779
 42
5.813403557372749
  0
ELLIPSE
  5
12D1DA
330
18
100
AcDbEntity
  8
姿図
100
AcDbEllipse
 10
9600.515873905651
 20
-4984.500995794663
 30
0.0
 11
0.03310067962662729
 21
0.04624056676642016
 31
3.156747423222843E-18
210
-3.231153159914464E-17
220
-4.513815278383751E-17
230
1.0
 40
0.9083744652357179
 41
0.6674062465669787
 42
2.671810903782915
  0
ELLIPSE
  5
12D1DB
330
18
100
AcDbEntity
  8
姿図
100
AcDbEllipse
 10
9600.596091936875
 20
-4984.383630639872
 30
0.0
 11
0.03310067962663003
 21
0.0462405667664149
 31
-3.156747423222693E-18
210
3.231153159914905E-17
220
4.513815278383433E-17
230
1.0
 40
0.9083744652357173
 41
3.80899890015719
 42
5.813403557373379
  0
ELLIPSE
  5
12D1DC
330
18
100
AcDbEntity
  8
姿図
100
AcDbEllipse
 10
9583.839656603368
 20
-4950.536633497071
 30
0.0
 11
-16.88049388072118
 21
34.51937557454037
 31
-2.133057692126255E-15
210
-2.438613733585014E-17
220
4.986786757879906E-17
230
1.0
 40
0.0898112888334005
 41
3.072939992536941
 42
3.073177647634316
  0
ELLIPSE
  5
12D1DD
330
18
100
AcDbEntity
  8
姿図
100
AcDbEllipse
 10
9600.515873905651
 20
-4983.951703662267
 30
0.0
 11
0.03310067962662729
 21
0.04624056676642016
 31
3.156747423222843E-18
210
-3.231153159914464E-17
220
-4.513815278383751E-17
230
1.0
 40
0.9083744652357179
 41
0.6674062465666698
 42
2.671810903782841
  0
ELLIPSE
  5
12D1DE
330
18
100
AcDbEntity
  8
姿図
100
AcDbEllipse
 10
9600.596091936875
 20
-4983.834338507476
 30
0.0
 11
0.03310067962663003
 21
0.0462405667664149
 31
-3.156747423222693E-18
210
3.231153159914905E-17
220
4.513815278383433E-17
230
1.0
 40
0.9083744652357173
 41
3.808998900156782
 42
5.813403557372797
  0
ELLIPSE
  5
12D1DF
330
18
100
AcDbEntity
  8
姿図
100
AcDbEllipse
 10
9600.515873905651
 20
-4983.402411529872
 30
0.0
 11
0.03310067962662729
 21
0.04624056676642016
 31
3.156747423222843E-18
210
-3.231153159914464E-17
220
-4.513815278383751E-17
230
1.0
 40
0.9083744652357179
 41
0.6674062465669538
 42
2.671810903782891
  0
ELLIPSE
  5
12D1E0
330
18
100
AcDbEntity
  8
姿図
100
AcDbEllipse
 10
9600.596091936875
 20
-4983.28504637508
 30
0.0
 11
0.03310067962663003
 21
0.0462405667664149
 31
-3.156747423222693E-18
210
3.231153159914905E-17
220
4.513815278383433E-17
230
1.0
 40
0.9083744652357173
 41
3.808998900157067
 42
5.813403557373014
  0
ELLIPSE
  5
12D1E1
330
18
100
AcDbEntity
  8
姿図
100
AcDbEllipse
 10
9600.515873905651
 20
-4982.853119397473
 30
0.0
 11
0.03310067962662729
 21
0.04624056676642016
 31
3.156747423222843E-18
210
-3.231153159914464E-17
220
-4.513815278383751E-17
230
1.0
 40
0.9083744652357179
 41
0.6674062465669787
 42
2.671810903782915
  0
ELLIPSE
  5
12D1E2
330
18
100
AcDbEntity
  8
姿図
100
AcDbEllipse
 10
9600.596091936875
 20
-4982.735754242682
 30
0.0
 11
0.03310067962663003
 21
0.0462405667664149
 31
-3.156747423222693E-18
210
3.231153159914905E-17
220
4.513815278383433E-17
230
1.0
 40
0.9083744652357173
 41
3.808998900156782
 42
5.813403557372797
  0
ELLIPSE
  5
12D1E3
330
18
100
AcDbEntity
  8
姿図
100
AcDbEllipse
 10
9600.515873905651
 20
-4982.303827265077
 30
0.0
 11
0.03310067962662729
 21
0.04624056676642016
 31
3.156747423222843E-18
210
-3.231153159914464E-17
220
-4.513815278383751E-17
230
1.0
 40
0.9083744652357179
 41
0.6674062465668864
 42
2.671810903783139
  0
ELLIPSE
  5
12D1E4
330
18
100
AcDbEntity
  8
姿図
100
AcDbEllipse
 10
9600.596091936875
 20
-4982.186462110286
 30
0.0
 11
0.03310067962663003
 21
0.0462405667664149
 31
-3.156747423222693E-18
210
3.231153159914905E-17
220
4.513815278383433E-17
230
1.0
 40
0.9083744652357173
 41
3.808998900157258
 42
5.81340355737299
  0
ELLIPSE
  5
12D1E5
330
18
100
AcDbEntity
  8
姿図
100
AcDbEllipse
 10
9600.515873905651
 20
-4981.754535132679
 30
0.0
 11
0.03310067962662729
 21
0.04624056676642016
 31
3.156747423222843E-18
210
-3.231153159914464E-17
220
-4.513815278383751E-17
230
1.0
 40
0.9083744652357179
 41
0.6674062465670783
 42
2.671810903783331
  0
ELLIPSE
  5
12D1E6
330
18
100
AcDbEntity
  8
姿図
100
AcDbEllipse
 10
9600.596091936875
 20
-4981.63716997789
 30
0.0
 11
0.03310067962663003
 21
0.0462405667664149
 31
-3.156747423222693E-18
210
3.231153159914905E-17
220
4.513815278383433E-17
230
1.0
 40
0.9083744652357173
 41
3.808998900157067
 42
5.813403557372797
  0
ELLIPSE
  5
12D1E7
330
18
100
AcDbEntity
  8
姿図
100
AcDbEllipse
 10
9600.515873905651
 20
-4981.205243000283
 30
0.0
 11
0.03310067962662729
 21
0.04624056676642016
 31
3.156747423222843E-18
210
-3.231153159914464E-17
220
-4.513815278383751E-17
230
1.0
 40
0.9083744652357179
 41
0.6674062465670099
 42
2.671810903783262
  0
ELLIPSE
  5
12D1E8
330
18
100
AcDbEntity
  8
姿図
100
AcDbEllipse
 10
9600.596091936875
 20
-4981.087877845494
 30
0.0
 11
0.03310067962663003
 21
0.0462405667664149
 31
-3.156747423222693E-18
210
3.231153159914905E-17
220
4.513815278383433E-17
230
1.0
 40
0.9083744652357173
 41
3.808998900156622
 42
5.81340355737292
  0
ELLIPSE
  5
12D1E9
330
18
100
AcDbEntity
  8
姿図
100
AcDbEllipse
 10
9600.515873905651
 20
-4980.655950867884
 30
0.0
 11
0.03310067962662729
 21
0.04624056676642016
 31
3.156747423222843E-18
210
-3.231153159914464E-17
220
-4.513815278383751E-17
230
1.0
 40
0.9083744652357179
 41
0.6674062465666947
 42
2.671810903783231
  0
ELLIPSE
  5
12D1EA
330
18
100
AcDbEntity
  8
姿図
100
AcDbEllipse
 10
9600.596091936875
 20
-4980.538585713092
 30
0.0
 11
0.03310067962663003
 21
0.0462405667664149
 31
-3.156747423222693E-18
210
3.231153159914905E-17
220
4.513815278383433E-17
230
1.0
 40
0.9083744652357173
 41
3.808998900156782
 42
5.813403557372797
  0
ELLIPSE
  5
12D1EB
330
18
100
AcDbEntity
  8
姿図
100
AcDbEllipse
 10
9600.515873905651
 20
-4980.106658735489
 30
0.0
 11
0.03310067962662729
 21
0.04624056676642016
 31
3.156747423222843E-18
210
-3.231153159914464E-17
220
-4.513815278383751E-17
230
1.0
 40
0.9083744652357179
 41
0.6674062465668553
 42
2.671810903783083
  0
ELLIPSE
  5
12D1EC
330
18
100
AcDbEntity
  8
姿図
100
AcDbEllipse
 10
9600.596091936875
 20
-4979.989293580697
 30
0.0
 11
0.03310067962663003
 21
0.0462405667664149
 31
-3.156747423222693E-18
210
3.231153159914905E-17
220
4.513815278383433E-17
230
1.0
 40
0.9083744652357173
 41
3.808998900156777
 42
5.813403557372797
  0
ELLIPSE
  5
12D1ED
330
18
100
AcDbEntity
  8
姿図
100
AcDbEllipse
 10
9600.515873905651
 20
-4979.55736660309
 30
0.0
 11
0.03310067962662729
 21
0.04624056676642016
 31
3.156747423222843E-18
210
-3.231153159914464E-17
220
-4.513815278383751E-17
230
1.0
 40
0.9083744652357179
 41
0.6674062465666901
 42
2.671810903782891
  0
ELLIPSE
  5
12D1EE
330
18
100
AcDbEntity
  8
姿図
100
AcDbEllipse
 10
9600.596091936875
 20
-4979.440001448302
 30
0.0
 11
0.03310067962663108
 21
0.04624056676641634
 31
3.156747423222771E-18
210
-3.231153159914886E-17
220
-4.513815278383399E-17
230
1.0
 40
0.9083744652357181
 41
3.808998900156912
 42
5.813403557372872
  0
LINE
  5
12D1EF
330
18
100
AcDbEntity
  8
姿図
100
AcDbLine
 10
9601.115285172657
 20
-4981.030102042306
 30
0.0
 11
9601.195503203884
 21
-4981.022595313993
 31
0.0
  0
LINE
  5
12D1F0
330
18
100
AcDbEntity
  8
姿図
100
AcDbLine
 10
9601.115285172657
 20
-4979.382225645116
 30
0.0
 11
9601.195503203884
 21
-4979.374718916803
 31
0.0
  0
LINE
  5
12D1F1
330
18
100
AcDbEntity
  8
姿図
100
AcDbLine
 10
9601.115285172657
 20
-4979.931517777512
 30
0.0
 11
9601.195503203884
 21
-4979.924011049202
 31
0.0
  0
LINE
  5
12D1F2
330
18
100
AcDbEntity
  8
姿図
100
AcDbLine
 10
9601.115285172657
 20
-4980.480809909907
 30
0.0
 11
9601.195503203884
 21
-4980.473303181598
 31
0.0
  0
LINE
  5
12D1F3
330
18
100
AcDbEntity
  8
姿図
100
AcDbLine
 10
9601.115285172657
 20
-4984.325854836689
 30
0.0
 11
9601.195503203884
 21
-4984.318348108376
 31
0.0
  0
LINE
  5
12D1F4
330
18
100
AcDbEntity
  8
姿図
100
AcDbLine
 10
9601.115285172657
 20
-4984.875146969085
 30
0.0
 11
9601.195503203884
 21
-4984.867640240775
 31
0.0
  0
LINE
  5
12D1F5
330
18
100
AcDbEntity
  8
姿図
100
AcDbLine
 10
9601.115285172657
 20
-4982.677978439496
 30
0.0
 11
9601.195503203884
 21
-4982.670471711186
 31
0.0
  0
LINE
  5
12D1F6
330
18
100
AcDbEntity
  8
姿図
100
AcDbLine
 10
9601.115285172657
 20
-4983.227270571891
 30
0.0
 11
9601.195503203884
 21
-4983.219763843582
 31
0.0
  0
LINE
  5
12D1F7
330
18
100
AcDbEntity
  8
姿図
100
AcDbLine
 10
9601.115285172657
 20
-4983.77656270429
 30
0.0
 11
9601.195503203884
 21
-4983.769055975979
 31
0.0
  0
LINE
  5
12D1F8
330
18
100
AcDbEntity
  8
姿図
100
AcDbLine
 10
9601.115285172657
 20
-4981.579394174702
 30
0.0
 11
9601.195503203884
 21
-4981.571887446392
 31
0.0
  0
LINE
  5
12D1F9
330
18
100
AcDbEntity
  8
姿図
100
AcDbLine
 10
9601.115285172657
 20
-4982.1286863071
 30
0.0
 11
9601.195503203884
 21
-4982.121179578791
 31
0.0
  0
ELLIPSE
  5
12D1FA
330
18
100
AcDbEntity
  8
姿図
100
AcDbEllipse
 10
9601.19550320388
 20
-4984.263418895137
 30
0.0
 11
0.03310067962662542
 21
0.04624056676641824
 31
0.0
210
0.0
220
0.0
230
1.0
 40
0.9083744652357184
 41
3.808998900157078
 42
5.8134035573731
  0
ELLIPSE
  5
12D1FB
330
18
100
AcDbEntity
  8
姿図
100
AcDbEllipse
 10
9601.19550320388
 20
-4984.812711027533
 30
0.0
 11
0.03310067962662542
 21
0.04624056676641824
 31
0.0
210
0.0
220
0.0
230
1.0
 40
0.9083744652357184
 41
3.808998900156706
 42
5.813403557372963
  0
ELLIPSE
  5
12D1FC
330
18
100
AcDbEntity
  8
姿図
100
AcDbEllipse
 10
9601.19550320388
 20
-4982.615542497943
 30
0.0
 11
0.03310067962662542
 21
0.04624056676641824
 31
0.0
210
0.0
220
0.0
230
1.0
 40
0.9083744652357184
 41
3.808998900156737
 42
5.813403557372994
  0
ELLIPSE
  5
12D1FD
330
18
100
AcDbEntity
  8
姿図
100
AcDbEllipse
 10
9601.19550320388
 20
-4983.16483463034
 30
0.0
 11
0.03310067962662542
 21
0.04624056676641824
 31
0.0
210
0.0
220
0.0
230
1.0
 40
0.9083744652357184
 41
3.808998900157022
 42
5.813403557372752
  0
ELLIPSE
  5
12D1FE
330
18
100
AcDbEntity
  8
姿図
100
AcDbEllipse
 10
9601.19550320388
 20
-4983.714126762741
 30
0.0
 11
0.03310067962662542
 21
0.04624056676641824
 31
0.0
210
0.0
220
0.0
230
1.0
 40
0.9083744652357184
 41
3.808998900156638
 42
5.813403557372579
  0
ELLIPSE
  5
12D1FF
330
18
100
AcDbEntity
  8
姿図
100
AcDbEllipse
 10
9601.19550320388
 20
-4980.967666100757
 30
0.0
 11
0.03310067962662542
 21
0.04624056676641824
 31
0.0
210
0.0
220
0.0
230
1.0
 40
0.9083744652357184
 41
3.808998900156422
 42
5.813403557372648
  0
ELLIPSE
  5
12D200
330
18
100
AcDbEntity
  8
姿図
100
AcDbEllipse
 10
9601.19550320388
 20
-4981.516958233153
 30
0.0
 11
0.03310067962662542
 21
0.04624056676641824
 31
0.0
210
0.0
220
0.0
230
1.0
 40
0.9083744652357184
 41
3.808998900156578
 42
5.813403557372803
  0
ELLIPSE
  5
12D201
330
18
100
AcDbEntity
  8
姿図
100
AcDbEllipse
 10
9601.19550320388
 20
-4982.066250365548
 30
0.0
 11
0.03310067962662542
 21
0.04624056676641824
 31
0.0
210
0.0
220
0.0
230
1.0
 40
0.9083744652357184
 41
3.808998900157022
 42
5.813403557373044
  0
ELLIPSE
  5
12D202
330
18
100
AcDbEntity
  8
姿図
100
AcDbEllipse
 10
9601.19550320388
 20
-4979.319789703563
 30
0.0
 11
0.03310067962662644
 21
0.04624056676641969
 31
-6.313494846445589E-18
210
6.462306319828894E-17
220
9.027630556767524E-17
230
1.0
 40
0.9083744652357181
 41
3.808998900156864
 42
5.813403557372728
  0
ELLIPSE
  5
12D203
330
18
100
AcDbEntity
  8
姿図
100
AcDbEllipse
 10
9601.19550320388
 20
-4979.869081835963
 30
0.0
 11
0.03310067962662644
 21
0.04624056676641969
 31
-6.313494846445589E-18
210
6.462306319828894E-17
220
9.027630556767524E-17
230
1.0
 40
0.9083744652357181
 41
3.808998900156512
 42
5.813403557373049
  0
ELLIPSE
  5
12D204
330
18
100
AcDbEntity
  8
姿図
100
AcDbEllipse
 10
9601.19550320388
 20
-4980.418373968358
 30
0.0
 11
0.03310067962662542
 21
0.04624056676641824
 31
0.0
210
0.0
220
0.0
230
1.0
 40
0.9083744652357184
 41
3.808998900156478
 42
5.813403557372704
  0
LINE
  5
12D205
330
18
100
AcDbEntity
  8
姿図
100
AcDbLine
 10
9597.680115184989
 20
-4982.103312431198
 30
0.0
 11
9597.263225398956
 21
-4982.142324587335
 31
0.0
  0
ELLIPSE
  5
12D206
330
18
100
AcDbEntity
  8
姿図
100
AcDbEllipse
 10
9582.869252506482
 20
-4977.050124241333
 30
0.0
 11
9.833408526597633
 21
27.80045877641116
 31
0.0
210
0.0
220
0.0
230
1.0
 40
0.5306663220532383
 41
4.635006625735985
 42
4.718323401449883
  0
ELLIPSE
  5
12D207
330
18
100
AcDbEntity
  8
姿図
100
AcDbEllipse
 10
9583.36915261761
 20
-4974.709753113659
 30
0.0
 11
9.820493799237434
 21
27.76810889032503
 31
3.269997849935411E-15
210
-3.701743464227722E-17
220
-1.046692943349816E-16
230
1.0
 40
0.5306015190202692
 41
4.552834753258026
 42
4.631677754451532
  0
LINE
  5
12D208
330
18
100
AcDbEntity
  8
姿図
100
AcDbLine
 10
9598.875201525147
 20
-4981.009515371857
 30
0.0
 11
9598.794983493923
 21
-4981.017022100167
 31
0.0
  0
LINE
  5
12D209
330
18
100
AcDbEntity
  8
姿図
100
AcDbLine
 10
9598.875201525147
 20
-4980.460223239455
 30
0.0
 11
9598.794983493923
 21
-4980.467729967767
 31
0.0
  0
LINE
  5
12D20A
330
18
100
AcDbEntity
  8
姿図
100
AcDbLine
 10
9598.875201525147
 20
-4979.91093110706
 30
0.0
 11
9598.794983493923
 21
-4979.918437835369
 31
0.0
  0
LINE
  5
12D20B
330
18
100
AcDbEntity
  8
姿図
100
AcDbLine
 10
9598.875201525147
 20
-4979.361638974664
 30
0.0
 11
9598.794983493923
 21
-4979.369145702974
 31
0.0
  0
LINE
  5
12D20C
330
18
100
AcDbEntity
  8
姿図
100
AcDbLine
 10
9598.875201525147
 20
-4984.854560298633
 30
0.0
 11
9598.794983493923
 21
-4984.862067026942
 31
0.0
  0
LINE
  5
12D20D
330
18
100
AcDbEntity
  8
姿図
100
AcDbLine
 10
9598.875201525147
 20
-4984.305268166238
 30
0.0
 11
9598.794983493923
 21
-4984.312774894547
 31
0.0
  0
LINE
  5
12D20E
330
18
100
AcDbEntity
  8
姿図
100
AcDbLine
 10
9598.875201525147
 20
-4983.755976033838
 30
0.0
 11
9598.794983493923
 21
-4983.76348276215
 31
0.0
  0
LINE
  5
12D20F
330
18
100
AcDbEntity
  8
姿図
100
AcDbLine
 10
9598.875201525147
 20
-4983.20668390144
 30
0.0
 11
9598.794983493923
 21
-4983.214190629752
 31
0.0
  0
LINE
  5
12D210
330
18
100
AcDbEntity
  8
姿図
100
AcDbLine
 10
9598.875201525147
 20
-4982.657391769044
 30
0.0
 11
9598.794983493923
 21
-4982.664898497356
 31
0.0
  0
LINE
  5
12D211
330
18
100
AcDbEntity
  8
姿図
100
AcDbLine
 10
9598.875201525147
 20
-4982.108099636649
 30
0.0
 11
9598.794983493923
 21
-4982.115606364958
 31
0.0
  0
LINE
  5
12D212
330
18
100
AcDbEntity
  8
姿図
100
AcDbLine
 10
9598.875201525147
 20
-4981.558807504253
 30
0.0
 11
9598.794983493923
 21
-4981.566314232562
 31
0.0
  0
ELLIPSE
  5
12D213
330
18
100
AcDbEntity
  8
姿図
100
AcDbEllipse
 10
9598.79498349392
 20
-4984.916996240185
 30
0.0
 11
0.0331006796266269
 21
0.04624056676642037
 31
-3.156747423222837E-18
210
3.231153159914450E-17
220
4.513815278383754E-17
230
1.0
 40
0.9083744652357192
 41
0.6674062465669471
 42
2.671810903782884
  0
ELLIPSE
  5
12D214
330
18
100
AcDbEntity
  8
姿図
100
AcDbEllipse
 10
9598.79498349392
 20
-4984.367704107789
 30
0.0
 11
0.0331006796266269
 21
0.04624056676642037
 31
-3.156747423222837E-18
210
3.231153159914450E-17
220
4.513815278383754E-17
230
1.0
 40
0.9083744652357192
 41
0.6674062465665955
 42
2.671810903782768
  0
ELLIPSE
  5
12D215
330
18
100
AcDbEntity
  8
姿図
100
AcDbEllipse
 10
9598.79498349392
 20
-4983.818411975391
 30
0.0
 11
0.0331006796266269
 21
0.04624056676642037
 31
-3.156747423222837E-18
210
3.231153159914450E-17
220
4.513815278383754E-17
230
1.0
 40
0.9083744652357192
 41
0.6674062465671594
 42
2.671810903782743
  0
ELLIPSE
  5
12D216
330
18
100
AcDbEntity
  8
姿図
100
AcDbEllipse
 10
9598.79498349392
 20
-4983.269119842992
 30
0.0
 11
0.0331006796266269
 21
0.04624056676642037
 31
-3.156747423222837E-18
210
3.231153159914450E-17
220
4.513815278383754E-17
230
1.0
 40
0.9083744652357192
 41
0.6674062465669471
 42
2.67181090378281
  0
ELLIPSE
  5
12D217
330
18
100
AcDbEntity
  8
姿図
100
AcDbEllipse
 10
9598.79498349392
 20
-4982.719827710595
 30
0.0
 11
0.0331006796266269
 21
0.04624056676642037
 31
-3.156747423222837E-18
210
3.231153159914450E-17
220
4.513815278383754E-17
230
1.0
 40
0.9083744652357192
 41
0.6674062465673514
 42
2.671810903782983
  0
ELLIPSE
  5
12D218
330
18
100
AcDbEntity
  8
姿図
100
AcDbEllipse
 10
9598.79498349392
 20
-4982.170535578198
 30
0.0
 11
0.0331006796266269
 21
0.04624056676642037
 31
-3.156747423222837E-18
210
3.231153159914450E-17
220
4.513815278383754E-17
230
1.0
 40
0.9083744652357192
 41
0.6674062465669721
 42
2.671810903782982
  0
ELLIPSE
  5
12D219
330
18
100
AcDbEntity
  8
姿図
100
AcDbEllipse
 10
9598.79498349392
 20
-4981.621243445802
 30
0.0
 11
0.0331006796266269
 21
0.04624056676642037
 31
-3.156747423222837E-18
210
3.231153159914450E-17
220
4.513815278383754E-17
230
1.0
 40
0.9083744652357192
 41
0.667406246567283
 42
2.671810903782915
  0
ELLIPSE
  5
12D21A
330
18
100
AcDbEntity
  8
姿図
100
AcDbEllipse
 10
9598.79498349392
 20
-4981.071951313406
 30
0.0
 11
0.0331006796266269
 21
0.04624056676642037
 31
-3.156747423222837E-18
210
3.231153159914450E-17
220
4.513815278383754E-17
230
1.0
 40
0.9083744652357192
 41
0.6674062465668796
 42
2.671810903782743
  0
ELLIPSE
  5
12D21B
330
18
100
AcDbEntity
  8
姿図
100
AcDbEllipse
 10
9598.79498349392
 20
-4980.522659181007
 30
0.0
 11
0.0331006796266269
 21
0.04624056676642037
 31
-3.156747423222837E-18
210
3.231153159914450E-17
220
4.513815278383754E-17
230
1.0
 40
0.9083744652357192
 41
0.6674062465670032
 42
2.671810903782915
  0
ELLIPSE
  5
12D21C
330
18
100
AcDbEntity
  8
姿図
100
AcDbEllipse
 10
9598.79498349392
 20
-4979.973367048612
 30
0.0
 11
0.0331006796266269
 21
0.04624056676642037
 31
-3.156747423222837E-18
210
3.231153159914450E-17
220
4.513815278383754E-17
230
1.0
 40
0.9083744652357192
 41
0.6674062465670032
 42
2.671810903782866
  0
ELLIPSE
  5
12D21D
330
18
100
AcDbEntity
  8
姿図
100
AcDbEllipse
 10
9598.79498349392
 20
-4979.424074916216
 30
0.0
 11
0.0331006796266269
 21
0.04624056676642037
 31
-3.156747423222837E-18
210
3.231153159914450E-17
220
4.513815278383754E-17
230
1.0
 40
0.9083744652357192
 41
0.6674062465668796
 42
2.671810903783108
  0
ELLIPSE
  5
12D21E
330
18
100
AcDbEntity
  8
姿図
100
AcDbEllipse
 10
9583.109347776057
 20
-4984.797143546031
 30
0.0
 11
-17.90634369497014
 21
-5.138989062236404E-13
 31
9.940017528503677E-16
210
5.551115123125783E-17
220
1.593129249997122E-30
230
1.0
 40
0.2588190451025202
 41
3.729026483883834
 42
3.761863642495804
  0
LINE
  5
12D21F
330
18
100
AcDbEntity
  8
姿図
100
AcDbLine
 10
9598.74645395799
 20
-4984.944615984005
 30
0.0
 11
9598.92373106108
 21
-4985.321303473968
 31
0.0
  0
LINE
  5
12D220
330
18
100
AcDbEntity
  8
姿図
100
AcDbLine
 10
9598.74645395799
 20
-4980.550278924828
 30
0.0
 11
9598.92373106108
 21
-4980.926966414794
 31
0.0
  0
LINE
  5
12D221
330
18
100
AcDbEntity
  8
姿図
100
AcDbLine
 10
9598.74645395799
 20
-4981.099571057223
 30
0.0
 11
9598.92373106108
 21
-4981.47625854719
 31
0.0
  0
LINE
  5
12D222
330
18
100
AcDbEntity
  8
姿図
100
AcDbLine
 10
9598.74645395799
 20
-4980.000986792432
 30
0.0
 11
9598.92373106108
 21
-4980.377674282398
 31
0.0
  0
LINE
  5
12D223
330
18
100
AcDbEntity
  8
姿図
100
AcDbLine
 10
9598.74645395799
 20
-4979.451694660037
 30
0.0
 11
9598.92373106108
 21
-4979.82838215
 31
0.0
  0
LINE
  5
12D224
330
18
100
AcDbEntity
  8
姿図
100
AcDbLine
 10
9598.74645395799
 20
-4983.846031719211
 30
0.0
 11
9598.92373106108
 21
-4984.222719209174
 31
0.0
  0
LINE
  5
12D225
330
18
100
AcDbEntity
  8
姿図
100
AcDbLine
 10
9598.74645395799
 20
-4984.395323851607
 30
0.0
 11
9598.92373106108
 21
-4984.772011341573
 31
0.0
  0
LINE
  5
12D226
330
18
100
AcDbEntity
  8
姿図
100
AcDbLine
 10
9598.74645395799
 20
-4982.19815532202
 30
0.0
 11
9598.92373106108
 21
-4982.574842811984
 31
0.0
  0
LINE
  5
12D227
330
18
100
AcDbEntity
  8
姿図
100
AcDbLine
 10
9598.74645395799
 20
-4983.296739586813
 30
0.0
 11
9598.92373106108
 21
-4983.673427076778
 31
0.0
  0
LINE
  5
12D228
330
18
100
AcDbEntity
  8
姿図
100
AcDbLine
 10
9598.74645395799
 20
-4982.747447454417
 30
0.0
 11
9598.92373106108
 21
-4983.124134944384
 31
0.0
  0
LINE
  5
12D229
330
18
100
AcDbEntity
  8
姿図
100
AcDbLine
 10
9598.74645395799
 20
-4981.648863189623
 30
0.0
 11
9598.92373106108
 21
-4982.025550679586
 31
0.0
  0
ELLIPSE
  5
12D22A
330
18
100
AcDbEntity
  8
姿図
100
AcDbEllipse
 10
9598.875201525147
 20
-4984.799631085397
 30
0.0
 11
0.03310067962662866
 21
0.04624056676641355
 31
3.156747423222565E-18
210
-3.231153159914850E-17
220
-4.513815278383422E-17
230
1.0
 40
0.9083744652357186
 41
3.808998900156581
 42
5.813403557372885
  0
ELLIPSE
  5
12D22B
330
18
100
AcDbEntity
  8
姿図
100
AcDbEllipse
 10
9598.875201525147
 20
-4984.250338952998
 30
0.0
 11
0.03310067962662866
 21
0.04624056676641355
 31
3.156747423222565E-18
210
-3.231153159914850E-17
220
-4.513815278383422E-17
230
1.0
 40
0.9083744652357186
 41
3.808998900156897
 42
5.813403557372916
  0
ELLIPSE
  5
12D22C
330
18
100
AcDbEntity
  8
姿図
100
AcDbEllipse
 10
9598.875201525147
 20
-4983.701046820598
 30
0.0
 11
0.03310067962662866
 21
0.04624056676641355
 31
3.156747423222565E-18
210
-3.231153159914850E-17
220
-4.513815278383422E-17
230
1.0
 40
0.9083744652357186
 41
3.808998900156773
 42
5.813403557372792
  0
ELLIPSE
  5
12D22D
330
18
100
AcDbEntity
  8
姿図
100
AcDbEllipse
 10
9598.875201525147
 20
-4983.151754688203
 30
0.0
 11
0.03310067962662975
 21
0.04624056676641511
 31
3.156747423222691E-18
210
-3.231153159914858E-17
220
-4.513815278383462E-17
230
1.0
 40
0.9083744652357182
 41
3.808998900156934
 42
5.813403557373269
  0
ELLIPSE
  5
12D22E
330
18
100
AcDbEntity
  8
姿図
100
AcDbEllipse
 10
9598.875201525147
 20
-4982.602462555808
 30
0.0
 11
0.03310067962662975
 21
0.04624056676641511
 31
3.156747423222691E-18
210
-3.231153159914858E-17
220
-4.513815278383462E-17
230
1.0
 40
0.9083744652357182
 41
3.808998900156452
 42
5.81340355737276
  0
ELLIPSE
  5
12D22F
330
18
100
AcDbEntity
  8
姿図
100
AcDbEllipse
 10
9598.875201525147
 20
-4982.053170423405
 30
0.0
 11
0.03310067962662975
 21
0.04624056676641511
 31
3.156747423222691E-18
210
-3.231153159914858E-17
220
-4.513815278383462E-17
230
1.0
 40
0.9083744652357182
 41
3.808998900156965
 42
5.813403557372935
  0
ELLIPSE
  5
12D230
330
18
100
AcDbEntity
  8
姿図
100
AcDbEllipse
 10
9598.875201525147
 20
-4981.50387829101
 30
0.0
 11
0.03310067962662975
 21
0.04624056676641511
 31
3.156747423222691E-18
210
-3.231153159914858E-17
220
-4.513815278383462E-17
230
1.0
 40
0.9083744652357182
 41
3.808998900157052
 42
5.813403557372792
  0
ELLIPSE
  5
12D231
330
18
100
AcDbEntity
  8
姿図
100
AcDbEllipse
 10
9598.875201525147
 20
-4980.954586158615
 30
0.0
 11
0.03310067962662975
 21
0.04624056676641511
 31
3.156747423222691E-18
210
-3.231153159914858E-17
220
-4.513815278383462E-17
230
1.0
 40
0.9083744652357182
 41
3.808998900156897
 42
5.813403557372867
  0
ELLIPSE
  5
12D232
330
18
100
AcDbEntity
  8
姿図
100
AcDbEllipse
 10
9598.875201525147
 20
-4980.405294026219
 30
0.0
 11
0.03310067962662975
 21
0.04624056676641511
 31
3.156747423222691E-18
210
-3.231153159914858E-17
220
-4.513815278383462E-17
230
1.0
 40
0.9083744652357182
 41
3.808998900157176
 42
5.813403557372916
  0
ELLIPSE
  5
12D233
330
18
100
AcDbEntity
  8
姿図
100
AcDbEllipse
 10
9598.875201525147
 20
-4979.856001893823
 30
0.0
 11
0.03310067962662975
 21
0.04624056676641511
 31
3.156747423222691E-18
210
-3.231153159914858E-17
220
-4.513815278383462E-17
230
1.0
 40
0.9083744652357182
 41
3.808998900156742
 42
5.813403557372712
  0
ELLIPSE
  5
12D234
330
18
100
AcDbEntity
  8
姿図
100
AcDbEllipse
 10
9598.875201525147
 20
-4979.306709761425
 30
0.0
 11
0.03310067962662975
 21
0.04624056676641511
 31
3.156747423222691E-18
210
-3.231153159914858E-17
220
-4.513815278383462E-17
230
1.0
 40
0.9083744652357182
 41
3.808998900156483
 42
5.813403557372792
  0
ELLIPSE
  5
12D235
330
18
100
AcDbEntity
  8
姿図
100
AcDbEllipse
 10
9599.474612792153
 20
-4979.18649801669
 30
0.0
 11
0.03310067962662542
 21
0.04624056676641824
 31
0.0
210
0.0
220
0.0
230
1.0
 40
0.9083744652357184
 41
3.808998900156913
 42
5.813403557372654
  0
ELLIPSE
  5
12D236
330
18
100
AcDbEntity
  8
姿図
100
AcDbEllipse
 10
9601.115285172657
 20
-4978.887862725956
 30
0.0
 11
0.03310067962664066
 21
0.04624056676643044
 31
3.156747423223735E-18
210
-3.231153159914874E-17
220
-4.513815278383449E-17
230
1.0
 40
0.9083744652357183
 41
0.6674062465672639
 42
2.671810903783432
  0
LINE
  5
12D237
330
18
100
AcDbEntity
  8
姿図
100
AcDbLine
 10
9600.596091936875
 20
-4978.945638529142
 30
0.0
 11
9600.515873905651
 21
-4978.953145257451
 31
0.0
  0
ELLIPSE
  5
12D238
330
18
100
AcDbEntity
  8
姿図
100
AcDbEllipse
 10
9600.515873905651
 20
-4979.008074470694
 30
0.0
 11
0.03310067962663663
 21
0.0462405667664333
 31
3.156747423223738E-18
210
-3.231153159914479E-17
220
-4.513815278383740E-17
230
1.0
 40
0.908374465235718
 41
0.6674062465670622
 42
2.671810903783181
  0
ELLIPSE
  5
12D239
330
18
100
AcDbEntity
  8
姿図
100
AcDbEllipse
 10
9600.596091936875
 20
-4978.890709315906
 30
0.0
 11
0.03310067962663108
 21
0.04624056676641634
 31
3.156747423222771E-18
210
-3.231153159914886E-17
220
-4.513815278383399E-17
230
1.0
 40
0.9083744652357181
 41
3.80899890015716
 42
5.813403557372792
  0
LINE
  5
12D23A
330
18
100
AcDbEntity
  8
姿図
100
AcDbLine
 10
9601.115285172657
 20
-4978.832933512716
 30
0.0
 11
9601.195503203884
 21
-4978.825426784405
 31
0.0
  0
LINE
  5
12D23B
330
18
100
AcDbEntity
  8
姿図
100
AcDbLine
 10
9598.875201525147
 20
-4978.812346842268
 30
0.0
 11
9598.794983493923
 21
-4978.819853570578
 31
0.0
  0
ELLIPSE
  5
12D23C
330
18
100
AcDbEntity
  8
姿図
100
AcDbEllipse
 10
9598.79498349392
 20
-4978.874782783814
 30
0.0
 11
0.0331006796266269
 21
0.04624056676642037
 31
-3.156747423222837E-18
210
3.231153159914450E-17
220
4.513815278383754E-17
230
1.0
 40
0.9083744652357192
 41
0.6674062465669471
 42
2.671810903782859
  0
ELLIPSE
  5
12D23D
330
18
100
AcDbEntity
  8
姿図
100
AcDbEllipse
 10
9594.379996399226
 20
-4985.318085222706
 30
0.0
 11
-0.108519203279578
 21
0.3533461957478259
 31
2.051885825094963E-17
210
1.629723296148895E-17
220
-5.306494237082089E-17
230
1.0
 40
0.7386189460394769
 41
4.318335530375434
 42
5.623669093019634
  0
ELLIPSE
  5
12D23E
330
18
100
AcDbEntity
  8
姿図
100
AcDbEllipse
 10
9594.379996399226
 20
-4985.318085222706
 30
0.0
 11
-0.108519203279578
 21
0.3533461957478259
 31
2.051885825094963E-17
210
1.629723296148895E-17
220
-5.306494237082089E-17
230
1.0
 40
0.7386189460394769
 41
3.822881783457571
 42
4.318335530375473
  0
LINE
  5
12D23F
330
18
100
AcDbEntity
  8
姿図
100
AcDbLine
 10
9599.710232689884
 20
-4985.958311636575
 30
0.0
 11
9599.767536908299
 21
-4977.320368323093
 31
0.0
  0
LINE
  5
12D240
330
18
100
AcDbEntity
  8
姿図
100
AcDbLine
 10
9598.007095957515
 20
-4982.050275357593
 30
0.0
 11
9598.04664649657
 21
-4976.088492371426
 31
0.0
  0
LINE
  5
12D241
330
18
100
AcDbEntity
  8
姿図
100
AcDbLine
 10
9599.523142328087
 20
-4979.158878272867
 30
0.0
 11
9599.345865224996
 21
-4978.782190782903
 31
0.0
  0
ELLIPSE
  5
12D242
330
18
100
AcDbEntity
  8
姿図
100
AcDbEllipse
 10
9601.19550320388
 20
-4978.770497571169
 30
0.0
 11
0.03310067962662644
 21
0.04624056676641969
 31
-6.313494846445589E-18
210
6.462306319828894E-17
220
9.027630556767524E-17
230
1.0
 40
0.9083744652357181
 41
3.808998900156461
 42
5.813403557372752
  0
LINE
  5
12D243
330
18
100
AcDbEntity
  8
姿図
100
AcDbLine
 10
9600.46734436972
 20
-4978.486402082119
 30
0.0
 11
9600.64462147281
 21
-4978.863089572083
 31
0.0
  0
ELLIPSE
  5
12D244
330
18
100
AcDbEntity
  8
姿図
100
AcDbEllipse
 10
9598.875201525147
 20
-4978.757417629025
 30
0.0
 11
0.03310067962662975
 21
0.04624056676641511
 31
3.156747423222691E-18
210
-3.231153159914858E-17
220
-4.513815278383462E-17
230
1.0
 40
0.9083744652357182
 41
3.808998900156551
 42
5.81340355737281
  0
LINE
  5
12D245
330
18
100
AcDbEntity
  8
姿図
100
AcDbLine
 10
9575.526049986538
 20
-4978.27873775738
 30
0.0
 11
9575.676704823474
 21
-4978.386581969516
 31
0.0
  0
ELLIPSE
  5
12D246
330
18
100
AcDbEntity
  8
姿図
100
AcDbEllipse
 10
9583.109347776057
 20
-4982.462651983339
 30
0.0
 11
-17.85571804038605
 21
-3.419610552464862E-14
 31
1.982382928965137E-15
210
1.110223024625157E-16
220
2.126226658603509E-31
230
1.0
 40
0.2588190451025204
 41
5.151017883384803
 42
5.195965363531555
  0
LINE
  5
12D247
330
18
100
AcDbEntity
  8
姿図
100
AcDbLine
 10
9579.667478327845
 20
-4978.072441043334
 30
0.0
 11
9579.555529100555
 21
-4977.992303714443
 31
0.0
  0
ELLIPSE
  5
12D248
330
18
100
AcDbEntity
  8
姿図
100
AcDbEllipse
 10
9583.109347776057
 20
-4982.462651983339
 30
0.0
 11
-17.85571804038605
 21
-3.419610552464862E-14
 31
1.982382928965137E-15
210
1.110223024625157E-16
220
2.126226658603509E-31
230
1.0
 40
0.2588190451025204
 41
4.922687502237706
 42
4.96763498238446
  0
ELLIPSE
  5
12D249
330
18
100
AcDbEntity
  8
姿図
100
AcDbEllipse
 10
9579.503698130136
 20
-4978.304877406708
 30
0.0
 11
-0.1548909050590665
 21
-0.2384999891190348
 31
-4.735920896407206E-17
210
-9.070358557838995E-17
220
-1.396647799640267E-16
230
1.0
 40
0.913939136448976
 41
3.038071040901397
 42
3.100190541308247
  0
LINE
  5
12D24A
330
18
100
AcDbEntity
  8
姿図
100
AcDbLine
 10
9565.974928334648
 20
-4978.716552144515
 30
0.0
 11
9565.290757631099
 21
-4978.780576198848
 31
0.0
  0
ELLIPSE
  5
12D24B
330
18
100
AcDbEntity
  8
姿図
100
AcDbEllipse
 10
9583.109347776057
 20
-4984.385174446733
 30
0.0
 11
-17.89740975592589
 21
-5.131457558280441E-13
 31
9.935058196089910E-16
210
5.551115123125783E-17
220
1.591588506041613E-30
230
1.0
 40
0.2588190451025204
 41
4.96784917457373
 42
5.150803691193217
  0
ELLIPSE
  5
12D24C
330
18
100
AcDbEntity
  8
姿図
100
AcDbEllipse
 10
9577.173483801284
 20
-4984.530404164102
 30
0.0
 11
0.2013581765767474
 21
0.3100499858547712
 31
4.104464776886243E-17
210
-6.046905705224813E-17
220
-9.310985330935853E-17
230
1.0
 40
0.9139391364489744
 41
0.6260041342852541
 42
2.752838026093648
  0
ELLIPSE
  5
12D24D
330
18
100
AcDbEntity
  8
姿図
100
AcDbEllipse
 10
9583.109347776057
 20
-4983.423913215036
 30
0.0
 11
-16.34923549676945
 21
-3.112947552725801E-13
 31
-9.075648841766178E-16
210
-5.551115123125783E-17
220
-1.056950353479716E-30
230
1.0
 40
0.258819045102515
 41
4.992404269734823
 42
5.183640316118966
  0
ELLIPSE
  5
12D24E
330
18
100
AcDbEntity
  8
姿図
100
AcDbEllipse
 10
9577.173483801284
 20
-4984.530404164102
 30
0.0
 11
0.2013581765767474
 21
0.3100499858547712
 31
4.104464776886243E-17
210
-6.046905705224813E-17
220
-9.310985330935853E-17
230
1.0
 40
0.9139391364489744
 41
0.2886548266583326
 42
0.6260041342852678
  0
ELLIPSE
  5
12D24F
330
18
100
AcDbEntity
  8
姿図
100
AcDbEllipse
 10
9583.109347776057
 20
-4982.957014902498
 30
0.0
 11
-16.33657804185923
 21
-3.096934598376082E-13
 31
-9.068622542828936E-16
210
-5.551115123125783E-17
220
-1.052328121613186E-30
230
1.0
 40
0.258819045102515
 41
4.992407196796089
 42
5.184287718027582
  0
LINE
  5
12D250
330
18
100
AcDbEntity
  8
姿図
100
AcDbLine
 10
9565.851747376808
 20
-4979.101260909691
 30
0.0
 11
9565.898071888194
 21
-4986.075471296462
 31
0.0
  0
ELLIPSE
  5
12D251
330
18
100
AcDbEntity
  8
姿図
100
AcDbEllipse
 10
9566.277136017909
 20
-4979.4057695719
 30
0.0
 11
0.05121854025141149
 21
-0.5092439049548338
 31
0.0
210
0.0
220
0.0
230
1.0
 40
0.3266547503873699
 41
1.290961286430747
 42
2.861757613225721
  0
LINE
  5
12D252
330
18
100
AcDbEntity
  8
姿図
100
AcDbLine
 10
9565.160508324037
 20
-4979.279874817002
 30
0.0
 11
9565.161264595916
 21
-4979.165875642316
 31
0.0
  0
LINE
  5
12D253
330
18
100
AcDbEntity
  8
姿図
100
AcDbLine
 10
9566.695553224026
 20
-4985.335764410631
 30
0.0
 11
9566.872830327118
 21
-4984.92589806977
 31
0.0
  0
LINE
  5
12D254
330
18
100
AcDbEntity
  8
姿図
100
AcDbLine
 10
9566.824300791186
 20
-4985.401723942247
 30
0.0
 11
9566.74408275996
 21
-4985.409230670556
 31
0.0
  0
LINE
  5
12D255
330
18
100
AcDbEntity
  8
姿図
100
AcDbLine
 10
9566.710982080333
 20
-4985.400542024083
 30
0.0
 11
9566.794995190985
 21
-4985.460681664547
 31
0.0
  0
LINE
  5
12D256
330
18
100
AcDbEntity
  8
姿図
100
AcDbLine
 10
9566.695553224026
 20
-4980.941427351456
 30
0.0
 11
9566.881398735768
 21
-4980.511750768669
 31
0.0
  0
LINE
  5
12D257
330
18
100
AcDbEntity
  8
姿図
100
AcDbLine
 10
9566.824300791186
 20
-4981.00738688307
 30
0.0
 11
9566.74408275996
 21
-4981.014893611378
 31
0.0
  0
LINE
  5
12D258
330
18
100
AcDbEntity
  8
姿図
100
AcDbLine
 10
9566.695553224026
 20
-4981.490719483855
 30
0.0
 11
9566.872830327118
 21
-4981.080853142995
 31
0.0
  0
LINE
  5
12D259
330
18
100
AcDbEntity
  8
姿図
100
AcDbLine
 10
9566.710982080333
 20
-4981.006204964909
 30
0.0
 11
9566.85922042552
 21
-4981.112319364353
 31
0.0
  0
LINE
  5
12D25A
330
18
100
AcDbEntity
  8
姿図
100
AcDbLine
 10
9566.695553224026
 20
-4984.237180145839
 30
0.0
 11
9566.852751580134
 21
-4983.873736058111
 31
0.0
  0
LINE
  5
12D25B
330
18
100
AcDbEntity
  8
姿図
100
AcDbLine
 10
9566.824300791186
 20
-4984.303139677452
 30
0.0
 11
9566.74408275996
 21
-4984.310646405762
 31
0.0
  0
LINE
  5
12D25C
330
18
100
AcDbEntity
  8
姿図
100
AcDbLine
 10
9566.695553224026
 20
-4984.786472278235
 30
0.0
 11
9566.872830327118
 21
-4984.376605937374
 31
0.0
  0
LINE
  5
12D25D
330
18
100
AcDbEntity
  8
姿図
100
AcDbLine
 10
9566.824300791186
 20
-4984.852431809848
 30
0.0
 11
9566.74408275996
 21
-4984.85993853816
 31
0.0
  0
LINE
  5
12D25E
330
18
100
AcDbEntity
  8
姿図
100
AcDbLine
 10
9566.710982080333
 20
-4984.301957759289
 30
0.0
 11
9566.85922042552
 21
-4984.408072158732
 31
0.0
  0
LINE
  5
12D25F
330
18
100
AcDbEntity
  8
姿図
100
AcDbLine
 10
9566.710982080333
 20
-4984.851249891684
 30
0.0
 11
9566.85922042552
 21
-4984.957364291128
 31
0.0
  0
LINE
  5
12D260
330
18
100
AcDbEntity
  8
姿図
100
AcDbLine
 10
9566.695553224026
 20
-4982.589303748647
 30
0.0
 11
9566.872830327118
 21
-4982.179437407789
 31
0.0
  0
LINE
  5
12D261
330
18
100
AcDbEntity
  8
姿図
100
AcDbLine
 10
9566.814163142652
 20
-4982.656211951928
 30
0.0
 11
9566.74408275996
 21
-4982.662770008572
 31
0.0
  0
LINE
  5
12D262
330
18
100
AcDbEntity
  8
姿図
100
AcDbLine
 10
9566.695553224026
 20
-4983.138595881045
 30
0.0
 11
9566.772252312456
 21
-4982.961266862385
 31
0.0
  0
LINE
  5
12D263
330
18
100
AcDbEntity
  8
姿図
100
AcDbLine
 10
9566.810282794693
 20
-4983.755159336054
 30
0.0
 11
9566.74408275996
 21
-4983.761354273362
 31
0.0
  0
LINE
  5
12D264
330
18
100
AcDbEntity
  8
姿図
100
AcDbLine
 10
9566.773171874012
 20
-4982.927347628844
 30
0.0
 11
9566.760514730677
 21
-4983.394222955406
 31
0.0
  0
LINE
  5
12D265
330
18
100
AcDbEntity
  8
姿図
100
AcDbLine
 10
9566.710982080333
 20
-4982.654081362095
 30
0.0
 11
9566.79907960097
 21
-4982.717144771791
 31
0.0
  0
LINE
  5
12D266
330
18
100
AcDbEntity
  8
姿図
100
AcDbLine
 10
9566.710982080333
 20
-4983.752665626893
 30
0.0
 11
9566.841761000278
 21
-4983.846281934685
 31
0.0
  0
LINE
  5
12D267
330
18
100
AcDbEntity
  8
姿図
100
AcDbLine
 10
9566.695553224026
 20
-4982.040011616251
 30
0.0
 11
9566.872830327118
 21
-4981.63014527539
 31
0.0
  0
LINE
  5
12D268
330
18
100
AcDbEntity
  8
姿図
100
AcDbLine
 10
9566.824300791186
 20
-4982.105971147863
 30
0.0
 11
9566.74408275996
 21
-4982.113477876176
 31
0.0
  0
LINE
  5
12D269
330
18
100
AcDbEntity
  8
姿図
100
AcDbLine
 10
9566.710982080333
 20
-4982.1047892297
 30
0.0
 11
9566.85922042552
 21
-4982.210903629143
 31
0.0
  0
LINE
  5
12D26A
330
18
100
AcDbEntity
  8
姿図
100
AcDbLine
 10
9566.824300791186
 20
-4981.556679015465
 30
0.0
 11
9566.74408275996
 21
-4981.56418574378
 31
0.0
  0
LINE
  5
12D26B
330
18
100
AcDbEntity
  8
姿図
100
AcDbLine
 10
9566.710982080333
 20
-4981.555497097304
 30
0.0
 11
9566.85922042552
 21
-4981.661611496747
 31
0.0
  0
LINE
  5
12D26C
330
18
100
AcDbEntity
  8
姿図
100
AcDbLine
 10
9566.491746906611
 20
-4985.640952624456
 30
0.0
 11
9566.451158643815
 21
-4979.530341297352
 31
0.0
  0
ELLIPSE
  5
12D26D
330
18
100
AcDbEntity
  8
姿図
100
AcDbEllipse
 10
9583.36915261761
 20
-4974.709753113659
 30
0.0
 11
9.820493799237434
 21
27.76810889032503
 31
3.269997849935411E-15
210
-3.701743464227722E-17
220
-1.046692943349816E-16
230
1.0
 40
0.5306015190202692
 41
2.132850903174913
 42
2.178852095897546
  0
LINE
  5
12D26E
330
18
100
AcDbEntity
  8
姿図
100
AcDbLine
 10
9565.668376108282
 20
-4985.098941023999
 30
0.0
 11
9565.251486322251
 21
-4985.137953180137
 31
0.0
  0
LINE
  5
12D26F
330
18
100
AcDbEntity
  8
姿図
100
AcDbLine
 10
9564.974662812298
 20
-4985.202472723758
 30
0.0
 11
9565.15193991539
 21
-4984.792606382896
 31
0.0
  0
ELLIPSE
  5
12D270
330
18
100
AcDbEntity
  8
姿図
100
AcDbEllipse
 10
9583.109347776057
 20
-4984.797143546031
 30
0.0
 11
-17.4799078689977
 21
-3.541703803669010E-14
 31
-9.703298092243850E-16
210
-5.551115123125783E-17
220
-1.124743087522147E-31
230
1.0
 40
0.2588190451025201
 41
0.0667579305343701
 42
0.1004537543484347
  0
LINE
  5
12D271
330
18
100
AcDbEntity
  8
姿図
100
AcDbLine
 10
9564.990091668606
 20
-4985.816542469602
 30
0.0
 11
9565.138330013791
 21
-4985.922656869046
 31
0.0
  0
LINE
  5
12D272
330
18
100
AcDbEntity
  8
姿図
100
AcDbLine
 10
9564.974662812298
 20
-4986.301056988548
 30
0.0
 11
9565.15193991539
 21
-4985.891190647688
 31
0.0
  0
LINE
  5
12D273
330
18
100
AcDbEntity
  8
姿図
100
AcDbLine
 10
9565.103410379457
 20
-4986.367016520165
 30
0.0
 11
9565.023192348232
 21
-4986.374523248473
 31
0.0
  0
LINE
  5
12D274
330
18
100
AcDbEntity
  8
姿図
100
AcDbLine
 10
9565.103410379457
 20
-4985.268432255367
 30
0.0
 11
9565.023192348232
 21
-4985.275938983679
 31
0.0
  0
LINE
  5
12D275
330
18
100
AcDbEntity
  8
姿図
100
AcDbLine
 10
9564.974662812298
 20
-4985.751764856153
 30
0.0
 11
9565.15193991539
 21
-4985.341898515292
 31
0.0
  0
LINE
  5
12D276
330
18
100
AcDbEntity
  8
姿図
100
AcDbLine
 10
9565.103410379457
 20
-4985.817724387769
 30
0.0
 11
9565.023192348232
 21
-4985.825231116079
 31
0.0
  0
LINE
  5
12D277
330
18
100
AcDbEntity
  8
姿図
100
AcDbLine
 10
9564.990091668606
 20
-4985.267250337206
 30
0.0
 11
9565.138330013791
 21
-4985.37336473665
 31
0.0
  0
LINE
  5
12D278
330
18
100
AcDbEntity
  8
姿図
100
AcDbLine
 10
9564.974662812298
 20
-4986.850349120944
 30
0.0
 11
9565.15193991539
 21
-4986.440482780086
 31
0.0
  0
LINE
  5
12D279
330
18
100
AcDbEntity
  8
姿図
100
AcDbLine
 10
9565.103410379457
 20
-4986.91630865256
 30
0.0
 11
9565.023192348232
 21
-4986.923815380869
 31
0.0
  0
LINE
  5
12D27A
330
18
100
AcDbEntity
  8
姿図
100
AcDbLine
 10
9564.990091668606
 20
-4986.915126734397
 30
0.0
 11
9565.138330013791
 21
-4987.021241133843
 31
0.0
  0
LINE
  5
12D27B
330
18
100
AcDbEntity
  8
姿図
100
AcDbLine
 10
9564.990091668606
 20
-4986.365834601997
 30
0.0
 11
9565.138330013791
 21
-4986.471949001444
 31
0.0
  0
LINE
  5
12D27C
330
18
100
AcDbEntity
  8
姿図
100
AcDbLine
 10
9565.103410379457
 20
-4987.465600784955
 30
0.0
 11
9565.023192348232
 21
-4987.473107513269
 31
0.0
  0
LINE
  5
12D27D
330
18
100
AcDbEntity
  8
姿図
100
AcDbLine
 10
9564.974662812298
 20
-4987.399641253342
 30
0.0
 11
9565.15193991539
 21
-4986.989774912486
 31
0.0
  0
ELLIPSE
  5
12D27E
330
18
100
AcDbEntity
  8
姿図
100
AcDbEllipse
 10
9565.02319234823
 20
-4985.22100977044
 30
0.0
 11
0.03310067962663026
 21
0.04624056676641473
 31
0.0
210
0.0
220
0.0
230
1.0
 40
0.9083744652357207
 41
1.804594242940603
 42
3.808998900156939
  0
ELLIPSE
  5
12D27F
330
18
100
AcDbEntity
  8
姿図
100
AcDbEllipse
 10
9565.02319234823
 20
-4985.770301902836
 30
0.0
 11
0.03310067962663026
 21
0.04624056676641473
 31
0.0
210
0.0
220
0.0
230
1.0
 40
0.9083744652357207
 41
1.804594242940676
 42
3.80899890015725
  0
ELLIPSE
  5
12D280
330
18
100
AcDbEntity
  8
姿図
100
AcDbEllipse
 10
9565.02319234823
 20
-4986.319594035237
 30
0.0
 11
0.03310067962663026
 21
0.04624056676641473
 31
0.0
210
0.0
220
0.0
230
1.0
 40
0.9083744652357207
 41
1.804594242940915
 42
3.808998900157249
  0
ELLIPSE
  5
12D281
330
18
100
AcDbEntity
  8
姿図
100
AcDbEllipse
 10
9565.02319234823
 20
-4986.868886167633
 30
0.0
 11
0.03310067962662919
 21
0.04624056676641321
 31
0.0
210
0.0
220
0.0
230
1.0
 40
0.908374465235721
 41
1.804594242940485
 42
3.808998900156777
  0
ELLIPSE
  5
12D282
330
18
100
AcDbEntity
  8
姿図
100
AcDbEllipse
 10
9565.02319234823
 20
-4987.418178300029
 30
0.0
 11
0.03310067962662919
 21
0.04624056676641321
 31
0.0
210
0.0
220
0.0
230
1.0
 40
0.908374465235721
 41
1.804594242940884
 42
3.808998900157218
  0
ELLIPSE
  5
12D283
330
18
100
AcDbEntity
  8
姿図
100
AcDbEllipse
 10
9566.74408275996
 20
-4985.35430145732
 30
0.0
 11
0.03310067962663003
 21
0.0462405667664149
 31
-3.156747423222693E-18
210
3.231153159914905E-17
220
4.513815278383433E-17
230
1.0
 40
0.9083744652357173
 41
1.804594242940764
 42
3.808998900157057
  0
ELLIPSE
  5
12D284
330
18
100
AcDbEntity
  8
姿図
100
AcDbEllipse
 10
9565.103410379457
 20
-4985.872653601005
 30
0.0
 11
0.03310067962662746
 21
0.04624056676642003
 31
3.156747423222841E-18
210
-3.231153159914513E-17
220
-4.513815278383711E-17
230
1.0
 40
0.9083744652357212
 41
4.946186896530127
 42
6.950591553746752
  0
ELLIPSE
  5
12D285
330
18
100
AcDbEntity
  8
姿図
100
AcDbEllipse
 10
9565.103410379457
 20
-4986.4219457334
 30
0.0
 11
0.03310067962662746
 21
0.04624056676642003
 31
3.156747423222841E-18
210
-3.231153159914513E-17
220
-4.513815278383711E-17
230
1.0
 40
0.9083744652357212
 41
4.946186896530643
 42
6.950591553746944
  0
ELLIPSE
  5
12D286
330
18
100
AcDbEntity
  8
姿図
100
AcDbEllipse
 10
9565.103410379457
 20
-4986.971237865803
 30
0.0
 11
0.03310067962662746
 21
0.04624056676642003
 31
3.156747423222841E-18
210
-3.231153159914513E-17
220
-4.513815278383711E-17
230
1.0
 40
0.9083744652357212
 41
4.946186896530488
 42
6.950591553746789
  0
ELLIPSE
  5
12D287
330
18
100
AcDbEntity
  8
姿図
100
AcDbEllipse
 10
9565.103410379457
 20
-4985.32336146861
 30
0.0
 11
0.03310067962662746
 21
0.04624056676642003
 31
3.156747423222841E-18
210
-3.231153159914513E-17
220
-4.513815278383711E-17
230
1.0
 40
0.9083744652357212
 41
4.946186896530451
 42
6.950591553746752
  0
ELLIPSE
  5
12D288
330
18
100
AcDbEntity
  8
姿図
100
AcDbEllipse
 10
9565.103410379457
 20
-4987.520529998199
 30
0.0
 11
0.03310067962662746
 21
0.04624056676642003
 31
3.156747423222841E-18
210
-3.231153159914513E-17
220
-4.513815278383711E-17
230
1.0
 40
0.9083744652357212
 41
6.074134062573671
 42
6.95059155374682
  0
ELLIPSE
  5
12D289
330
18
100
AcDbEntity
  8
姿図
100
AcDbEllipse
 10
9582.869252506482
 20
-4977.050124241333
 30
0.0
 11
9.833408526597633
 21
27.80045877641116
 31
0.0
210
0.0
220
0.0
230
1.0
 40
0.5306663220532383
 41
2.04631906000344
 42
2.129635835717337
  0
LINE
  5
12D28A
330
18
100
AcDbEntity
  8
姿図
100
AcDbLine
 10
9564.990091668606
 20
-4980.872913278028
 30
0.0
 11
9565.138330013791
 21
-4980.979027677472
 31
0.0
  0
LINE
  5
12D28B
330
18
100
AcDbEntity
  8
姿図
100
AcDbLine
 10
9564.974662812298
 20
-4981.357427796976
 30
0.0
 11
9565.15193991539
 21
-4980.947561456114
 31
0.0
  0
LINE
  5
12D28C
330
18
100
AcDbEntity
  8
姿図
100
AcDbLine
 10
9565.103410379457
 20
-4981.423387328591
 30
0.0
 11
9565.023192348232
 21
-4981.430894056901
 31
0.0
  0
LINE
  5
12D28D
330
18
100
AcDbEntity
  8
姿図
100
AcDbLine
 10
9564.990091668606
 20
-4981.422205410428
 30
0.0
 11
9565.138330013791
 21
-4981.528319809871
 31
0.0
  0
LINE
  5
12D28E
330
18
100
AcDbEntity
  8
姿図
100
AcDbLine
 10
9564.974662812298
 20
-4979.709551399788
 30
0.0
 11
9565.160508324037
 21
-4979.279874817002
 31
0.0
  0
LINE
  5
12D28F
330
18
100
AcDbEntity
  8
姿図
100
AcDbLine
 10
9565.103410379457
 20
-4979.775510931398
 30
0.0
 11
9565.023192348232
 21
-4979.783017659711
 31
0.0
  0
LINE
  5
12D290
330
18
100
AcDbEntity
  8
姿図
100
AcDbLine
 10
9564.974662812298
 20
-4980.258843532184
 30
0.0
 11
9565.15193991539
 21
-4979.848977191323
 31
0.0
  0
LINE
  5
12D291
330
18
100
AcDbEntity
  8
姿図
100
AcDbLine
 10
9565.103410379457
 20
-4980.324803063797
 30
0.0
 11
9565.023192348232
 21
-4980.332309792109
 31
0.0
  0
LINE
  5
12D292
330
18
100
AcDbEntity
  8
姿図
100
AcDbLine
 10
9564.974662812298
 20
-4980.80813566458
 30
0.0
 11
9565.15193991539
 21
-4980.398269323719
 31
0.0
  0
LINE
  5
12D293
330
18
100
AcDbEntity
  8
姿図
100
AcDbLine
 10
9565.103410379457
 20
-4980.874095196195
 30
0.0
 11
9565.023192348232
 21
-4980.881601924505
 31
0.0
  0
LINE
  5
12D294
330
18
100
AcDbEntity
  8
姿図
100
AcDbLine
 10
9564.990091668606
 20
-4979.774329013238
 30
0.0
 11
9565.138330013791
 21
-4979.880443412681
 31
0.0
  0
LINE
  5
12D295
330
18
100
AcDbEntity
  8
姿図
100
AcDbLine
 10
9564.990091668606
 20
-4980.323621145633
 30
0.0
 11
9565.138330013791
 21
-4980.429735545076
 31
0.0
  0
LINE
  5
12D296
330
18
100
AcDbEntity
  8
姿図
100
AcDbLine
 10
9564.990091668606
 20
-4984.168666072412
 30
0.0
 11
9565.138330013791
 21
-4984.274780471859
 31
0.0
  0
LINE
  5
12D297
330
18
100
AcDbEntity
  8
姿図
100
AcDbLine
 10
9564.974662812298
 20
-4984.653180591358
 30
0.0
 11
9565.15193991539
 21
-4984.243314250501
 31
0.0
  0
LINE
  5
12D298
330
18
100
AcDbEntity
  8
姿図
100
AcDbLine
 10
9565.103410379457
 20
-4984.719140122971
 30
0.0
 11
9565.023192348232
 21
-4984.726646851281
 31
0.0
  0
LINE
  5
12D299
330
18
100
AcDbEntity
  8
姿図
100
AcDbLine
 10
9564.990091668606
 20
-4984.717958204811
 30
0.0
 11
9565.138330013791
 21
-4984.824072604255
 31
0.0
  0
LINE
  5
12D29A
330
18
100
AcDbEntity
  8
姿図
100
AcDbLine
 10
9564.990091668606
 20
-4982.520789675222
 30
0.0
 11
9565.138330013791
 21
-4982.626904074666
 31
0.0
  0
LINE
  5
12D29B
330
18
100
AcDbEntity
  8
姿図
100
AcDbLine
 10
9564.974662812298
 20
-4983.005304194168
 30
0.0
 11
9565.15193991539
 21
-4982.595437853308
 31
0.0
  0
LINE
  5
12D29C
330
18
100
AcDbEntity
  8
姿図
100
AcDbLine
 10
9565.103410379457
 20
-4983.071263725777
 30
0.0
 11
9565.023192348232
 21
-4983.078770454094
 31
0.0
  0
LINE
  5
12D29D
330
18
100
AcDbEntity
  8
姿図
100
AcDbLine
 10
9564.974662812298
 20
-4983.554596326564
 30
0.0
 11
9565.15193991539
 21
-4983.144729985703
 31
0.0
  0
LINE
  5
12D29E
330
18
100
AcDbEntity
  8
姿図
100
AcDbLine
 10
9565.103410379457
 20
-4983.620555858181
 30
0.0
 11
9565.023192348232
 21
-4983.628062586489
 31
0.0
  0
LINE
  5
12D29F
330
18
100
AcDbEntity
  8
姿図
100
AcDbLine
 10
9564.974662812298
 20
-4984.10388845896
 30
0.0
 11
9565.15193991539
 21
-4983.694022118102
 31
0.0
  0
LINE
  5
12D2A0
330
18
100
AcDbEntity
  8
姿図
100
AcDbLine
 10
9565.103410379457
 20
-4984.169847990575
 30
0.0
 11
9565.023192348232
 21
-4984.177354718885
 31
0.0
  0
LINE
  5
12D2A1
330
18
100
AcDbEntity
  8
姿図
100
AcDbLine
 10
9564.990091668606
 20
-4983.070081807617
 30
0.0
 11
9565.138330013791
 21
-4983.176196207061
 31
0.0
  0
LINE
  5
12D2A2
330
18
100
AcDbEntity
  8
姿図
100
AcDbLine
 10
9564.990091668606
 20
-4983.619373940017
 30
0.0
 11
9565.138330013791
 21
-4983.72548833946
 31
0.0
  0
LINE
  5
12D2A3
330
18
100
AcDbEntity
  8
姿図
100
AcDbLine
 10
9565.103410379457
 20
-4981.972679460987
 30
0.0
 11
9565.023192348232
 21
-4981.980186189296
 31
0.0
  0
LINE
  5
12D2A4
330
18
100
AcDbEntity
  8
姿図
100
AcDbLine
 10
9564.974662812298
 20
-4982.456012061773
 30
0.0
 11
9565.15193991539
 21
-4982.046145720912
 31
0.0
  0
LINE
  5
12D2A5
330
18
100
AcDbEntity
  8
姿図
100
AcDbLine
 10
9565.103410379457
 20
-4982.521971593383
 30
0.0
 11
9565.023192348232
 21
-4982.529478321695
 31
0.0
  0
LINE
  5
12D2A6
330
18
100
AcDbEntity
  8
姿図
100
AcDbLine
 10
9564.990091668606
 20
-4981.971497542827
 30
0.0
 11
9565.138330013791
 21
-4982.07761194227
 31
0.0
  0
LINE
  5
12D2A7
330
18
100
AcDbEntity
  8
姿図
100
AcDbLine
 10
9564.974662812298
 20
-4981.906719929378
 30
0.0
 11
9565.15193991539
 21
-4981.496853588513
 31
0.0
  0
ELLIPSE
  5
12D2A8
330
18
100
AcDbEntity
  8
姿図
100
AcDbEllipse
 10
9565.02319234823
 20
-4984.122425505649
 30
0.0
 11
0.03310067962663026
 21
0.04624056676641473
 31
0.0
210
0.0
220
0.0
230
1.0
 40
0.9083744652357207
 41
1.804594242940693
 42
3.808998900156747
  0
ELLIPSE
  5
12D2A9
330
18
100
AcDbEntity
  8
姿図
100
AcDbEllipse
 10
9565.02319234823
 20
-4984.671717638043
 30
0.0
 11
0.03310067962663026
 21
0.04624056676641473
 31
0.0
210
0.0
220
0.0
230
1.0
 40
0.9083744652357207
 41
1.804594242940521
 42
3.808998900156814
  0
ELLIPSE
  5
12D2AA
330
18
100
AcDbEntity
  8
姿図
100
AcDbEllipse
 10
9565.02319234823
 20
-4980.826672711266
 30
0.0
 11
0.03310067962663133
 21
0.04624056676641619
 31
3.156747423222792E-18
210
-3.231153159914926E-17
220
-4.513815278383414E-17
230
1.0
 40
0.9083744652357209
 41
1.804594242940522
 42
3.808998900156824
  0
ELLIPSE
  5
12D2AB
330
18
100
AcDbEntity
  8
姿図
100
AcDbEllipse
 10
9565.02319234823
 20
-4982.474549108459
 30
0.0
 11
0.03310067962663026
 21
0.04624056676641473
 31
0.0
210
0.0
220
0.0
230
1.0
 40
0.9083744652357207
 41
1.804594242940334
 42
3.80899890015687
  0
ELLIPSE
  5
12D2AC
330
18
100
AcDbEntity
  8
姿図
100
AcDbEllipse
 10
9565.02319234823
 20
-4983.023841240854
 30
0.0
 11
0.03310067962663026
 21
0.04624056676641473
 31
0.0
210
0.0
220
0.0
230
1.0
 40
0.9083744652357207
 41
1.804594242940608
 42
3.808998900156902
  0
ELLIPSE
  5
12D2AD
330
18
100
AcDbEntity
  8
姿図
100
AcDbEllipse
 10
9565.02319234823
 20
-4983.573133373254
 30
0.0
 11
0.03310067962663026
 21
0.04624056676641473
 31
0.0
210
0.0
220
0.0
230
1.0
 40
0.9083744652357207
 41
1.804594242940608
 42
3.808998900156902
  0
ELLIPSE
  5
12D2AE
330
18
100
AcDbEntity
  8
姿図
100
AcDbEllipse
 10
9565.02319234823
 20
-4981.375964843661
 30
0.0
 11
0.03310067962663133
 21
0.04624056676641619
 31
3.156747423222792E-18
210
-3.231153159914926E-17
220
-4.513815278383414E-17
230
1.0
 40
0.9083744652357209
 41
1.804594242940522
 42
3.808998900156824
  0
ELLIPSE
  5
12D2AF
330
18
100
AcDbEntity
  8
姿図
100
AcDbEllipse
 10
9565.02319234823
 20
-4981.92525697606
 30
0.0
 11
0.03310067962663026
 21
0.04624056676641473
 31
0.0
210
0.0
220
0.0
230
1.0
 40
0.9083744652357207
 41
1.804594242940453
 42
3.808998900157027
  0
ELLIPSE
  5
12D2B0
330
18
100
AcDbEntity
  8
姿図
100
AcDbEllipse
 10
9565.02319234823
 20
-4979.728088446471
 30
0.0
 11
0.03310067962663133
 21
0.04624056676641619
 31
3.156747423222792E-18
210
-3.231153159914926E-17
220
-4.513815278383414E-17
230
1.0
 40
0.9083744652357209
 41
1.804594242940792
 42
3.808998900157135
  0
ELLIPSE
  5
12D2B1
330
18
100
AcDbEntity
  8
姿図
100
AcDbEllipse
 10
9565.02319234823
 20
-4980.27738057887
 30
0.0
 11
0.03310067962663133
 21
0.04624056676641619
 31
3.156747423222792E-18
210
-3.231153159914926E-17
220
-4.513815278383414E-17
230
1.0
 40
0.9083744652357209
 41
1.804594242940609
 42
3.808998900156911
  0
LINE
  5
12D2B2
330
18
100
AcDbEntity
  8
姿図
100
AcDbLine
 10
9566.765507523893
 20
-4983.210057231604
 30
0.0
 11
9566.74408275996
 21
-4983.212062140967
 31
0.0
  0
LINE
  5
12D2B3
330
18
100
AcDbEntity
  8
姿図
100
AcDbLine
 10
9566.695553224026
 20
-4983.687888013445
 30
0.0
 11
9566.764996219024
 21
-4983.527335151501
 31
0.0
  0
LINE
  5
12D2B4
330
18
100
AcDbEntity
  8
姿図
100
AcDbLine
 10
9566.710982080333
 20
-4983.203373494494
 30
0.0
 11
9566.764647265614
 21
-4983.241788986116
 31
0.0
  0
ELLIPSE
  5
12D2B5
330
18
100
AcDbEntity
  8
姿図
100
AcDbEllipse
 10
9566.74408275996
 20
-4984.255717192522
 30
0.0
 11
0.03310067962663003
 21
0.0462405667664149
 31
-3.156747423222693E-18
210
3.231153159914905E-17
220
4.513815278383433E-17
230
1.0
 40
0.9083744652357173
 41
1.804594242940832
 42
3.808998900156845
  0
ELLIPSE
  5
12D2B6
330
18
100
AcDbEntity
  8
姿図
100
AcDbEllipse
 10
9566.74408275996
 20
-4984.805009324925
 30
0.0
 11
0.03310067962663003
 21
0.0462405667664149
 31
-3.156747423222693E-18
210
3.231153159914905E-17
220
4.513815278383433E-17
230
1.0
 40
0.9083744652357173
 41
1.804594242940847
 42
3.8089989001569
  0
ELLIPSE
  5
12D2B7
330
18
100
AcDbEntity
  8
姿図
100
AcDbEllipse
 10
9566.74408275996
 20
-4982.607840795329
 30
0.0
 11
0.03310067962663108
 21
0.04624056676641634
 31
3.156747423222771E-18
210
-3.231153159914886E-17
220
-4.513815278383399E-17
230
1.0
 40
0.9083744652357181
 41
1.804594242940848
 42
3.808998900156912
  0
ELLIPSE
  5
12D2B8
330
18
100
AcDbEntity
  8
姿図
100
AcDbEllipse
 10
9566.74408275996
 20
-4983.157132927731
 30
0.0
 11
0.03310067962663003
 21
0.0462405667664149
 31
-3.156747423222693E-18
210
3.231153159914905E-17
220
4.513815278383433E-17
230
1.0
 40
0.9083744652357173
 41
1.804594242940723
 42
3.808998900156777
  0
ELLIPSE
  5
12D2B9
330
18
100
AcDbEntity
  8
姿図
100
AcDbEllipse
 10
9566.74408275996
 20
-4983.706425060127
 30
0.0
 11
0.03310067962663003
 21
0.0462405667664149
 31
-3.156747423222693E-18
210
3.231153159914905E-17
220
4.513815278383433E-17
230
1.0
 40
0.9083744652357173
 41
1.804594242940692
 42
3.808998900156467
  0
ELLIPSE
  5
12D2BA
330
18
100
AcDbEntity
  8
姿図
100
AcDbEllipse
 10
9566.74408275996
 20
-4980.959964398142
 30
0.0
 11
0.03310067962663108
 21
0.04624056676641634
 31
3.156747423222771E-18
210
-3.231153159914886E-17
220
-4.513815278383399E-17
230
1.0
 40
0.9083744652357181
 41
1.804594242940803
 42
3.808998900156824
  0
ELLIPSE
  5
12D2BB
330
18
100
AcDbEntity
  8
姿図
100
AcDbEllipse
 10
9566.74408275996
 20
-4981.509256530538
 30
0.0
 11
0.03310067962663108
 21
0.04624056676641634
 31
3.156747423222771E-18
210
-3.231153159914886E-17
220
-4.513815278383399E-17
230
1.0
 40
0.9083744652357181
 41
1.804594242940766
 42
3.808998900156787
  0
ELLIPSE
  5
12D2BC
330
18
100
AcDbEntity
  8
姿図
100
AcDbEllipse
 10
9566.74408275996
 20
-4982.058548662933
 30
0.0
 11
0.03310067962663108
 21
0.04624056676641634
 31
3.156747423222771E-18
210
-3.231153159914886E-17
220
-4.513815278383399E-17
230
1.0
 40
0.9083744652357181
 41
1.804594242940876
 42
3.808998900156855
  0
ELLIPSE
  5
12D2BD
330
18
100
AcDbEntity
  8
姿図
100
AcDbEllipse
 10
9565.103410379457
 20
-4984.224777203818
 30
0.0
 11
0.03310067962662746
 21
0.04624056676642003
 31
3.156747423222841E-18
210
-3.231153159914513E-17
220
-4.513815278383711E-17
230
1.0
 40
0.9083744652357212
 41
4.946186896530419
 42
6.950591553746441
  0
ELLIPSE
  5
12D2BE
330
18
100
AcDbEntity
  8
姿図
100
AcDbEllipse
 10
9565.103410379457
 20
-4984.774069336214
 30
0.0
 11
0.03310067962662746
 21
0.04624056676642003
 31
3.156747423222841E-18
210
-3.231153159914513E-17
220
-4.513815278383711E-17
230
1.0
 40
0.9083744652357212
 41
4.946186896530518
 42
6.95059155374682
  0
ELLIPSE
  5
12D2BF
330
18
100
AcDbEntity
  8
姿図
100
AcDbEllipse
 10
9565.103410379457
 20
-4980.929024409432
 30
0.0
 11
0.03310067962663688
 21
0.04624056676643312
 31
3.156747423223714E-18
210
-3.231153159914484E-17
220
-4.513815278383685E-17
230
1.0
 40
0.9083744652357204
 41
4.946186896530406
 42
6.950591553746625
  0
ELLIPSE
  5
12D2C0
330
18
100
AcDbEntity
  8
姿図
100
AcDbEllipse
 10
9565.103410379457
 20
-4982.576900806625
 30
0.0
 11
0.03310067962662746
 21
0.04624056676642003
 31
3.156747423222841E-18
210
-3.231153159914513E-17
220
-4.513815278383711E-17
230
1.0
 40
0.9083744652357212
 41
4.946186896530169
 42
6.950591553746752
  0
ELLIPSE
  5
12D2C1
330
18
100
AcDbEntity
  8
姿図
100
AcDbEllipse
 10
9565.103410379457
 20
-4983.126192939024
 30
0.0
 11
0.03310067962662746
 21
0.04624056676642003
 31
3.156747423222841E-18
210
-3.231153159914513E-17
220
-4.513815278383711E-17
230
1.0
 40
0.9083744652357212
 41
4.946186896530518
 42
6.95059155374654
  0
ELLIPSE
  5
12D2C2
330
18
100
AcDbEntity
  8
姿図
100
AcDbEllipse
 10
9565.103410379457
 20
-4983.67548507142
 30
0.0
 11
0.03310067962662746
 21
0.04624056676642003
 31
3.156747423222841E-18
210
-3.231153159914513E-17
220
-4.513815278383711E-17
230
1.0
 40
0.9083744652357212
 41
4.946186896530611
 42
6.950591553746913
  0
ELLIPSE
  5
12D2C3
330
18
100
AcDbEntity
  8
姿図
100
AcDbEllipse
 10
9565.103410379457
 20
-4981.47831654183
 30
0.0
 11
0.03310067962662746
 21
0.04624056676642003
 31
3.156747423222841E-18
210
-3.231153159914513E-17
220
-4.513815278383711E-17
230
1.0
 40
0.9083744652357212
 41
4.946186896530611
 42
6.950591553747201
  0
ELLIPSE
  5
12D2C4
330
18
100
AcDbEntity
  8
姿図
100
AcDbEllipse
 10
9565.103410379457
 20
-4982.027608674226
 30
0.0
 11
0.03310067962662746
 21
0.04624056676642003
 31
3.156747423222841E-18
210
-3.231153159914513E-17
220
-4.513815278383711E-17
230
1.0
 40
0.9083744652357212
 41
4.946186896530643
 42
6.950591553746944
  0
ELLIPSE
  5
12D2C5
330
18
100
AcDbEntity
  8
姿図
100
AcDbEllipse
 10
9565.103410379457
 20
-4979.83044014464
 30
0.0
 11
0.03310067962663688
 21
0.04624056676643312
 31
3.156747423223714E-18
210
-3.231153159914484E-17
220
-4.513815278383685E-17
230
1.0
 40
0.9083744652357204
 41
4.946186896530376
 42
6.950591553746025
  0
ELLIPSE
  5
12D2C6
330
18
100
AcDbEntity
  8
姿図
100
AcDbEllipse
 10
9565.103410379457
 20
-4980.379732277036
 30
0.0
 11
0.03310067962663688
 21
0.04624056676643312
 31
3.156747423223714E-18
210
-3.231153159914484E-17
220
-4.513815278383685E-17
230
1.0
 40
0.9083744652357204
 41
4.946186896530474
 42
6.950591553746981
  0
ELLIPSE
  5
12D2C7
330
18
100
AcDbEntity
  8
姿図
100
AcDbEllipse
 10
9566.824300791184
 20
-4985.45665315549
 30
0.0
 11
0.03310067962662729
 21
0.04624056676642016
 31
3.156747423222843E-18
210
-3.231153159914464E-17
220
-4.513815278383751E-17
230
1.0
 40
0.9083744652357179
 41
6.006282980254767
 42
6.950591553746565
  0
ELLIPSE
  5
12D2C8
330
18
100
AcDbEntity
  8
姿図
100
AcDbEllipse
 10
9567.05617763355
 20
-4980.522323319436
 30
0.0
 11
0.04414327837343268
 21
-0.5099059656834989
 31
-1.136453535358275E-16
210
1.915108353182199E-17
220
-2.212171841785135E-16
230
1.0
 40
0.3301839125655837
 41
3.143887870131871
 42
4.437113948144754
  0
LINE
  5
12D2C9
330
18
100
AcDbEntity
  8
姿図
100
AcDbLine
 10
9566.881398735768
 20
-4980.511750768669
 30
0.0
 11
9566.882155007645
 21
-4980.397751593987
 31
0.0
  0
ELLIPSE
  5
12D2CA
330
18
100
AcDbEntity
  8
姿図
100
AcDbEllipse
 10
9566.824300791184
 20
-4984.358068890692
 30
0.0
 11
0.03310067962662729
 21
0.04624056676642016
 31
3.156747423222843E-18
210
-3.231153159914464E-17
220
-4.513815278383751E-17
230
1.0
 40
0.9083744652357179
 41
4.946186896530421
 42
6.950591553746442
  0
ELLIPSE
  5
12D2CB
330
18
100
AcDbEntity
  8
姿図
100
AcDbEllipse
 10
9566.824300791184
 20
-4984.907361023087
 30
0.0
 11
0.03310067962662729
 21
0.04624056676642016
 31
3.156747423222843E-18
210
-3.231153159914464E-17
220
-4.513815278383751E-17
230
1.0
 40
0.9083744652357179
 41
4.946186896530445
 42
6.950591553746509
  0
ELLIPSE
  5
12D2CC
330
18
100
AcDbEntity
  8
姿図
100
AcDbEllipse
 10
9566.824300791184
 20
-4981.062316096312
 30
0.0
 11
0.03310067962663663
 21
0.0462405667664333
 31
3.156747423223738E-18
210
-3.231153159914479E-17
220
-4.513815278383740E-17
230
1.0
 40
0.908374465235718
 41
4.946186896530444
 42
6.950591553746381
  0
ELLIPSE
  5
12D2CD
330
18
100
AcDbEntity
  8
姿図
100
AcDbEllipse
 10
9566.824300791184
 20
-4981.611608228707
 30
0.0
 11
0.03310067962663663
 21
0.0462405667664333
 31
3.156747423223738E-18
210
-3.231153159914479E-17
220
-4.513815278383740E-17
230
1.0
 40
0.908374465235718
 41
4.946186896530483
 42
6.950591553746505
  0
ELLIPSE
  5
12D2CE
330
18
100
AcDbEntity
  8
姿図
100
AcDbEllipse
 10
9566.824300791184
 20
-4982.160900361104
 30
0.0
 11
0.03310067962663663
 21
0.0462405667664333
 31
3.156747423223738E-18
210
-3.231153159914479E-17
220
-4.513815278383740E-17
230
1.0
 40
0.908374465235718
 41
4.946186896530291
 42
6.950591553746593
  0
LINE
  5
12D2CF
330
18
100
AcDbEntity
  8
姿図
100
AcDbLine
 10
9568.174218349714
 20
-4981.088807071164
 30
0.0
 11
9568.172049055544
 21
-4980.762217249023
 31
0.0
  0
LINE
  5
12D2D0
330
18
100
AcDbEntity
  8
姿図
100
AcDbLine
 10
9567.695818746377
 20
-4979.948428096186
 30
0.0
 11
9567.011648042828
 21
-4980.012452150517
 31
0.0
  0
LINE
  5
12D2D1
330
18
100
AcDbEntity
  8
姿図
100
AcDbLine
 10
9567.74337876771
 20
-4979.963652761084
 30
0.0
 11
9567.994744782905
 21
-4980.143589697844
 31
0.0
  0
LINE
  5
12D2D2
330
18
100
AcDbEntity
  8
姿図
100
AcDbLine
 10
9567.572637788537
 20
-4980.333136861359
 30
0.0
 11
9567.581202326723
 21
-4981.622538290103
 31
0.0
  0
LINE
  5
12D2D3
330
18
100
AcDbEntity
  8
姿図
100
AcDbLine
 10
9567.879966556196
 20
-4981.337693821234
 30
0.0
 11
9567.3433753798
 21
-4981.849284612773
 31
0.0
  0
ELLIPSE
  5
12D2D4
330
18
100
AcDbEntity
  8
姿図
100
AcDbEllipse
 10
9567.746660414441
 20
-4980.45770858681
 30
0.0
 11
0.05121854025141149
 21
-0.5092439049548338
 31
0.0
210
0.0
220
0.0
230
1.0
 40
0.3266547503873699
 41
2.861757613225559
 42
4.432553940020501
  0
ELLIPSE
  5
12D2D5
330
18
100
AcDbEntity
  8
姿図
100
AcDbEllipse
 10
9567.998026429637
 20
-4980.637645523571
 30
0.0
 11
0.05121854025141149
 21
-0.5092439049548338
 31
0.0
210
0.0
220
0.0
230
1.0
 40
0.3266547503873699
 41
1.290961286430781
 42
2.861757613225615
  0
ELLIPSE
  5
12D2D6
330
18
100
AcDbEntity
  8
姿図
100
AcDbEllipse
 10
9583.109347776057
 20
-4982.407722770102
 30
0.0
 11
-15.78056643601225
 21
-3.000291129059528E-13
 31
-1.751994819888775E-15
210
-1.110223024625157E-16
220
-2.110819219048410E-30
230
1.0
 40
0.2588190451025151
 41
5.28687662288746
 42
6.018106658722737
  0
ELLIPSE
  5
12D2D7
330
18
100
AcDbEntity
  8
姿図
100
AcDbEllipse
 10
9583.109347776057
 20
-4987.406281174915
 30
0.0
 11
-17.96292530891708
 21
-6.690827271273658E-13
 31
0.0
210
0.0
220
0.0
230
1.0
 40
0.2588190451024983
 41
5.241510706344444
 42
6.274432771330732
  0
ELLIPSE
  5
12D2D8
330
18
100
AcDbEntity
  8
姿図
100
AcDbEllipse
 10
9583.109347776057
 20
-4983.423913215036
 30
0.0
 11
-16.34923549676945
 21
-3.112947552725801E-13
 31
-9.075648841766178E-16
210
-5.551115123125783E-17
220
-1.056950353479716E-30
230
1.0
 40
0.258819045102515
 41
5.268090580583092
 42
6.550261017675986
  0
ELLIPSE
  5
12D2D9
330
18
100
AcDbEntity
  8
姿図
100
AcDbEllipse
 10
9583.109347776057
 20
-4982.957014902498
 30
0.0
 11
-16.33657804185923
 21
-3.096934598376082E-13
 31
-9.068622542828936E-16
210
-5.551115123125783E-17
220
-1.052328121613186E-30
230
1.0
 40
0.258819045102515
 41
5.266606351960423
 42
6.276168753067862
  0
ELLIPSE
  5
12D2DA
330
18
100
AcDbEntity
  8
姿図
100
AcDbEllipse
 10
9576.149775191023
 20
-5064.819566871819
 30
0.0
 11
-18.38327958101744
 21
-343.0138562197138
 31
1.906841985697234E-14
210
2.970768119157230E-18
220
5.543160152658211E-17
230
1.0
 40
0.0186593157869327
 41
4.459498662982783
 42
4.472829220484885
  0
LINE
  5
12D2DB
330
18
100
AcDbEntity
  8
姿図
100
AcDbLine
 10
9575.511814337002
 20
-4980.191069825028
 30
0.0
 11
9575.526049986536
 21
-4978.27873775738
 31
0.0
  0
LINE
  5
12D2DC
330
18
100
AcDbEntity
  8
姿図
100
AcDbLine
 10
9578.601074516826
 20
-4977.990979838808
 30
0.0
 11
9578.586838867292
 21
-4979.90331190646
 31
0.0
  0
ELLIPSE
  5
12D2DD
330
18
100
AcDbEntity
  8
姿図
100
AcDbEllipse
 10
9574.515854479958
 20
-4777.423935221049
 30
0.0
 11
-21.1315594781569
 21
387.0160392319079
 31
0.0
210
0.0
220
0.0
230
1.0
 40
0.0171889472793754
 41
2.115486356435118
 42
2.128957736158343
  0
ELLIPSE
  5
12D2DE
330
18
100
AcDbEntity
  8
姿図
100
AcDbEllipse
 10
9590.068920361091
 20
-5063.517026289476
 30
0.0
 11
-18.54276823274225
 21
339.5595730684463
 31
-1.887742687879066E-14
210
-3.026859354980777E-18
220
5.542856694399325E-17
230
1.0
 40
0.0174416807856973
 41
1.315822296819269
 42
1.32915285432137
  0
LINE
  5
12D2DF
330
18
100
AcDbEntity
  8
姿図
100
AcDbLine
 10
9575.676704823474
 20
-4978.386581969516
 30
0.0
 11
9575.69086756713
 21
-4980.169653122894
 31
0.0
  0
ELLIPSE
  5
12D2E0
330
18
100
AcDbEntity
  8
姿図
100
AcDbEllipse
 10
9565.335287221818
 20
-4979.290447367767
 30
0.0
 11
0.04414327837343268
 21
-0.5099059656834989
 31
-1.136453535358275E-16
210
1.915108353182199E-17
220
-2.212171841785135E-16
230
1.0
 40
0.3301839125655837
 41
3.143887870131944
 42
4.437113948144803
  0
ELLIPSE
  5
12D2E1
330
18
100
AcDbEntity
  8
姿図
100
AcDbEllipse
 10
9566.025770002712
 20
-4979.225832635139
 30
0.0
 11
0.05121854025141149
 21
-0.5092439049548338
 31
0.0
210
0.0
220
0.0
230
1.0
 40
0.3266547503873699
 41
2.861757613225725
 42
4.43255394002059
  0
LINE
  5
12D2E2
330
18
100
AcDbEntity
  8
姿図
100
AcDbLine
 10
9566.02248835598
 20
-4978.731776809412
 30
0.0
 11
9566.273854371177
 21
-4978.911713746173
 31
0.0
  0
ELLIPSE
  5
12D2E3
330
18
100
AcDbEntity
  8
姿図
100
AcDbEllipse
 10
9583.109347776057
 20
-4982.407722770102
 30
0.0
 11
-15.78056643601225
 21
-3.000291129059528E-13
 31
-1.751994819888775E-15
210
-1.110223024625157E-16
220
-2.110819219048410E-30
230
1.0
 40
0.2588190451025151
 41
5.002357841538155
 42
5.202574393620892
  0
ELLIPSE
  5
12D2E4
330
18
100
AcDbEntity
  8
姿図
100
AcDbEllipse
 10
9583.109347776057
 20
-4982.957014902498
 30
0.0
 11
-16.33657804185923
 21
-3.096934598376082E-13
 31
-9.068622542828936E-16
210
-5.551115123125783E-17
220
-1.052328121613186E-30
230
1.0
 40
0.258819045102515
 41
3.563618606471713
 42
4.915675910959883
  0
ELLIPSE
  5
12D2E5
330
18
100
AcDbEntity
  8
姿図
100
AcDbEllipse
 10
9583.109347776057
 20
-4983.423913215036
 30
0.0
 11
-16.34923549676945
 21
-3.112947552725801E-13
 31
-9.075648841766178E-16
210
-5.551115123125783E-17
220
-1.056950353479716E-30
230
1.0
 40
0.258819045102515
 41
3.565790486621951
 42
4.913638423115042
  0
ELLIPSE
  5
12D2E6
330
18
100
AcDbEntity
  8
姿図
100
AcDbEllipse
 10
9583.109347776057
 20
-4982.407722770102
 30
0.0
 11
-15.78056643601225
 21
-3.000291129059528E-13
 31
-1.751994819888775E-15
210
-1.110223024625157E-16
220
-2.110819219048410E-30
230
1.0
 40
0.2588190451025151
 41
3.476409367365063
 42
4.924634818196502
  0
ELLIPSE
  5
12D2E7
330
18
100
AcDbEntity
  8
姿図
100
AcDbEllipse
 10
9583.109347776057
 20
-4987.406281174915
 30
0.0
 11
-17.96292530891708
 21
-3.081170829841372E-13
 31
-1.994285326758169E-15
210
-1.110223024625157E-16
220
-1.904359529010098E-30
230
1.0
 40
0.2588190451025165
 41
3.844220094436217
 42
4.877142159422503
  0
LINE
  5
12D2E8
330
18
100
AcDbEntity
  8
姿図
100
AcDbLine
 10
9603.555825128564
 20
-4991.80061823409
 30
0.0
 11
9603.555825128564
 21
-4992.128284087011
 31
0.0
  0
ELLIPSE
  5
12D2E9
330
18
100
AcDbEntity
  8
姿図
100
AcDbEllipse
 10
9583.109347776057
 20
-4988.673461030797
 30
0.0
 11
13.51430367091304
 21
0.0
 31
0.0
210
0.0
220
0.0
230
1.0
 40
0.2673555525296201
 41
5.28076332886401
 42
5.96194421627353
  0
LINE
  5
12D2EA
330
18
100
AcDbEntity
  8
姿図
100
AcDbLine
 10
9564.974662812298
 20
-4988.498225518138
 30
0.0
 11
9565.130260814247
 21
-4988.138481464382
 31
0.0
  0
LINE
  5
12D2EB
330
18
100
AcDbEntity
  8
姿図
100
AcDbLine
 10
9565.103410379457
 20
-4988.014892917351
 30
0.0
 11
9565.023192348232
 21
-4988.022399645664
 31
0.0
  0
LINE
  5
12D2EC
330
18
100
AcDbEntity
  8
姿図
100
AcDbLine
 10
9564.974662812298
 20
-4987.948933385742
 30
0.0
 11
9565.142801707168
 21
-4987.560194668807
 31
0.0
  0
LINE
  5
12D2ED
330
18
100
AcDbEntity
  8
姿図
100
AcDbLine
 10
9564.990091668606
 20
-4988.013710999191
 30
0.0
 11
9565.130782560429
 21
-4988.114422656991
 31
0.0
  0
LINE
  5
12D2EE
330
18
100
AcDbEntity
  8
姿図
100
AcDbLine
 10
9564.969713660748
 20
-4989.386985236462
 30
0.0
 11
9564.969713660748
 21
-4988.521767050363
 31
0.0
  0
ELLIPSE
  5
12D2EF
330
18
100
AcDbEntity
  8
姿図
100
AcDbEllipse
 10
9565.02319234823
 20
-4988.516762564824
 30
0.0
 11
0.03310067962663133
 21
0.04624056676641619
 31
3.156747423222792E-18
210
-3.231153159914926E-17
220
-4.513815278383414E-17
230
1.0
 40
0.9083744652357209
 41
1.804594242940401
 42
2.238202573361832
  0
ELLIPSE
  5
12D2F0
330
18
100
AcDbEntity
  8
姿図
100
AcDbEllipse
 10
9565.02319234823
 20
-4987.967470432424
 30
0.0
 11
0.03310067962662919
 21
0.04624056676641321
 31
0.0
210
0.0
220
0.0
230
1.0
 40
0.908374465235721
 41
1.804594242940566
 42
3.808998900156902
  0
ELLIPSE
  5
12D2F1
330
18
100
AcDbEntity
  8
姿図
100
AcDbEllipse
 10
9565.103410379457
 20
-4988.069822130594
 30
0.0
 11
0.03310067962662746
 21
0.04624056676642003
 31
3.156747423222841E-18
210
-3.231153159914513E-17
220
-4.513815278383711E-17
230
1.0
 40
0.9083744652357212
 41
0.0854693314817033
 42
0.6674062465672337
  0
LINE
  5
12D2F2
330
18
100
AcDbEntity
  8
姿図
100
AcDbLine
 10
9562.66287042355
 20
-4991.80061823409
 30
0.0
 11
9562.66287042355
 21
-4992.128284087011
 31
0.0
  0
ELLIPSE
  5
12D2F3
330
18
100
AcDbEntity
  8
姿図
100
AcDbEllipse
 10
9583.109347776057
 20
-4988.673461030797
 30
0.0
 11
13.51430367091304
 21
0.0
 31
0.0
210
0.0
220
0.0
230
1.0
 40
0.2673555525296201
 41
3.462833744495849
 42
4.171550364110386
  0
ELLIPSE
  5
12D2F4
330
18
100
AcDbEntity
  8
姿図
100
AcDbEllipse
 10
9583.109347776057
 20
-4992.339926375876
 30
0.0
 11
16.8928795886413
 21
0.0
 31
0.0
210
0.0
220
0.0
230
1.0
 40
0.26735555252962
 41
5.180243681212037
 42
10.51443037292207
  0
ELLIPSE
  5
12D2F5
330
18
100
AcDbEntity
  8
姿図
100
AcDbEllipse
 10
9583.109347776057
 20
-4992.32748011615
 30
0.0
 11
15.89944312579247
 21
0.0
 31
0.0
210
0.0
220
0.0
230
1.0
 40
0.26735555252962
 41
5.209599264642355
 42
10.48566856919573
  0
ELLIPSE
  5
12D2F6
330
18
100
AcDbEntity
  8
姿図
100
AcDbEllipse
 10
9583.109347776057
 20
-4992.339926375876
 30
0.0
 11
16.8928795886413
 21
0.0
 31
0.0
210
0.0
220
0.0
230
1.0
 40
0.26735555252962
 41
4.427948996759585
 42
4.971841876265056
  0
ELLIPSE
  5
12D2F7
330
18
100
AcDbEntity
  8
姿図
100
AcDbEllipse
 10
9583.109347776057
 20
-4992.128284087011
 30
0.0
 11
20.44647735250701
 21
0.0
 31
0.0
210
0.0
220
0.0
230
1.0
 40
0.2673555525296202
 41
4.470401134071083
 42
4.932249962681063
  0
ELLIPSE
  5
12D2F8
330
18
100
AcDbEntity
  8
姿図
100
AcDbEllipse
 10
9583.109347776057
 20
-4992.32748011615
 30
0.0
 11
15.89944312579247
 21
0.0
 31
0.0
210
0.0
220
0.0
230
1.0
 40
0.26735555252962
 41
4.413557965181504
 42
4.985392136879235
  0
ELLIPSE
  5
12D2F9
330
18
100
AcDbEntity
  8
姿図
100
AcDbEllipse
 10
9583.109347776057
 20
-4992.128284087011
 30
0.0
 11
20.44647735250701
 21
0.0
 31
0.0
210
0.0
220
0.0
230
1.0
 40
0.2673555525296202
 41
5.099058613978904
 42
10.59507337388397
  0
ELLIPSE
  5
12D2FA
330
18
100
AcDbEntity
  8
姿図
100
AcDbEllipse
 10
9583.109347776057
 20
-4991.80061823409
 30
0.0
 11
20.44647735250701
 21
0.0
 31
0.0
210
0.0
220
0.0
230
1.0
 40
0.2673555525296202
 41
6.253210353381123
 42
9.42477796076938
  0
LINE
  5
12D2FB
330
18
100
AcDbEntity
  8
姿図
100
AcDbLine
 10
9564.990091668606
 20
-4987.464418866794
 30
0.0
 11
9565.138330013791
 21
-4987.570533266239
 31
0.0
  0
LINE
  5
12D2FC
330
18
100
AcDbEntity
  8
姿図
100
AcDbLine
 10
9565.14884009641
 20
-4987.281751914653
 30
0.0
 11
9565.104718653509
 21
-4989.316283904572
 31
0.0
  0
LINE
  5
12D2FD
330
18
100
AcDbEntity
  8
姿図
100
AcDbLine
 10
9598.928680212632
 20
-4985.343918732248
 30
0.0
 11
9598.928680212632
 21
-4988.429125390357
 31
0.0
  0
LINE
  5
12D2FE
330
18
100
AcDbEntity
  8
姿図
100
AcDbLine
 10
9601.248981891365
 20
-4989.386985236462
 30
0.0
 11
9601.248981891365
 21
-4987.00487507158
 31
0.0
  0
SPLINE
  5
12D2FF
330
18
100
AcDbEntity
  8
姿図
100
AcDbSpline
210
0.0
220
0.0
230
1.0
 70
     8
 71
     3
 72
    26
 73
    22
 74
     0
 42
0.000000001
 43
0.0000000001
 40
5.061336783911485
 40
5.061336783911485
 40
5.061336783911485
 40
5.061336783911485
 40
5.424423750909746
 40
5.424423750909746
 40
5.597379662847512
 40
5.597379662847512
 40
5.659540508070473
 40
5.659540508070473
 40
5.681680215509581
 40
5.681680215509581
 40
5.695637545270647
 40
5.695637545270647
 40
5.707793438358563
 40
5.707793438358563
 40
5.722098011649362
 40
5.722098011649362
 40
5.746604578651288
 40
5.746604578651288
 40
5.804790417739905
 40
5.804790417739905
 40
5.95015367802265
 40
5.95015367802265
 40
5.95015367802265
 40
5.95015367802265
 10
9599.356207419909
 20
-4984.761903306045
 30
0.0000000000000141
 10
9599.334414839435
 20
-4984.754393407552
 30
-0.000000000000002
 10
9599.317419472476
 20
-4984.750375121147
 30
0.0000000000000061
 10
9599.299242727653
 20
-4984.748878477119
 30
0.0000000000000303
 10
9599.292286422218
 20
-4984.748901068611
 30
-0.000000000000002
 10
9599.285586910797
 20
-4984.751744296805
 30
0.0000000000000061
 10
9599.283739796758
 20
-4984.752903812036
 30
-0.000000000000002
 10
9599.282076140924
 20
-4984.755433123636
 30
0.0000000000000061
 10
9599.281663969994
 20
-4984.756269419493
 30
0.0000000000000141
 10
9599.281230444203
 20
-4984.757971274058
 30
0.0000000000000061
 10
9599.281120962485
 20
-4984.758711233538
 30
0.0000000000000222
 10
9599.28107911803
 20
-4984.760268691989
 30
0.0000000000000061
 10
9599.281126960732
 20
-4984.761017362642
 30
0.0000000000000061
 10
9599.281362949956
 20
-4984.762688858337
 30
0.0000000000000061
 10
9599.281568073164
 20
-4984.763574069659
 30
0.0000000000000141
 10
9599.28223138426
 20
-4984.765849010729
 30
0.0000000000000061
 10
9599.282786990912
 20
-4984.76722025568
 30
-0.000000000000002
 10
9599.284662523798
 20
-4984.771273731683
 30
0.0000000000000061
 10
9599.286396472055
 20
-4984.774062280098
 30
0.0000000000000061
 10
9599.292312361029
 20
-4984.782585804095
 30
0.0000000000000141
 10
9599.297730848471
 20
-4984.78856332885
 30
-0.000000000000002
 10
9599.30212079982
 20
-4984.793090388584
 30
-0.000000000000002
  0
SPLINE
  5
12D300
330
18
100
AcDbEntity
  8
姿図
100
AcDbSpline
210
0.0
220
0.0
230
1.0
 70
     8
 71
     3
 72
    10
 73
     6
 74
     0
 42
0.000000001
 43
0.0000000001
 40
1.049331515521564
 40
1.049331515521564
 40
1.049331515521564
 40
1.049331515521564
 40
1.060416395005242
 40
1.060416395005242
 40
1.145877108045186
 40
1.145877108045186
 40
1.145877108045186
 40
1.145877108045186
 10
9600.63987945035
 20
-4986.549784913478
 30
0.0000000000000141
 10
9600.640130742477
 20
-4986.550530410727
 30
0.0000000000000141
 10
9600.640351504646
 20
-4986.551281134999
 30
0.0000000000000141
 10
9600.642008124316
 20
-4986.557843240165
 30
-0.0000000000000101
 10
9600.641555155997
 20
-4986.563797867143
 30
0.0000000000000061
 10
9600.639902700697
 20
-4986.568874032506
 30
-0.000000000000002
  0
SPLINE
  5
12D301
330
18
100
AcDbEntity
  8
姿図
100
AcDbSpline
210
0.0
220
0.0
230
1.0
 70
    11
 71
     3
 72
    38
 73
    34
 74
     0
 42
0.000000001
 43
0.0000000001
 40
0.0
 40
0.0
 40
0.0
 40
0.0
 40
0.4899871145494815
 40
0.4899871145494815
 40
0.979974229098963
 40
0.979974229098963
 40
1.469880324151053
 40
1.469880324151053
 40
1.959786419203144
 40
1.959786419203144
 40
2.449692514255234
 40
2.449692514255234
 40
2.939598609307323
 40
2.939598609307323
 40
3.429585723856796
 40
3.429585723856796
 40
3.919572838406268
 40
3.919572838406268
 40
4.409171093943909
 40
4.409171093943909
 40
4.898769349481551
 40
4.898769349481551
 40
5.388322667025809
 40
5.388322667025809
 40
5.877875984570069
 40
5.877875984570069
 40
6.367429302114321
 40
6.367429302114321
 40
6.856982619658574
 40
6.856982619658574
 40
7.346580875196199
 40
7.346580875196199
 40
7.836179130733825
 40
7.836179130733825
 40
7.836179130733825
 40
7.836179130733825
 10
9594.984346872783
 20
-4985.280781880548
 30
-0.000000000000002
 10
9594.98498875756
 20
-4985.325440610218
 30
0.0000000000000061
 10
9594.978703334715
 20
-4985.371487308355
 30
0.0000000000000061
 10
9594.95156375279
 20
-4985.452679682326
 30
-0.000000000000002
 10
9594.930703095763
 20
-4985.48782776505
 30
0.0000000000000061
 10
9594.882013829274
 20
-4985.539846344239
 30
0.0000000000000061
 10
9594.850939819944
 20
-4985.560186644836
 30
0.0000000000000061
 10
9594.782256752098
 20
-4985.581155004219
 30
0.0000000000000061
 10
9594.744640860026
 20
-4985.581784789648
 30
0.0000000000000141
 10
9594.673629496194
 20
-4985.566296119242
 30
-0.000000000000002
 10
9594.635507618956
 20
-4985.549146761695
 30
0.0000000000000141
 10
9594.564882573177
 20
-4985.497793160578
 30
0.0000000000000061
 10
9594.532385808698
 20
-4985.463587096669
 30
-0.000000000000002
 10
9594.480694730073
 20
-4985.389674020657
 30
0.0000000000000141
 10
9594.458057067817
 20
-4985.345038285613
 30
0.0000000000000222
 10
9594.427535048786
 20
-4985.251269029805
 30
-0.000000000000002
 10
9594.419657429991
 20
-4985.202133154497
 30
0.0000000000000141
 10
9594.418435258516
 20
-4985.112864461184
 30
0.0000000000000061
 10
9594.424998343498
 20
-4985.066779177143
 30
-0.000000000000002
 10
9594.453090206121
 20
-4984.985375840142
 30
0.0000000000000061
 10
9594.474612475222
 20
-4984.950060022133
 30
0.0000000000000141
 10
9594.52453040413
 20
-4984.897719568713
 30
0.0000000000000141
 10
9594.55625168838
 20
-4984.877204553318
 30
0.0000000000000061
 10
9594.625827774367
 20
-4984.855987103593
 30
0.0000000000000141
 10
9594.663675953941
 20
-4984.855286694341
 30
0.0000000000000141
 10
9594.734636183051
 20
-4984.870764211474
 30
0.0000000000000222
 10
9594.772479418569
 20
-4984.887974082274
 30
0.0000000000000141
 10
9594.842150691251
 20
-4984.939563522153
 30
0.0000000000000141
 10
9594.873985334465
 20
-4984.973941062635
 30
0.0000000000000061
 10
9594.924445569473
 20
-4985.048175537133
 30
0.0000000000000061
 10
9594.94643518602
 20
-4985.092981966493
 30
0.0000000000000141
 10
9594.976061794488
 20
-4985.186974589586
 30
0.0000000000000222
 10
9594.983705497414
 20
-4985.236158592526
 30
0.0000000000000061
 10
9594.984346872783
 20
-4985.280781880548
 30
-0.000000000000002
  0
SPLINE
  5
12D302
330
18
100
AcDbEntity
  8
姿図
100
AcDbSpline
210
0.0
220
0.0
230
1.0
 70
     8
 71
     3
 72
    24
 73
    20
 74
     0
 42
0.000000001
 43
0.0000000001
 40
9.158211213992672
 40
9.158211213992672
 40
9.158211213992672
 40
9.158211213992672
 40
9.170191443583112
 40
9.170191443583112
 40
9.737477062085201
 40
9.737477062085201
 40
10.30476268058729
 40
10.30476268058729
 40
10.87204829908938
 40
10.87204829908938
 40
11.43933391759147
 40
11.43933391759147
 40
12.01567227050256
 40
12.01567227050256
 40
12.59201062341365
 40
12.59201062341365
 40
13.16834897632474
 40
13.16834897632474
 40
13.72927459805347
 40
13.72927459805347
 40
13.72927459805347
 40
13.72927459805347
 10
9598.463001764017
 20
-4981.59738077225
 30
0.0000000000000222
 10
9598.463024576859
 20
-4981.598476713827
 30
0.0000000000000141
 10
9598.463046185887
 20
-4981.599571381116
 30
0.0000000000000141
 10
9598.46403303703
 20
-4981.652438074135
 30
0.0000000000000303
 10
9598.462334590773
 20
-4981.704771183753
 30
0.0000000000000141
 10
9598.452947041
 20
-4981.806162309207
 30
0.0000000000000141
 10
9598.445259880506
 20
-4981.855222296145
 30
-0.000000000000002
 10
9598.424151927566
 20
-4981.946462662137
 30
0.0000000000000061
 10
9598.410711730145
 20
-4981.988719826185
 30
0.0000000000000061
 10
9598.37911560566
 20
-4982.063904480171
 30
0.0000000000000303
 10
9598.360955330201
 20
-4982.096829202865
 30
-0.000000000000002
 10
9598.321521543146
 20
-4982.152568129419
 30
-0.000000000000002
 10
9598.298853581851
 20
-4982.177126199183
 30
0.0000000000000141
 10
9598.248954483757
 20
-4982.216193377891
 30
0.0000000000000141
 10
9598.221722847104
 20
-4982.23070798388
 30
0.0000000000000141
 10
9598.164350948971
 20
-4982.248449857421
 30
0.0000000000000061
 10
9598.13416459595
 20
-4982.251692269198
 30
0.0000000000000061
 10
9598.073724312811
 20
-4982.247349515173
 30
-0.000000000000002
 10
9598.043493269111
 20
-4982.240052248344
 30
0.0000000000000141
 10
9598.013973334722
 20
-4982.228577631205
 30
0.0000000000000061
  0
SPLINE
  5
12D303
330
18
100
AcDbEntity
  8
姿図
100
AcDbSpline
210
0.0
220
0.0
230
1.0
 70
     8
 71
     3
 72
    10
 73
     6
 74
     0
 42
0.000000001
 43
0.0000000001
 40
0.0588189760599532
 40
0.0588189760599532
 40
0.0588189760599532
 40
0.0588189760599532
 40
0.3767108973350863
 40
0.3767108973350863
 40
0.456659258613309
 40
0.456659258613309
 40
0.456659258613309
 40
0.456659258613309
 10
9580.064944578908
 20
-4982.706392284491
 30
0.0000000000000141
 10
9580.066884862297
 20
-4982.736072848836
 30
-0.000000000000002
 10
9580.074069750966
 20
-4982.76653738681
 30
0.0000000000000061
 10
9580.089444537893
 20
-4982.801715284073
 30
0.0000000000000222
 10
9580.092862025575
 20
-4982.808635026239
 30
-0.0000000000000101
 10
9580.096538627768
 20
-4982.815390300659
 30
-0.000000000000002
  0
SPLINE
  5
12D304
330
18
100
AcDbEntity
  8
姿図
100
AcDbSpline
210
0.0
220
0.0
230
1.0
 70
    11
 71
     3
 72
    38
 73
    34
 74
     0
 42
0.000000001
 43
0.0000000001
 40
0.0
 40
0.0
 40
0.0
 40
0.0
 40
0.4899871145494814
 40
0.4899871145494814
 40
0.9799742290989628
 40
0.9799742290989628
 40
1.469880324151052
 40
1.469880324151052
 40
1.959786419203141
 40
1.959786419203141
 40
2.44969251425523
 40
2.44969251425523
 40
2.939598609307319
 40
2.939598609307319
 40
3.429585723856792
 40
3.429585723856792
 40
3.919572838406264
 40
3.919572838406264
 40
4.409171093943907
 40
4.409171093943907
 40
4.898769349481549
 40
4.898769349481549
 40
5.388322667025805
 40
5.388322667025805
 40
5.877875984570061
 40
5.877875984570061
 40
6.367429302114317
 40
6.367429302114317
 40
6.856982619658573
 40
6.856982619658573
 40
7.346580875196197
 40
7.346580875196197
 40
7.836179130733821
 40
7.836179130733821
 40
7.836179130733821
 40
7.836179130733821
 10
9577.340383931032
 20
-4984.368361640737
 30
0.0000000000000222
 10
9577.340072098583
 20
-4984.412971050936
 30
0.0000000000000061
 10
9577.330942991697
 20
-4984.46132113062
 30
0.0000000000000061
 10
9577.294593705177
 20
-4984.552000598291
 30
0.0000000000000061
 10
9577.267377165032
 20
-4984.594332820306
 30
0.0000000000000061
 10
9577.204859935055
 20
-4984.662968902338
 30
0.0000000000000061
 10
9577.165394016914
 20
-4984.693849931065
 30
0.0000000000000061
 10
9577.079219156642
 20
-4984.737958593785
 30
0.0000000000000141
 10
9577.032513442748
 20
-4984.75118849316
 30
0.0000000000000061
 10
9576.94518165957
 20
-4984.759360919727
 30
0.0000000000000141
 10
9576.898742923184
 20
-4984.754847390861
 30
0.0000000000000061
 10
9576.813592726203
 20
-4984.726771166711
 30
0.0000000000000061
 10
9576.77487750917
 20
-4984.703206255465
 30
0.0000000000000222
 10
9576.713944152349
 20
-4984.646122563845
 30
0.0000000000000061
 10
9576.687665229461
 20
-4984.608796397209
 30
0.0000000000000222
 10
9576.653100648675
 20
-4984.524752982895
 30
0.0000000000000222
 10
9576.644811646469
 20
-4984.478032873563
 30
0.0000000000000141
 10
9576.645510192475
 20
-4984.388842425205
 30
0.0000000000000141
 10
9576.654531235303
 20
-4984.340428416711
 30
-0.0000000000000101
 10
9576.690428035088
 20
-4984.249463302172
 30
-0.000000000000002
 10
9576.717307404122
 20
-4984.206914863904
 30
0.0000000000000061
 10
9576.779174427198
 20
-4984.137870469467
 30
0.0000000000000141
 10
9576.818285771862
 20
-4984.106770987785
 30
0.0000000000000141
 10
9576.903936053515
 20
-4984.062358179081
 30
0.0000000000000141
 10
9576.950478470451
 20
-4984.049047346677
 30
0.0000000000000061
 10
9577.037747366701
 20
-4984.040880805014
 30
0.0000000000000061
 10
9577.084292392317
 20
-4984.045480601638
 30
-0.000000000000002
 10
9577.169892449756
 20
-4984.073867963827
 30
0.0000000000000141
 10
9577.208943981812
 20
-4984.097653036634
 30
-0.000000000000002
 10
9577.27052486304
 20
-4984.15514529168
 30
-0.000000000000002
 10
9577.29715764133
 20
-4984.192686113273
 30
0.0000000000000141
 10
9577.332244649353
 20
-4984.27700862949
 30
0.0000000000000222
 10
9577.340695516008
 20
-4984.323787633041
 30
0.0000000000000061
 10
9577.340383931032
 20
-4984.368361640737
 30
0.0000000000000222
  0
SPLINE
  5
12D305
330
18
100
AcDbEntity
  8
姿図
100
AcDbSpline
210
0.0
220
0.0
230
1.0
 70
     8
 71
     3
 72
    14
 73
    10
 74
     0
 42
0.000000001
 43
0.0000000001
 40
1.516995086374685
 40
1.516995086374685
 40
1.516995086374685
 40
1.516995086374685
 40
1.894466177168912
 40
1.894466177168912
 40
2.274814964391462
 40
2.274814964391462
 40
2.651000233863917
 40
2.651000233863917
 40
2.975314369919599
 40
2.975314369919599
 40
2.975314369919599
 40
2.975314369919599
 10
9574.807359362429
 20
-4978.371152179651
 30
0.0000000000000061
 10
9574.775653365383
 20
-4978.375461744937
 30
0.0000000000000061
 10
9574.741836288065
 20
-4978.386847274999
 30
0.0000000000000061
 10
9574.679214147733
 20
-4978.423128848058
 30
0.0000000000000222
 10
9574.650447094724
 20
-4978.448133497679
 30
0.0000000000000061
 10
9574.605113288277
 20
-4978.502882494953
 30
0.0000000000000222
 10
9574.58544090991
 20
-4978.536179380393
 30
-0.000000000000002
 10
9574.560887172194
 20
-4978.602015899381
 30
0.0000000000000061
 10
9574.554270291674
 20
-4978.634032272524
 30
0.0000000000000141
 10
9574.55250586061
 20
-4978.664229363481
 30
-0.000000000000002
  0
SPLINE
  5
12D306
330
18
100
AcDbEntity
  8
姿図
100
AcDbSpline
210
6.199786474116725E-9
220
1.399420241174254E-10
230
1.0
 70
    12
 71
     2
 72
     6
 73
     3
 74
     0
 42
0.000000001
 43
0.0000000001
 40
18.67224162152367
 40
18.67224162152367
 40
18.67224162152367
 40
24.03177626439027
 40
24.03177626439027
 40
24.03177626439027
 10
9565.841649623786
 20
-4986.125367804429
 30
-0.0000000000000101
 41
1.000007196260523
 10
9565.825048824396
 20
-4985.390025796753
 30
0.0000000000000061
 41
1.000006449331705
 10
9565.808415078833
 20
-4984.6531664428
 30
0.0000000000000141
 41
1.000004680735829
  0
SPLINE
  5
12D307
330
18
100
AcDbEntity
  8
姿図
100
AcDbSpline
210
0.0
220
0.0
230
1.0
 70
     8
 71
     3
 72
    24
 73
    20
 74
     0
 42
0.000000001
 43
0.0000000001
 40
0.0132670700154636
 40
0.0132670700154636
 40
0.0132670700154636
 40
0.0132670700154636
 40
0.5643354427835523
 40
0.5643354427835523
 40
1.128670885567105
 40
1.128670885567105
 40
1.693006328350657
 40
1.693006328350657
 40
2.257341771134209
 40
2.257341771134209
 40
2.838611106649443
 40
2.838611106649443
 40
3.419880442164678
 40
3.419880442164678
 40
4.001149777679912
 40
4.001149777679912
 40
4.582419113195146
 40
4.582419113195146
 40
4.599511058232551
 40
4.599511058232551
 40
4.599511058232551
 40
4.599511058232551
 10
9565.808415078836
 20
-4984.653166442804
 30
0.0000000000000141
 10
9565.809552992721
 20
-4984.703574962299
 30
0.0000000000000061
 10
9565.809977212039
 20
-4984.754311202499
 30
-0.000000000000002
 10
9565.809187157416
 20
-4984.853561845206
 30
0.0000000000000222
 10
9565.807933701855
 20
-4984.901994407285
 30
0.0000000000000222
 10
9565.803843536849
 20
-4984.991749906559
 30
0.0000000000000061
 10
9565.801005353094
 20
-4985.033145980264
 30
-0.000000000000002
 10
9565.794141600056
 20
-4985.106462932673
 30
0.0000000000000061
 10
9565.790118299725
 20
-4985.13838061875
 30
0.0000000000000141
 10
9565.781367506297
 20
-4985.19243221401
 30
-0.000000000000002
 10
9565.77631245306
 20
-4985.216149757198
 30
0.0000000000000061
 10
9565.765401163364
 20
-4985.253173091661
 30
-0.000000000000002
 10
9565.759548081887
 20
-4985.266484070372
 30
0.0000000000000222
 10
9565.747580036275
 20
-4985.281485472055
 30
-0.000000000000002
 10
9565.741457779413
 20
-4985.283188285989
 30
0.0000000000000061
 10
9565.729458441305
 20
-4985.275440919769
 30
0.0000000000000141
 10
9565.723581868211
 20
-4985.265986901889
 30
0.0000000000000303
 10
9565.717885799184
 20
-4985.251677127037
 30
0.0000000000000141
 10
9565.717723050535
 20
-4985.251263754096
 30
0.0000000000000222
 10
9565.717560265357
 20
-4985.250845749893
 30
0.0000000000000061
  0
SPLINE
  5
12D308
330
18
100
AcDbEntity
  8
姿図
100
AcDbSpline
210
0.0
220
0.0
230
1.0
 70
    11
 71
     3
 72
    38
 73
    34
 74
     0
 42
0.000000001
 43
0.0000000001
 40
0.0
 40
0.0
 40
0.0
 40
0.0
 40
0.4899871145494816
 40
0.4899871145494816
 40
0.9799742290989633
 40
0.9799742290989633
 40
1.469880324151052
 40
1.469880324151052
 40
1.959786419203141
 40
1.959786419203141
 40
2.44969251425523
 40
2.44969251425523
 40
2.939598609307319
 40
2.939598609307319
 40
3.429585723856792
 40
3.429585723856792
 40
3.919572838406264
 40
3.919572838406264
 40
4.409171093943907
 40
4.409171093943907
 40
4.898769349481552
 40
4.898769349481552
 40
5.388322667025808
 40
5.388322667025808
 40
5.877875984570063
 40
5.877875984570063
 40
6.367429302114317
 40
6.367429302114317
 40
6.856982619658572
 40
6.856982619658572
 40
7.346580875196196
 40
7.346580875196196
 40
7.83617913073382
 40
7.83617913073382
 40
7.83617913073382
 40
7.83617913073382
 10
9565.465384834306
 20
-4987.866937622181
 30
0.0000000000000141
 10
9565.46443111708
 20
-4987.911736142515
 30
0.0000000000000061
 10
9565.46158743304
 20
-4987.961875307312
 30
0.0000000000000061
 10
9565.452377728443
 20
-4988.059362620646
 30
0.0000000000000141
 10
9565.446021845326
 20
-4988.106711544539
 30
0.0000000000000141
 10
9565.432193881838
 20
-4988.186755831214
 30
0.0000000000000061
 10
9565.423801973027
 20
-4988.224788218908
 30
-0.000000000000002
 10
9565.4063101806
 20
-4988.284387711311
 30
0.0000000000000061
 10
9565.397220358782
 20
-4988.305955095479
 30
-0.0000000000000101
 10
9565.380899939435
 20
-4988.32961619245
 30
0.0000000000000061
 10
9565.372583080285
 20
-4988.333284750904
 30
0.0000000000000141
 10
9565.358057929085
 20
-4988.320102938814
 30
0.0000000000000061
 10
9565.351839476529
 20
-4988.303252431907
 30
0.0000000000000061
 10
9565.342597198329
 20
-4988.256655032469
 30
-0.000000000000002
 10
9565.338955937705
 20
-4988.223799816277
 30
0.0000000000000141
 10
9565.334913375946
 20
-4988.145525438139
 30
0.0000000000000222
 10
9565.334501992536
 20
-4988.100105420864
 30
0.0000000000000141
 10
9565.336422710016
 20
-4988.010523577944
 30
0.0000000000000222
 10
9565.338880667861
 20
-4987.960394271038
 30
0.0000000000000141
 10
9565.346685605024
 20
-4987.862898838928
 30
0.0000000000000141
 10
9565.352042704957
 20
-4987.815533329423
 30
0.0000000000000061
 10
9565.363991799126
 20
-4987.735458648293
 30
0.0000000000000141
 10
9565.37138185954
 20
-4987.697410496743
 30
0.0000000000000141
 10
9565.387456055205
 20
-4987.637797076161
 30
-0.000000000000002
 10
9565.396150292565
 20
-4987.616232272185
 30
0.0000000000000141
 10
9565.412458959707
 20
-4987.592588213392
 30
-0.000000000000002
 10
9565.421160749805
 20
-4987.588932520033
 30
0.0000000000000141
 10
9565.43708953456
 20
-4987.60214850395
 30
0.0000000000000061
 10
9565.444306423402
 20
-4987.619019721541
 30
-0.000000000000002
 10
9565.45542706962
 20
-4987.665648242207
 30
0.0000000000000141
 10
9565.460070231366
 20
-4987.698515523676
 30
-0.000000000000002
 10
9565.465530630923
 20
-4987.776779071377
 30
0.0000000000000061
 10
9565.466337794654
 20
-4987.822174654437
 30
0.0000000000000222
 10
9565.465384834306
 20
-4987.866937622181
 30
0.0000000000000141
  0
ARC
  5
12D309
330
18
100
AcDbEntity
  8
姿図
100
AcDbCircle
 10
9597.265504334111
 20
-5047.392633567818
 30
0.0
 40
39.33120301649688
100
AcDbArc
 50
106.8206178016646
 51
121.2112053710963
  0
ARC
  5
12D30A
330
18
100
AcDbEntity
  8
姿図
100
AcDbCircle
 10
9623.280459223968
 20
-5057.581008316002
 30
-0.0000000000000061
 40
50.70022945072625
100
AcDbArc
 50
123.5328987203788
 51
126.6224344031526
  0
ARC
  5
12D30B
330
18
100
AcDbEntity
  8
姿図
100
AcDbCircle
 10
9614.10958689909
 20
-4971.473725601742
 30
0.0
 40
47.55327128227507
100
AcDbArc
 50
233.5901345256645
 51
239.6115647317654
  0
ARC
  5
12D30C
330
18
100
AcDbEntity
  8
姿図
100
AcDbCircle
 10
9614.10958689909
 20
-4971.473725601742
 30
0.0
 40
47.55327128227507
100
AcDbArc
 50
243.2468135642899
 51
246.6642495118248
  0
ARC
  5
12D30D
330
18
100
AcDbEntity
  8
姿図
100
AcDbCircle
 10
9595.201912982355
 20
-5015.227995571439
 30
0.0
 40
0.1152954029574709
100
AcDbArc
 50
307.9750042488932
 51
52.02499575110675
  0
ARC
  5
12D30E
330
18
100
AcDbEntity
  8
姿図
100
AcDbCircle
 10
9623.280459223968
 20
-5057.581008316002
 30
-0.0000000000000061
 40
50.70022945072625
100
AcDbArc
 50
129.4874917266434
 51
135.2542785562878
  0
ENDSEC
  0
SECTION
  2
OBJECTS
  0
DICTIONARY
  5
C
330
0
100
AcDbDictionary
281
     1
  3
ACAD_GROUP
350
D
  3
ACAD_IMAGE_VARS
350
12D4F6
  3
ACAD_LAYOUT
350
617
  3
ACAD_MLINESTYLE
350
E
  3
ACAD_PLOTSETTINGS
350
618
  3
ACAD_PLOTSTYLENAME
350
615
  3
ACAD_SCALELIST
350
A36
  3
AcadDim
350
AB4
  3
AcDbVariableDictionary
350
6DE
  3
APPDATA
350
12D4F5
  3
DWGPROPS
350
12D51A
  0
DICTIONARY
  5
8BF
330
2
100
AcDbDictionary
280
     1
281
     1
  3
ACAD_LAYERSTATES
360
8C0
  0
DICTIONARY
  5
A60
330
F
100
AcDbDictionary
280
     1
281
     1
  3
ADSK_XREC_LAYER_RECONCILED
360
A61
  0
DICTIONARY
  5
A66
330
34
100
AcDbDictionary
280
     1
281
     1
  3
ADSK_XREC_LAYER_RECONCILED
360
A67
  0
DICTIONARY
  5
A6E
330
2F4
100
AcDbDictionary
280
     1
281
     1
  3
ADSK_XREC_LAYER_RECONCILED
360
A6F
  0
DICTIONARY
  5
A72
330
305
100
AcDbDictionary
280
     1
281
     1
  3
ADSK_XREC_LAYER_RECONCILED
360
A73
  0
DICTIONARY
  5
143F
330
18
100
AcDbDictionary
280
     1
281
     1
  3
ACAD_SORTENTS
360
1440
  0
DICTIONARY
  5
D
102
{ACAD_REACTORS
330
C
102
}
330
C
100
AcDbDictionary
281
     1
  0
RASTERVARIABLES
  5
12D4F6
102
{ACAD_REACTORS
330
C
102
}
330
C
100
AcDbRasterVariables
 90
        0
 70
     1
 71
     1
 72
     0
  0
DICTIONARY
  5
617
102
{ACAD_REACTORS
330
C
102
}
330
C
100
AcDbDictionary
281
     1
  3
Model
350
619
  3
ﾚｲｱｳﾄ1
350
61A
  0
DICTIONARY
  5
E
102
{ACAD_REACTORS
330
C
102
}
330
C
100
AcDbDictionary
281
     1
  3
STANDARD
350
1B
  0
DICTIONARY
  5
618
102
{ACAD_REACTORS
330
C
102
}
330
C
100
AcDbDictionary
281
     1
  0
ACDBDICTIONARYWDFLT
  5
615
102
{ACAD_REACTORS
330
C
102
}
330
C
100
AcDbDictionary
281
     1
  3
Normal
350
616
100
AcDbDictionaryWithDefault
340
616
  0
DICTIONARY
  5
A36
102
{ACAD_REACTORS
330
C
102
}
330
C
100
AcDbDictionary
281
     1
  3
A0
350
A37
  3
A1
350
A38
  3
A2
350
A39
  3
A3
350
A3A
  3
A4
350
A3B
  3
A5
350
A3C
  3
A6
350
A3D
  3
A7
350
A3E
  3
A8
350
A3F
  3
A9
350
A40
  3
B0
350
A41
  3
B1
350
A42
  3
B2
350
A43
  3
B3
350
A44
  3
B4
350
A45
  3
B5
350
A46
  3
B6
350
A47
  3
B7
350
A48
  3
B8
350
A49
  3
B9
350
A4A
  3
C0
350
A4B
  3
C1
350
A4C
  3
C2
350
A4D
  3
C3
350
A4E
  3
C4
350
A4F
  3
C5
350
A50
  3
C6
350
A51
  3
C7
350
A52
  3
C8
350
A53
  3
C9
350
A54
  3
D0
350
A55
  3
D1
350
A56
  3
D2
350
A57
  0
XRECORD
  5
AB4
102
{ACAD_REACTORS
330
C
102
}
330
C
100
AcDbXrecord
280
     1
 90
   990106
  3
OPEN
 60
     0
 61
     0
 62
     1
 63
     3
 64
     1
 65
     0
 66
     0
 67
     3
 68
     1
 69
     0
 70
     0
 71
     0
 72
     0
 40
0.0
170
     2
  0
DICTIONARY
  5
6DE
102
{ACAD_REACTORS
330
C
102
}
330
C
100
AcDbDictionary
281
     1
  3
DIMASSOC
350
6DF
  3
INDEXCTL
350
A93
  3
PROJECTNAME
350
6E0
  3
SORTENTS
350
A92
  0
DICTIONARY
  5
12D4F5
102
{ACAD_REACTORS
330
C
102
}
330
C
100
AcDbDictionary
281
     1
  0
XRECORD
  5
12D51A
102
{ACAD_REACTORS
330
C
102
}
330
C
100
AcDbXrecord
280
     1
  1
DWGPROPS COOKIE
  2

  3

  4

  6

  7

  8
SPAX
  9

300
=
301
=
302
=
303
=
304
=
305
=
306
=
307
=
308
=
309
=
 40
0.0
 41
2448636.244629629
 42
2456821.230831701
  1

 90
        0
  0
DICTIONARY
  5
8C0
102
{ACAD_REACTORS
330
8BF
102
}
330
8BF
100
AcDbDictionary
281
     1
  0
XRECORD
  5
A61
102
{ACAD_REACTORS
330
A60
102
}
330
A60
100
AcDbXrecord
280
     1
290
     1
  0
XRECORD
  5
A67
102
{ACAD_REACTORS
330
A66
102
}
330
A66
100
AcDbXrecord
280
     1
290
     1
  0
XRECORD
  5
A6F
102
{ACAD_REACTORS
330
A6E
102
}
330
A6E
100
AcDbXrecord
280
     1
290
     1
  0
XRECORD
  5
A73
102
{ACAD_REACTORS
330
A72
102
}
330
A72
100
AcDbXrecord
280
     1
290
     1
  0
SORTENTSTABLE
  5
1440
102
{ACAD_REACTORS
330
143F
102
}
330
143F
100
AcDbSortentsTable
330
18
331
0
  5
1082BB
331
D0CC6
  5
D0CC6
331
F6D77
  5
F6D77
331
F6D78
  5
F6D78
  0
LAYOUT
  5
619
102
{ACAD_REACTORS
330
617
102
}
330
617
100
AcDbPlotSettings
  1

  2
JUST PDF 2
  4
A4
  6

 40
3.174999952316284
 41
3.174999952316284
 42
3.175003051757812
 43
3.17498779296875
 44
209.8886566162109
 45
297.0530090332031
 46
14.27171755861491
 47
9.855173074625782
 48
9535.33024626694
 49
-5472.288030791531
140
9885.320683256754
141
-4930.302680514198
142
1.0
143
2.0
 70
  3748
 72
     1
 73
     0
 74
     4
  7
spax form.ctb
 75
     0
147
2.049951397771953
148
-9535.33024626694
149
5472.288030791531
100
AcDbLayout
  1
Model
 70
     1
 71
     0
 10
0.0
 20
0.0
 11
12.0
 21
9.0
 12
0.0
 22
0.0
 32
0.0
 14
9541.971482928773
 24
-5064.376932514987
 34
-0.0000000000000122
 15
9611.304816262107
 25
-4975.639168873628
 35
0.0000000000000222
146
0.0
 13
0.0
 23
0.0
 33
0.0
 16
1.0
 26
0.0
 36
0.0
 17
0.0
 27
1.0
 37
0.0
 76
     0
330
18
331
12A532
1001
ACAD_PSEXT
1000
JUST PDF 2
1000
JUST PDF 2
1000
JUST PDF 2 Port:
1000

1070
     0
  0
LAYOUT
  5
61A
102
{ACAD_REACTORS
330
617
102
}
330
617
100
AcDbPlotSettings
  1

  2
Canon LASER SHOT LBP-750
  4

  6

 40
0.0
 41
0.0
 42
0.0
 43
0.0
 44
0.0
 45
0.0
 46
0.0
 47
0.0
 48
0.0
 49
0.0
140
0.0
141
0.0
142
1.0
143
1.0
 70
   688
 72
     0
 73
     0
 74
     5
  7
spax form.ctb
 75
    16
147
1.0
148
0.0
149
0.0
100
AcDbLayout
  1
ﾚｲｱｳﾄ1
 70
     0
 71
     1
 10
0.0
 20
0.0
 11
12.0
 21
9.0
 12
0.0
 22
0.0
 32
0.0
 14
1.000000000000000E+20
 24
1.000000000000000E+20
 34
1.000000000000000E+20
 15
-1.000000000000000E+20
 25
-1.000000000000000E+20
 35
-1.000000000000000E+20
146
0.0
 13
0.0
 23
0.0
 33
0.0
 16
1.0
 26
0.0
 36
0.0
 17
0.0
 27
1.0
 37
0.0
 76
     0
330
15
  0
MLINESTYLE
  5
1B
102
{ACAD_REACTORS
330
E
102
}
330
E
100
AcDbMlineStyle
  2
STANDARD
 70
     0
  3

 62
     0
 51
90.0
 52
90.0
 71
     2
 49
0.5
 62
   256
  6
BYLAYER
 49
-0.5
 62
   256
  6
BYLAYER
  0
ACDBPLACEHOLDER
  5
616
102
{ACAD_REACTORS
330
615
102
}
330
615
  0
SCALE
  5
A37
102
{ACAD_REACTORS
330
A36
102
}
330
A36
100
AcDbScale
 70
     0
300
1:1
140
1.0
141
1.0
290
     1
  0
SCALE
  5
A38
102
{ACAD_REACTORS
330
A36
102
}
330
A36
100
AcDbScale
 70
     0
300
1:2
140
1.0
141
2.0
290
     0
  0
SCALE
  5
A39
102
{ACAD_REACTORS
330
A36
102
}
330
A36
100
AcDbScale
 70
     0
300
1:4
140
1.0
141
4.0
290
     0
  0
SCALE
  5
A3A
102
{ACAD_REACTORS
330
A36
102
}
330
A36
100
AcDbScale
 70
     0
300
1:5
140
1.0
141
5.0
290
     0
  0
SCALE
  5
A3B
102
{ACAD_REACTORS
330
A36
102
}
330
A36
100
AcDbScale
 70
     0
300
1:8
140
1.0
141
8.0
290
     0
  0
SCALE
  5
A3C
102
{ACAD_REACTORS
330
A36
102
}
330
A36
100
AcDbScale
 70
     0
300
1:10
140
1.0
141
10.0
290
     0
  0
SCALE
  5
A3D
102
{ACAD_REACTORS
330
A36
102
}
330
A36
100
AcDbScale
 70
     0
300
1:16
140
1.0
141
16.0
290
     0
  0
SCALE
  5
A3E
102
{ACAD_REACTORS
330
A36
102
}
330
A36
100
AcDbScale
 70
     0
300
1:20
140
1.0
141
20.0
290
     0
  0
SCALE
  5
A3F
102
{ACAD_REACTORS
330
A36
102
}
330
A36
100
AcDbScale
 70
     0
300
1:30
140
1.0
141
30.0
290
     0
  0
SCALE
  5
A40
102
{ACAD_REACTORS
330
A36
102
}
330
A36
100
AcDbScale
 70
     0
300
1:40
140
1.0
141
40.0
290
     0
  0
SCALE
  5
A41
102
{ACAD_REACTORS
330
A36
102
}
330
A36
100
AcDbScale
 70
     0
300
1:50
140
1.0
141
50.0
290
     0
  0
SCALE
  5
A42
102
{ACAD_REACTORS
330
A36
102
}
330
A36
100
AcDbScale
 70
     0
300
1:100
140
1.0
141
100.0
290
     0
  0
SCALE
  5
A43
102
{ACAD_REACTORS
330
A36
102
}
330
A36
100
AcDbScale
 70
     0
300
2:1
140
2.0
141
1.0
290
     0
  0
SCALE
  5
A44
102
{ACAD_REACTORS
330
A36
102
}
330
A36
100
AcDbScale
 70
     0
300
4:1
140
4.0
141
1.0
290
     0
  0
SCALE
  5
A45
102
{ACAD_REACTORS
330
A36
102
}
330
A36
100
AcDbScale
 70
     0
300
8:1
140
8.0
141
1.0
290
     0
  0
SCALE
  5
A46
102
{ACAD_REACTORS
330
A36
102
}
330
A36
100
AcDbScale
 70
     0
300
10:1
140
10.0
141
1.0
290
     0
  0
SCALE
  5
A47
102
{ACAD_REACTORS
330
A36
102
}
330
A36
100
AcDbScale
 70
     0
300
100:1
140
100.0
141
1.0
290
     0
  0
SCALE
  5
A48
102
{ACAD_REACTORS
330
A36
102
}
330
A36
100
AcDbScale
 70
     0
300
1/128" = 1'-0"
140
0.0078125
141
12.0
290
     0
  0
SCALE
  5
A49
102
{ACAD_REACTORS
330
A36
102
}
330
A36
100
AcDbScale
 70
     0
300
1/64" = 1'-0"
140
0.015625
141
12.0
290
     0
  0
SCALE
  5
A4A
102
{ACAD_REACTORS
330
A36
102
}
330
A36
100
AcDbScale
 70
     0
300
1/32" = 1'-0"
140
0.03125
141
12.0
290
     0
  0
SCALE
  5
A4B
102
{ACAD_REACTORS
330
A36
102
}
330
A36
100
AcDbScale
 70
     0
300
1/16" = 1'-0"
140
0.0625
141
12.0
290
     0
  0
SCALE
  5
A4C
102
{ACAD_REACTORS
330
A36
102
}
330
A36
100
AcDbScale
 70
     0
300
3/32" = 1'-0"
140
0.09375
141
12.0
290
     0
  0
SCALE
  5
A4D
102
{ACAD_REACTORS
330
A36
102
}
330
A36
100
AcDbScale
 70
     0
300
1/8" = 1'-0"
140
0.125
141
12.0
290
     0
  0
SCALE
  5
A4E
102
{ACAD_REACTORS
330
A36
102
}
330
A36
100
AcDbScale
 70
     0
300
3/16" = 1'-0"
140
0.1875
141
12.0
290
     0
  0
SCALE
  5
A4F
102
{ACAD_REACTORS
330
A36
102
}
330
A36
100
AcDbScale
 70
     0
300
1/4" = 1'-0"
140
0.25
141
12.0
290
     0
  0
SCALE
  5
A50
102
{ACAD_REACTORS
330
A36
102
}
330
A36
100
AcDbScale
 70
     0
300
3/8" = 1'-0"
140
0.375
141
12.0
290
     0
  0
SCALE
  5
A51
102
{ACAD_REACTORS
330
A36
102
}
330
A36
100
AcDbScale
 70
     0
300
1/2" = 1'-0"
140
0.5
141
12.0
290
     0
  0
SCALE
  5
A52
102
{ACAD_REACTORS
330
A36
102
}
330
A36
100
AcDbScale
 70
     0
300
3/4" = 1'-0"
140
0.75
141
12.0
290
     0
  0
SCALE
  5
A53
102
{ACAD_REACTORS
330
A36
102
}
330
A36
100
AcDbScale
 70
     0
300
1" = 1'-0"
140
1.0
141
12.0
290
     0
  0
SCALE
  5
A54
102
{ACAD_REACTORS
330
A36
102
}
330
A36
100
AcDbScale
 70
     0
300
1-1/2" = 1'-0"
140
1.5
141
12.0
290
     0
  0
SCALE
  5
A55
102
{ACAD_REACTORS
330
A36
102
}
330
A36
100
AcDbScale
 70
     0
300
3" = 1'-0"
140
3.0
141
12.0
290
     0
  0
SCALE
  5
A56
102
{ACAD_REACTORS
330
A36
102
}
330
A36
100
AcDbScale
 70
     0
300
6" = 1'-0"
140
6.0
141
12.0
290
     0
  0
SCALE
  5
A57
102
{ACAD_REACTORS
330
A36
102
}
330
A36
100
AcDbScale
 70
     0
300
1'-0" = 1'-0"
140
12.0
141
12.0
290
     0
  0
DICTIONARYVAR
  5
6DF
102
{ACAD_REACTORS
330
6DE
102
}
330
6DE
100
DictionaryVariables
280
     0
  1
1
  0
DICTIONARYVAR
  5
A93
102
{ACAD_REACTORS
330
6DE
102
}
330
6DE
100
DictionaryVariables
280
     0
  1
0
  0
DICTIONARYVAR
  5
6E0
102
{ACAD_REACTORS
330
6DE
102
}
330
6DE
100
DictionaryVariables
280
     0
  1

  0
DICTIONARYVAR
  5
A92
102
{ACAD_REACTORS
330
6DE
102
}
330
6DE
100
DictionaryVariables
280
     0
  1
127
  0
ENDSEC
  0
EOF
