  0
SECTION
  2
HEADER
  9
$ACADVER
  1
AC1015
  9
$ACADMAINTVER
 70
    20
  9
$DWGCODEPAGE
  3
ANSI_932
  9
$INSBASE
 10
0.0
 20
0.0
 30
0.0
  9
$EXTMIN
 10
2831.251451578414
 20
-1962.957683891736
 30
-0.0000000000000143
  9
$EXTMAX
 10
2887.989469945882
 20
-1882.220726470167
 30
0.0000000000000162
  9
$LIMMIN
 10
0.0
 20
0.0
  9
$LIMMAX
 10
840.0
 20
594.0
  9
$ORTHOMODE
 70
     0
  9
$REGENMODE
 70
     1
  9
$FILLMODE
 70
     1
  9
$QTEXTMODE
 70
     0
  9
$MIRRTEXT
 70
     1
  9
$LTSCALE
 40
7.0
  9
$ATTMODE
 70
     0
  9
$TEXTSIZE
 40
6.0
  9
$TRACEWID
 40
1.0
  9
$TEXTSTYLE
  7
STANDARD
  9
$CLAYER
  8
0
  9
$CELTYPE
  6
BYLAYER
  9
$CECOLOR
 62
   256
  9
$CELTSCALE
 40
1.0
  9
$DISPSILH
 70
     0
  9
$DIMSCALE
 40
1.0
  9
$DIMASZ
 40
6.0
  9
$DIMEXO
 40
3.0
  9
$DIMDLI
 40
7.149999999999999
  9
$DIMRND
 40
0.0
  9
$DIMDLE
 40
0.0
  9
$DIMEXE
 40
2.0
  9
$DIMTP
 40
0.0
  9
$DIMTM
 40
0.0
  9
$DIMTXT
 40
5.0
  9
$DIMCEN
 40
0.0
  9
$DIMTSZ
 40
0.0
  9
$DIMTOL
 70
     0
  9
$DIMLIM
 70
     0
  9
$DIMTIH
 70
     0
  9
$DIMTOH
 70
     0
  9
$DIMSE1
 70
     0
  9
$DIMSE2
 70
     0
  9
$DIMTAD
 70
     3
  9
$DIMZIN
 70
     8
  9
$DIMBLK
  1
Open30
  9
$DIMASO
 70
     1
  9
$DIMSHO
 70
     0
  9
$DIMPOST
  1

  9
$DIMAPOST
  1

  9
$DIMALT
 70
     0
  9
$DIMALTD
 70
     2
  9
$DIMALTF
 40
25.4
  9
$DIMLFAC
 40
1.0
  9
$DIMTOFL
 70
     0
  9
$DIMTVP
 40
0.0
  9
$DIMTIX
 70
     0
  9
$DIMSOXD
 70
     0
  9
$DIMSAH
 70
     0
  9
$DIMBLK1
  1

  9
$DIMBLK2
  1

  9
$DIMSTYLE
  2
STANDARD
  9
$DIMCLRD
 70
     0
  9
$DIMCLRE
 70
     0
  9
$DIMCLRT
 70
     0
  9
$DIMTFAC
 40
1.0
  9
$DIMGAP
 40
2.0
  9
$DIMJUST
 70
     0
  9
$DIMSD1
 70
     0
  9
$DIMSD2
 70
     0
  9
$DIMTOLJ
 70
     1
  9
$DIMTZIN
 70
     0
  9
$DIMALTZ
 70
     0
  9
$DIMALTTZ
 70
     0
  9
$DIMUPT
 70
     1
  9
$DIMDEC
 70
     2
  9
$DIMTDEC
 70
     2
  9
$DIMALTU
 70
     2
  9
$DIMALTTD
 70
     2
  9
$DIMTXSTY
  7
STANDARD
  9
$DIMAUNIT
 70
     0
  9
$DIMADEC
 70
     2
  9
$DIMALTRND
 40
0.0
  9
$DIMAZIN
 70
     2
  9
$DIMDSEP
 70
    46
  9
$DIMATFIT
 70
     1
  9
$DIMFRAC
 70
     0
  9
$DIMLDRBLK
  1
Open30
  9
$DIMLUNIT
 70
     2
  9
$DIMLWD
 70
    -2
  9
$DIMLWE
 70
    -2
  9
$DIMTMOVE
 70
     0
  9
$LUNITS
 70
     2
  9
$LUPREC
 70
     2
  9
$SKETCHINC
 40
0.1
  9
$FILLETRAD
 40
0.0
  9
$AUNITS
 70
     0
  9
$AUPREC
 70
     2
  9
$MENU
  1
ACAD
  9
$ELEVATION
 40
0.0
  9
$PELEVATION
 40
0.0
  9
$THICKNESS
 40
0.0
  9
$LIMCHECK
 70
     0
  9
$CHAMFERA
 40
0.0
  9
$CHAMFERB
 40
0.0
  9
$CHAMFERC
 40
0.0
  9
$CHAMFERD
 40
0.0
  9
$SKPOLY
 70
     0
  9
$TDCREATE
 40
2449505.922222222
  9
$TDUCREATE
 40
2449505.547222222
  9
$TDUPDATE
 40
2457098.383842430
  9
$TDUUPDATE
 40
2457098.008842431
  9
$TDINDWG
 40
2.3376111343
  9
$TDUSRTIMER
 40
2456808.257122743
  9
$USRTIMER
 70
     1
  9
$ANGBASE
 50
0.0
  9
$ANGDIR
 70
     0
  9
$PDMODE
 70
     3
  9
$PDSIZE
 40
0.0
  9
$PLINEWID
 40
0.0
  9
$SPLFRAME
 70
     0
  9
$SPLINETYPE
 70
     6
  9
$SPLINESEGS
 70
     8
  9
$HANDSEED
  5
2280D
  9
$SURFTAB1
 70
     6
  9
$SURFTAB2
 70
     6
  9
$SURFTYPE
 70
     6
  9
$SURFU
 70
     6
  9
$SURFV
 70
     6
  9
$UCSBASE
  2

  9
$UCSNAME
  2

  9
$UCSORG
 10
0.0
 20
0.0
 30
0.0
  9
$UCSXDIR
 10
1.0
 20
0.0
 30
0.0
  9
$UCSYDIR
 10
0.0
 20
1.0
 30
0.0
  9
$UCSORTHOREF
  2

  9
$UCSORTHOVIEW
 70
     0
  9
$UCSORGTOP
 10
0.0
 20
0.0
 30
0.0
  9
$UCSORGBOTTOM
 10
0.0
 20
0.0
 30
0.0
  9
$UCSORGLEFT
 10
0.0
 20
0.0
 30
0.0
  9
$UCSORGRIGHT
 10
0.0
 20
0.0
 30
0.0
  9
$UCSORGFRONT
 10
0.0
 20
0.0
 30
0.0
  9
$UCSORGBACK
 10
0.0
 20
0.0
 30
0.0
  9
$PUCSBASE
  2

  9
$PUCSNAME
  2

  9
$PUCSORG
 10
0.0
 20
0.0
 30
0.0
  9
$PUCSXDIR
 10
1.0
 20
0.0
 30
0.0
  9
$PUCSYDIR
 10
0.0
 20
1.0
 30
0.0
  9
$PUCSORTHOREF
  2

  9
$PUCSORTHOVIEW
 70
     0
  9
$PUCSORGTOP
 10
0.0
 20
0.0
 30
0.0
  9
$PUCSORGBOTTOM
 10
0.0
 20
0.0
 30
0.0
  9
$PUCSORGLEFT
 10
0.0
 20
0.0
 30
0.0
  9
$PUCSORGRIGHT
 10
0.0
 20
0.0
 30
0.0
  9
$PUCSORGFRONT
 10
0.0
 20
0.0
 30
0.0
  9
$PUCSORGBACK
 10
0.0
 20
0.0
 30
0.0
  9
$USERI1
 70
     0
  9
$USERI2
 70
     0
  9
$USERI3
 70
     0
  9
$USERI4
 70
     0
  9
$USERI5
 70
     0
  9
$USERR1
 40
0.0
  9
$USERR2
 40
0.0
  9
$USERR3
 40
0.0
  9
$USERR4
 40
0.0
  9
$USERR5
 40
0.0
  9
$WORLDVIEW
 70
     0
  9
$SHADEDGE
 70
     3
  9
$SHADEDIF
 70
    70
  9
$TILEMODE
 70
     1
  9
$MAXACTVP
 70
    16
  9
$PINSBASE
 10
0.0
 20
0.0
 30
0.0
  9
$PLIMCHECK
 70
     0
  9
$PEXTMIN
 10
1.000000000000000E+20
 20
1.000000000000000E+20
 30
1.000000000000000E+20
  9
$PEXTMAX
 10
-1.000000000000000E+20
 20
-1.000000000000000E+20
 30
-1.000000000000000E+20
  9
$PLIMMIN
 10
0.0
 20
0.0
  9
$PLIMMAX
 10
12.0
 20
9.0
  9
$UNITMODE
 70
     0
  9
$VISRETAIN
 70
     0
  9
$PLINEGEN
 70
     0
  9
$PSLTSCALE
 70
     0
  9
$TREEDEPTH
 70
  3020
  9
$CMLSTYLE
  2
STANDARD
  9
$CMLJUST
 70
     0
  9
$CMLSCALE
 40
1.0
  9
$PROXYGRAPHICS
 70
     1
  9
$MEASUREMENT
 70
     0
  9
$CELWEIGHT
370
    -1
  9
$ENDCAPS
280
     0
  9
$JOINSTYLE
280
     0
  9
$LWDISPLAY
290
     0
  9
$INSUNITS
 70
     0
  9
$HYPERLINKBASE
  1

  9
$STYLESHEET
  1
spax form.ctb
  9
$XEDIT
290
     1
  9
$CEPSNTYPE
380
     0
  9
$PSTYLEMODE
290
     1
  9
$FINGERPRINTGUID
  2
{C1CFCF3E-DF91-11D3-B30C-0060B0FA8DFC}
  9
$VERSIONGUID
  2
{AD839C2B-F861-455F-A2A9-E062003ECF32}
  9
$EXTNAMES
290
     1
  9
$PSVPSCALE
 40
0.0
  9
$OLESTARTUP
290
     0
  0
ENDSEC
  0
SECTION
  2
CLASSES
  0
CLASS
  1
ACDBDICTIONARYWDFLT
  2
AcDbDictionaryWithDefault
  3
ObjectDBX Classes
 90
        0
280
     0
281
     0
  0
CLASS
  1
ACDBPLACEHOLDER
  2
AcDbPlaceHolder
  3
ObjectDBX Classes
 90
        0
280
     0
281
     0
  0
CLASS
  1
LAYOUT
  2
AcDbLayout
  3
ObjectDBX Classes
 90
        0
280
     0
281
     0
  0
CLASS
  1
DICTIONARYVAR
  2
AcDbDictionaryVar
  3
ObjectDBX Classes
 90
        0
280
     0
281
     0
  0
CLASS
  1
MATERIAL
  2
AcDbMaterial
  3
ObjectDBX Classes
 90
     1153
280
     0
281
     0
  0
CLASS
  1
VISUALSTYLE
  2
AcDbVisualStyle
  3
ObjectDBX Classes
 90
     4095
280
     0
281
     0
  0
CLASS
  1
TABLESTYLE
  2
AcDbTableStyle
  3
ObjectDBX Classes
 90
     4095
280
     0
281
     0
  0
CLASS
  1
SCALE
  2
AcDbScale
  3
ObjectDBX Classes
 90
     1153
280
     0
281
     0
  0
CLASS
  1
MLEADERSTYLE
  2
AcDbMLeaderStyle
  3
ACDB_MLEADERSTYLE_CLASS
 90
     4095
280
     0
281
     0
  0
CLASS
  1
CELLSTYLEMAP
  2
AcDbCellStyleMap
  3
ObjectDBX Classes
 90
     1152
280
     0
281
     0
  0
CLASS
  1
RASTERVARIABLES
  2
AcDbRasterVariables
  3
ISM
 90
        0
280
     0
281
     0
  0
CLASS
  1
SORTENTSTABLE
  2
AcDbSortentsTable
  3
ObjectDBX Classes
 90
        0
280
     0
281
     0
  0
CLASS
  1
SUN
  2
AcDbSun
  3
SCENEOE
 90
    33921
280
     0
281
     0
  0
ENDSEC
  0
SECTION
  2
TABLES
  0
TABLE
  2
VPORT
  5
8
102
{ACAD_XDICTIONARY
360
207D5
102
}
330
0
100
AcDbSymbolTable
 70
     1
  0
VPORT
  5
1EB79
330
8
100
AcDbSymbolTableRecord
100
AcDbViewportTableRecord
  2
*Active
 70
     0
 10
0.0
 20
0.0
 11
1.0
 21
1.0
 12
2859.620460762148
 22
-1922.589205180952
 13
0.0
 23
0.0
 14
1.0
 24
1.0
 15
20.0
 25
20.0
 16
0.0
 26
0.0
 36
1.0
 17
0.0
 27
0.0
 37
0.0
 40
81.397832925702
 41
1.90983606557377
 42
50.0
 43
0.0
 44
0.0
 50
0.0
 51
0.0
 71
    16
 72
  2000
 73
     1
 74
     0
 75
     0
 76
     0
 77
     0
 78
     1
281
     0
 65
     1
110
0.0
120
0.0
130
0.0
111
1.0
121
0.0
131
0.0
112
0.0
122
1.0
132
0.0
 79
     0
146
0.0
  0
ENDTAB
  0
TABLE
  2
LTYPE
  5
5
330
0
100
AcDbSymbolTable
 70
     3
  0
LTYPE
  5
12
330
5
100
AcDbSymbolTableRecord
100
AcDbLinetypeTableRecord
  2
BYBLOCK
 70
     0
  3

 72
    65
 73
     0
 40
0.0
  0
LTYPE
  5
13
330
5
100
AcDbSymbolTableRecord
100
AcDbLinetypeTableRecord
  2
BYLAYER
 70
     0
  3

 72
    65
 73
     0
 40
0.0
  0
LTYPE
  5
14
330
5
100
AcDbSymbolTableRecord
100
AcDbLinetypeTableRecord
  2
CONTINUOUS
 70
     0
  3
Solid line
 72
    65
 73
     0
 40
0.0
  0
ENDTAB
  0
TABLE
  2
LAYER
  5
2
102
{ACAD_XDICTIONARY
360
180F7
102
}
330
0
100
AcDbSymbolTable
 70
    16
  0
LAYER
  5
F
102
{ACAD_XDICTIONARY
360
179D2
102
}
330
2
100
AcDbSymbolTableRecord
100
AcDbLayerTableRecord
  2
0
 70
     0
 62
     7
  6
CONTINUOUS
370
    -3
390
40CA
  0
LAYER
  5
4C
102
{ACAD_XDICTIONARY
360
179DA
102
}
330
2
100
AcDbSymbolTableRecord
100
AcDbLayerTableRecord
  2
寸法線
 70
     0
 62
     7
  6
CONTINUOUS
370
    -3
390
40CA
  0
LAYER
  5
4D
102
{ACAD_XDICTIONARY
360
179DC
102
}
330
2
100
AcDbSymbolTableRecord
100
AcDbLayerTableRecord
  2
姿図
 70
     0
 62
     8
  6
CONTINUOUS
370
    -3
390
40CA
  0
LAYER
  5
4E
330
2
100
AcDbSymbolTableRecord
100
AcDbLayerTableRecord
  2
DEFPOINTS
 70
     0
 62
     7
  6
CONTINUOUS
290
     0
370
    -3
390
40CA
  0
LAYER
  5
40D4
102
{ACAD_XDICTIONARY
360
179E0
102
}
330
2
100
AcDbSymbolTableRecord
100
AcDbLayerTableRecord
  2
文字
 70
     0
 62
     7
  6
CONTINUOUS
370
    -3
390
40CA
  0
ENDTAB
  0
TABLE
  2
STYLE
  5
3
330
0
100
AcDbSymbolTable
 70
     1
  0
STYLE
  5
10
330
3
100
AcDbSymbolTableRecord
100
AcDbTextStyleTableRecord
  2
STANDARD
 70
     0
 40
0.0
 41
1.0
 50
0.0
 71
     0
 42
6.0
  3
MONOTXT
  4
BIGFONT
  0
ENDTAB
  0
TABLE
  2
VIEW
  5
6
330
0
100
AcDbSymbolTable
 70
     1
  0
VIEW
  5
41
330
6
100
AcDbSymbolTableRecord
100
AcDbViewTableRecord
  2
CUT1
 70
     0
 40
612.7795527156796
 10
420.0000000000168
 20
306.3897763578398
 41
840.0000000000337
 11
0.0
 21
0.0
 31
1.0
 12
0.0
 22
0.0
 32
0.0
 42
50.0
 43
0.0
 44
0.0
 50
0.0
 71
     0
281
     0
 72
     0
  0
ENDTAB
  0
TABLE
  2
UCS
  5
7
330
0
100
AcDbSymbolTable
 70
     0
  0
ENDTAB
  0
TABLE
  2
APPID
  5
9
330
0
100
AcDbSymbolTable
 70
    11
  0
APPID
  5
11
330
9
100
AcDbSymbolTableRecord
100
AcDbRegAppTableRecord
  2
ACAD
 70
     0
  0
APPID
  5
179CD
330
9
100
AcDbSymbolTableRecord
100
AcDbRegAppTableRecord
  2
ACAD_MLEADERVER
 70
     0
  0
APPID
  5
18204
330
9
100
AcDbSymbolTableRecord
100
AcDbRegAppTableRecord
  2
ACAD_PSEXT
 70
     0
  0
APPID
  5
1A365
330
9
100
AcDbSymbolTableRecord
100
AcDbRegAppTableRecord
  2
AcadAnnotative
 70
     0
  0
APPID
  5
1A366
330
9
100
AcDbSymbolTableRecord
100
AcDbRegAppTableRecord
  2
ACAD_DSTYLE_DIMJAG
 70
     0
  0
APPID
  5
1A367
330
9
100
AcDbSymbolTableRecord
100
AcDbRegAppTableRecord
  2
ACAD_DSTYLE_DIMTALN
 70
     0
  0
APPID
  5
1A377
330
9
100
AcDbSymbolTableRecord
100
AcDbRegAppTableRecord
  2
ACAD_EXEMPT_FROM_CAD_STANDARDS
 70
     0
  0
APPID
  5
1FF28
330
9
100
AcDbSymbolTableRecord
100
AcDbRegAppTableRecord
  2
AcAecLayerStandard
 70
     0
  0
APPID
  5
20751
330
9
100
AcDbSymbolTableRecord
100
AcDbRegAppTableRecord
  2
ACAD_SPLINE_DATA
 70
     0
  0
APPID
  5
20752
330
9
100
AcDbSymbolTableRecord
100
AcDbRegAppTableRecord
  2
ACAD_SPLINE_DATA2
 70
     0
  0
APPID
  5
20EC6
330
9
100
AcDbSymbolTableRecord
100
AcDbRegAppTableRecord
  2
ASK_MEN_XD
 70
     0
  0
ENDTAB
  0
TABLE
  2
DIMSTYLE
  5
A
330
0
100
AcDbSymbolTable
 70
     2
100
AcDbDimStyleTable
 71
     1
340
1B3A
  0
DIMSTYLE
105
1B3A
330
A
100
AcDbSymbolTableRecord
100
AcDbDimStyleTableRecord
  2
STANDARD
 70
     0
 41
4.0
 42
3.0
 43
7.149999999999999
 44
2.0
 73
     0
 74
     0
 77
     3
 78
     8
 79
     2
140
5.0
141
0.0
147
2.0
179
     2
271
     2
272
     2
288
     1
340
10
341
49C3
342
49C3
  0
ENDTAB
  0
TABLE
  2
BLOCK_RECORD
  5
1
330
0
100
AcDbSymbolTable
 70
    10
  0
BLOCK_RECORD
  5
18
102
{ACAD_XDICTIONARY
360
22686
102
}
330
1
100
AcDbSymbolTableRecord
100
AcDbBlockTableRecord
  2
*MODEL_SPACE
340
40CD
  0
BLOCK_RECORD
  5
15
330
1
100
AcDbSymbolTableRecord
100
AcDbBlockTableRecord
  2
*PAPER_SPACE
340
40CE
  0
BLOCK_RECORD
  5
49C3
330
1
100
AcDbSymbolTableRecord
100
AcDbBlockTableRecord
  2
_OPEN
340
0
  0
BLOCK_RECORD
  5
FD36
330
1
100
AcDbSymbolTableRecord
100
AcDbBlockTableRecord
  2
_Open30
340
0
  0
ENDTAB
  0
ENDSEC
  0
SECTION
  2
BLOCKS
  0
BLOCK
  5
52
330
18
100
AcDbEntity
  8
0
100
AcDbBlockBegin
  2
*MODEL_SPACE
 70
     0
 10
0.0
 20
0.0
 30
0.0
  3
*MODEL_SPACE
  1

  0
ENDBLK
  5
53
330
18
100
AcDbEntity
  8
0
100
AcDbBlockEnd
  0
BLOCK
  5
50
330
15
100
AcDbEntity
 67
     1
  8
0
100
AcDbBlockBegin
  2
*PAPER_SPACE
 70
     0
 10
0.0
 20
0.0
 30
0.0
  3
*PAPER_SPACE
  1

  0
ENDBLK
  5
51
330
15
100
AcDbEntity
 67
     1
  8
0
100
AcDbBlockEnd
  0
BLOCK
  5
49C7
330
49C3
100
AcDbEntity
  8
0
100
AcDbBlockBegin
  2
_OPEN
 70
     0
 10
0.0
 20
0.0
 30
0.0
  3
_OPEN
  1

  0
LINE
  5
49C4
330
49C3
100
AcDbEntity
  8
0
  6
ByBlock
 62
     0
100
AcDbLine
 10
-1.0
 20
0.1666666666666666
 30
0.0
 11
0.0
 21
0.0
 31
0.0
  0
LINE
  5
49C5
330
49C3
100
AcDbEntity
  8
0
  6
ByBlock
 62
     0
100
AcDbLine
 10
0.0
 20
0.0
 30
0.0
 11
-1.0
 21
-0.1666666666666666
 31
0.0
  0
LINE
  5
49C6
330
49C3
100
AcDbEntity
  8
0
  6
ByBlock
 62
     0
100
AcDbLine
 10
0.0
 20
0.0
 30
0.0
 11
-1.0
 21
0.0
 31
0.0
  0
ENDBLK
  5
49C8
330
49C3
100
AcDbEntity
  8
0
100
AcDbBlockEnd
  0
BLOCK
  5
FD3A
330
FD36
100
AcDbEntity
  8
0
100
AcDbBlockBegin
  2
_Open30
 70
     0
 10
0.0
 20
0.0
 30
0.0
  3
_Open30
  1

  0
LINE
  5
FD37
330
FD36
100
AcDbEntity
  8
寸法線
 62
     0
370
    -2
100
AcDbLine
 10
-1.0
 20
0.26794919
 30
0.0
 11
0.0
 21
0.0
 31
0.0
  0
LINE
  5
FD38
330
FD36
100
AcDbEntity
  8
寸法線
 62
     0
370
    -2
100
AcDbLine
 10
0.0
 20
0.0
 30
0.0
 11
-1.0
 21
-0.26794919
 31
0.0
  0
LINE
  5
FD39
330
FD36
100
AcDbEntity
  8
寸法線
 62
     0
370
    -2
100
AcDbLine
 10
0.0
 20
0.0
 30
0.0
 11
-1.0
 21
0.0
 31
0.0
  0
ENDBLK
  5
FD3B
330
FD36
100
AcDbEntity
  8
0
100
AcDbBlockEnd
  0
ENDSEC
  0
SECTION
  2
ENTITIES
  0
SPLINE
  5
20ADC
330
18
100
AcDbEntity
  8
姿図
100
AcDbSpline
210
0.0
220
0.0
230
1.0
 70
     8
 71
     3
 72
    20
 73
    16
 74
     0
 42
0.0000000001
 43
0.0000000001
 40
61.91009950387845
 40
61.91009950387845
 40
61.91009950387845
 40
61.91009950387845
 40
63.27662545801321
 40
63.27662545801321
 40
65.63207741714923
 40
65.63207741714923
 40
66.46294226239624
 40
66.46294226239624
 40
68.78483332584178
 40
68.78483332584178
 40
78.37384755292882
 40
78.37384755292882
 40
82.12808435629298
 40
82.12808435629298
 40
85.66477676586584
 40
85.66477676586584
 40
85.66477676586584
 40
85.66477676586584
 10
2858.081912402834
 20
-1938.694944100431
 30
-0.0000000000000006
 10
2858.221555629868
 20
-1938.54705969108
 30
-0.0000000000000013
 10
2858.345817311994
 20
-1938.404392894972
 30
-0.0000000000000016
 10
2858.642724493608
 20
-1938.042531847532
 30
0.0000000000000006
 10
2858.808052815624
 20
-1937.812816769198
 30
-0.0000000000000033
 10
2858.954194196693
 20
-1937.596528286493
 30
0.0000000000000006
 10
2858.994209453614
 20
-1937.535638489201
 30
-0.0000000000000033
 10
2859.148019826711
 20
-1937.295035740876
 30
0.0000000000000045
 10
2859.241949549647
 20
-1937.134785385404
 30
-0.0000000000000033
 10
2859.720048165607
 20
-1936.259892206119
 30
-0.0000000000000033
 10
2860.189529498685
 20
-1935.175056051569
 30
-0.0000000000000033
 10
2860.495031870386
 20
-1933.128940248721
 30
-0.0000000000000033
 10
2860.535841573398
 20
-1932.540795044868
 30
0.0000000000000045
 10
2860.530155715862
 20
-1931.366790106549
 30
0.0000000000000045
 10
2860.373327602292
 20
-1929.951979224018
 30
-0.0000000000000033
 10
2860.373327602292
 20
-1929.951979224018
 30
-0.0000000000000033
  0
SPLINE
  5
20ADD
330
18
100
AcDbEntity
  8
姿図
100
AcDbSpline
210
-0.000000000000001
220
-0.0000000000000019
230
-1.0
 70
     8
 71
     3
 72
     8
 73
     4
 74
     0
 42
0.0000000001
 43
0.0000000001
 40
-29.73791167171498
 40
-29.73791167171498
 40
-29.73791167171498
 40
-29.73791167171498
 40
-21.8165257845303
 40
-21.8165257845303
 40
-21.8165257845303
 40
-21.8165257845303
 10
2854.705458392906
 20
-1917.082906441994
 30
0.0000000000000006
 10
2857.057130311387
 20
-1917.029501832406
 30
0.0000000000000042
 10
2858.204257716219
 20
-1917.597734943935
 30
0.0000000000000045
 10
2860.322936603182
 20
-1920.264352483006
 30
0.0000000000000045
  0
SPLINE
  5
20ADE
330
18
100
AcDbEntity
  8
姿図
100
AcDbSpline
210
-0.000000000013102
220
-0.0000000000020952
230
1.0
 70
     8
 71
     3
 72
     8
 73
     4
 74
     0
 42
0.0000000001
 43
0.0000000001
 40
8.0
 40
8.0
 40
8.0
 40
8.0
 40
9.0
 40
9.0
 40
9.0
 40
9.0
 10
2862.650057679535
 20
-1923.668098666049
 30
-0.0000000000000071
 10
2862.650057679535
 20
-1923.668098666049
 30
-0.0000000000000071
 10
2858.855445621235
 20
-1899.681187638823
 30
0.0000000000000033
 10
2858.647071343751
 20
-1898.868996677347
 30
0.0000000000000033
  0
SPLINE
  5
20ADF
330
18
100
AcDbEntity
  8
姿図
100
AcDbSpline
210
-0.0000000000003948
220
0.0000000000019567
230
1.0
 70
     8
 71
     3
 72
     8
 73
     4
 74
     0
 42
0.0000000001
 43
0.0000000001
 40
13.0
 40
13.0
 40
13.0
 40
13.0
 40
14.0
 40
14.0
 40
14.0
 40
14.0
 10
2849.901598888924
 20
-1898.986575743171
 30
0.0000000000000007
 10
2849.901598888924
 20
-1898.986575743171
 30
0.0000000000000007
 10
2847.282254242358
 20
-1899.493245722304
 30
0.0000000000000033
 10
2846.931935462409
 20
-1899.602656999921
 30
0.0000000000000033
  0
SPLINE
  5
20AE0
330
18
100
AcDbEntity
  8
姿図
100
AcDbSpline
210
0.0000000000000759
220
0.0000000000000261
230
1.0
 70
     8
 71
     3
 72
    14
 73
    10
 74
     0
 42
0.0000000001
 43
0.0000000001
 40
-17.67097520731171
 40
-17.67097520731171
 40
-17.67097520731171
 40
-17.67097520731171
 40
-15.46329434907155
 40
-15.46329434907155
 40
-11.48389074227961
 40
-11.48389074227961
 40
-5.954339038219556
 40
-5.954339038219556
 40
-0.5047492958822968
 40
-0.5047492958822968
 40
-0.5047492958822968
 40
-0.5047492958822968
 10
2865.533939223959
 20
-1918.805645140215
 30
0.0000000000000045
 10
2865.63558140337
 20
-1918.979514243863
 30
0.0000000000000006
 10
2865.731464936971
 20
-1919.155104403461
 30
0.0000000000000006
 10
2865.981802426815
 20
-1919.647918985224
 30
0.0000000000000006
 10
2866.119902343466
 20
-1919.962489510152
 30
0.0000000000000006
 10
2866.40630227391
 20
-1920.73373697233
 30
0.0000000000000045
 10
2866.512591378567
 20
-1921.125790584298
 30
0.0000000000000006
 10
2866.655252772119
 20
-1921.811248993939
 30
0.0000000000000084
 10
2866.701066508219
 20
-1922.148771424329
 30
0.0000000000000084
 10
2866.721281325969
 20
-1922.479034578251
 30
0.0000000000000006
  0
LWPOLYLINE
  5
20BE2
330
18
100
AcDbEntity
  8
姿図
100
AcDbPolyline
 90
        3
 70
     0
 43
0.0
 10
2866.456366646469
 20
-1923.770548428567
 10
2865.806183968698
 20
-1925.399712296487
 10
2864.557652242167
 20
-1927.339476364948
  0
ARC
  5
20BE3
330
18
100
AcDbEntity
  8
姿図
100
AcDbCircle
 10
2838.130846191864
 20
-1911.763745149954
 30
0.0000000000000007
 40
32.4010045787127
100
AcDbArc
 50
312.1497441817832
 51
337.7894011510978
  0
ARC
  5
20BE4
330
18
100
AcDbEntity
  8
姿図
100
AcDbCircle
 10
2844.353290077876
 20
-1911.973957866649
 30
0.0000000000000007
 40
31.49978447606617
100
AcDbArc
 50
261.9060218512633
 51
283.4978367339767
  0
ELLIPSE
  5
20BE5
330
18
100
AcDbEntity
  8
姿図
100
AcDbEllipse
 10
2839.103751104106
 20
-1936.39976619269
 30
0.0000000000000007
 11
-3.564800784294279
 21
5.655725414890174
 31
0.0
210
0.0
220
0.0
230
0.9999999999999998
 40
0.6623046749705046
 41
0.1631095167756549
 42
3.081235483912258
  0
ELLIPSE
  5
20BE6
330
18
100
AcDbEntity
  8
姿図
100
AcDbEllipse
 10
2839.77848130035
 20
-1935.927707512777
 30
0.0000000000000007
 11
-3.56480078429417
 21
5.655725414890242
 31
0.0
210
0.0
220
0.0
230
1.0
 40
0.6623046749705058
 41
0.239569814910302
 42
2.990787662643265
  0
ELLIPSE
  5
20BE7
330
18
100
AcDbEntity
  8
姿図
100
AcDbEllipse
 10
2840.434894367194
 20
-1935.571923262116
 30
0.0000000000000007
 11
-3.564800784294115
 21
5.655725414890121
 31
0.0
210
0.0
220
0.0
230
1.0
 40
0.6623046749705139
 41
0.2714006911431583
 42
2.874173387987564
  0
ELLIPSE
  5
20BE8
330
18
100
AcDbEntity
  8
姿図
100
AcDbEllipse
 10
2840.882661365343
 20
-1935.241076334261
 30
0.0000000000000007
 11
-3.564800784294124
 21
5.655725414890226
 31
0.0
210
0.0
220
0.0
230
1.0
 40
0.6623046749705113
 41
0.3454145131831476
 42
2.824135529744351
  0
ELLIPSE
  5
20BE9
330
18
100
AcDbEntity
  8
姿図
100
AcDbEllipse
 10
2843.330726505632
 20
-1933.867813977229
 30
0.0000000000000007
 11
-3.564800784293938
 21
5.655725414890024
 31
0.0
210
0.0
220
0.0
230
0.9999999999999998
 40
0.662304674970554
 41
0.6873953370103352
 42
2.434906789774355
  0
ELLIPSE
  5
20BEA
330
18
100
AcDbEntity
  8
姿図
100
AcDbEllipse
 10
2844.060852345505
 20
-1933.696157203868
 30
0.0000000000000007
 11
-3.564800784294197
 21
5.655725414890092
 31
0.0
210
0.0
220
0.0
230
1.0
 40
0.6623046749705188
 41
0.7734484980934191
 42
2.300448355830317
  0
ELLIPSE
  5
20BEB
330
18
100
AcDbEntity
  8
姿図
100
AcDbEllipse
 10
2844.876875238897
 20
-1933.438671022559
 30
0.0000000000000007
 11
-3.564800784293715
 21
5.655725414890641
 31
0.0
210
0.0
220
0.0
230
0.9999999999999998
 40
0.6623046749704975
 41
0.905421328794652
 42
2.136436596989824
  0
ELLIPSE
  5
20BEC
330
18
100
AcDbEntity
  8
姿図
100
AcDbEllipse
 10
2838.477545636784
 20
-1936.828910168628
 30
0.0000000000000007
 11
-3.564800784294083
 21
5.655725414890276
 31
0.0
210
0.0
220
0.0
230
1.0
 40
0.6623046749705086
 41
0.0
 42
6.283185307179586
  0
ELLIPSE
  5
20BED
330
18
100
AcDbEntity
  8
姿図
100
AcDbEllipse
 10
2838.478092548852
 20
-1936.784504413327
 30
0.0000000000000007
 11
3.696659691379488
 21
-5.864925821058347
 31
0.0
210
0.0
220
0.0
230
1.0
 40
0.6863351737607866
 41
-3.141592653589793
 42
3.141592653589793
  0
ELLIPSE
  5
20BEE
330
18
100
AcDbEntity
  8
姿図
100
AcDbEllipse
 10
2841.355094274721
 20
-1934.726102950374
 30
0.0000000000000007
 11
-3.564800784293951
 21
5.655725414890236
 31
0.0
210
0.0
220
0.0
230
1.0
 40
0.6623046749705268
 41
0.4591420347467441
 42
2.773497807012457
  0
ELLIPSE
  5
20BEF
330
18
100
AcDbEntity
  8
姿図
100
AcDbEllipse
 10
2841.956373649346
 20
-1934.42570206509
 30
0.0000000000000007
 11
-3.56480078429401
 21
5.655725414890356
 31
0.0
210
0.0
220
0.0
230
1.0
 40
0.6623046749705059
 41
0.5254043557524542
 42
2.672012895072678
  0
ELLIPSE
  5
20BF0
330
18
100
AcDbEntity
  8
姿図
100
AcDbEllipse
 10
2842.64355007749
 20
-1934.168214862513
 30
0.0000000000000007
 11
-3.564800784294324
 21
5.655725414890246
 31
0.0
210
0.0
220
0.0
230
0.9999999999999998
 40
0.6623046749704839
 41
0.5961567302676194
 42
2.553339703901544
  0
ELLIPSE
  5
20BF1
330
18
100
AcDbEntity
  8
姿図
100
AcDbEllipse
 10
2845.692896362346
 20
-1933.267013227929
 30
0.0000000000000007
 11
-3.56480078429433
 21
5.655725414890472
 31
0.0
210
0.0
220
0.0
230
1.0
 40
0.6623046749704708
 41
1.064601420468299
 42
1.939163156723263
  0
ELLIPSE
  5
20BF2
330
18
100
AcDbEntity
  8
姿図
100
AcDbEllipse
 10
2846.465969844008
 20
-1933.395756318584
 30
0.0000000000000007
 11
-3.564800784293809
 21
5.655725414888145
 31
0.0
210
0.0
220
0.0
230
1.0
 40
0.6623046749707127
 41
1.243214961785836
 42
1.690122470836891
  0
SPLINE
  5
20BF4
330
18
100
AcDbEntity
  8
姿図
100
AcDbSpline
210
0.0000000000000038
220
-0.000000000000001
230
1.0
 70
     8
 71
     3
 72
    20
 73
    16
 74
     0
 42
0.0000000001
 43
0.0000000001
 40
60.97286850367482
 40
60.97286850367482
 40
60.97286850367482
 40
60.97286850367482
 40
63.27662545801321
 40
63.27662545801321
 40
65.63207741714923
 40
65.63207741714923
 40
66.46294226239624
 40
66.46294226239624
 40
68.78483332584178
 40
68.78483332584178
 40
78.37384755292882
 40
78.37384755292882
 40
82.12808435629298
 40
82.12808435629298
 40
84.32250915659357
 40
84.32250915659357
 40
84.32250915659357
 40
84.32250915659357
 10
2857.784462432835
 20
-1938.904055889847
 30
-0.0000000000000034
 10
2858.019546497864
 20
-1938.633837539174
 30
-0.0000000000000038
 10
2858.213675961433
 20
-1938.371475129433
 30
-0.0000000000000048
 10
2858.528145270831
 20
-1937.901248164367
 30
-0.0000000000000095
 10
2858.665808709194
 20
-1937.663824686465
 30
-0.000000000000003
 10
2858.786454745979
 20
-1937.440704996694
 30
-0.000000000000003
 10
2858.819357889503
 20
-1937.377942541371
 30
-0.000000000000003
 10
2858.945315063154
 20
-1937.130133066121
 30
-0.000000000000003
 10
2859.021187480279
 20
-1936.965464162289
 30
-0.0000000000000095
 10
2859.402715624688
 20
-1936.068002891381
 30
-0.000000000000003
 10
2859.759609355942
 20
-1934.960708708481
 30
-0.0000000000000095
 10
2859.886410145105
 20
-1932.898217228137
 30
-0.000000000000003
 10
2859.878580236206
 20
-1932.307470682769
 30
-0.000000000000003
 10
2859.798850682824
 20
-1931.348549942007
 30
-0.000000000000003
 10
2859.754820231322
 20
-1930.988631929063
 30
-0.000000000000003
 10
2859.696227848054
 20
-1930.627161999843
 30
-0.000000000000003
  0
ARC
  5
20BF5
330
18
100
AcDbEntity
  8
姿図
100
AcDbCircle
 10
2825.335668021239
 20
-1892.431329201407
 30
0.0000000000000007
 40
56.680142771736
100
AcDbArc
 50
297.7258407647525
 51
305.2915677694104
  0
LWPOLYLINE
  5
20BF6
330
18
100
AcDbEntity
  8
姿図
100
AcDbPolyline
 90
        4
 70
     0
 43
0.0
 10
2860.548033720455
 20
-1932.387309530193
 10
2861.724787605957
 20
-1931.542672444814
 10
2862.020112880632
 20
-1931.236350909377
 10
2863.853137773963
 20
-1927.587520207671
  0
LWPOLYLINE
  5
20BF7
330
18
100
AcDbEntity
  8
姿図
100
AcDbPolyline
 90
        4
 70
     0
 43
0.0
 10
2860.532603000076
 20
-1931.903708470342
 10
2861.449817483539
 20
-1931.245360639479
 10
2861.745142758215
 20
-1930.939039104042
 10
2863.578167651546
 20
-1927.290208402335
  0
SPLINE
  5
20BFA
330
18
100
AcDbEntity
  8
姿図
100
AcDbSpline
210
-0.0000000000000003
220
-0.0000000000000006
230
1.0
 70
     8
 71
     3
 72
    20
 73
    16
 74
     0
 42
0.0000000001
 43
0.0000000001
 40
0.0507684683112425
 40
0.0507684683112425
 40
0.0507684683112425
 40
0.0507684683112425
 40
16.17239265914957
 40
16.17239265914957
 40
33.44137084920912
 40
33.44137084920912
 40
41.29196149669883
 40
41.29196149669883
 40
50.54402678597218
 40
50.54402678597218
 40
58.56297097631615
 40
58.56297097631615
 40
66.12555618457822
 40
66.12555618457822
 40
66.75214355035302
 40
66.75214355035302
 40
66.75214355035302
 40
66.75214355035302
 10
2858.112305681972
 20
-1925.942843507618
 30
-0.000000000000003
 10
2857.570402972799
 20
-1924.906039233969
 30
-0.000000000000003
 10
2856.915424482058
 20
-1923.913032805417
 30
-0.000000000000003
 10
2855.366323428166
 20
-1922.031260919611
 30
-0.000000000000003
 10
2854.176663141217
 20
-1920.814908341029
 30
-0.000000000000003
 10
2851.892400918507
 20
-1919.332245236928
 30
-0.000000000000003
 10
2851.14958554723
 20
-1918.940673980378
 30
-0.000000000000003
 10
2849.522863999862
 20
-1918.274718676493
 30
-0.000000000000003
 10
2848.641397705194
 20
-1918.035899961706
 30
-0.000000000000003
 10
2847.012632279271
 20
-1917.811732872326
 30
-0.000000000000003
 10
2846.358388894334
 20
-1917.808534529635
 30
0.0000000000000034
 10
2845.281018450622
 20
-1917.898818487134
 30
-0.000000000000003
 10
2844.637906466927
 20
-1918.004579996021
 30
-0.000000000000003
 10
2843.926156489371
 20
-1918.242423113189
 30
-0.000000000000003
 10
2843.871954985961
 20
-1918.261277219698
 30
-0.000000000000003
 10
2843.818030234057
 20
-1918.280770403538
 30
-0.000000000000003
  0
ARC
  5
20BFB
330
18
100
AcDbEntity
  8
姿図
100
AcDbCircle
 10
2862.382502993389
 20
-1948.166575869889
 30
0.0000000000000007
 40
35.18239641076941
100
AcDbArc
 50
120.512763796364
 51
131.8937550336386
  0
ARC
  5
20BFC
330
18
100
AcDbEntity
  8
姿図
100
AcDbCircle
 10
2854.513344382113
 20
-1930.091633206264
 30
0.0000000000000006
 40
13.01014526516036
100
AcDbArc
 50
89.1539124397995
 51
109.5374537908154
  0
LINE
  5
20BFD
330
18
100
AcDbEntity
  8
姿図
100
AcDbLine
 10
2856.452180539563
 20
-1918.118861405676
 30
0.0000000000000007
 11
2855.264563913652
 21
-1918.757219623382
 31
0.0000000000000007
  0
ARC
  5
20BFE
330
18
100
AcDbEntity
  8
姿図
100
AcDbCircle
 10
2856.452064300423
 20
-1925.815327418857
 30
0.0000000000000007
 40
7.696466014058291
100
AcDbArc
 50
89.99913466622521
 51
118.3230229954134
  0
ARC
  5
20BFF
330
18
100
AcDbEntity
  8
姿図
100
AcDbCircle
 10
2856.070071263014
 20
-1925.614022630771
 30
0.0000000000000007
 40
7.696466014058291
100
AcDbArc
 50
89.99913466622521
 51
118.3230229954134
  0
SPLINE
  5
20C00
330
18
100
AcDbEntity
  8
姿図
100
AcDbSpline
210
0.000000000000001
220
0.0000000000000009
230
1.0
 70
     8
 71
     1
 72
    95
 73
    93
 74
     0
 42
0.0000000001
 43
0.0000000001
 40
4.868828357704043
 40
4.868828357704043
 40
4.899304006515187
 40
4.929779655326331
 40
4.960255304137476
 40
4.990730952948619
 40
5.021206601759763
 40
5.051682250570907
 40
5.082157899382051
 40
5.112633548193195
 40
5.141866847195869
 40
5.171100146198543
 40
5.200333445201218
 40
5.229566744203892
 40
5.258800043206566
 40
5.28803334220924
 40
5.317266641211914
 40
5.346499940214589
 40
5.375733239217263
 40
5.410288874003568
 40
5.444844508789874
 40
5.479400143576179
 40
5.513955778362484
 40
5.548511413148789
 40
5.583067047935095
 40
5.617622682721401
 40
5.652178317507705
 40
5.686733952294011
 40
5.721773394811629
 40
5.756812837329246
 40
5.791852279846864
 40
5.826891722364482
 40
5.861931164882101
 40
5.896970607399719
 40
5.932010049917337
 40
5.967049492434954
 40
6.002088934952572
 40
6.037128377470191
 40
6.072869040478575
 40
6.108609703486957
 40
6.144350366495341
 40
6.180091029503724
 40
6.215831692512108
 40
6.251572355520492
 40
6.287313018528875
 40
6.323053681537259
 40
6.358794344545643
 40
6.394535007554026
 40
6.434056964704096
 40
6.473578921854167
 40
6.513100879004239
 40
6.552622836154309
 40
6.592144793304379
 40
6.631666750454451
 40
6.671188707604521
 40
6.710710664754592
 40
6.750232621904663
 40
6.785926488730393
 40
6.821620355556124
 40
6.857314222381853
 40
6.893008089207585
 40
6.928701956033315
 40
6.964395822859046
 40
7.000089689684776
 40
7.035783556510507
 40
7.071477423336237
 40
7.107171290161968
 40
7.142623453249049
 40
7.178075616336131
 40
7.213527779423211
 40
7.248979942510293
 40
7.284432105597374
 40
7.319884268684455
 40
7.355336431771536
 40
7.390788594858618
 40
7.426240757945699
 40
7.46169292103278
 40
7.497078312165116
 40
7.532463703297453
 40
7.567849094429789
 40
7.603234485562125
 40
7.638619876694462
 40
7.674005267826798
 40
7.709390658959135
 40
7.74477605009147
 40
7.780161441223807
 40
7.80894388748256
 40
7.837726333741315
 40
7.866508780000069
 40
7.895291226258822
 40
7.924073672517575
 40
7.95285611877633
 40
7.981638565035083
 40
8.010421011293837
 40
8.010421011293837
 10
2862.941932070503
 20
-1926.356962286022
 30
-0.000000000000003
 10
2862.964673379585
 20
-1926.352448007715
 30
-0.000000000000003
 10
2862.987160800953
 20
-1926.346850519458
 30
-0.000000000000003
 10
2863.009333591532
 20
-1926.340191316992
 30
-0.000000000000003
 10
2863.031134661907
 20
-1926.332498112196
 30
-0.000000000000003
 10
2863.052511545031
 20
-1926.323804028887
 30
-0.000000000000003
 10
2863.073417144567
 20
-1926.314146650725
 30
-0.0000000000000095
 10
2863.093810238566
 20
-1926.303566983531
 30
-0.0000000000000095
 10
2863.113655734139
 20
-1926.292108394891
 30
-0.000000000000003
 10
2863.132150766757
 20
-1926.280332443111
 30
-0.000000000000003
 10
2863.150094880264
 20
-1926.2678287111
 30
-0.000000000000003
 10
2863.167472447416
 20
-1926.254636669688
 30
-0.000000000000003
 10
2863.1842722128
 20
-1926.240794884655
 30
-0.000000000000003
 10
2863.200486836645
 20
-1926.226340568156
 30
-0.000000000000003
 10
2863.216112400987
 20
-1926.211309245131
 30
-0.0000000000000095
 10
2863.231147904612
 20
-1926.195734527793
 30
-0.0000000000000095
 10
2863.245594768375
 20
-1926.179647986944
 30
-0.0000000000000095
 10
2863.259456367446
 20
-1926.163079106282
 30
-0.000000000000003
 10
2863.275093646264
 20
-1926.14290894968
 30
-0.000000000000003
 10
2863.289930142665
 20
-1926.122144771518
 30
-0.000000000000003
 10
2863.303977423202
 20
-1926.100824682997
 30
-0.000000000000003
 10
2863.317247898263
 20
-1926.078983523935
 30
-0.000000000000003
 10
2863.329754320275
 20
-1926.056653236972
 30
-0.000000000000003
 10
2863.341509396717
 20
-1926.033863252781
 30
-0.0000000000000095
 10
2863.352525503398
 20
-1926.010640867689
 30
-0.0000000000000095
 10
2863.362814482698
 20
-1925.987011600778
 30
-0.000000000000003
 10
2863.372387511841
 20
-1925.962999522264
 30
-0.0000000000000095
 10
2863.381374218945
 20
-1925.938283871751
 30
-0.000000000000003
 10
2863.389645587134
 20
-1925.913221131596
 30
-0.000000000000003
 10
2863.397210872957
 20
-1925.887833553742
 30
-0.000000000000003
 10
2863.404078548086
 20
-1925.862142891016
 30
-0.000000000000003
 10
2863.410256347036
 20
-1925.836170568241
 30
-0.000000000000003
 10
2863.41575132727
 20
-1925.809937822732
 30
-0.000000000000003
 10
2863.420569936659
 20
-1925.783465817406
 30
-0.000000000000003
 10
2863.424718084448
 20
-1925.756775729787
 30
-0.0000000000000095
 10
2863.428201212768
 20
-1925.729888820017
 30
-0.0000000000000095
 10
2863.431024366555
 20
-1925.702826480753
 30
-0.000000000000003
 10
2863.433228987945
 20
-1925.675064190823
 30
-0.000000000000003
 10
2863.434756575877
 20
-1925.647164893462
 30
-0.0000000000000095
 10
2863.435611619984
 20
-1925.619151885689
 30
-0.000000000000003
 10
2863.435798440106
 20
-1925.591048680547
 30
-0.000000000000003
 10
2863.435321236837
 20
-1925.562878999622
 30
-0.000000000000003
 10
2863.434184135418
 20
-1925.534666758722
 30
-0.000000000000003
 10
2863.432391222921
 20
-1925.50643604807
 30
-0.000000000000003
 10
2863.429946578791
 20
-1925.47821110824
 30
-0.000000000000003
 10
2863.426854298844
 20
-1925.450016302892
 30
-0.000000000000003
 10
2863.423118512836
 20
-1925.42187608926
 30
-0.0000000000000095
 10
2863.418243291622
 20
-1925.390851811688
 30
-0.0000000000000095
 10
2863.412592021253
 20
-1925.359957468394
 30
-0.0000000000000095
 10
2863.40617049175
 20
-1925.329226250818
 30
-0.000000000000003
 10
2863.398984553516
 20
-1925.298691294937
 30
-0.000000000000003
 10
2863.391040094187
 20
-1925.268385634169
 30
-0.000000000000003
 10
2863.38234300522
 20
-1925.238342156855
 30
-0.000000000000003
 10
2863.372899138525
 20
-1925.208593569882
 30
-0.0000000000000095
 10
2863.362714253426
 20
-1925.179172370152
 30
-0.000000000000003
 10
2863.351793954385
 20
-1925.150110825808
 30
-0.000000000000003
 10
2863.34130385707
 20
-1925.124199910785
 30
-0.0000000000000095
 10
2863.330222052922
 20
-1925.098631919883
 30
-0.000000000000003
 10
2863.318552039628
 20
-1925.07343015126
 30
-0.000000000000003
 10
2863.306297006843
 20
-1925.048617789799
 30
-0.0000000000000095
 10
2863.293459780098
 20
-1925.024217944397
 30
-0.0000000000000095
 10
2863.280042764197
 20
-1925.000253699553
 30
-0.000000000000003
 10
2863.266047887896
 20
-1924.976748183272
 30
-0.000000000000003
 10
2863.251476552235
 20
-1924.95372465347
 30
-0.000000000000003
 10
2863.236329585552
 20
-1924.931206605112
 30
-0.000000000000003
 10
2863.220607209047
 20
-1924.909217900352
 30
-0.000000000000003
 10
2863.204421320568
 20
-1924.887926154661
 30
-0.000000000000003
 10
2863.187666384082
 20
-1924.867205242534
 30
-0.000000000000003
 10
2863.170340816776
 20
-1924.847080632831
 30
-0.000000000000003
 10
2863.152442525128
 20
-1924.827578913746
 30
-0.0000000000000095
 10
2863.133969017146
 20
-1924.808728049372
 30
-0.0000000000000095
 10
2863.114917572026
 20
-1924.790557659271
 30
-0.0000000000000095
 10
2863.095285479861
 20
-1924.77309931529
 30
-0.0000000000000095
 10
2863.075070364979
 20
-1924.756386846334
 30
-0.000000000000003
 10
2863.054270606535
 20
-1924.740456637412
 30
-0.000000000000003
 10
2863.032885869018
 20
-1924.725347903925
 30
-0.0000000000000095
 10
2863.010959674286
 20
-1924.711128905837
 30
-0.0000000000000095
 10
2862.988456578227
 20
-1924.697815610451
 30
-0.000000000000003
 10
2862.965384442019
 20
-1924.685456423755
 30
-0.000000000000003
 10
2862.941755699117
 20
-1924.674102812247
 30
-0.000000000000003
 10
2862.917588426825
 20
-1924.663808960691
 30
-0.000000000000003
 10
2862.892907449097
 20
-1924.654631181383
 30
-0.0000000000000095
 10
2862.867745404927
 20
-1924.646627039413
 30
-0.000000000000003
 10
2862.842143697674
 20
-1924.639854173729
 30
-0.0000000000000095
 10
2862.816153225205
 20
-1924.634368817456
 30
-0.0000000000000095
 10
2862.794767607094
 20
-1924.630893444903
 30
-0.000000000000003
 10
2862.773202365543
 20
-1924.62833130193
 30
-0.000000000000003
 10
2862.751499212556
 20
-1924.626705615376
 30
-0.0000000000000095
 10
2862.729703683204
 20
-1924.626035949826
 30
-0.000000000000003
 10
2862.707864633432
 20
-1924.626337540404
 30
-0.000000000000003
 10
2862.686033580181
 20
-1924.627620712011
 30
-0.0000000000000095
 10
2862.664263904003
 20
-1924.629890423019
 30
-0.0000000000000095
 10
2862.642609945872
 20
-1924.6331459659
 30
-0.000000000000003
  0
LWPOLYLINE
  5
20C01
330
18
100
AcDbEntity
  8
姿図
100
AcDbPolyline
 90
        3
 70
     0
 43
0.0
 10
2866.712697076911
 20
-1923.174683375103
 10
2867.165630947638
 20
-1923.370435836679
 10
2868.127718074387
 20
-1924.011715388866
  0
ARC
  5
20C02
330
18
100
AcDbEntity
  8
姿図
100
AcDbCircle
 10
2845.16948839955
 20
-1932.967155062828
 30
0.0000000000000007
 40
16.04292331502833
100
AcDbArc
 50
39.63303634461166
 51
47.9269790633493
  0
LWPOLYLINE
  5
20C03
330
18
100
AcDbEntity
  8
姿図
100
AcDbPolyline
 90
        4
 70
     0
 43
0.0
 10
2857.248053866569
 20
-1922.940950249193
 10
2858.290530445361
 20
-1922.161166553167
 10
2858.545098742749
 20
-1922.064621350776
 10
2860.550070236291
 20
-1921.216142574161
  0
LWPOLYLINE
  5
20C04
330
18
100
AcDbEntity
  8
姿図
100
AcDbPolyline
 90
        4
 70
     0
 43
0.0
 10
2857.583003279695
 20
-1923.284076246269
 10
2858.625479858487
 20
-1922.504292550243
 10
2858.880048155875
 20
-1922.407747347852
 10
2860.749348535419
 20
-1921.593462405986
  0
LINE
  5
20C05
330
18
100
AcDbEntity
  8
姿図
100
AcDbLine
 10
2860.67897399664
 20
-1921.889343300975
 30
0.0000000000000007
 11
2859.152477141087
 21
-1923.9806615835
 31
0.0000000000000007
  0
SPLINE
  5
20C06
330
18
100
AcDbEntity
  8
姿図
100
AcDbSpline
210
0.0
220
0.0
230
1.0
 70
     8
 71
     3
 72
     8
 73
     4
 74
     0
 42
0.0000000001
 43
0.0000000001
 40
20.17474574740567
 40
20.17474574740567
 40
20.17474574740567
 40
20.17474574740567
 40
20.51051228626665
 40
20.51051228626665
 40
20.51051228626665
 40
20.51051228626665
 10
2858.146075187871
 20
-1926.00780190889
 30
-0.000000000000003
 10
2858.134878353571
 20
-1925.986157305741
 30
-0.000000000000003
 10
2858.123617617034
 20
-1925.964505608954
 30
-0.000000000000003
 10
2858.112292301982
 20
-1925.94284583091
 30
-0.000000000000003
  0
SPLINE
  5
20C07
330
18
100
AcDbEntity
  8
姿図
100
AcDbSpline
210
-0.2421880531322872
220
0.5963158406535825
230
-0.7653446054592689
 70
     8
 71
     3
 72
     8
 73
     4
 74
     0
 42
0.0000000001
 43
0.0000000001
 40
110.2937215201613
 40
110.2937215201613
 40
110.2937215201613
 40
110.2937215201613
 40
110.302956437032
 40
110.302956437032
 40
110.302956437032
 40
110.302956437032
 10
2861.298659769688
 20
-1924.089627426979
 30
-0.000000000000003
 10
2861.298590342064
 20
-1924.089655624615
 30
-0.0000000000000095
 10
2861.298520916492
 20
-1924.089683821157
 30
-0.000000000000003
 10
2861.298451492809
 20
-1924.089712016669
 30
-0.0000000000000095
  0
SPLINE
  5
20C08
330
18
100
AcDbEntity
  8
姿図
100
AcDbSpline
210
-0.0000000007385842
220
0.0000000005914481
230
1.0
 70
     8
 71
     3
 72
     8
 73
     4
 74
     0
 42
0.0000000001
 43
0.0000000001
 40
-5.558709854342928
 40
-5.558709854342928
 40
-5.558709854342928
 40
-5.558709854342928
 40
-5.251204385375415
 40
-5.251204385375415
 40
-5.251204385375415
 40
-5.251204385375415
 10
2861.266468250983
 20
-1924.12965538228
 30
-0.000000000000003
 10
2861.276942972883
 20
-1924.116037169881
 30
-0.000000000000003
 10
2861.287605399745
 20
-1924.102714122393
 30
-0.0000000000000095
 10
2861.298451492809
 20
-1924.089712016669
 30
-0.0000000000000095
  0
SPLINE
  5
20C09
330
18
100
AcDbEntity
  8
姿図
100
AcDbSpline
210
-0.2421289945408823
220
0.5961704269927285
230
-0.7654765652728562
 70
     8
 71
     3
 72
     8
 73
     4
 74
     0
 42
0.0000000001
 43
0.0000000001
 40
110.2937215201613
 40
110.2937215201613
 40
110.2937215201613
 40
110.2937215201613
 40
110.302956437032
 40
110.302956437032
 40
110.302956437032
 40
110.302956437032
 10
2861.298633691768
 20
-1924.089618192772
 30
-0.000000000000003
 10
2861.298564263571
 20
-1924.089646390641
 30
-0.0000000000000095
 10
2861.298494837424
 20
-1924.089674587416
 30
-0.000000000000003
 10
2861.298425413167
 20
-1924.08970278316
 30
-0.0000000000000095
  0
SPLINE
  5
20C0A
330
18
100
AcDbEntity
  8
姿図
100
AcDbSpline
210
-0.0000000007385842
220
0.0000000005914481
230
1.0
 70
     8
 71
     3
 72
     8
 73
     4
 74
     0
 42
0.0000000001
 43
0.0000000001
 40
-5.558709854342928
 40
-5.558709854342928
 40
-5.558709854342928
 40
-5.558709854342928
 40
-5.251204385375415
 40
-5.251204385375415
 40
-5.251204385375415
 40
-5.251204385375415
 10
2861.266441906943
 20
-1924.129646478975
 30
-0.000000000000003
 10
2861.276916715435
 20
-1924.116028153997
 30
-0.000000000000003
 10
2861.287579230442
 20
-1924.10270499637
 30
-0.0000000000000095
 10
2861.298425413167
 20
-1924.08970278316
 30
-0.0000000000000095
  0
SPLINE
  5
20C0B
330
18
100
AcDbEntity
  8
姿図
100
AcDbSpline
210
-0.0000000000003499
220
0.0000000000010241
230
1.0
 70
     8
 71
     3
 72
    14
 73
    10
 74
     0
 42
0.0000000001
 43
0.0000000001
 40
-12.4176878319165
 40
-12.4176878319165
 40
-12.4176878319165
 40
-12.4176878319165
 40
-9.929941621284125
 40
-9.929941621284125
 40
-7.882361304732087
 40
-7.882361304732087
 40
-6.55536423551068
 40
-6.55536423551068
 40
-6.542320515967429
 40
-6.542320515967429
 40
-6.542320515967429
 40
-6.542320515967429
 10
2861.298659769688
 20
-1924.089627426979
 30
-0.000000000000003
 10
2861.455072084076
 20
-1924.026101449907
 30
-0.000000000000003
 10
2861.642946793972
 20
-1923.948993383785
 30
-0.000000000000003
 10
2861.973221353738
 20
-1923.822886029776
 30
-0.000000000000003
 10
2862.125714345553
 20
-1923.76745340397
 30
-0.0000000000000095
 10
2862.374393305194
 20
-1923.691729459492
 30
-0.000000000000003
 10
2862.487135677106
 20
-1923.661468243515
 30
-0.0000000000000095
 10
2862.594331575193
 20
-1923.642647903336
 30
-0.000000000000003
 10
2862.595373382926
 20
-1923.642465974986
 30
-0.0000000000000095
 10
2862.596413595605
 20
-1923.642285374929
 30
-0.000000000000003
  0
SPLINE
  5
20C0C
330
18
100
AcDbEntity
  8
姿図
100
AcDbSpline
210
-0.0000000000003499
220
0.0000000000010241
230
1.0
 70
     8
 71
     3
 72
    14
 73
    10
 74
     0
 42
0.0000000001
 43
0.0000000001
 40
-12.4176878319165
 40
-12.4176878319165
 40
-12.4176878319165
 40
-12.4176878319165
 40
-9.929941621284125
 40
-9.929941621284125
 40
-7.882361304732087
 40
-7.882361304732087
 40
-6.55536423551068
 40
-6.55536423551068
 40
-6.542320515967429
 40
-6.542320515967429
 40
-6.542320515967429
 40
-6.542320515967429
 10
2861.298633691768
 20
-1924.089618192772
 30
-0.000000000000003
 10
2861.455047299185
 20
-1924.026091690543
 30
-0.000000000000003
 10
2861.642923562201
 20
-1923.948982986986
 30
-0.000000000000003
 10
2861.973200852279
 20
-1923.822874590473
 30
-0.000000000000003
 10
2862.125695104721
 20
-1923.767441506417
 30
-0.0000000000000095
 10
2862.37437612014
 20
-1923.691716935945
 30
-0.000000000000003
 10
2862.487119424068
 20
-1923.661455469805
 30
-0.0000000000000095
 10
2862.594316208322
 20
-1923.642634974042
 30
-0.000000000000003
 10
2862.595358024668
 20
-1923.642453044189
 30
-0.0000000000000095
 10
2862.596398245945
 20
-1923.642272442638
 30
-0.000000000000003
  0
LWPOLYLINE
  5
20C0D
330
18
100
AcDbEntity
  8
姿図
100
AcDbPolyline
 90
        4
 70
     0
 43
0.0
 10
2854.316367267768
 20
-1920.022776195267
 10
2854.675831125701
 20
-1919.800682782321
 10
2854.971777253774
 20
-1919.690271053752
 10
2858.295742084233
 20
-1918.685141931214
  0
LWPOLYLINE
  5
20C0E
330
18
100
AcDbEntity
  8
姿図
100
AcDbPolyline
 90
        4
 70
     0
 43
0.0
 10
2854.596684065669
 20
-1920.266027949954
 10
2854.956147923603
 20
-1920.043934537008
 10
2855.252094051675
 20
-1919.933522808439
 10
2858.576058882134
 20
-1918.928393685901
  0
LINE
  5
20C0F
330
18
100
AcDbEntity
  8
姿図
100
AcDbLine
 10
2858.576058882134
 20
-1918.928393685901
 30
0.0000000000000007
 11
2856.33282217841
 21
-1921.052871155762
 31
0.0000000000000007
  0
TEXT
  5
20C23
330
18
100
AcDbEntity
  8
文字
100
AcDbText
 10
2831.373700906522
 20
-1962.854787767322
 30
0.0
 40
6.5
  1
SX-513CBP
100
AcDbText
  0
LINE
  5
20C2A
330
18
100
AcDbEntity
  8
姿図
100
AcDbLine
 10
2854.913987824085
 20
-1897.517923437007
 30
0.0000000000000007
 11
2854.980924603015
 21
-1898.455782578846
 31
0.0000000000000007
  0
LINE
  5
20C2B
330
18
100
AcDbEntity
  8
姿図
100
AcDbLine
 10
2849.756718724799
 20
-1897.933139395085
 30
0.0000000000000007
 11
2849.901598888924
 21
-1898.986575743171
 31
0.0000000000000007
  0
ELLIPSE
  5
20C2C
330
18
100
AcDbEntity
  8
姿図
100
AcDbEllipse
 10
2852.227671869246
 20
-1899.073619525221
 30
0.0000000000000007
 11
-2.377440227754727
 21
-0.154084117929865
 31
0.0
210
0.0
220
0.0
230
1.0
 40
0.423425259805966
 41
3.562126164169124
 42
6.045724500716436
  0
LINE
  5
20C2D
330
18
100
AcDbEntity
  8
姿図
100
AcDbLine
 10
2852.964016847487
 20
-1901.319083215583
 30
0.0000000000000007
 11
2853.399287718906
 21
-1900.816904818682
 31
0.0000000000000007
  0
LINE
  5
20C2E
330
18
100
AcDbEntity
  8
姿図
100
AcDbLine
 10
2852.629581215128
 20
-1901.430106092161
 30
0.0000000000000007
 11
2853.29962947291
 21
-1900.657061576587
 31
0.0000000000000007
  0
LWPOLYLINE
  5
20C2F
330
18
100
AcDbEntity
  8
姿図
100
AcDbPolyline
 90
        3
 70
     0
 43
0.0
 10
2849.311313829165
 20
-1901.823298849324
 10
2849.246451987533
 20
-1901.858529340388
 10
2849.236872935205
 20
-1901.895933519219
  0
LWPOLYLINE
  5
20C30
330
18
100
AcDbEntity
  8
姿図
100
AcDbPolyline
 90
        3
 70
     0
 43
0.0
 10
2849.211853509116
 20
-1901.948559333837
 10
2849.146991667483
 20
-1901.9837898249
 10
2849.137412615154
 20
-1902.021194003731
  0
LINE
  5
20C31
330
18
100
AcDbEntity
  8
姿図
100
AcDbLine
 10
2851.219117699337
 20
-1901.133635596085
 30
0.0000000000000007
 11
2851.621013968657
 21
-1900.669961967777
 31
0.0000000000000007
  0
LINE
  5
20C32
330
18
100
AcDbEntity
  8
姿図
100
AcDbLine
 10
2851.323091894943
 20
-1901.28849946373
 30
0.0000000000000007
 11
2851.902351932722
 21
-1900.620198650922
 31
0.0000000000000007
  0
LINE
  5
20C33
330
18
100
AcDbEntity
  8
姿図
100
AcDbLine
 10
2851.478611837093
 20
-1901.383894246566
 30
0.0000000000000007
 11
2852.168531571039
 21
-1900.587923717103
 31
0.0000000000000007
  0
LINE
  5
20C34
330
18
100
AcDbEntity
  8
姿図
100
AcDbLine
 10
2851.663132313956
 20
-1901.445830686591
 30
0.0000000000000007
 11
2852.422547267544
 21
-1900.569682501596
 31
0.0000000000000007
  0
LINE
  5
20C35
330
18
100
AcDbEntity
  8
姿図
100
AcDbLine
 10
2851.870222229231
 20
-1901.481728434058
 30
0.0000000000000007
 11
2852.666167267207
 21
-1900.56343495421
 31
0.0000000000000007
  0
ELLIPSE
  5
20C36
330
18
100
AcDbEntity
  8
姿図
100
AcDbEllipse
 10
2852.390588850068
 20
-1901.356268649797
 30
0.0000000000000007
 11
-2.377440227754727
 21
-0.154084117929865
 31
0.0
210
0.0
220
0.0
230
1.0
 40
0.423425259805966
 41
0.3786499284263662
 42
2.84822096293928
  0
ELLIPSE
  5
20C37
330
18
100
AcDbEntity
  8
姿図
100
AcDbEllipse
 10
2852.377496612789
 20
-1901.172831761798
 30
0.0000000000000007
 11
2.321375981618799
 21
0.1718472191274702
 31
0.0
210
0.0
220
0.0
230
1.0
 40
0.4346217930958621
 41
3.572038920501568
 42
5.869050530619731
  0
ELLIPSE
  5
20C38
330
18
100
AcDbEntity
  8
姿図
100
AcDbEllipse
 10
2852.459046088633
 20
-1901.57678393337
 30
0.0000000000000007
 11
-2.334942070031696
 21
-0.1189319530552851
 31
0.0
210
0.0
220
0.0
230
1.0
 40
0.4310041458033451
 41
3.612298197460502
 42
5.991115740086309
  0
LINE
  5
20C39
330
18
100
AcDbEntity
  8
姿図
100
AcDbLine
 10
2852.09831886677
 20
-1901.493390417538
 30
0.0000000000000007
 11
2852.90047644684
 21
-1900.567929436635
 31
0.0000000000000007
  0
LINE
  5
20C3A
330
18
100
AcDbEntity
  8
姿図
100
AcDbLine
 10
2852.349166319712
 20
-1901.478804451158
 30
0.0000000000000007
 11
2853.126124843429
 21
-1900.582415991653
 31
0.0000000000000007
  0
ELLIPSE
  5
20C3B
330
18
100
AcDbEntity
  8
姿図
100
AcDbEllipse
 10
2852.307887131212
 20
-1900.96972602437
 30
0.0000000000000007
 11
-1.094865175736207
 21
-0.1319676970025984
 31
0.0
210
0.0
220
0.0
230
1.0
 40
0.4628655777425252
 41
5.477092832877411
 42
9.981255930046515
  0
ELLIPSE
  5
20C3C
330
18
100
AcDbEntity
  8
姿図
100
AcDbEllipse
 10
2852.390588850068
 20
-1901.356268649797
 30
0.0000000000000007
 11
-2.377440227754727
 21
-0.154084117929865
 31
0.0
210
0.0
220
0.0
230
1.0
 40
0.423425259805966
 41
3.551025708286838
 42
6.045724500716436
  0
ELLIPSE
  5
20C40
330
18
100
AcDbEntity
  8
姿図
100
AcDbEllipse
 10
2852.391961418074
 20
-1898.072124494211
 30
0.0000000000000007
 11
-2.713501841324981
 21
-0.170337819882202
 31
0.0
210
0.0
220
0.0
230
1.0
 40
0.421073713534917
 41
3.493959631008393
 42
6.014590545856733
  0
LINE
  5
20C49
330
18
100
AcDbEntity
  8
姿図
100
AcDbLine
 10
2849.132350752178
 20
-1902.013751727348
 30
0.0000000000000033
 11
2846.607413547094
 21
-1917.507010285951
 31
0.0000000000000033
  0
SPLINE
  5
20C4A
330
18
100
AcDbEntity
  8
姿図
100
AcDbSpline
210
0.0
220
0.0
230
1.0
 70
     8
 71
     3
 72
     8
 73
     4
 74
     0
 42
0.0000000001
 43
0.0000000001
 40
0.2696514016814274
 40
0.2696514016814274
 40
0.2696514016814274
 40
0.2696514016814274
 40
1.0
 40
1.0
 40
1.0
 40
1.0
 10
2845.061688302886
 20
-1917.564986857793
 30
0.0000000000000033
 10
2846.226322587941
 20
-1909.255722125436
 30
0.0000000000000033
 10
2847.453316376343
 20
-1901.65821405032
 30
0.0000000000000033
 10
2847.453316376343
 20
-1901.65821405032
 30
0.0000000000000033
  0
SPLINE
  5
20C4B
330
18
100
AcDbEntity
  8
姿図
100
AcDbSpline
210
0.0
220
0.0
230
1.0
 70
     8
 71
     3
 72
     8
 73
     4
 74
     0
 42
0.0000000001
 43
0.0000000001
 40
6.0
 40
6.0
 40
6.0
 40
6.0
 40
6.981114317255776
 40
6.981114317255776
 40
6.981114317255776
 40
6.981114317255776
 10
2855.84998035562
 20
-1900.903364261959
 30
0.0000000000000033
 10
2856.008121242331
 20
-1901.368186816572
 30
0.0000000000000033
 10
2860.976121747056
 20
-1923.346164469232
 30
0.0000000000000033
 10
2861.163741570822
 20
-1924.266897528837
 30
0.0000000000000033
  0
SPLINE
  5
20C4C
330
18
100
AcDbEntity
  8
姿図
100
AcDbSpline
210
0.0
220
0.0
230
1.0
 70
     8
 71
     3
 72
     8
 73
     4
 74
     0
 42
0.0000000001
 43
0.0000000001
 40
15.0
 40
15.0
 40
15.0
 40
15.0
 40
15.72631331981369
 40
15.72631331981369
 40
15.72631331981369
 40
15.72631331981369
 10
2846.561254536331
 20
-1900.526690208766
 30
0.0000000000000033
 10
2846.561254536331
 20
-1900.526690208766
 30
0.0000000000000033
 10
2845.618097505115
 20
-1908.930391654891
 30
0.0000000000000033
 10
2844.590640634905
 20
-1917.753718527195
 30
0.0000000000000033
  0
ELLIPSE
  5
20C4D
330
18
100
AcDbEntity
  8
姿図
100
AcDbEllipse
 10
2863.292252463978
 20
-1925.408237734982
 30
0.0000000000000034
 11
-0.3180297574208888
 21
1.831554840129747
 31
0.0000000000000001
210
0.0
220
0.0000000000000001
230
-0.9999999999999998
 40
0.6338586263934505
 41
4.868828357704044
 42
11.15201366488363
  0
ARC
  5
20C4E
330
18
100
AcDbEntity
  8
姿図
100
AcDbCircle
 10
2862.072243941284
 20
-1926.96166519933
 30
0.0000000000000027
 40
2.211023901695694
100
AcDbArc
 50
321.6058978528089
 51
6.603639829777054
  0
ELLIPSE
  5
20C4F
330
18
100
AcDbEntity
  8
姿図
100
AcDbEllipse
 10
2862.125629067135
 20
-1925.610809313932
 30
0.0000000000000034
 11
-0.3180297574212623
 21
1.831554840129642
 31
0.0000000000000001
210
0.0
220
0.0000000000000001
230
-1.0
 40
0.6338586263935189
 41
3.141592653589995
 42
5.180284413961087
  0
ARC
  5
20C50
330
18
100
AcDbEntity
  8
姿図
100
AcDbCircle
 10
2859.877117840097
 20
-1938.981360586362
 30
0.0000000000000049
 40
27.28322339116982
100
AcDbArc
 50
144.0776172543583
 51
167.292404333633
  0
ELLIPSE
  5
20C51
330
18
100
AcDbEntity
  8
姿図
100
AcDbEllipse
 10
2845.639744533785
 20
-1932.134670714611
 30
0.0000000000000045
 11
-6.745960201038632
 21
10.08944893143443
 31
0.0000000000000004
210
0.0
220
0.0
230
-1.0
 40
0.7445887407027572
 41
-0.1600394095493287
 42
2.858287793139966
  0
ELLIPSE
  5
20C52
330
18
100
AcDbEntity
  8
姿図
100
AcDbEllipse
 10
2845.731578544295
 20
-1932.005894720133
 30
0.0000000000000045
 11
-6.745960201035623
 21
10.0894489314369
 31
0.0000000000000004
210
0.0
220
0.0
230
-1.0
 40
0.7445887407027174
 41
-0.160039409549761
 42
3.301632058444412
  0
ELLIPSE
  5
20C53
330
18
100
AcDbEntity
  8
姿図
100
AcDbEllipse
 10
2849.259640802921
 20
-1929.646977988198
 30
0.0000000000000034
 11
-7.050469393301605
 21
10.54488149447318
 31
0.0000000000000011
210
0.0
220
0.0000000000000001
230
-1.0
 40
0.7445887407026735
 41
2.121095593058011
 42
2.942897457598436
  0
LINE
  5
20C54
330
18
100
AcDbEntity
  8
姿図
100
AcDbLine
 10
2863.610282221399
 20
-1927.239792575113
 30
0.0000000000000034
 11
2862.443658824556
 21
-1927.442364154063
 31
0.0000000000000034
  0
LINE
  5
20C55
330
18
100
AcDbEntity
  8
姿図
100
AcDbLine
 10
2863.610275253179
 20
-1927.239809382663
 30
0.0000000000000034
 11
2862.443642212104
 21
-1927.44238263623
 31
0.0000000000000034
  0
ARC
  5
20C56
330
18
100
AcDbEntity
  8
姿図
100
AcDbCircle
 10
2854.429624663008
 20
-1926.85164516012
 30
0.0000000000000027
 40
9.492123308739225
100
AcDbArc
 50
308.0532583007649
 51
351.0102729434048
  0
LINE
  5
20C57
330
18
100
AcDbEntity
  8
姿図
100
AcDbLine
 10
2862.790654410615
 20
-1927.404981506556
 30
0.0000000000000045
 11
2859.63908284441
 21
-1930.686666244751
 31
0.0000000000000045
  0
ELLIPSE
  5
20C58
330
18
100
AcDbEntity
  8
姿図
100
AcDbEllipse
 10
2862.125609825598
 20
-1925.610812655019
 30
0.0000000000000034
 11
-0.3180323865056819
 21
1.831569981211348
 31
0.0000000000000001
210
0.0
220
0.0000000000000001
230
-0.9999999999999998
 40
0.633858626393141
 41
3.141592653589124
 42
3.809748048092985
  0
ELLIPSE
  5
20C59
330
18
100
AcDbEntity
  8
姿図
100
AcDbEllipse
 10
2849.259640802921
 20
-1929.646977988198
 30
0.0000000000000034
 11
-7.050469393299692
 21
10.5448814944745
 31
0.0000000000000011
210
0.0
220
0.0000000000000001
230
-1.0
 40
0.7445887407026988
 41
0.1816174140284592
 42
1.7213969460413
  0
SPLINE
  5
20C5A
330
18
100
AcDbEntity
  8
姿図
100
AcDbSpline
210
0.0
220
0.0
230
1.0
 70
     8
 71
     3
 72
    18
 73
    14
 74
     0
 42
0.0000000001
 43
0.0000000001
 40
28.74698734064234
 40
28.74698734064234
 40
28.74698734064234
 40
28.74698734064234
 40
33.44137084920912
 40
33.44137084920912
 40
41.29196149669883
 40
41.29196149669883
 40
50.54402678597218
 40
50.54402678597218
 40
58.56297097631615
 40
58.56297097631615
 40
66.12555618457822
 40
66.12555618457822
 40
66.63663448405962
 40
66.63663448405962
 40
66.63663448405962
 40
66.63663448405962
 10
2855.021441882731
 20
-1920.616647233659
 30
0.0000000000000039
 10
2854.6543343968
 20
-1920.303249033637
 30
0.0000000000000042
 10
2854.256831798628
 20
-1919.994203104086
 30
0.0000000000000045
 10
2853.111823595011
 20
-1919.203490682418
 30
0.0000000000000045
 10
2852.358731235052
 20
-1918.778740496674
 30
0.0000000000000006
 10
2850.693584883278
 20
-1918.039161624275
 30
0.0000000000000045
 10
2849.781155936767
 20
-1917.759834804519
 30
0.0000000000000006
 10
2848.077135372438
 20
-1917.45972495131
 30
0.0000000000000045
 10
2847.385446640219
 20
-1917.425584989826
 30
0.0000000000000045
 10
2846.238473093377
 20
-1917.464435383209
 30
0.0000000000000045
 10
2845.549502841003
 20
-1917.53923385369
 30
0.0000000000000045
 10
2844.787859044421
 20
-1917.739338760139
 30
0.0000000000000045
 10
2844.739790418493
 20
-1917.752447955192
 30
0.0000000000000045
 10
2844.69187851681
 20
-1917.76599081817
 30
0.0000000000000046
  0
SPLINE
  5
20C5B
330
18
100
AcDbEntity
  8
姿図
100
AcDbSpline
210
0.0
220
0.0
230
1.0
 70
    24
 71
     1
 72
     4
 73
     2
 74
     0
 42
0.0000000001
 43
0.0000000001
 40
0.500003153875532
 40
0.500003153875532
 40
1.000006307751063
 40
1.000006307751063
 10
2844.604345736046
 20
-1917.804120035127
 30
0.0000000000000046
 10
2844.516384730312
 20
-1917.858241192344
 30
0.0000000000000124
  0
SPLINE
  5
20C5C
330
18
100
AcDbEntity
  8
姿図
100
AcDbSpline
210
0.0
220
0.0
230
1.0
 70
    24
 71
     1
 72
     4
 73
     2
 74
     0
 42
0.0000000001
 43
0.0000000001
 40
0.0
 40
0.0
 40
0.500003153875532
 40
0.500003153875532
 10
2844.69187851681
 20
-1917.76599081817
 30
0.0000000000000046
 10
2844.604345736046
 20
-1917.804120035127
 30
0.0000000000000046
  0
LINE
  5
20C5D
330
18
100
AcDbEntity
  8
姿図
100
AcDbLine
 10
2867.076045381399
 20
-1917.235870631369
 30
0.0000000000000045
 11
2865.116508773358
 21
-1918.193889375378
 31
0.0000000000000045
  0
LINE
  5
20C5E
330
18
100
AcDbEntity
  8
姿図
100
AcDbLine
 10
2866.02966073556
 20
-1915.912327895106
 30
0.0000000000000045
 11
2866.430422133266
 21
-1917.551516264496
 31
0.0000000000000045
  0
ARC
  5
20C5F
330
18
100
AcDbEntity
  8
姿図
100
AcDbCircle
 10
2857.423697029023
 20
-1923.972098986909
 30
0.0000000000000045
 40
9.616042523332964
100
AcDbArc
 50
32.49829009886629
 51
65.6051628784616
  0
ELLIPSE
  5
20C60
330
18
100
AcDbEntity
  8
姿図
100
AcDbEllipse
 10
2863.448868439207
 20
-1918.723130214223
 30
0.0000000000000045
 11
-4.272686050717396
 21
3.893993074897321
 31
0.0000000000000002
210
0.0
220
0.0
230
-1.0
 40
0.6510494580119231
 41
1.884826547670682
 42
2.693896839940106
  0
LINE
  5
20C61
330
18
100
AcDbEntity
  8
姿図
100
AcDbLine
 10
2862.974222706558
 20
-1923.576682894853
 30
0.0000000000000034
 11
2862.596413595605
 21
-1923.642285374929
 31
0.0000000000000034
  0
LINE
  5
20C62
330
18
100
AcDbEntity
  8
姿図
100
AcDbLine
 10
2862.974210480166
 20
-1923.57666942024
 30
0.0000000000000034
 11
2862.596398245945
 21
-1923.642272442639
 31
0.0000000000000034
  0
ELLIPSE
  5
20C63
330
18
100
AcDbEntity
  8
姿図
100
AcDbEllipse
 10
2863.292252463978
 20
-1925.408237734982
 30
0.0000000000000034
 11
-0.2431992262630324
 21
1.400600760099217
 31
0.0000000000000001
210
0.0
220
0.0000000000000001
230
-0.9999999999999998
 40
0.6338586263934511
 41
4.868828357704052
 42
11.15201366488364
  0
LINE
  5
20C64
330
18
100
AcDbEntity
  8
姿図
100
AcDbLine
 10
2862.642609945872
 20
-1924.6331459659
 30
0.0000000000000034
 11
2862.559279703241
 21
-1924.647615364397
 31
0.0000000000000034
  0
LINE
  5
20C65
330
18
100
AcDbEntity
  8
姿図
100
AcDbLine
 10
2862.642594978107
 20
-1924.633141224848
 30
0.0000000000000034
 11
2862.559264046602
 21
-1924.64761074296
 31
0.0000000000000034
  0
ELLIPSE
  5
20C66
330
18
100
AcDbEntity
  8
姿図
100
AcDbEllipse
 10
2862.708940765557
 20
-1925.509523524457
 30
0.0000000000000034
 11
-0.1496610623122442
 21
0.861908160061731
 31
0.0
210
0.0
220
0.0
230
-1.0
 40
0.6338586264024267
 41
-0.2366574283618756
 42
-0.000000000006624
  0
ELLIPSE
  5
20C67
330
18
100
AcDbEntity
  8
姿図
100
AcDbEllipse
 10
2862.708926346135
 20
-1925.509526028235
 30
0.0000000000000034
 11
-0.1496622995360435
 21
0.8619152852751632
 31
0.0
210
0.0
220
0.0
230
-0.9999999999999998
 40
0.6338586263859887
 41
-0.2366574283554155
 42
0.0000000000066163
  0
LINE
  5
20C68
330
18
100
AcDbEntity
  8
姿図
100
AcDbLine
 10
2862.941932070503
 20
-1926.356962286023
 30
0.0000000000000034
 11
2862.858601827872
 21
-1926.371431684519
 31
0.0000000000000034
  0
LINE
  5
20C69
330
18
100
AcDbEntity
  8
姿図
100
AcDbLine
 10
2862.941919577173
 20
-1926.356971795399
 30
0.0000000000000034
 11
2862.858588645667
 21
-1926.371441313511
 31
0.0000000000000034
  0
SPLINE
  5
20C6A
330
18
100
AcDbEntity
  8
姿図
100
AcDbSpline
210
0.0
220
0.0
230
1.0
 70
     8
 71
     3
 72
     8
 73
     4
 74
     0
 42
0.0000000001
 43
0.0000000001
 40
0.0522524473711179
 40
0.0522524473711179
 40
0.0522524473711179
 40
0.0522524473711179
 40
3.97467365710715
 40
3.97467365710715
 40
3.97467365710715
 40
3.97467365710715
 10
2866.721276328892
 20
-1922.479038235207
 30
0.0000000000000045
 10
2866.735834711365
 20
-1922.716697905855
 30
0.0000000000000045
 10
2866.737133328303
 20
-1922.950836826245
 30
0.0000000000000045
 10
2866.724888429776
 20
-1923.179952328227
 30
0.0000000000000045
  0
ELLIPSE
  5
20C6B
330
18
100
AcDbEntity
  8
姿図
100
AcDbEllipse
 10
2862.708940765557
 20
-1925.509523524457
 30
0.0000000000000034
 11
-0.2244915934734727
 21
1.292862240091639
 31
0.0000000000000001
210
0.0
220
0.0
230
-0.9999999999999998
 40
0.6338586263934135
 41
0.2361340123154301
 42
2.425367404911971
  0
ELLIPSE
  5
20C6C
330
18
100
AcDbEntity
  8
姿図
100
AcDbEllipse
 10
2862.708940765557
 20
-1925.509523524457
 30
0.0000000000000034
 11
-0.1496610623154923
 21
0.8619081600611671
 31
0.0
210
0.0
220
0.0
230
-1.0
 40
0.6338586263915939
 41
3.141592653589114
 42
3.378250081949307
  0
ELLIPSE
  5
20C6D
330
18
100
AcDbEntity
  8
姿図
100
AcDbEllipse
 10
2862.708940765557
 20
-1925.509523524457
 30
0.0000000000000034
 11
-0.2244915934775465
 21
1.292862240090204
 31
0.0000000000000001
210
0.0
220
0.0
230
-1.0
 40
0.6338586263919847
 41
2.425367404914655
 42
2.905458641278939
  0
ELLIPSE
  5
20C6E
330
18
100
AcDbEntity
  8
姿図
100
AcDbEllipse
 10
2862.542280280293
 20
-1925.538462321451
 30
0.0000000000000034
 11
-0.2431992262705477
 21
1.400600760095082
 31
0.0000000000000001
210
0.0
220
0.0000000000000001
230
-1.0
 40
0.633858626392815
 41
2.631951070262136
 42
2.705517797147201
  0
ELLIPSE
  5
20C6F
330
18
100
AcDbEntity
  8
姿図
100
AcDbEllipse
 10
2862.708926346135
 20
-1925.509526028235
 30
0.0000000000000034
 11
-0.149662299531178
 21
0.8619152852760079
 31
0.0
210
0.0
220
0.0
230
-0.9999999999999996
 40
0.6338586263915974
 41
3.141592653587503
 42
3.378250081946796
  0
ELLIPSE
  5
20C70
330
18
100
AcDbEntity
  8
姿図
100
AcDbEllipse
 10
2862.708926346135
 20
-1925.509526028235
 30
0.0000000000000034
 11
-0.2244934493018608
 21
1.292872927912704
 31
0.0000000000000001
210
0.0
220
0.0
230
-1.0
 40
0.6338586263920022
 41
2.425367404913895
 42
2.905458641278171
  0
ELLIPSE
  5
20C71
330
18
100
AcDbEntity
  8
姿図
100
AcDbEllipse
 10
2862.542264483125
 20
-1925.538465064459
 30
0.0000000000000034
 11
-0.2432012366327588
 21
1.40061233861955
 31
0.0000000000000001
210
0.0
220
0.0000000000000001
230
-1.0
 40
0.6338586264284999
 41
2.631951070170127
 42
2.705517797047795
  0
ELLIPSE
  5
20C72
330
18
100
AcDbEntity
  8
姿図
100
AcDbEllipse
 10
2862.542280280293
 20
-1925.538462321451
 30
0.0000000000000034
 11
-0.2431992262000854
 21
1.400600760094655
 31
0.0000000000000001
210
0.0
220
0.0000000000000001
230
-1.0
 40
0.6338586263759956
 41
0.4360748564000963
 42
0.5096415832883366
  0
ELLIPSE
  5
20C73
330
18
100
AcDbEntity
  8
姿図
100
AcDbEllipse
 10
2862.542264483125
 20
-1925.538465064459
 30
0.0000000000000034
 11
-0.2432012368186573
 21
1.400612338578587
 31
0.0000000000000001
210
0.0
220
0.0000000000000001
230
-1.0
 40
0.6338586264159721
 41
0.4360748565125947
 42
0.5096415833923702
  0
LINE
  5
20C74
330
18
100
AcDbEntity
  8
姿図
100
AcDbLine
 10
2866.699806730713
 20
-1922.428603398598
 30
0.0000000000000045
 11
2868.397922174418
 21
-1921.029176491962
 31
0.0000000000000045
  0
LINE
  5
20C75
330
18
100
AcDbEntity
  8
姿図
100
AcDbLine
 10
2868.048476603306
 20
-1922.948942159631
 30
0.0000000000000045
 11
2866.987108179356
 21
-1922.199095264722
 31
0.0000000000000045
  0
LINE
  5
20C76
330
18
100
AcDbEntity
  8
姿図
100
AcDbLine
 10
2867.3237895376
 20
-1923.481507841438
 30
0.0000000000000045
 11
2868.048476603306
 21
-1922.948942159631
 31
0.0000000000000045
  0
SPLINE
  5
20C77
330
18
100
AcDbEntity
  8
姿図
100
AcDbSpline
210
-0.0000000000000653
220
-0.0000000000000509
230
-1.0
 70
     8
 71
     3
 72
    10
 73
     6
 74
     0
 42
0.0000000001
 43
0.0000000001
 40
0.0507684683112425
 40
0.0507684683112425
 40
0.0507684683112425
 40
0.0507684683112425
 40
16.17239265914957
 40
16.17239265914957
 40
28.35901754380262
 40
28.35901754380262
 40
28.35901754380262
 40
28.35901754380262
 10
2858.915425401655
 20
-1925.605938354075
 30
0.0000000000000045
 10
2858.653929073018
 20
-1925.017918477341
 30
0.0000000000000084
 10
2858.043715741252
 20
-1923.998915025181
 30
0.0000000000000045
 10
2856.787274692496
 20
-1922.349447752683
 30
0.0000000000000012
 10
2856.051817885298
 20
-1921.509727807269
 30
0.0000000000000027
 10
2855.021441882731
 20
-1920.616647233659
 30
0.0000000000000039
  0
LINE
  5
20C78
330
18
100
AcDbEntity
  8
姿図
100
AcDbLine
 10
2861.008951415677
 20
-1924.662749792156
 30
0.0000000000000045
 11
2858.074673059989
 21
-1926.04134844587
 31
0.0000000000000045
  0
ELLIPSE
  5
20C79
330
18
100
AcDbEntity
  8
姿図
100
AcDbEllipse
 10
2862.125629067135
 20
-1925.610809313932
 30
0.0000000000000034
 11
-0.3180297574186538
 21
1.831554840131087
 31
0.0000000000000001
210
0.0
220
0.0000000000000001
230
-1.0
 40
0.6338586263935344
 41
-1.249552989790041
 42
-0.5274645292557248
  0
ELLIPSE
  5
20C7A
330
18
100
AcDbEntity
  8
姿図
100
AcDbEllipse
 10
2862.125609825598
 20
-1925.610812655019
 30
0.0000000000000034
 11
-0.3180323865070981
 21
1.831569981210898
 31
0.0000000000000001
210
0.0
220
0.0000000000000001
230
-1.0
 40
0.6338586263935217
 41
-1.249552989788738
 42
-0.5274645292535301
  0
LINE
  5
20C7B
330
18
100
AcDbEntity
  8
姿図
100
AcDbLine
 10
2863.833713949399
 20
-1915.189810356744
 30
0.0000000000000045
 11
2862.527307510923
 21
-1915.822164394558
 31
0.0000000000000045
  0
LINE
  5
20C7C
330
18
100
AcDbEntity
  8
姿図
100
AcDbLine
 10
2863.183055695749
 20
-1915.086271863623
 30
0.0000000000000045
 11
2862.139117185084
 21
-1915.591580711625
 31
0.0000000000000045
  0
LINE
  5
20C7D
330
18
100
AcDbEntity
  8
姿図
100
AcDbLine
 10
2864.087744307063
 20
-1915.36534987201
 30
0.0000000000000045
 11
2864.354743940678
 21
-1916.457427842987
 31
0.0000000000000045
  0
LINE
  5
20C7E
330
18
100
AcDbEntity
  8
姿図
100
AcDbLine
 10
2865.775630377895
 20
-1915.73678837984
 30
0.0000000000000045
 11
2863.789386053863
 21
-1916.707864543864
 31
0.0000000000000045
  0
LINE
  5
20C7F
330
18
100
AcDbEntity
  8
姿図
100
AcDbLine
 10
2863.437086053412
 20
-1915.26181137889
 30
0.0000000000000045
 11
2863.463316297739
 21
-1915.369097938102
 31
0.0000000000000045
  0
ELLIPSE
  5
20C80
330
18
100
AcDbEntity
  8
姿図
100
AcDbEllipse
 10
2867.12038332183
 20
-1917.323944562973
 30
0.0000000000000045
 11
-0.0456140769533999
 21
0.0874292229097453
 31
0.0
210
0.0
220
0.0
230
-0.9999999999999998
 40
0.7445887406997006
 41
0.0194714738012121
 42
1.456954302896388
  0
ELLIPSE
  5
20C81
330
18
100
AcDbEntity
  8
姿図
100
AcDbEllipse
 10
2865.869134506085
 20
-1915.922527187527
 30
0.0000000000000045
 11
-0.0961953680607232
 21
0.1843791837664974
 31
0.0
210
-0.0000000000000001
220
0.0000000000000001
230
-1.0
 40
0.7445887407020883
 41
0.0194714738088548
 42
1.88973887963489
  0
ELLIPSE
  5
20C82
330
18
100
AcDbEntity
  8
姿図
100
AcDbEllipse
 10
2863.927218077588
 20
-1915.375549164432
 30
0.0000000000000045
 11
-0.0961953680607232
 21
0.1843791837664974
 31
0.0
210
0.0
220
0.0
230
-1.0
 40
0.7445887407020883
 41
0.0194714738088548
 42
1.88973887963489
  0
ELLIPSE
  5
20C83
330
18
100
AcDbEntity
  8
姿図
100
AcDbEllipse
 10
2863.276559823938
 20
-1915.272010671312
 30
0.0000000000000045
 11
-0.0961953680607232
 21
0.1843791837664974
 31
0.0
210
0.0
220
0.0
230
-1.0
 40
0.7445887407020883
 41
0.0194714738088548
 42
1.88973887963489
  0
LINE
  5
20C84
330
18
100
AcDbEntity
  8
姿図
100
AcDbLine
 10
2858.046780190157
 20
-1915.185662275082
 30
0.0000000000000027
 11
2855.362180685675
 21
-1916.701151319372
 31
0.0000000000000027
  0
LINE
  5
20C85
330
18
100
AcDbEntity
  8
姿図
100
AcDbLine
 10
2858.388045411273
 20
-1914.44177033505
 30
0.0000000000000045
 11
2858.554382530281
 21
-1914.720943901462
 31
0.0000000000000027
  0
ARC
  5
20C86
330
18
100
AcDbEntity
  8
姿図
100
AcDbCircle
 10
2859.032313611519
 20
-1918.27506113656
 30
0.0000000000000027
 40
3.586107561023746
100
AcDbArc
 50
87.16683646673457
 51
97.65876395038334
  0
ELLIPSE
  5
20C87
330
18
100
AcDbEntity
  8
姿図
100
AcDbEllipse
 10
2858.126619607518
 20
-1914.466205658527
 30
0.0000000000000045
 11
-0.2812355643301689
 21
0.0809565419966116
 31
0.0
210
0.0
220
0.0000000000000001
230
-1.0
 40
0.5954474281840118
 41
1.067175184772985
 42
2.559533103277177
  0
ARC
  5
20C88
330
18
100
AcDbEntity
  8
姿図
100
AcDbCircle
 10
2866.135056231038
 20
-1964.526486627336
 30
0.0000000000000045
 40
50.89502870933777
100
AcDbArc
 50
99.15983974176526
 51
112.3175226532979
  0
SPLINE
  5
20C94
330
18
100
AcDbEntity
  8
姿図
100
AcDbSpline
210
0.0
220
0.0
230
1.0
 70
    24
 71
     3
 72
     8
 73
     4
 74
     0
 42
0.0000000001
 43
0.0000000001
 40
10.0
 40
10.0
 40
10.0
 40
10.0
 40
10.56265067495566
 40
10.56265067495566
 40
10.56265067495566
 40
10.56265067495566
 10
2857.21848050912
 20
-1898.232818915232
 30
0.0000000000000033
 10
2857.21848050912
 20
-1898.232818915232
 30
0.0000000000000033
 10
2855.699757962659
 20
-1898.387068673465
 30
0.0000000000000033
 10
2854.37133340141
 20
-1898.521990728768
 30
0.0000000000000033
  0
SPLINE
  5
20C95
330
18
100
AcDbEntity
  8
姿図
100
AcDbSpline
210
0.0
220
0.0
230
1.0
 70
     8
 71
     3
 72
     8
 73
     4
 74
     0
 42
0.0000000001
 43
0.0000000001
 40
9.0
 40
9.0
 40
9.0
 40
9.0
 40
10.0
 40
10.0
 40
10.0
 40
10.0
 10
2858.647071343751
 20
-1898.868996677347
 30
0.0000000000000033
 10
2858.438030534204
 20
-1898.057200647047
 30
0.0000000000000033
 10
2857.21848050912
 20
-1898.232818915232
 30
0.0000000000000033
 10
2857.21848050912
 20
-1898.232818915232
 30
0.0000000000000033
  0
SPLINE
  5
20C96
330
18
100
AcDbEntity
  8
姿図
100
AcDbSpline
210
0.0
220
0.0
230
1.0
 70
     8
 71
     3
 72
     8
 73
     4
 74
     0
 42
0.0000000001
 43
0.0000000001
 40
14.0
 40
14.0
 40
14.0
 40
14.0
 40
15.0
 40
15.0
 40
15.0
 40
15.0
 10
2846.931935462409
 20
-1899.602656999921
 30
0.0000000000000033
 10
2846.58171534669
 20
-1899.713450673782
 30
0.0000000000000033
 10
2846.561254536331
 20
-1900.526690208766
 30
0.0000000000000033
 10
2846.561254536331
 20
-1900.526690208766
 30
0.0000000000000033
  0
SPLINE
  5
20C98
330
18
100
AcDbEntity
  8
姿図
100
AcDbSpline
210
0.0
220
0.0
230
1.0
 70
     8
 71
     3
 72
     8
 73
     4
 74
     0
 42
0.0000000001
 43
0.0000000001
 40
4.562871291847087
 40
4.562871291847087
 40
4.562871291847087
 40
4.562871291847087
 40
5.0
 40
5.0
 40
5.0
 40
5.0
 10
2854.533634420124
 20
-1900.815314442592
 30
0.0000000000000033
 10
2855.194994980974
 20
-1900.75194769162
 30
0.0000000000000033
 10
2855.670278716815
 20
-1900.741120707199
 30
0.0000000000000033
 10
2855.670278716815
 20
-1900.741120707199
 30
0.0000000000000033
  0
SPLINE
  5
20C99
330
18
100
AcDbEntity
  8
姿図
100
AcDbSpline
210
0.0
220
0.0
230
1.0
 70
     8
 71
     3
 72
     8
 73
     4
 74
     0
 42
0.0000000001
 43
0.0000000001
 40
0.0
 40
0.0
 40
0.0
 40
0.0
 40
0.4810436403893932
 40
0.4810436403893932
 40
0.4810436403893932
 40
0.4810436403893932
 10
2856.000592981544
 20
-1901.586814171247
 30
0.0000000000000033
 10
2856.000592981544
 20
-1901.586814171247
 30
0.0000000000000033
 10
2855.328242966745
 20
-1901.5279815876
 30
0.0000000000000033
 10
2854.685318351039
 20
-1901.499877714386
 30
0.0000000000000033
  0
SPLINE
  5
20C9A
330
18
100
AcDbEntity
  8
姿図
100
AcDbSpline
210
0.0
220
0.0
230
1.0
 70
     8
 71
     3
 72
     8
 73
     4
 74
     0
 42
0.0000000001
 43
0.0000000001
 40
5.0
 40
5.0
 40
5.0
 40
5.0
 40
6.0
 40
6.0
 40
6.0
 40
6.0
 10
2855.670278716815
 20
-1900.741120707199
 30
0.0000000000000033
 10
2855.670278716815
 20
-1900.741120707199
 30
0.0000000000000033
 10
2855.76889750528
 20
-1900.740681928899
 30
0.0000000000000033
 10
2855.84998035562
 20
-1900.903364261959
 30
0.0000000000000033
  0
SPLINE
  5
20C9B
330
18
100
AcDbEntity
  8
姿図
100
AcDbSpline
210
0.0
220
0.0
230
1.0
 70
     8
 71
     3
 72
     8
 73
     4
 74
     0
 42
0.0000000001
 43
0.0000000001
 40
0.0
 40
0.0
 40
0.0
 40
0.0
 40
0.4810436403893932
 40
0.4810436403893932
 40
0.4810436403893932
 40
0.4810436403893932
 10
2855.965950031997
 20
-1901.470762358261
 30
0.0000000000000033
 10
2855.965950031997
 20
-1901.470762358261
 30
0.0000000000000033
 10
2855.293600017196
 20
-1901.411929774613
 30
0.0000000000000033
 10
2854.546909537144
 20
-1901.408448849685
 30
0.0000000000000033
  0
SPLINE
  5
20C9C
330
18
100
AcDbEntity
  8
姿図
100
AcDbSpline
210
0.0
220
0.0
230
1.0
 70
     8
 71
     3
 72
     8
 73
     4
 74
     0
 42
0.0000000001
 43
0.0000000001
 40
5.0
 40
5.0
 40
5.0
 40
5.0
 40
6.0
 40
6.0
 40
6.0
 40
6.0
 10
2855.684531674209
 20
-1900.940820582294
 30
0.0000000000000033
 10
2855.684531674209
 20
-1900.940820582294
 30
0.0000000000000033
 10
2855.783150462675
 20
-1900.940381803994
 30
0.0000000000000033
 10
2855.864233313015
 20
-1901.103064137054
 30
0.0000000000000033
  0
SPLINE
  5
20C9D
330
18
100
AcDbEntity
  8
姿図
100
AcDbSpline
210
0.0
220
0.0
230
1.0
 70
     8
 71
     3
 72
     8
 73
     4
 74
     0
 42
0.0000000001
 43
0.0000000001
 40
4.562871291847087
 40
4.562871291847087
 40
4.562871291847087
 40
4.562871291847087
 40
5.0
 40
5.0
 40
5.0
 40
5.0
 10
2854.547887377519
 20
-1901.015014317687
 30
0.0000000000000033
 10
2855.20924793837
 20
-1900.951647566714
 30
0.0000000000000033
 10
2855.684531674209
 20
-1900.940820582294
 30
0.0000000000000033
 10
2855.684531674209
 20
-1900.940820582294
 30
0.0000000000000033
  0
ARC
  5
20C9E
330
18
100
AcDbEntity
  8
姿図
100
AcDbCircle
 10
2847.636651429207
 20
-1901.80730162014
 30
0.0000000000000033
 40
0.2363024440898693
100
AcDbArc
 50
78.41246877170779
 51
140.882083942096
  0
SPLINE
  5
20C9F
330
18
100
AcDbEntity
  8
姿図
100
AcDbSpline
210
0.0
220
0.0
230
1.0
 70
    24
 71
     3
 72
     8
 73
     4
 74
     0
 42
0.0000000001
 43
0.0000000001
 40
1.0
 40
1.0
 40
1.0
 40
1.0
 40
2.0
 40
2.0
 40
2.0
 40
2.0
 10
2847.836560842336
 20
-1901.70784282583
 30
0.0000000000000033
 10
2847.836560842336
 20
-1901.70784282583
 30
0.0000000000000033
 10
2850.226933506375
 20
-1901.399967926027
 30
0.0000000000000033
 10
2850.226933506375
 20
-1901.399967926027
 30
0.0000000000000033
  0
ARC
  5
20CA0
330
18
100
AcDbEntity
  8
姿図
100
AcDbCircle
 10
2847.789096013313
 20
-1901.939329186311
 30
0.0000000000000033
 40
0.2363024440898693
100
AcDbArc
 50
78.41246877170779
 51
140.882083942096
  0
SPLINE
  5
20CA1
330
18
100
AcDbEntity
  8
姿図
100
AcDbSpline
210
0.0
220
0.0
230
1.0
 70
     8
 71
     3
 72
     8
 73
     4
 74
     0
 42
0.0000000001
 43
0.0000000001
 40
3.357032710531274
 40
3.357032710531274
 40
3.357032710531274
 40
3.357032710531274
 40
4.0
 40
4.0
 40
4.0
 40
4.0
 10
2850.305134153731
 20
-1901.746309061009
 30
0.0000000000000033
 10
2849.871279882027
 20
-1901.77956373981
 30
0.0000000000000033
 10
2849.305219753123
 20
-1901.823733795046
 30
0.0000000000000033
 10
2849.305219753123
 20
-1901.823733795046
 30
0.0000000000000033
  0
SPLINE
  5
20CA2
330
18
100
AcDbEntity
  8
姿図
100
AcDbSpline
210
0.0
220
0.0
230
1.0
 70
     8
 71
     3
 72
     8
 73
     4
 74
     0
 42
0.0000000001
 43
0.0000000001
 40
3.357032710531274
 40
3.357032710531274
 40
3.357032710531274
 40
3.357032710531274
 40
4.0
 40
4.0
 40
4.0
 40
4.0
 10
2850.205673833681
 20
-1901.871569545521
 30
0.0000000000000033
 10
2849.771819561977
 20
-1901.904824224322
 30
0.0000000000000033
 10
2849.205759433072
 20
-1901.948994279558
 30
0.0000000000000033
 10
2849.205759433072
 20
-1901.948994279558
 30
0.0000000000000033
  0
SPLINE
  5
20CA3
330
18
100
AcDbEntity
  8
姿図
100
AcDbSpline
210
0.0
220
0.0
230
1.0
 70
    24
 71
     3
 72
     8
 73
     4
 74
     0
 42
0.0000000001
 43
0.0000000001
 40
1.0
 40
1.0
 40
1.0
 40
1.0
 40
2.0
 40
2.0
 40
2.0
 40
2.0
 10
2847.684116258229
 20
-1901.575815259659
 30
0.0000000000000033
 10
2847.684116258229
 20
-1901.575815259659
 30
0.0000000000000033
 10
2850.074488922268
 20
-1901.267940359856
 30
0.0000000000000033
 10
2850.074488922268
 20
-1901.267940359856
 30
0.0000000000000033
  0
LINE
  5
225DC
330
18
100
AcDbEntity
  8
姿図
  6
Continuous
100
AcDbLine
 10
2853.282956880666
 20
-1894.660660149971
 30
0.0000000000000033
 11
2887.547255910618
 21
-1903.114058889903
 31
0.0000000000000007
  0
LINE
  5
225DD
330
18
100
AcDbEntity
  8
姿図
  6
Continuous
100
AcDbLine
 10
2887.798473606057
 20
-1891.03371468218
 30
0.0000000000000007
 11
2887.616088154634
 21
-1902.957734045506
 31
0.0000000000000007
  0
ARC
  5
225DE
330
18
100
AcDbEntity
  8
姿図
  6
Continuous
100
AcDbCircle
 10
2887.365603664492
 20
-1902.940758227222
 30
0.0000000000000007
 40
0.2510590731453141
100
AcDbArc
 50
289.9774861119575
 51
356.1228828826934
  0
ARC
  5
225DF
330
18
100
AcDbEntity
  8
姿図
  6
Continuous
100
AcDbCircle
 10
2879.108980372997
 20
-1905.271230862725
 30
0.0000000000000007
 40
0.3076179234526221
100
AcDbArc
 50
255.660596476332
 51
288.8184409594401
  0
LINE
  5
225E0
330
18
100
AcDbEntity
  8
姿図
  6
Continuous
100
AcDbLine
 10
2887.451378215937
 20
-1903.176710308232
 30
0.0000000000000007
 11
2879.208208798157
 21
-1905.562405220231
 31
0.0000000000000007
  0
LINE
  5
225E1
330
18
100
AcDbEntity
  8
姿図
  6
Continuous
100
AcDbLine
 10
2853.469072385388
 20
-1882.564254479077
 30
0.0000000000000033
 11
2887.798473606057
 21
-1891.03371468218
 31
0.0000000000000033
  0
LINE
  5
225E2
330
18
100
AcDbEntity
  8
姿図
  6
Continuous
100
AcDbLine
 10
2851.799573827272
 20
-1882.402042771136
 30
0.0000000000000033
 11
2852.933860288178
 21
-1882.681884355841
 31
0.0000000000000033
  0
LINE
  5
225E3
330
18
100
AcDbEntity
  8
姿図
  6
Continuous
100
AcDbLine
 10
2851.811618605512
 20
-1883.006677664904
 30
0.0000000000000033
 11
2851.799573827272
 21
-1882.402042771136
 31
0.0000000000000033
  0
LINE
  5
225E4
330
18
100
AcDbEntity
  8
姿図
  6
Continuous
100
AcDbLine
 10
2849.983346789098
 20
-1883.573074921582
 30
0.0000000000000033
 11
2849.970563852176
 21
-1882.93138525707
 31
0.0000000000000033
  0
LINE
  5
225E5
330
18
100
AcDbEntity
  8
姿図
  6
Continuous
100
AcDbLine
 10
2851.799573827272
 20
-1882.402042771136
 30
0.0000000000000033
 11
2849.970563852176
 21
-1882.93138525707
 31
0.0000000000000033
  0
LINE
  5
225E6
330
18
100
AcDbEntity
  8
姿図
  6
Continuous
100
AcDbLine
 10
2853.469072385388
 20
-1882.564254479077
 30
0.0000000000000033
 11
2842.803319656105
 21
-1885.651080762668
 31
0.0000000000000033
  0
LINE
  5
225E7
330
18
100
AcDbEntity
  8
姿図
  6
Continuous
100
AcDbLine
 10
2853.282956880666
 20
-1894.660660149971
 30
0.0000000000000033
 11
2842.617204151384
 21
-1897.747486433562
 31
0.0000000000000033
  0
LINE
  5
225E8
330
18
100
AcDbEntity
  8
姿図
  6
Continuous
100
AcDbLine
 10
2853.469072385388
 20
-1882.564254479077
 30
0.0000000000000033
 11
2853.282956880666
 21
-1894.660660149971
 31
0.0000000000000033
  0
LINE
  5
225E9
330
18
100
AcDbEntity
  8
姿図
  6
Continuous
100
AcDbLine
 10
2842.803319656105
 20
-1885.651080762668
 30
0.0000000000000033
 11
2842.617204151384
 21
-1897.747486433562
 31
0.0000000000000033
  0
LINE
  5
225EA
330
18
100
AcDbEntity
  8
姿図
  6
Continuous
100
AcDbLine
 10
2853.084154322338
 20
-1895.411613260245
 30
0.0000000000000033
 11
2860.406261396181
 21
-1897.218061734722
 31
0.0000000000000033
  0
LINE
  5
225EB
330
18
100
AcDbEntity
  8
姿図
  6
Continuous
100
AcDbLine
 10
2848.641806804229
 20
-1899.234798730821
 30
0.000000000000002
 11
2843.522023549699
 21
-1898.17903505834
 31
0.000000000000002
  0
LINE
  5
225EC
330
18
100
AcDbEntity
  8
姿図
  6
Continuous
100
AcDbLine
 10
2853.084154322338
 20
-1895.411613260245
 30
0.0000000000000022
 11
2843.5220235497
 21
-1898.17903505834
 31
0.0000000000000022
  0
LINE
  5
225ED
330
18
100
AcDbEntity
  8
姿図
  6
Continuous
100
AcDbLine
 10
2860.406261396183
 20
-1897.218061734722
 30
0.0000000000000007
 11
2856.727840748624
 21
-1898.282650969555
 31
0.0000000000000007
  0
LINE
  5
225EE
330
18
100
AcDbEntity
  8
姿図
  6
Continuous
100
AcDbLine
 10
2842.617204151384
 20
-1897.747486433562
 30
0.0000000000000033
 11
2843.5220235497
 21
-1898.17903505834
 31
0.000000000000002
  0
LINE
  5
225EF
330
18
100
AcDbEntity
  8
姿図
  6
Continuous
100
AcDbLine
 10
2853.282956880666
 20
-1894.660660149971
 30
0.0000000000000033
 11
2853.084154322338
 21
-1895.411613260245
 31
0.0000000000000022
  0
LINE
  5
225F0
330
18
100
AcDbEntity
  8
姿図
  6
Continuous
100
AcDbLine
 10
2861.144851468532
 20
-1896.600280445266
 30
0.0000000000000007
 11
2860.371217138029
 21
-1897.247373917217
 31
0.0000000000000007
  0
LINE
  5
225F1
330
18
100
AcDbEntity
  8
姿図
  6
Continuous
100
AcDbLine
 10
2858.95654453553
 20
-1900.630878196973
 30
0.0000000000000033
 11
2879.032794067106
 21
-1905.569265145357
 31
0.0000000000000007
  0
ENDSEC
  0
SECTION
  2
OBJECTS
  0
DICTIONARY
  5
C
330
0
100
AcDbDictionary
281
     1
  3
ACAD_COLOR
350
207C0
  3
ACAD_GROUP
350
D
  3
ACAD_IMAGE_VARS
350
1F21D
  3
ACAD_LAYOUT
350
40CB
  3
ACAD_MATERIAL
350
20796
  3
ACAD_MLEADERSTYLE
350
207C3
  3
ACAD_MLINESTYLE
350
E
  3
ACAD_PLOTSETTINGS
350
40CC
  3
ACAD_PLOTSTYLENAME
350
40C9
  3
ACAD_SCALELIST
350
179A9
  3
ACAD_TABLESTYLE
350
207C1
  3
ACAD_VISUALSTYLE
350
207AF
  3
ACDB_RECOMPOSE_DATA
350
207D3
  3
AcDbVariableDictionary
350
6377
  3
APPDATA
350
1F21C
  3
DWGPROPS
350
22804
  0
DICTIONARY
  5
207D5
330
8
100
AcDbDictionary
280
     1
281
     1
  0
DICTIONARY
  5
180F7
330
2
100
AcDbDictionary
280
     1
281
     1
  3
ACAD_LAYERSTATES
360
180F8
  0
DICTIONARY
  5
179D2
330
F
100
AcDbDictionary
280
     1
281
     1
  3
ADSK_XREC_LAYER_RECONCILED
360
179D3
  0
DICTIONARY
  5
179DA
330
4C
100
AcDbDictionary
280
     1
281
     1
  3
ADSK_XREC_LAYER_RECONCILED
360
179DB
  0
DICTIONARY
  5
179DC
330
4D
100
AcDbDictionary
280
     1
281
     1
  3
ADSK_XREC_LAYER_RECONCILED
360
179DD
  0
DICTIONARY
  5
179E0
330
40D4
100
AcDbDictionary
280
     1
281
     1
  3
ADSK_XREC_LAYER_RECONCILED
360
179E1
  0
DICTIONARY
  5
22686
330
18
100
AcDbDictionary
280
     1
281
     1
  3
ACAD_SORTENTS
360
22687
  0
DICTIONARY
  5
207C0
102
{ACAD_REACTORS
330
C
102
}
330
C
100
AcDbDictionary
281
     1
  0
DICTIONARY
  5
D
102
{ACAD_REACTORS
330
C
102
}
330
C
100
AcDbDictionary
281
     1
  3
*A1
350
EFF2
  3
*A2
350
F1F0
  3
*A3
350
F219
  3
*A4
350
F250
  3
*A5
350
FB90
  3
*A6
350
FB91
  0
RASTERVARIABLES
  5
1F21D
102
{ACAD_REACTORS
330
C
102
}
330
C
100
AcDbRasterVariables
 90
        0
 70
     1
 71
     1
 72
     0
  0
DICTIONARY
  5
40CB
102
{ACAD_REACTORS
330
C
102
}
330
C
100
AcDbDictionary
281
     1
  3
Model
350
40CD
  3
ﾚｲｱｳﾄ1
350
40CE
  0
DICTIONARY
  5
20796
102
{ACAD_REACTORS
330
C
102
}
330
C
100
AcDbDictionary
281
     1
  3
ByBlock
350
2079F
  3
ByLayer
350
20797
  3
Global
350
207A7
  0
DICTIONARY
  5
207C3
102
{ACAD_REACTORS
330
C
102
}
330
C
100
AcDbDictionary
281
     1
  3
Standard
350
207C4
  0
DICTIONARY
  5
E
102
{ACAD_REACTORS
330
C
102
}
330
C
100
AcDbDictionary
281
     1
  3
STANDARD
350
1B
  0
DICTIONARY
  5
40CC
102
{ACAD_REACTORS
330
C
102
}
330
C
100
AcDbDictionary
281
     1
  0
ACDBDICTIONARYWDFLT
  5
40C9
102
{ACAD_REACTORS
330
C
102
}
330
C
100
AcDbDictionary
281
     1
  3
Normal
350
40CA
100
AcDbDictionaryWithDefault
340
40CA
  0
DICTIONARY
  5
179A9
102
{ACAD_REACTORS
330
C
102
}
330
C
100
AcDbDictionary
281
     1
  3
A0
350
179AA
  3
A1
350
179AB
  3
A2
350
179AC
  3
A3
350
179AD
  3
A4
350
179AE
  3
A5
350
179AF
  3
A6
350
179B0
  3
A7
350
179B1
  3
A8
350
179B2
  3
A9
350
179B3
  3
B0
350
179B4
  3
B1
350
179B5
  3
B2
350
179B6
  3
B3
350
179B7
  3
B4
350
179B8
  3
B5
350
179B9
  3
B6
350
179BA
  3
B7
350
179BB
  3
B8
350
179BC
  3
B9
350
179BD
  3
C0
350
179BE
  3
C1
350
179BF
  3
C2
350
179C0
  3
C3
350
179C1
  3
C4
350
179C2
  3
C5
350
179C3
  3
C6
350
179C4
  3
C7
350
179C5
  3
C8
350
179C6
  3
C9
350
179C7
  3
D0
350
179C8
  3
D1
350
179C9
  3
D2
350
179CA
  0
DICTIONARY
  5
207C1
102
{ACAD_REACTORS
330
C
102
}
330
C
100
AcDbDictionary
281
     1
  3
Standard
350
207C2
  0
DICTIONARY
  5
207AF
102
{ACAD_REACTORS
330
C
102
}
330
C
100
AcDbDictionary
281
     1
  3
2dWireframe
350
207B5
  3
3D Hidden
350
207B7
  3
3dWireframe
350
207B6
  3
Basic
350
207B4
  3
Brighten
350
207BB
  3
ColorChange
350
207BF
  3
Conceptual
350
207B8
  3
Dim
350
207BA
  3
Facepattern
350
207BE
  3
Flat
350
207B0
  3
FlatWithEdges
350
207B1
  3
Gouraud
350
207B2
  3
GouraudWithEdges
350
207B3
  3
Linepattern
350
207BD
  3
Realistic
350
207B9
  3
Thicken
350
207BC
  0
XRECORD
  5
207D3
102
{ACAD_REACTORS
330
C
102
}
330
C
100
AcDbXrecord
280
     1
 90
        1
330
207C2
  0
DICTIONARY
  5
6377
102
{ACAD_REACTORS
330
C
102
}
330
C
100
AcDbDictionary
281
     1
  3
CANNOSCALE
350
207E3
  3
CMLEADERSTYLE
350
207E2
  3
CTABLESTYLE
350
207E1
  3
DIMASSOC
350
73F2
  3
INDEXCTL
350
17A17
  3
PROJECTNAME
350
12132
  3
SORTENTS
350
6378
  0
DICTIONARY
  5
1F21C
102
{ACAD_REACTORS
330
C
102
}
330
C
100
AcDbDictionary
281
     1
  0
XRECORD
  5
22804
102
{ACAD_REACTORS
330
C
102
}
330
C
100
AcDbXrecord
280
     1
  1
DWGPROPS COOKIE
  2

  3

  4

  6

  7

  8
SPAX
  9

300
=
301
=
302
=
303
=
304
=
305
=
306
=
307
=
308
=
309
=
 40
2.337611134259259
 41
2449505.922222222
 42
2457098.38384243
  1

 90
        0
  0
DICTIONARY
  5
180F8
102
{ACAD_REACTORS
330
180F7
102
}
330
180F7
100
AcDbDictionary
281
     1
  0
XRECORD
  5
179D3
102
{ACAD_REACTORS
330
179D2
102
}
330
179D2
100
AcDbXrecord
280
     1
290
     1
  0
XRECORD
  5
179DB
102
{ACAD_REACTORS
330
179DA
102
}
330
179DA
100
AcDbXrecord
280
     1
290
     1
  0
XRECORD
  5
179DD
102
{ACAD_REACTORS
330
179DC
102
}
330
179DC
100
AcDbXrecord
280
     1
290
     1
  0
XRECORD
  5
179E1
102
{ACAD_REACTORS
330
179E0
102
}
330
179E0
100
AcDbXrecord
280
     1
290
     1
  0
SORTENTSTABLE
  5
22687
102
{ACAD_REACTORS
330
22686
102
}
330
22686
100
AcDbSortentsTable
330
18
331
20C6B
  5
20C6B
331
20ADD
  5
20ADD
331
20C99
  5
20C99
331
20C7A
  5
20C7A
331
20C5B
  5
20C5B
331
225E9
  5
225F0
331
20C6A
  5
20C6A
331
20ADC
  5
20ADC
331
20C98
  5
20C98
331
20C79
  5
20C79
331
20C5A
  5
20C5A
331
225E8
  5
225EF
331
20C69
  5
20C69
331
20C88
  5
20C88
331
20C78
  5
20C78
331
20C59
  5
20C59
331
20C68
  5
20C68
331
20C58
  5
20C58
331
20AE0
  5
20AE0
331
20C4F
  5
20C4F
331
20C4E
  5
20C4E
331
20C2F
  5
20C2F
331
20C4D
  5
20C4D
331
20C2E
  5
20C2E
331
20C0F
  5
20C0F
331
20BFF
  5
20BFF
331
20C4C
  5
20C4C
331
20C2D
  5
20C2D
331
20BEF
  5
20BEF
331
20C0E
  5
20C0E
331
20C3C
  5
20C3C
331
20BFE
  5
20BFE
331
20C4B
  5
20C4B
331
20C2C
  5
20C2C
331
20BEE
  5
20BEE
331
20C0D
  5
20C0D
331
20C3B
  5
20C3B
331
20BFD
  5
20BFD
331
20C4A
  5
20C4A
331
20C2B
  5
20C2B
331
20BED
  5
20BED
331
20C0C
  5
20C0C
331
20C3A
  5
20C3A
331
20BFC
  5
20BFC
331
225E7
  5
225EE
331
20C49
  5
20C49
331
20C2A
  5
20C2A
331
20C0B
  5
20C0B
331
20C87
  5
20C87
331
20BEC
  5
20BEC
331
20C39
  5
20C39
331
20C96
  5
20C96
331
20C77
  5
20C77
331
20BFB
  5
20BFB
331
225E6
  5
225ED
331
20C0A
  5
20C0A
331
20C67
  5
20C67
331
20C86
  5
20C86
331
20BEB
  5
20BEB
331
20C38
  5
20C38
331
20C57
  5
20C57
331
20C95
  5
20C95
331
20C76
  5
20C76
331
20BFA
  5
20BFA
331
225E5
  5
225EC
331
20C09
  5
20C09
331
20C66
  5
20C66
331
20C85
  5
20C85
331
20BEA
  5
20BEA
331
20C37
  5
20C37
331
20C56
  5
20C56
331
20C94
  5
20C94
331
20C75
  5
20C75
331
225E4
  5
225EB
331
20C08
  5
20C08
331
20CA3
  5
20CA3
331
20C65
  5
20C65
331
20C84
  5
20C84
331
20BE9
  5
20BE9
331
20C55
  5
20C55
331
20C74
  5
20C74
331
20C36
  5
20C36
331
225E3
  5
225EA
331
20C07
  5
20C07
331
20CA2
  5
20CA2
331
20C64
  5
20C64
331
20C83
  5
20C83
331
20BE8
  5
20BE8
331
20C54
  5
20C54
331
20C73
  5
20C73
331
20BF7
  5
20BF7
331
20C35
  5
20C35
331
225E2
  5
225E9
331
20C06
  5
20C06
331
20CA1
  5
20CA1
331
20C63
  5
20C63
331
20C82
  5
20C82
331
20BE7
  5
20BE7
331
225F1
  5
22688
331
20C53
  5
20C53
331
20C34
  5
20C34
331
20C72
  5
20C72
331
20BF6
  5
20BF6
331
225E1
  5
225E8
331
20C05
  5
20C05
331
20CA0
  5
20CA0
331
20C62
  5
20C62
331
20C81
  5
20C81
331
20BE6
  5
20BE6
331
225F0
  5
22685
331
20C52
  5
20C52
331
20C33
  5
20C33
331
20C71
  5
20C71
331
20BF5
  5
20BF5
331
225E0
  5
225E7
331
20C23
  5
20C23
331
20C04
  5
20C04
331
20C9F
  5
20C9F
331
20C61
  5
20C61
331
20C80
  5
20C80
331
20BE5
  5
20BE5
331
225EF
  5
22681
331
20C51
  5
20C51
331
20C32
  5
20C32
331
20C70
  5
20C70
331
20BF4
  5
20BF4
331
225DF
  5
225E6
331
20C03
  5
20C03
331
20C9E
  5
20C9E
331
20C60
  5
20C60
331
20C7F
  5
20C7F
331
20BE4
  5
20BE4
331
225EE
  5
22680
331
20C50
  5
20C50
331
20C31
  5
20C31
331
20C6F
  5
20C6F
331
225DE
  5
225E5
331
20C40
  5
20C40
331
20C02
  5
20C02
331
20C9D
  5
20C9D
331
20C7E
  5
20C7E
331
20C5F
  5
20C5F
331
20BE3
  5
20BE3
331
225ED
  5
2263F
331
20C30
  5
20C30
331
20C6E
  5
20C6E
331
20BF2
  5
20BF2
331
225DD
  5
225E4
331
20C01
  5
20C01
331
20C9C
  5
20C9C
331
20C7D
  5
20C7D
331
20C5E
  5
20C5E
331
20BE2
  5
20BE2
331
225EC
  5
2263E
331
20BF1
  5
20BF1
331
20C6D
  5
20C6D
331
225DC
  5
225E3
331
20ADF
  5
20ADF
331
20C00
  5
20C00
331
20C9B
  5
20C9B
331
20C7C
  5
20C7C
331
20C5D
  5
20C5D
331
225EB
  5
2263D
331
20BF0
  5
20BF0
331
20C6C
  5
20C6C
331
20ADE
  5
20ADE
331
20C9A
  5
20C9A
331
20C7B
  5
20C7B
331
20C5C
  5
20C5C
331
225EA
  5
225F1
  0
GROUP
  5
EFF2
102
{ACAD_REACTORS
330
D
102
}
330
D
100
AcDbGroup
300

 70
     1
 71
     1
  0
GROUP
  5
F1F0
102
{ACAD_REACTORS
330
D
102
}
330
D
100
AcDbGroup
300

 70
     1
 71
     1
  0
GROUP
  5
F219
102
{ACAD_REACTORS
330
D
102
}
330
D
100
AcDbGroup
300

 70
     1
 71
     1
  0
GROUP
  5
F250
102
{ACAD_REACTORS
330
D
102
}
330
D
100
AcDbGroup
300

 70
     1
 71
     1
  0
GROUP
  5
FB90
102
{ACAD_REACTORS
330
D
102
}
330
D
100
AcDbGroup
300

 70
     1
 71
     1
  0
GROUP
  5
FB91
102
{ACAD_REACTORS
330
D
102
}
330
D
100
AcDbGroup
300

 70
     1
 71
     1
  0
LAYOUT
  5
40CD
102
{ACAD_XDICTIONARY
360
22805
102
}
102
{ACAD_REACTORS
330
40CB
102
}
330
40CB
100
AcDbPlotSettings
  1

  2
JUST PDF 3
  4
A4
  6

 40
3.174999952316284
 41
3.174999952316284
 42
3.175003051757812
 43
3.17498779296875
 44
209.8886566162109
 45
297.0530090332031
 46
14.27171755861525
 47
9.855173074625781
 48
2814.443926091554
 49
-2378.480925228013
140
3164.434363081367
141
-1836.495574950679
142
1.0
143
2.0
 70
  3748
 72
     1
 73
     0
 74
     4
  7
spax form.ctb
 75
    16
147
1.0
148
-2814.443926091554
149
2378.480925228013
100
AcDbLayout
  1
Model
 70
     1
 71
     0
 10
0.0
 20
0.0
 11
12.0
 21
9.0
 12
0.0
 22
0.0
 32
0.0
 14
0.0
 24
0.0
 34
0.0
 15
0.0
 25
0.0
 35
0.0
146
0.0
 13
0.0
 23
0.0
 33
0.0
 16
1.0
 26
0.0
 36
0.0
 17
0.0
 27
1.0
 37
0.0
 76
     0
330
18
331
1EB79
1001
ACAD_PSEXT
1000
JUST PDF 3
1000
JUST PDF 3
1000
JUST PDF 3 Port:
1000

1070
     0
  0
LAYOUT
  5
40CE
102
{ACAD_XDICTIONARY
360
22807
102
}
102
{ACAD_REACTORS
330
40CB
102
}
330
40CB
100
AcDbPlotSettings
  1

  2
なし
  4

  6

 40
0.0
 41
0.0
 42
0.0
 43
0.0
 44
0.0
 45
0.0
 46
0.0
 47
0.0
 48
0.0
 49
0.0
140
0.0
141
0.0
142
1.0
143
1.0
 70
   688
 72
     0
 73
     0
 74
     5
  7
Aiba.ctb
 75
    16
147
1.0
148
0.0
149
0.0
100
AcDbLayout
  1
ﾚｲｱｳﾄ1
 70
     0
 71
     1
 10
0.0
 20
0.0
 11
12.0
 21
9.0
 12
0.0
 22
0.0
 32
0.0
 14
1.000000000000000E+20
 24
1.000000000000000E+20
 34
1.000000000000000E+20
 15
-1.000000000000000E+20
 25
-1.000000000000000E+20
 35
-1.000000000000000E+20
146
0.0
 13
0.0
 23
0.0
 33
0.0
 16
1.0
 26
0.0
 36
0.0
 17
0.0
 27
1.0
 37
0.0
 76
     0
330
15
  0
MATERIAL
  5
2079F
102
{ACAD_XDICTIONARY
360
207A0
102
}
102
{ACAD_REACTORS
330
20796
102
}
330
20796
100
AcDbMaterial
  1
ByBlock
 72
     0
 43
0.0208333333333333
 43
0.0
 43
0.0
 43
0.0
 43
0.0
 43
0.0208333333333333
 43
0.0
 43
0.0
 43
0.0
 43
0.0
 43
1.0
 43
0.0
 43
0.0
 43
0.0
 43
0.0
 43
1.0
 77
     0
 47
0.0208333333333333
 47
0.0
 47
0.0
 47
0.0
 47
0.0
 47
0.0208333333333333
 47
0.0
 47
0.0
 47
0.0
 47
0.0
 47
1.0
 47
0.0
 47
0.0
 47
0.0
 47
0.0
 47
1.0
171
     0
 49
0.0208333333333333
 49
0.0
 49
0.0
 49
0.0
 49
0.0
 49
0.0208333333333333
 49
0.0
 49
0.0
 49
0.0
 49
0.0
 49
1.0
 49
0.0
 49
0.0
 49
0.0
 49
0.0
 49
1.0
175
     0
142
0.0208333333333333
142
0.0
142
0.0
142
0.0
142
0.0
142
0.0208333333333333
142
0.0
142
0.0
142
0.0
142
0.0
142
1.0
142
0.0
142
0.0
142
0.0
142
0.0
142
1.0
179
     0
144
0.0208333333333333
144
0.0
144
0.0
144
0.0
144
0.0
144
0.0208333333333333
144
0.0
144
0.0
144
0.0
144
0.0
144
1.0
144
0.0
144
0.0
144
0.0
144
0.0
144
1.0
147
0.0208333333333333
147
0.0
147
0.0
147
0.0
147
0.0
147
0.0208333333333333
147
0.0
147
0.0
147
0.0
147
0.0
147
1.0
147
0.0
147
0.0
147
0.0
147
0.0
147
1.0
  0
MATERIAL
  5
20797
102
{ACAD_XDICTIONARY
360
20798
102
}
102
{ACAD_REACTORS
330
20796
102
}
330
20796
100
AcDbMaterial
  1
ByLayer
 72
     0
 43
0.0208333333333333
 43
0.0
 43
0.0
 43
0.0
 43
0.0
 43
0.0208333333333333
 43
0.0
 43
0.0
 43
0.0
 43
0.0
 43
1.0
 43
0.0
 43
0.0
 43
0.0
 43
0.0
 43
1.0
 77
     0
 47
0.0208333333333333
 47
0.0
 47
0.0
 47
0.0
 47
0.0
 47
0.0208333333333333
 47
0.0
 47
0.0
 47
0.0
 47
0.0
 47
1.0
 47
0.0
 47
0.0
 47
0.0
 47
0.0
 47
1.0
171
     0
 49
0.0208333333333333
 49
0.0
 49
0.0
 49
0.0
 49
0.0
 49
0.0208333333333333
 49
0.0
 49
0.0
 49
0.0
 49
0.0
 49
1.0
 49
0.0
 49
0.0
 49
0.0
 49
0.0
 49
1.0
175
     0
142
0.0208333333333333
142
0.0
142
0.0
142
0.0
142
0.0
142
0.0208333333333333
142
0.0
142
0.0
142
0.0
142
0.0
142
1.0
142
0.0
142
0.0
142
0.0
142
0.0
142
1.0
179
     0
144
0.0208333333333333
144
0.0
144
0.0
144
0.0
144
0.0
144
0.0208333333333333
144
0.0
144
0.0
144
0.0
144
0.0
144
1.0
144
0.0
144
0.0
144
0.0
144
0.0
144
1.0
147
0.0208333333333333
147
0.0
147
0.0
147
0.0
147
0.0
147
0.0208333333333333
147
0.0
147
0.0
147
0.0
147
0.0
147
1.0
147
0.0
147
0.0
147
0.0
147
0.0
147
1.0
  0
MATERIAL
  5
207A7
102
{ACAD_XDICTIONARY
360
207A8
102
}
102
{ACAD_REACTORS
330
20796
102
}
330
20796
100
AcDbMaterial
  1
Global
 72
     0
 43
0.0208333333333333
 43
0.0
 43
0.0
 43
0.0
 43
0.0
 43
0.0208333333333333
 43
0.0
 43
0.0
 43
0.0
 43
0.0
 43
1.0
 43
0.0
 43
0.0
 43
0.0
 43
0.0
 43
1.0
 77
     0
 47
0.0208333333333333
 47
0.0
 47
0.0
 47
0.0
 47
0.0
 47
0.0208333333333333
 47
0.0
 47
0.0
 47
0.0
 47
0.0
 47
1.0
 47
0.0
 47
0.0
 47
0.0
 47
0.0
 47
1.0
171
     0
 49
0.0208333333333333
 49
0.0
 49
0.0
 49
0.0
 49
0.0
 49
0.0208333333333333
 49
0.0
 49
0.0
 49
0.0
 49
0.0
 49
1.0
 49
0.0
 49
0.0
 49
0.0
 49
0.0
 49
1.0
175
     0
142
0.0208333333333333
142
0.0
142
0.0
142
0.0
142
0.0
142
0.0208333333333333
142
0.0
142
0.0
142
0.0
142
0.0
142
1.0
142
0.0
142
0.0
142
0.0
142
0.0
142
1.0
179
     0
144
0.0208333333333333
144
0.0
144
0.0
144
0.0
144
0.0
144
0.0208333333333333
144
0.0
144
0.0
144
0.0
144
0.0
144
1.0
144
0.0
144
0.0
144
0.0
144
0.0
144
1.0
147
0.0208333333333333
147
0.0
147
0.0
147
0.0
147
0.0
147
0.0208333333333333
147
0.0
147
0.0
147
0.0
147
0.0
147
1.0
147
0.0
147
0.0
147
0.0
147
0.0
147
1.0
  0
MLEADERSTYLE
  5
207C4
102
{ACAD_REACTORS
330
207C3
102
}
330
207C3
100
AcDbMLeaderStyle
170
     2
171
     1
172
     0
 90
        2
 40
0.0
 41
0.0
173
     1
 91
-1056964608
340
12
 92
       -2
290
     1
 42
0.09
291
     1
 43
0.36
  3
Standard
 44
0.18
300

342
10
174
     1
178
     6
175
     1
176
     0
 93
-1056964608
 45
0.18
292
     0
297
     0
 46
0.18
 94
-1056964608
 47
1.0
 49
1.0
140
1.0
293
     1
141
0.0
294
     1
177
     0
142
1.0
295
     0
296
     0
143
0.125
1001
ACAD_MLEADERVER
1070
     2
  0
MLINESTYLE
  5
1B
102
{ACAD_REACTORS
330
E
102
}
330
E
100
AcDbMlineStyle
  2
STANDARD
 70
     0
  3

 62
     0
 51
90.0
 52
90.0
 71
     2
 49
0.5
 62
   256
  6
BYLAYER
 49
-0.5
 62
   256
  6
BYLAYER
  0
ACDBPLACEHOLDER
  5
40CA
102
{ACAD_REACTORS
330
40C9
102
}
330
40C9
  0
SCALE
  5
179AA
102
{ACAD_REACTORS
330
179A9
102
}
330
179A9
100
AcDbScale
 70
     0
300
1:1
140
1.0
141
1.0
290
     1
1001
ACAD
1000
AcRTDxfName
1000
SCALE
1000
AcRTDxfName
1000
SCALE
1000
AcRTDxfName
1000
SCALE
1000
AcRTDxfName
1000
SCALE
  0
SCALE
  5
179AB
102
{ACAD_REACTORS
330
179A9
102
}
330
179A9
100
AcDbScale
 70
     0
300
1:2
140
1.0
141
2.0
290
     0
1001
ACAD
1000
AcRTDxfName
1000
SCALE
1000
AcRTDxfName
1000
SCALE
1000
AcRTDxfName
1000
SCALE
1000
AcRTDxfName
1000
SCALE
  0
SCALE
  5
179AC
102
{ACAD_REACTORS
330
179A9
102
}
330
179A9
100
AcDbScale
 70
     0
300
1:4
140
1.0
141
4.0
290
     0
1001
ACAD
1000
AcRTDxfName
1000
SCALE
1000
AcRTDxfName
1000
SCALE
1000
AcRTDxfName
1000
SCALE
1000
AcRTDxfName
1000
SCALE
  0
SCALE
  5
179AD
102
{ACAD_REACTORS
330
179A9
102
}
330
179A9
100
AcDbScale
 70
     0
300
1:5
140
1.0
141
5.0
290
     0
1001
ACAD
1000
AcRTDxfName
1000
SCALE
1000
AcRTDxfName
1000
SCALE
1000
AcRTDxfName
1000
SCALE
1000
AcRTDxfName
1000
SCALE
  0
SCALE
  5
179AE
102
{ACAD_REACTORS
330
179A9
102
}
330
179A9
100
AcDbScale
 70
     0
300
1:8
140
1.0
141
8.0
290
     0
1001
ACAD
1000
AcRTDxfName
1000
SCALE
1000
AcRTDxfName
1000
SCALE
1000
AcRTDxfName
1000
SCALE
1000
AcRTDxfName
1000
SCALE
  0
SCALE
  5
179AF
102
{ACAD_REACTORS
330
179A9
102
}
330
179A9
100
AcDbScale
 70
     0
300
1:10
140
1.0
141
10.0
290
     0
1001
ACAD
1000
AcRTDxfName
1000
SCALE
1000
AcRTDxfName
1000
SCALE
1000
AcRTDxfName
1000
SCALE
1000
AcRTDxfName
1000
SCALE
  0
SCALE
  5
179B0
102
{ACAD_REACTORS
330
179A9
102
}
330
179A9
100
AcDbScale
 70
     0
300
1:16
140
1.0
141
16.0
290
     0
1001
ACAD
1000
AcRTDxfName
1000
SCALE
1000
AcRTDxfName
1000
SCALE
1000
AcRTDxfName
1000
SCALE
1000
AcRTDxfName
1000
SCALE
  0
SCALE
  5
179B1
102
{ACAD_REACTORS
330
179A9
102
}
330
179A9
100
AcDbScale
 70
     0
300
1:20
140
1.0
141
20.0
290
     0
1001
ACAD
1000
AcRTDxfName
1000
SCALE
1000
AcRTDxfName
1000
SCALE
1000
AcRTDxfName
1000
SCALE
1000
AcRTDxfName
1000
SCALE
  0
SCALE
  5
179B2
102
{ACAD_REACTORS
330
179A9
102
}
330
179A9
100
AcDbScale
 70
     0
300
1:30
140
1.0
141
30.0
290
     0
1001
ACAD
1000
AcRTDxfName
1000
SCALE
1000
AcRTDxfName
1000
SCALE
1000
AcRTDxfName
1000
SCALE
1000
AcRTDxfName
1000
SCALE
  0
SCALE
  5
179B3
102
{ACAD_REACTORS
330
179A9
102
}
330
179A9
100
AcDbScale
 70
     0
300
1:40
140
1.0
141
40.0
290
     0
1001
ACAD
1000
AcRTDxfName
1000
SCALE
1000
AcRTDxfName
1000
SCALE
1000
AcRTDxfName
1000
SCALE
1000
AcRTDxfName
1000
SCALE
  0
SCALE
  5
179B4
102
{ACAD_REACTORS
330
179A9
102
}
330
179A9
100
AcDbScale
 70
     0
300
1:50
140
1.0
141
50.0
290
     0
1001
ACAD
1000
AcRTDxfName
1000
SCALE
1000
AcRTDxfName
1000
SCALE
1000
AcRTDxfName
1000
SCALE
1000
AcRTDxfName
1000
SCALE
  0
SCALE
  5
179B5
102
{ACAD_REACTORS
330
179A9
102
}
330
179A9
100
AcDbScale
 70
     0
300
1:100
140
1.0
141
100.0
290
     0
1001
ACAD
1000
AcRTDxfName
1000
SCALE
1000
AcRTDxfName
1000
SCALE
1000
AcRTDxfName
1000
SCALE
1000
AcRTDxfName
1000
SCALE
  0
SCALE
  5
179B6
102
{ACAD_REACTORS
330
179A9
102
}
330
179A9
100
AcDbScale
 70
     0
300
2:1
140
2.0
141
1.0
290
     0
1001
ACAD
1000
AcRTDxfName
1000
SCALE
1000
AcRTDxfName
1000
SCALE
1000
AcRTDxfName
1000
SCALE
1000
AcRTDxfName
1000
SCALE
  0
SCALE
  5
179B7
102
{ACAD_REACTORS
330
179A9
102
}
330
179A9
100
AcDbScale
 70
     0
300
4:1
140
4.0
141
1.0
290
     0
1001
ACAD
1000
AcRTDxfName
1000
SCALE
1000
AcRTDxfName
1000
SCALE
1000
AcRTDxfName
1000
SCALE
1000
AcRTDxfName
1000
SCALE
  0
SCALE
  5
179B8
102
{ACAD_REACTORS
330
179A9
102
}
330
179A9
100
AcDbScale
 70
     0
300
8:1
140
8.0
141
1.0
290
     0
1001
ACAD
1000
AcRTDxfName
1000
SCALE
1000
AcRTDxfName
1000
SCALE
1000
AcRTDxfName
1000
SCALE
1000
AcRTDxfName
1000
SCALE
  0
SCALE
  5
179B9
102
{ACAD_REACTORS
330
179A9
102
}
330
179A9
100
AcDbScale
 70
     0
300
10:1
140
10.0
141
1.0
290
     0
1001
ACAD
1000
AcRTDxfName
1000
SCALE
1000
AcRTDxfName
1000
SCALE
1000
AcRTDxfName
1000
SCALE
1000
AcRTDxfName
1000
SCALE
  0
SCALE
  5
179BA
102
{ACAD_REACTORS
330
179A9
102
}
330
179A9
100
AcDbScale
 70
     0
300
100:1
140
100.0
141
1.0
290
     0
1001
ACAD
1000
AcRTDxfName
1000
SCALE
1000
AcRTDxfName
1000
SCALE
1000
AcRTDxfName
1000
SCALE
1000
AcRTDxfName
1000
SCALE
  0
SCALE
  5
179BB
102
{ACAD_REACTORS
330
179A9
102
}
330
179A9
100
AcDbScale
 70
     0
300
1/128" = 1'-0"
140
0.0078125
141
12.0
290
     0
1001
ACAD
1000
AcRTDxfName
1000
SCALE
1000
AcRTDxfName
1000
SCALE
1000
AcRTDxfName
1000
SCALE
1000
AcRTDxfName
1000
SCALE
  0
SCALE
  5
179BC
102
{ACAD_REACTORS
330
179A9
102
}
330
179A9
100
AcDbScale
 70
     0
300
1/64" = 1'-0"
140
0.015625
141
12.0
290
     0
1001
ACAD
1000
AcRTDxfName
1000
SCALE
1000
AcRTDxfName
1000
SCALE
1000
AcRTDxfName
1000
SCALE
1000
AcRTDxfName
1000
SCALE
  0
SCALE
  5
179BD
102
{ACAD_REACTORS
330
179A9
102
}
330
179A9
100
AcDbScale
 70
     0
300
1/32" = 1'-0"
140
0.03125
141
12.0
290
     0
1001
ACAD
1000
AcRTDxfName
1000
SCALE
1000
AcRTDxfName
1000
SCALE
1000
AcRTDxfName
1000
SCALE
1000
AcRTDxfName
1000
SCALE
  0
SCALE
  5
179BE
102
{ACAD_REACTORS
330
179A9
102
}
330
179A9
100
AcDbScale
 70
     0
300
1/16" = 1'-0"
140
0.0625
141
12.0
290
     0
1001
ACAD
1000
AcRTDxfName
1000
SCALE
1000
AcRTDxfName
1000
SCALE
1000
AcRTDxfName
1000
SCALE
1000
AcRTDxfName
1000
SCALE
  0
SCALE
  5
179BF
102
{ACAD_REACTORS
330
179A9
102
}
330
179A9
100
AcDbScale
 70
     0
300
3/32" = 1'-0"
140
0.09375
141
12.0
290
     0
1001
ACAD
1000
AcRTDxfName
1000
SCALE
1000
AcRTDxfName
1000
SCALE
1000
AcRTDxfName
1000
SCALE
1000
AcRTDxfName
1000
SCALE
  0
SCALE
  5
179C0
102
{ACAD_REACTORS
330
179A9
102
}
330
179A9
100
AcDbScale
 70
     0
300
1/8" = 1'-0"
140
0.125
141
12.0
290
     0
1001
ACAD
1000
AcRTDxfName
1000
SCALE
1000
AcRTDxfName
1000
SCALE
1000
AcRTDxfName
1000
SCALE
1000
AcRTDxfName
1000
SCALE
  0
SCALE
  5
179C1
102
{ACAD_REACTORS
330
179A9
102
}
330
179A9
100
AcDbScale
 70
     0
300
3/16" = 1'-0"
140
0.1875
141
12.0
290
     0
1001
ACAD
1000
AcRTDxfName
1000
SCALE
1000
AcRTDxfName
1000
SCALE
1000
AcRTDxfName
1000
SCALE
1000
AcRTDxfName
1000
SCALE
  0
SCALE
  5
179C2
102
{ACAD_REACTORS
330
179A9
102
}
330
179A9
100
AcDbScale
 70
     0
300
1/4" = 1'-0"
140
0.25
141
12.0
290
     0
1001
ACAD
1000
AcRTDxfName
1000
SCALE
1000
AcRTDxfName
1000
SCALE
1000
AcRTDxfName
1000
SCALE
1000
AcRTDxfName
1000
SCALE
  0
SCALE
  5
179C3
102
{ACAD_REACTORS
330
179A9
102
}
330
179A9
100
AcDbScale
 70
     0
300
3/8" = 1'-0"
140
0.375
141
12.0
290
     0
1001
ACAD
1000
AcRTDxfName
1000
SCALE
1000
AcRTDxfName
1000
SCALE
1000
AcRTDxfName
1000
SCALE
1000
AcRTDxfName
1000
SCALE
  0
SCALE
  5
179C4
102
{ACAD_REACTORS
330
179A9
102
}
330
179A9
100
AcDbScale
 70
     0
300
1/2" = 1'-0"
140
0.5
141
12.0
290
     0
1001
ACAD
1000
AcRTDxfName
1000
SCALE
1000
AcRTDxfName
1000
SCALE
1000
AcRTDxfName
1000
SCALE
1000
AcRTDxfName
1000
SCALE
  0
SCALE
  5
179C5
102
{ACAD_REACTORS
330
179A9
102
}
330
179A9
100
AcDbScale
 70
     0
300
3/4" = 1'-0"
140
0.75
141
12.0
290
     0
1001
ACAD
1000
AcRTDxfName
1000
SCALE
1000
AcRTDxfName
1000
SCALE
1000
AcRTDxfName
1000
SCALE
1000
AcRTDxfName
1000
SCALE
  0
SCALE
  5
179C6
102
{ACAD_REACTORS
330
179A9
102
}
330
179A9
100
AcDbScale
 70
     0
300
1" = 1'-0"
140
1.0
141
12.0
290
     0
1001
ACAD
1000
AcRTDxfName
1000
SCALE
1000
AcRTDxfName
1000
SCALE
1000
AcRTDxfName
1000
SCALE
1000
AcRTDxfName
1000
SCALE
  0
SCALE
  5
179C7
102
{ACAD_REACTORS
330
179A9
102
}
330
179A9
100
AcDbScale
 70
     0
300
1-1/2" = 1'-0"
140
1.5
141
12.0
290
     0
1001
ACAD
1000
AcRTDxfName
1000
SCALE
1000
AcRTDxfName
1000
SCALE
1000
AcRTDxfName
1000
SCALE
1000
AcRTDxfName
1000
SCALE
  0
SCALE
  5
179C8
102
{ACAD_REACTORS
330
179A9
102
}
330
179A9
100
AcDbScale
 70
     0
300
3" = 1'-0"
140
3.0
141
12.0
290
     0
1001
ACAD
1000
AcRTDxfName
1000
SCALE
1000
AcRTDxfName
1000
SCALE
1000
AcRTDxfName
1000
SCALE
1000
AcRTDxfName
1000
SCALE
  0
SCALE
  5
179C9
102
{ACAD_REACTORS
330
179A9
102
}
330
179A9
100
AcDbScale
 70
     0
300
6" = 1'-0"
140
6.0
141
12.0
290
     0
1001
ACAD
1000
AcRTDxfName
1000
SCALE
1000
AcRTDxfName
1000
SCALE
1000
AcRTDxfName
1000
SCALE
1000
AcRTDxfName
1000
SCALE
  0
SCALE
  5
179CA
102
{ACAD_REACTORS
330
179A9
102
}
330
179A9
100
AcDbScale
 70
     0
300
1'-0" = 1'-0"
140
12.0
141
12.0
290
     0
1001
ACAD
1000
AcRTDxfName
1000
SCALE
1000
AcRTDxfName
1000
SCALE
1000
AcRTDxfName
1000
SCALE
1000
AcRTDxfName
1000
SCALE
  0
TABLESTYLE
  5
207C2
102
{ACAD_XDICTIONARY
360
207D1
102
}
102
{ACAD_REACTORS
330
207C1
102
}
330
207C1
100
AcDbTableStyle
  3
Standard
 70
     0
 71
     0
 40
0.06
 41
0.06
280
     0
281
     0
  7
STANDARD
140
0.18
170
     2
 62
     0
 63
     7
283
     0
274
    -2
284
     1
 64
     0
275
    -2
285
     1
 65
     0
276
    -2
286
     1
 66
     0
277
    -2
287
     1
 67
     0
278
    -2
288
     1
 68
     0
279
    -2
289
     1
 69
     0
  7
STANDARD
140
0.25
170
     5
 62
     0
 63
     7
283
     0
274
    -2
284
     1
 64
     0
275
    -2
285
     1
 65
     0
276
    -2
286
     1
 66
     0
277
    -2
287
     1
 67
     0
278
    -2
288
     1
 68
     0
279
    -2
289
     1
 69
     0
  7
STANDARD
140
0.18
170
     5
 62
     0
 63
     7
283
     0
274
    -2
284
     1
 64
     0
275
    -2
285
     1
 65
     0
276
    -2
286
     1
 66
     0
277
    -2
287
     1
 67
     0
278
    -2
288
     1
 68
     0
279
    -2
289
     1
 69
     0
  0
VISUALSTYLE
  5
207B5
102
{ACAD_REACTORS
330
207AF
102
}
330
207AF
100
AcDbVisualStyle
  2
2dWireframe
 70
     4
 71
     0
 72
     2
 73
     0
 90
        0
 40
-0.6
 41
-30.0
 62
     5
 63
     7
 74
     1
 91
        4
 64
     7
 65
   257
 75
     1
175
     1
 42
1.0
 92
        0
 66
   257
 43
1.0
 76
     1
 77
     6
 78
     2
 67
     7
 79
     5
170
     0
171
     0
290
     0
174
     0
 93
        1
 44
0.0
173
     0
291
     0
 45
0.0
1001
ACAD
1000
AcDbSavedByObjectVersion
1070
     0
  0
VISUALSTYLE
  5
207B7
102
{ACAD_REACTORS
330
207AF
102
}
330
207AF
100
AcDbVisualStyle
  2
3D Hidden
 70
     6
 71
     1
 72
     2
 73
     2
 90
        0
 40
-0.6
 41
-30.0
 62
     5
 63
     7
 74
     2
 91
        2
 64
     7
 65
   257
 75
     2
175
     1
 42
40.0
 92
        0
 66
   257
 43
1.0
 76
     1
 77
     6
 78
     2
 67
     7
 79
     3
170
     0
171
     0
290
     0
174
     0
 93
        1
 44
0.0
173
     0
291
     0
 45
0.0
1001
ACAD
1000
AcDbSavedByObjectVersion
1070
     0
  0
VISUALSTYLE
  5
207B6
102
{ACAD_REACTORS
330
207AF
102
}
330
207AF
100
AcDbVisualStyle
  2
3dWireframe
 70
     5
 71
     0
 72
     2
 73
     0
 90
        0
 40
-0.6
 41
-30.0
 62
     5
 63
     7
 74
     1
 91
        4
 64
     7
 65
   257
 75
     1
175
     1
 42
1.0
 92
        0
 66
   257
 43
1.0
 76
     1
 77
     6
 78
     2
 67
     7
 79
     5
170
     0
171
     0
290
     0
174
     0
 93
        1
 44
0.0
173
     0
291
     0
 45
0.0
1001
ACAD
1000
AcDbSavedByObjectVersion
1070
     0
  0
VISUALSTYLE
  5
207B4
102
{ACAD_REACTORS
330
207AF
102
}
330
207AF
100
AcDbVisualStyle
  2
Basic
 70
     7
 71
     1
 72
     0
 73
     1
 90
        0
 40
-0.6
 41
-30.0
 62
     5
 63
     7
 74
     0
 91
        4
 64
     7
 65
   257
 75
     1
175
     1
 42
1.0
 92
        8
 66
     7
 43
1.0
 76
     1
 77
     6
 78
     2
 67
     7
 79
     5
170
     0
171
     0
290
     0
174
     0
 93
        1
 44
0.0
173
     0
291
     1
 45
0.0
1001
ACAD
1000
AcDbSavedByObjectVersion
1070
     0
  0
VISUALSTYLE
  5
207BB
102
{ACAD_REACTORS
330
207AF
102
}
330
207AF
100
AcDbVisualStyle
  2
Brighten
 70
    12
 71
     2
 72
     2
 73
     0
 90
        0
 40
-0.6
 41
-30.0
 62
     5
 63
     7
 74
     1
 91
        4
 64
     7
 65
   257
 75
     1
175
     1
 42
1.0
 92
        8
 66
     7
 43
1.0
 76
     1
 77
     6
 78
     2
 67
     7
 79
     5
170
     0
171
     0
290
     0
174
     0
 93
        1
 44
50.0
173
     0
291
     1
 45
0.0
1001
ACAD
1000
AcDbSavedByObjectVersion
1070
     0
  0
VISUALSTYLE
  5
207BF
102
{ACAD_REACTORS
330
207AF
102
}
330
207AF
100
AcDbVisualStyle
  2
ColorChange
 70
    16
 71
     2
 72
     2
 73
     3
 90
        0
 40
-0.6
 41
-30.0
 62
     5
 63
     8
 74
     1
 91
        4
 64
     7
 65
   257
 75
     1
175
     1
 42
1.0
 92
        8
 66
     8
 43
1.0
 76
     1
 77
     6
 78
     2
 67
     7
 79
     5
170
     0
171
     0
290
     0
174
     0
 93
        1
 44
0.0
173
     0
291
     1
 45
0.0
1001
ACAD
1000
AcDbSavedByObjectVersion
1070
     0
  0
VISUALSTYLE
  5
207B8
102
{ACAD_REACTORS
330
207AF
102
}
330
207AF
100
AcDbVisualStyle
  2
Conceptual
 70
     9
 71
     3
 72
     2
 73
     0
 90
        0
 40
-0.6
 41
-30.0
 62
     5
 63
     7
 74
     2
 91
        2
 64
     7
 65
   257
 75
     1
175
     1
 42
40.0
 92
        8
 66
     7
 43
1.0
 76
     1
 77
     6
 78
     2
 67
     7
 79
     3
170
     0
171
     0
290
     0
174
     0
 93
        1
 44
0.0
173
     0
291
     0
 45
0.0
1001
ACAD
1000
AcDbSavedByObjectVersion
1070
     0
  0
VISUALSTYLE
  5
207BA
102
{ACAD_REACTORS
330
207AF
102
}
330
207AF
100
AcDbVisualStyle
  2
Dim
 70
    11
 71
     2
 72
     2
 73
     0
 90
        0
 40
-0.6
 41
-30.0
 62
     5
 63
     7
 74
     1
 91
        4
 64
     7
 65
   257
 75
     1
175
     1
 42
1.0
 92
        8
 66
     7
 43
1.0
 76
     1
 77
     6
 78
     2
 67
     7
 79
     5
170
     0
171
     0
290
     0
174
     0
 93
        1
 44
-50.0
173
     0
291
     1
 45
0.0
1001
ACAD
1000
AcDbSavedByObjectVersion
1070
     0
  0
VISUALSTYLE
  5
207BE
102
{ACAD_REACTORS
330
207AF
102
}
330
207AF
100
AcDbVisualStyle
  2
Facepattern
 70
    15
 71
     2
 72
     2
 73
     0
 90
        0
 40
-0.6
 41
-30.0
 62
     5
 63
     7
 74
     1
 91
        4
 64
     7
 65
   257
 75
     1
175
     1
 42
1.0
 92
        8
 66
     7
 43
1.0
 76
     1
 77
     6
 78
     2
 67
     7
 79
     5
170
     0
171
     0
290
     0
174
     0
 93
        1
 44
0.0
173
     0
291
     1
 45
0.0
1001
ACAD
1000
AcDbSavedByObjectVersion
1070
     0
  0
VISUALSTYLE
  5
207B0
102
{ACAD_REACTORS
330
207AF
102
}
330
207AF
100
AcDbVisualStyle
  2
Flat
 70
     0
 71
     2
 72
     1
 73
     1
 90
        2
 40
-0.6
 41
30.0
 62
     5
 63
     7
 74
     0
 91
        4
 64
     7
 65
   257
 75
     1
175
     1
 42
1.0
 92
        8
 66
     7
 43
1.0
 76
     1
 77
     6
 78
     2
 67
     7
 79
     5
170
     0
171
     0
290
     0
174
     0
 93
       13
 44
0.0
173
     0
291
     1
 45
0.0
1001
ACAD
1000
AcDbSavedByObjectVersion
1070
     0
  0
VISUALSTYLE
  5
207B1
102
{ACAD_REACTORS
330
207AF
102
}
330
207AF
100
AcDbVisualStyle
  2
FlatWithEdges
 70
     1
 71
     2
 72
     1
 73
     1
 90
        2
 40
-0.6
 41
30.0
 62
     5
 63
     7
 74
     1
 91
        4
 64
     7
 65
   257
 75
     1
175
     1
 42
1.0
 92
        0
 66
   257
 43
1.0
 76
     1
 77
     6
 78
     2
 67
     7
 79
     5
170
     0
171
     0
290
     0
174
     0
 93
       13
 44
0.0
173
     0
291
     1
 45
0.0
1001
ACAD
1000
AcDbSavedByObjectVersion
1070
     0
  0
VISUALSTYLE
  5
207B2
102
{ACAD_REACTORS
330
207AF
102
}
330
207AF
100
AcDbVisualStyle
  2
Gouraud
 70
     2
 71
     2
 72
     2
 73
     1
 90
        2
 40
-0.6
 41
30.0
 62
     5
 63
     7
 74
     0
 91
        4
 64
     7
 65
   257
 75
     1
175
     1
 42
1.0
 92
        0
 66
     7
 43
1.0
 76
     1
 77
     6
 78
     2
 67
     7
 79
     5
170
     0
171
     0
290
     0
174
     0
 93
       13
 44
0.0
173
     0
291
     1
 45
0.0
1001
ACAD
1000
AcDbSavedByObjectVersion
1070
     0
  0
VISUALSTYLE
  5
207B3
102
{ACAD_REACTORS
330
207AF
102
}
330
207AF
100
AcDbVisualStyle
  2
GouraudWithEdges
 70
     3
 71
     2
 72
     2
 73
     1
 90
        2
 40
-0.6
 41
30.0
 62
     5
 63
     7
 74
     1
 91
        4
 64
     7
 65
   257
 75
     1
175
     1
 42
1.0
 92
        0
 66
   257
 43
1.0
 76
     1
 77
     6
 78
     2
 67
     7
 79
     5
170
     0
171
     0
290
     0
174
     0
 93
       13
 44
0.0
173
     0
291
     1
 45
0.0
1001
ACAD
1000
AcDbSavedByObjectVersion
1070
     0
  0
VISUALSTYLE
  5
207BD
102
{ACAD_REACTORS
330
207AF
102
}
330
207AF
100
AcDbVisualStyle
  2
Linepattern
 70
    14
 71
     2
 72
     2
 73
     0
 90
        0
 40
-0.6
 41
-30.0
 62
     5
 63
     7
 74
     1
 91
        4
 64
     7
 65
   257
 75
     7
175
     7
 42
1.0
 92
        8
 66
     7
 43
1.0
 76
     1
 77
     6
 78
     2
 67
     7
 79
     5
170
     0
171
     0
290
     0
174
     0
 93
        1
 44
0.0
173
     0
291
     1
 45
0.0
1001
ACAD
1000
AcDbSavedByObjectVersion
1070
     0
  0
VISUALSTYLE
  5
207B9
102
{ACAD_REACTORS
330
207AF
102
}
330
207AF
100
AcDbVisualStyle
  2
Realistic
 70
     8
 71
     2
 72
     2
 73
     0
 90
        0
 40
-0.6
 41
-30.0
 62
     5
 63
     7
 74
     1
 91
        0
 64
     7
 65
   257
 75
     1
175
     1
 42
1.0
 92
        8
 66
     8
 43
1.0
 76
     1
 77
     6
 78
     2
 67
     7
 79
     5
170
     0
171
     0
290
     0
174
     0
 93
       13
 44
0.0
173
     0
291
     0
 45
0.0
1001
ACAD
1000
AcDbSavedByObjectVersion
1070
     0
  0
VISUALSTYLE
  5
207BC
102
{ACAD_REACTORS
330
207AF
102
}
330
207AF
100
AcDbVisualStyle
  2
Thicken
 70
    13
 71
     2
 72
     2
 73
     0
 90
        0
 40
-0.6
 41
-30.0
 62
     5
 63
     7
 74
     1
 91
        4
 64
     7
 65
   257
 75
     1
175
     1
 42
1.0
 92
       12
 66
     7
 43
1.0
 76
     1
 77
     6
 78
     2
 67
     7
 79
     5
170
     0
171
     0
290
     0
174
     0
 93
        1
 44
0.0
173
     0
291
     1
 45
0.0
1001
ACAD
1000
AcDbSavedByObjectVersion
1070
     0
  0
DICTIONARYVAR
  5
207E3
102
{ACAD_REACTORS
330
6377
102
}
330
6377
100
DictionaryVariables
280
     0
  1
1:1
  0
DICTIONARYVAR
  5
207E2
102
{ACAD_REACTORS
330
6377
102
}
330
6377
100
DictionaryVariables
280
     0
  1
STANDARD
  0
DICTIONARYVAR
  5
207E1
102
{ACAD_REACTORS
330
6377
102
}
330
6377
100
DictionaryVariables
280
     0
  1
STANDARD
  0
DICTIONARYVAR
  5
73F2
102
{ACAD_REACTORS
330
6377
102
}
330
6377
100
DictionaryVariables
280
     0
  1
1
  0
DICTIONARYVAR
  5
17A17
102
{ACAD_REACTORS
330
6377
102
}
330
6377
100
DictionaryVariables
280
     0
  1
0
  0
DICTIONARYVAR
  5
12132
102
{ACAD_REACTORS
330
6377
102
}
330
6377
100
DictionaryVariables
280
     0
  1

  0
DICTIONARYVAR
  5
6378
102
{ACAD_REACTORS
330
6377
102
}
330
6377
100
DictionaryVariables
280
     0
  1
96
  0
DICTIONARY
  5
22805
330
40CD
100
AcDbDictionary
280
     1
281
     1
  3
ACAD_XREC_ROUNDTRIP
360
22806
  0
DICTIONARY
  5
22807
330
40CE
100
AcDbDictionary
280
     1
281
     1
  3
ACAD_XREC_ROUNDTRIP
360
22808
  0
DICTIONARY
  5
207A0
330
2079F
100
AcDbDictionary
280
     1
281
     1
  3
ACAD_XREC_ROUNDTRIP
360
2280A
  3
BUMPTILE
360
207A2
  3
DIFFUSETILE
360
207A1
  3
OPACITYTILE
360
207A5
  3
REFLECTIONTILE
360
207A4
  3
REFRACTIONTILE
360
207A6
  3
SPECULARTILE
360
207A3
  0
DICTIONARY
  5
20798
330
20797
100
AcDbDictionary
280
     1
281
     1
  3
ACAD_XREC_ROUNDTRIP
360
22809
  3
BUMPTILE
360
2079A
  3
DIFFUSETILE
360
20799
  3
OPACITYTILE
360
2079D
  3
REFLECTIONTILE
360
2079C
  3
REFRACTIONTILE
360
2079E
  3
SPECULARTILE
360
2079B
  0
DICTIONARY
  5
207A8
330
207A7
100
AcDbDictionary
280
     1
281
     1
  3
ACAD_XREC_ROUNDTRIP
360
2280B
  3
BUMPTILE
360
207AA
  3
DIFFUSETILE
360
207A9
  3
OPACITYTILE
360
207AD
  3
REFLECTIONTILE
360
207AC
  3
REFRACTIONTILE
360
207AE
  3
SPECULARTILE
360
207AB
  0
DICTIONARY
  5
207D1
330
207C2
100
AcDbDictionary
280
     1
281
     1
  3
ACAD_ROUNDTRIP_2008_TABLESTYLE_CELLSTYLEMAP
360
22803
  3
ACAD_XREC_ROUNDTRIP
360
2280C
  0
XRECORD
  5
22806
102
{ACAD_REACTORS
330
22805
102
}
330
22805
100
AcDbXrecord
280
     1
102
SHADEPLOT
 70
     0
102
SHADEPLOTRESLEVEL
 70
     2
102
SHADEPLOTCUSTOMDPI
 70
   300
  0
XRECORD
  5
22808
102
{ACAD_REACTORS
330
22807
102
}
330
22807
100
AcDbXrecord
280
     1
102
SHADEPLOT
 70
     0
102
SHADEPLOTRESLEVEL
 70
     2
102
SHADEPLOTCUSTOMDPI
 70
   300
  0
XRECORD
  5
2280A
102
{ACAD_REACTORS
330
207A0
102
}
330
207A0
100
AcDbXrecord
280
     1
102
MATERIAL
148
0.0
149
0.0
149
0.0
 93
        0
 94
      127
282
     0
 72
     0
 77
     0
171
     0
175
     0
179
     0
273
     0
  0
XRECORD
  5
207A2
102
{ACAD_REACTORS
330
207A0
102
}
330
207A0
100
AcDbXrecord
280
     1
270
     1
271
     1
  0
XRECORD
  5
207A1
102
{ACAD_REACTORS
330
207A0
102
}
330
207A0
100
AcDbXrecord
280
     1
270
     1
271
     1
  0
XRECORD
  5
207A5
102
{ACAD_REACTORS
330
207A0
102
}
330
207A0
100
AcDbXrecord
280
     1
270
     1
271
     1
  0
XRECORD
  5
207A4
102
{ACAD_REACTORS
330
207A0
102
}
330
207A0
100
AcDbXrecord
280
     1
270
     1
271
     1
  0
XRECORD
  5
207A6
102
{ACAD_REACTORS
330
207A0
102
}
330
207A0
100
AcDbXrecord
280
     1
270
     1
271
     1
  0
XRECORD
  5
207A3
102
{ACAD_REACTORS
330
207A0
102
}
330
207A0
100
AcDbXrecord
280
     1
270
     1
271
     1
  0
XRECORD
  5
22809
102
{ACAD_REACTORS
330
20798
102
}
330
20798
100
AcDbXrecord
280
     1
102
MATERIAL
148
0.0
149
0.0
149
0.0
 93
        0
 94
      127
282
     0
 72
     0
 77
     0
171
     0
175
     0
179
     0
273
     0
  0
XRECORD
  5
2079A
102
{ACAD_REACTORS
330
20798
102
}
330
20798
100
AcDbXrecord
280
     1
270
     1
271
     1
  0
XRECORD
  5
20799
102
{ACAD_REACTORS
330
20798
102
}
330
20798
100
AcDbXrecord
280
     1
270
     1
271
     1
  0
XRECORD
  5
2079D
102
{ACAD_REACTORS
330
20798
102
}
330
20798
100
AcDbXrecord
280
     1
270
     1
271
     1
  0
XRECORD
  5
2079C
102
{ACAD_REACTORS
330
20798
102
}
330
20798
100
AcDbXrecord
280
     1
270
     1
271
     1
  0
XRECORD
  5
2079E
102
{ACAD_REACTORS
330
20798
102
}
330
20798
100
AcDbXrecord
280
     1
270
     1
271
     1
  0
XRECORD
  5
2079B
102
{ACAD_REACTORS
330
20798
102
}
330
20798
100
AcDbXrecord
280
     1
270
     1
271
     1
  0
XRECORD
  5
2280B
102
{ACAD_REACTORS
330
207A8
102
}
330
207A8
100
AcDbXrecord
280
     1
102
MATERIAL
148
0.0
149
0.0
149
0.0
 93
        0
 94
      127
282
     0
 72
     0
 77
     0
171
     0
175
     0
179
     0
273
     0
  0
XRECORD
  5
207AA
102
{ACAD_REACTORS
330
207A8
102
}
330
207A8
100
AcDbXrecord
280
     1
270
     1
271
     1
  0
XRECORD
  5
207A9
102
{ACAD_REACTORS
330
207A8
102
}
330
207A8
100
AcDbXrecord
280
     1
270
     1
271
     1
  0
XRECORD
  5
207AD
102
{ACAD_REACTORS
330
207A8
102
}
330
207A8
100
AcDbXrecord
280
     1
270
     1
271
     1
  0
XRECORD
  5
207AC
102
{ACAD_REACTORS
330
207A8
102
}
330
207A8
100
AcDbXrecord
280
     1
270
     1
271
     1
  0
XRECORD
  5
207AE
102
{ACAD_REACTORS
330
207A8
102
}
330
207A8
100
AcDbXrecord
280
     1
270
     1
271
     1
  0
XRECORD
  5
207AB
102
{ACAD_REACTORS
330
207A8
102
}
330
207A8
100
AcDbXrecord
280
     1
270
     1
271
     1
  0
CELLSTYLEMAP
  5
22803
102
{ACAD_REACTORS
330
207D1
102
}
330
207D1
100
AcDbCellStyleMap
 90
        3
300
CELLSTYLE
  1
TABLEFORMAT_BEGIN
 90
        5
170
     1
 91
        0
 92
    32768
 62
   257
 93
        1
300
CONTENTFORMAT
  1
CONTENTFORMAT_BEGIN
 90
        0
 91
        0
 92
      512
 93
        0
300

 40
0.0
140
1.0
 94
        5
 62
     0
340
10
144
0.25
309
CONTENTFORMAT_END
171
     0
 94
        0
309
TABLEFORMAT_END
  1
CELLSTYLE_BEGIN
 90
        1
 91
        1
300
_TITLE
309
CELLSTYLE_END
300
CELLSTYLE
  1
TABLEFORMAT_BEGIN
 90
        5
170
     1
 91
        0
 92
        0
 62
   257
 93
        1
300
CONTENTFORMAT
  1
CONTENTFORMAT_BEGIN
 90
        0
 91
        0
 92
      512
 93
        0
300

 40
0.0
140
1.0
 94
        5
 62
     0
340
10
144
0.18
309
CONTENTFORMAT_END
171
     0
 94
        0
309
TABLEFORMAT_END
  1
CELLSTYLE_BEGIN
 90
        2
 91
        1
300
_HEADER
309
CELLSTYLE_END
300
CELLSTYLE
  1
TABLEFORMAT_BEGIN
 90
        5
170
     1
 91
        0
 92
        0
 62
   257
 93
        1
300
CONTENTFORMAT
  1
CONTENTFORMAT_BEGIN
 90
        0
 91
        0
 92
      512
 93
        0
300

 40
0.0
140
1.0
 94
        2
 62
     0
340
10
144
0.18
309
CONTENTFORMAT_END
171
     0
 94
        0
309
TABLEFORMAT_END
  1
CELLSTYLE_BEGIN
 90
        3
 91
        2
300
_DATA
309
CELLSTYLE_END
  0
XRECORD
  5
2280C
102
{ACAD_REACTORS
330
207D1
102
}
330
207D1
100
AcDbXrecord
280
     1
102
ACAD_ROUNDTRIP_PRE2007_TABLESTYLE
 90
      512
 91
        0
  1

 92
      512
 93
        0
  2

 94
      512
 95
        0
  3

  0
ENDSEC
  0
EOF
