  0
SECTION
  2
HEADER
  9
$ACADVER
  1
AC1015
  9
$ACADMAINTVER
 70
     6
  9
$DWGCODEPAGE
  3
ANSI_932
  9
$INSBASE
 10
0.0
 20
0.0
 30
0.0
  9
$EXTMIN
 10
-1925.016906597522
 20
871.6173451894922
 30
-0.0000000000000484
  9
$EXTMAX
 10
-1819.959830478379
 20
1020.937537619698
 30
0.0000000000000175
  9
$LIMMIN
 10
0.0
 20
0.0
  9
$LIMMAX
 10
840.0
 20
594.0
  9
$ORTHOMODE
 70
     1
  9
$REGENMODE
 70
     1
  9
$FILLMODE
 70
     1
  9
$QTEXTMODE
 70
     0
  9
$MIRRTEXT
 70
     1
  9
$LTSCALE
 40
7.0
  9
$ATTMODE
 70
     0
  9
$TEXTSIZE
 40
6.0
  9
$TRACEWID
 40
1.0
  9
$TEXTSTYLE
  7
STANDARD
  9
$CLAYER
  8
寸法線
  9
$CELTYPE
  6
BYLAYER
  9
$CECOLOR
 62
   256
  9
$CELTSCALE
 40
1.0
  9
$DISPSILH
 70
     0
  9
$DIMSCALE
 40
1.0
  9
$DIMASZ
 40
6.0
  9
$DIMEXO
 40
3.0
  9
$DIMDLI
 40
7.149999999999999
  9
$DIMRND
 40
0.0
  9
$DIMDLE
 40
0.0
  9
$DIMEXE
 40
2.0
  9
$DIMTP
 40
0.0
  9
$DIMTM
 40
0.0
  9
$DIMTXT
 40
5.0
  9
$DIMCEN
 40
0.0
  9
$DIMTSZ
 40
0.0
  9
$DIMTOL
 70
     0
  9
$DIMLIM
 70
     0
  9
$DIMTIH
 70
     0
  9
$DIMTOH
 70
     0
  9
$DIMSE1
 70
     0
  9
$DIMSE2
 70
     0
  9
$DIMTAD
 70
     3
  9
$DIMZIN
 70
     8
  9
$DIMBLK
  1
Open30
  9
$DIMASO
 70
     1
  9
$DIMSHO
 70
     0
  9
$DIMPOST
  1

  9
$DIMAPOST
  1

  9
$DIMALT
 70
     0
  9
$DIMALTD
 70
     2
  9
$DIMALTF
 40
25.4
  9
$DIMLFAC
 40
1.0
  9
$DIMTOFL
 70
     0
  9
$DIMTVP
 40
0.0
  9
$DIMTIX
 70
     0
  9
$DIMSOXD
 70
     0
  9
$DIMSAH
 70
     0
  9
$DIMBLK1
  1

  9
$DIMBLK2
  1

  9
$DIMSTYLE
  2
STANDARD
  9
$DIMCLRD
 70
     0
  9
$DIMCLRE
 70
     0
  9
$DIMCLRT
 70
     0
  9
$DIMTFAC
 40
1.0
  9
$DIMGAP
 40
2.0
  9
$DIMJUST
 70
     0
  9
$DIMSD1
 70
     0
  9
$DIMSD2
 70
     0
  9
$DIMTOLJ
 70
     1
  9
$DIMTZIN
 70
     0
  9
$DIMALTZ
 70
     0
  9
$DIMALTTZ
 70
     0
  9
$DIMUPT
 70
     1
  9
$DIMDEC
 70
     2
  9
$DIMTDEC
 70
     2
  9
$DIMALTU
 70
     2
  9
$DIMALTTD
 70
     2
  9
$DIMTXSTY
  7
STANDARD
  9
$DIMAUNIT
 70
     0
  9
$DIMADEC
 70
     2
  9
$DIMALTRND
 40
0.0
  9
$DIMAZIN
 70
     2
  9
$DIMDSEP
 70
    46
  9
$DIMATFIT
 70
     3
  9
$DIMFRAC
 70
     0
  9
$DIMLDRBLK
  1
Open30
  9
$DIMLUNIT
 70
     2
  9
$DIMLWD
 70
    -2
  9
$DIMLWE
 70
    -2
  9
$DIMTMOVE
 70
     0
  9
$LUNITS
 70
     2
  9
$LUPREC
 70
     2
  9
$SKETCHINC
 40
0.1
  9
$FILLETRAD
 40
0.0
  9
$AUNITS
 70
     0
  9
$AUPREC
 70
     2
  9
$MENU
  1
ACAD
  9
$ELEVATION
 40
0.0
  9
$PELEVATION
 40
0.0
  9
$THICKNESS
 40
0.0
  9
$LIMCHECK
 70
     0
  9
$CHAMFERA
 40
0.0
  9
$CHAMFERB
 40
0.0
  9
$CHAMFERC
 40
0.0
  9
$CHAMFERD
 40
0.0
  9
$SKPOLY
 70
     0
  9
$TDCREATE
 40
2449505.922222222
  9
$TDUCREATE
 40
2449505.547222222
  9
$TDUPDATE
 40
2456826.439381261
  9
$TDUUPDATE
 40
2456826.064381261
  9
$TDINDWG
 40
2.6984025
  9
$TDUSRTIMER
 40
2456826.064248368
  9
$USRTIMER
 70
     1
  9
$ANGBASE
 50
0.0
  9
$ANGDIR
 70
     0
  9
$PDMODE
 70
     3
  9
$PDSIZE
 40
0.0
  9
$PLINEWID
 40
0.0
  9
$SPLFRAME
 70
     0
  9
$SPLINETYPE
 70
     6
  9
$SPLINESEGS
 70
     8
  9
$HANDSEED
  5
1E0C2
  9
$SURFTAB1
 70
     6
  9
$SURFTAB2
 70
     6
  9
$SURFTYPE
 70
     6
  9
$SURFU
 70
     6
  9
$SURFV
 70
     6
  9
$UCSBASE
  2

  9
$UCSNAME
  2

  9
$UCSORG
 10
0.0
 20
0.0
 30
0.0
  9
$UCSXDIR
 10
1.0
 20
0.0
 30
0.0
  9
$UCSYDIR
 10
0.0
 20
1.0
 30
0.0
  9
$UCSORTHOREF
  2

  9
$UCSORTHOVIEW
 70
     0
  9
$UCSORGTOP
 10
0.0
 20
0.0
 30
0.0
  9
$UCSORGBOTTOM
 10
0.0
 20
0.0
 30
0.0
  9
$UCSORGLEFT
 10
0.0
 20
0.0
 30
0.0
  9
$UCSORGRIGHT
 10
0.0
 20
0.0
 30
0.0
  9
$UCSORGFRONT
 10
0.0
 20
0.0
 30
0.0
  9
$UCSORGBACK
 10
0.0
 20
0.0
 30
0.0
  9
$PUCSBASE
  2

  9
$PUCSNAME
  2

  9
$PUCSORG
 10
0.0
 20
0.0
 30
0.0
  9
$PUCSXDIR
 10
1.0
 20
0.0
 30
0.0
  9
$PUCSYDIR
 10
0.0
 20
1.0
 30
0.0
  9
$PUCSORTHOREF
  2

  9
$PUCSORTHOVIEW
 70
     0
  9
$PUCSORGTOP
 10
0.0
 20
0.0
 30
0.0
  9
$PUCSORGBOTTOM
 10
0.0
 20
0.0
 30
0.0
  9
$PUCSORGLEFT
 10
0.0
 20
0.0
 30
0.0
  9
$PUCSORGRIGHT
 10
0.0
 20
0.0
 30
0.0
  9
$PUCSORGFRONT
 10
0.0
 20
0.0
 30
0.0
  9
$PUCSORGBACK
 10
0.0
 20
0.0
 30
0.0
  9
$USERI1
 70
     0
  9
$USERI2
 70
     0
  9
$USERI3
 70
     0
  9
$USERI4
 70
     0
  9
$USERI5
 70
     0
  9
$USERR1
 40
0.0
  9
$USERR2
 40
0.0
  9
$USERR3
 40
0.0
  9
$USERR4
 40
0.0
  9
$USERR5
 40
0.0
  9
$WORLDVIEW
 70
     0
  9
$SHADEDGE
 70
     3
  9
$SHADEDIF
 70
    70
  9
$TILEMODE
 70
     1
  9
$MAXACTVP
 70
    16
  9
$PINSBASE
 10
0.0
 20
0.0
 30
0.0
  9
$PLIMCHECK
 70
     0
  9
$PEXTMIN
 10
1.000000000000000E+20
 20
1.000000000000000E+20
 30
1.000000000000000E+20
  9
$PEXTMAX
 10
-1.000000000000000E+20
 20
-1.000000000000000E+20
 30
-1.000000000000000E+20
  9
$PLIMMIN
 10
0.0
 20
0.0
  9
$PLIMMAX
 10
0.0
 20
0.0
  9
$UNITMODE
 70
     0
  9
$VISRETAIN
 70
     0
  9
$PLINEGEN
 70
     0
  9
$PSLTSCALE
 70
     0
  9
$TREEDEPTH
 70
  3020
  9
$CMLSTYLE
  2
STANDARD
  9
$CMLJUST
 70
     0
  9
$CMLSCALE
 40
1.0
  9
$PROXYGRAPHICS
 70
     1
  9
$MEASUREMENT
 70
     0
  9
$CELWEIGHT
370
    -1
  9
$ENDCAPS
280
     0
  9
$JOINSTYLE
280
     0
  9
$LWDISPLAY
290
     0
  9
$INSUNITS
 70
     0
  9
$HYPERLINKBASE
  1

  9
$STYLESHEET
  1
spax form.ctb
  9
$XEDIT
290
     1
  9
$CEPSNTYPE
380
     0
  9
$PSTYLEMODE
290
     1
  9
$FINGERPRINTGUID
  2
{C1CFCF3E-DF91-11D3-B30C-0060B0FA8DFC}
  9
$VERSIONGUID
  2
{524DCA39-DBB9-44F6-B8ED-AE3923E48989}
  9
$EXTNAMES
290
     1
  9
$PSVPSCALE
 40
0.0
  9
$OLESTARTUP
290
     0
  0
ENDSEC
  0
SECTION
  2
CLASSES
  0
CLASS
  1
LWPOLYLINE
  2
AcDbPolyline
  3
ObjectDBX Classes
 90
        0
280
     0
281
     1
  0
CLASS
  1
ACDBDICTIONARYWDFLT
  2
AcDbDictionaryWithDefault
  3
ObjectDBX Classes
 90
        0
280
     0
281
     0
  0
CLASS
  1
ACDBPLACEHOLDER
  2
AcDbPlaceHolder
  3
ObjectDBX Classes
 90
        0
280
     0
281
     0
  0
CLASS
  1
LAYOUT
  2
AcDbLayout
  3
ObjectDBX Classes
 90
        0
280
     0
281
     0
  0
CLASS
  1
DICTIONARYVAR
  2
AcDbDictionaryVar
  3
ObjectDBX Classes
 90
        0
280
     0
281
     0
  0
CLASS
  1
LONG_TRANSACTION
  2
AcDbLongTransaction
  3
ObjectDBX Classes
 90
        0
280
     0
281
     0
  0
CLASS
  1
LWPOLYLINE
  2
AcDbPolyline
  3
ObjectDBX Classes
 90
        0
280
     0
281
     1
  0
CLASS
  1
HATCH
  2
AcDbHatch
  3
ObjectDBX Classes
 90
        0
280
     0
281
     1
  0
CLASS
  1
XRECORD
  2
AcDbXrecord
  3
ObjectDBX Classes
 90
        0
280
     0
281
     0
  0
CLASS
  1
MATERIAL
  2
AcDbMaterial
  3
ObjectDBX Classes
 90
     1153
280
     0
281
     0
  0
CLASS
  1
VISUALSTYLE
  2
AcDbVisualStyle
  3
ObjectDBX Classes
 90
     4095
280
     0
281
     0
  0
CLASS
  1
TABLESTYLE
  2
AcDbTableStyle
  3
ObjectDBX Classes
 90
     4095
280
     0
281
     0
  0
CLASS
  1
SCALE
  2
AcDbScale
  3
ObjectDBX Classes
 90
     1153
280
     0
281
     0
  0
CLASS
  1
MLEADERSTYLE
  2
AcDbMLeaderStyle
  3
ACDB_MLEADERSTYLE_CLASS
 90
     4095
280
     0
281
     0
  0
CLASS
  1
CELLSTYLEMAP
  2
AcDbCellStyleMap
  3
ObjectDBX Classes
 90
     1152
280
     0
281
     0
  0
CLASS
  1
SORTENTSTABLE
  2
AcDbSortentsTable
  3
ObjectDBX Classes
 90
        0
280
     0
281
     0
  0
CLASS
  1
RASTERVARIABLES
  2
AcDbRasterVariables
  3
ISM
 90
        0
280
     0
281
     0
  0
CLASS
  1
SUN
  2
AcDbSun
  3
SCENEOE
 90
     1153
280
     0
281
     0
  0
ENDSEC
  0
SECTION
  2
TABLES
  0
TABLE
  2
VPORT
  5
8
330
0
100
AcDbSymbolTable
 70
     1
  0
VPORT
  5
1E085
330
8
100
AcDbSymbolTableRecord
100
AcDbViewportTableRecord
  2
*Active
 70
     0
 10
0.0
 20
0.0
 11
1.0
 21
1.0
 12
-1872.48836853795
 22
946.2774414045953
 13
0.0
 23
0.0
 14
1.0
 24
1.0
 15
20.0
 25
20.0
 16
0.0
 26
0.0
 36
1.0
 17
0.0
 27
0.0
 37
0.0
 40
152.3065962788101
 41
2.027568922305764
 42
50.0
 43
0.0
 44
0.0
 50
0.0
 51
0.0
 71
    16
 72
  2000
 73
     1
 74
     0
 75
     0
 76
     0
 77
     0
 78
     1
281
     0
 65
     1
110
0.0
120
0.0
130
0.0
111
1.0
121
0.0
131
0.0
112
0.0
122
1.0
132
0.0
 79
     0
146
0.0
  0
ENDTAB
  0
TABLE
  2
LTYPE
  5
5
330
0
100
AcDbSymbolTable
 70
     3
  0
LTYPE
  5
12
330
5
100
AcDbSymbolTableRecord
100
AcDbLinetypeTableRecord
  2
BYBLOCK
 70
     0
  3

 72
    65
 73
     0
 40
0.0
  0
LTYPE
  5
13
330
5
100
AcDbSymbolTableRecord
100
AcDbLinetypeTableRecord
  2
BYLAYER
 70
     0
  3

 72
    65
 73
     0
 40
0.0
  0
LTYPE
  5
14
330
5
100
AcDbSymbolTableRecord
100
AcDbLinetypeTableRecord
  2
CONTINUOUS
 70
     0
  3
Solid line
 72
    65
 73
     0
 40
0.0
  0
LTYPE
  5
3D
330
5
100
AcDbSymbolTableRecord
100
AcDbLinetypeTableRecord
  2
PHANTOM
 70
     0
  3
_____ _ _ _____ _ _ _____ _ _ _____ _ _ ____
 72
    65
 73
     6
 40
2.5
 49
1.25
 74
     0
 49
-0.25
 74
     0
 49
0.25
 74
     0
 49
-0.25
 74
     0
 49
0.25
 74
     0
 49
-0.25
 74
     0
  0
LTYPE
  5
40D2
330
5
100
AcDbSymbolTableRecord
100
AcDbLinetypeTableRecord
  2
CENTER
 70
     0
  3
____ _ ____ _ ____ _ ____ _ ____ _ ____ _ ____ 
 72
    65
 73
     4
 40
2.0
 49
1.25
 74
     0
 49
-0.25
 74
     0
 49
0.25
 74
     0
 49
-0.25
 74
     0
  0
ENDTAB
  0
TABLE
  2
LAYER
  5
2
102
{ACAD_XDICTIONARY
360
189BB
102
}
330
0
100
AcDbSymbolTable
 70
    35
  0
LAYER
  5
F
102
{ACAD_XDICTIONARY
360
171F1
102
}
330
2
100
AcDbSymbolTableRecord
100
AcDbLayerTableRecord
  2
0
 70
     0
 62
     7
  6
CONTINUOUS
370
    -3
390
40CA
  0
LAYER
  5
4C
102
{ACAD_XDICTIONARY
360
171F9
102
}
330
2
100
AcDbSymbolTableRecord
100
AcDbLayerTableRecord
  2
寸法線
 70
     0
 62
     7
  6
CONTINUOUS
370
    -3
390
40CA
  0
LAYER
  5
4D
102
{ACAD_XDICTIONARY
360
171FB
102
}
330
2
100
AcDbSymbolTableRecord
100
AcDbLayerTableRecord
  2
姿図
 70
     0
 62
     8
  6
CONTINUOUS
370
    -3
390
40CA
  0
LAYER
  5
40D4
102
{ACAD_XDICTIONARY
360
171FF
102
}
330
2
100
AcDbSymbolTableRecord
100
AcDbLayerTableRecord
  2
文字
 70
     0
 62
     7
  6
CONTINUOUS
370
    -3
390
40CA
  0
ENDTAB
  0
TABLE
  2
STYLE
  5
3
330
0
100
AcDbSymbolTable
 70
     1
  0
STYLE
  5
10
330
3
100
AcDbSymbolTableRecord
100
AcDbTextStyleTableRecord
  2
STANDARD
 70
     0
 40
0.0
 41
1.0
 50
0.0
 71
     0
 42
6.0
  3
MONOTXT
  4
BIGFONT
  0
ENDTAB
  0
TABLE
  2
VIEW
  5
6
330
0
100
AcDbSymbolTable
 70
     1
  0
VIEW
  5
41
330
6
100
AcDbSymbolTableRecord
100
AcDbViewTableRecord
  2
CUT1
 70
     0
 40
612.7795527156796
 10
420.0000000000169
 20
306.3897763578398
 41
840.0000000000338
 11
0.0
 21
0.0
 31
1.0
 12
0.0
 22
0.0
 32
0.0
 42
50.0
 43
0.0
 44
0.0
 50
0.0
 71
     0
281
     0
 72
     0
  0
ENDTAB
  0
TABLE
  2
UCS
  5
7
330
0
100
AcDbSymbolTable
 70
     0
  0
ENDTAB
  0
TABLE
  2
APPID
  5
9
330
0
100
AcDbSymbolTable
 70
     9
  0
APPID
  5
11
330
9
100
AcDbSymbolTableRecord
100
AcDbRegAppTableRecord
  2
ACAD
 70
     0
  0
APPID
  5
171ED
330
9
100
AcDbSymbolTableRecord
100
AcDbRegAppTableRecord
  2
ACAD_MLEADERVER
 70
     0
  0
APPID
  5
189B7
330
9
100
AcDbSymbolTableRecord
100
AcDbRegAppTableRecord
  2
ACAD_PSEXT
 70
     0
  0
APPID
  5
189B8
330
9
100
AcDbSymbolTableRecord
100
AcDbRegAppTableRecord
  2
AcadAnnotative
 70
     0
  0
APPID
  5
189B9
330
9
100
AcDbSymbolTableRecord
100
AcDbRegAppTableRecord
  2
ACAD_DSTYLE_DIMJAG
 70
     0
  0
APPID
  5
189BA
330
9
100
AcDbSymbolTableRecord
100
AcDbRegAppTableRecord
  2
ACAD_DSTYLE_DIMTALN
 70
     0
  0
APPID
  5
189CC
330
9
100
AcDbSymbolTableRecord
100
AcDbRegAppTableRecord
  2
ACAD_EXEMPT_FROM_CAD_STANDARDS
 70
     0
  0
APPID
  5
19683
330
9
100
AcDbSymbolTableRecord
100
AcDbRegAppTableRecord
  2
ASK_MEN_XD
 70
     0
  0
APPID
  5
1B19E
330
9
100
AcDbSymbolTableRecord
100
AcDbRegAppTableRecord
  2
AcAecLayerStandard
 70
     0
  0
ENDTAB
  0
TABLE
  2
DIMSTYLE
  5
A
330
0
100
AcDbSymbolTable
 70
     2
100
AcDbDimStyleTable
  0
DIMSTYLE
105
1B3A
330
A
100
AcDbSymbolTableRecord
100
AcDbDimStyleTableRecord
  2
STANDARD
 70
     0
 41
4.0
 42
3.0
 43
7.149999999999999
 44
2.0
 73
     0
 74
     0
 77
     3
 78
     8
 79
     2
140
5.0
141
0.0
147
2.0
178
     0
179
     2
271
     2
272
     2
288
     1
340
10
341
49C3
342
49C3
  0
ENDTAB
  0
TABLE
  2
BLOCK_RECORD
  5
1
330
0
100
AcDbSymbolTable
 70
    28
  0
BLOCK_RECORD
  5
18
330
1
100
AcDbSymbolTableRecord
100
AcDbBlockTableRecord
  2
*MODEL_SPACE
340
40CD
  0
BLOCK_RECORD
  5
15
330
1
100
AcDbSymbolTableRecord
100
AcDbBlockTableRecord
  2
*PAPER_SPACE
340
40CE
  0
BLOCK_RECORD
  5
49C3
330
1
100
AcDbSymbolTableRecord
100
AcDbBlockTableRecord
  2
_OPEN
340
0
102
{BLKREFS
331
1D8D6
331
1D8D7
331
1D8DF
331
1D8E0
331
1D8E8
331
1D8E9
331
1D8F1
331
1D8F2
331
1D8FA
331
1D8FB
331
1D904
331
1D905
331
1D90D
331
1D90E
331
1D916
331
1D917
331
1D91F
331
1D920
331
1E021
331
1E022
331
1E02A
331
1E02B
331
1E033
331
1E034
331
1E03C
331
1E03D
331
1E045
331
1E046
331
1E04F
331
1E050
331
1E058
331
1E059
331
1E061
331
1E062
331
1E06A
331
1E06B
102
}
  0
BLOCK_RECORD
  5
FD36
330
1
100
AcDbSymbolTableRecord
100
AcDbBlockTableRecord
  2
_Open30
340
0
102
{BLKREFS
331
1D928
331
1D929
331
1E073
331
1E074
102
}
  0
ENDTAB
  0
ENDSEC
  0
SECTION
  2
BLOCKS
  0
BLOCK
  5
52
330
18
100
AcDbEntity
  8
0
100
AcDbBlockBegin
  2
*MODEL_SPACE
 70
     0
 10
0.0
 20
0.0
 30
0.0
  3
*MODEL_SPACE
  1
*MODEL_SPACE
  0
ENDBLK
  5
53
330
18
100
AcDbEntity
  8
0
100
AcDbBlockEnd
  0
BLOCK
  5
50
330
15
100
AcDbEntity
 67
     1
  8
0
100
AcDbBlockBegin
  2
*PAPER_SPACE
 70
     0
 10
0.0
 20
0.0
 30
0.0
  3
*PAPER_SPACE
  1
*PAPER_SPACE
  0
ENDBLK
  5
51
330
15
100
AcDbEntity
 67
     1
  8
0
100
AcDbBlockEnd
  0
BLOCK
  5
49C7
330
49C3
100
AcDbEntity
  8
0
100
AcDbBlockBegin
  2
_OPEN
 70
     0
 10
0.0
 20
0.0
 30
0.0
  3
_OPEN
  1
_OPEN
  0
LINE
  5
49C4
330
49C3
100
AcDbEntity
  8
0
  6
ByBlock
 62
     0
100
AcDbLine
 10
-1.0
 20
0.1666666666666667
 30
0.0
 11
0.0
 21
0.0
 31
0.0
  0
LINE
  5
49C5
330
49C3
100
AcDbEntity
  8
0
  6
ByBlock
 62
     0
100
AcDbLine
 10
0.0
 20
0.0
 30
0.0
 11
-1.0
 21
-0.1666666666666667
 31
0.0
  0
LINE
  5
49C6
330
49C3
100
AcDbEntity
  8
0
  6
ByBlock
 62
     0
100
AcDbLine
 10
0.0
 20
0.0
 30
0.0
 11
-1.0
 21
0.0
 31
0.0
  0
ENDBLK
  5
49C8
330
49C3
100
AcDbEntity
  8
0
100
AcDbBlockEnd
  0
BLOCK
  5
FD3A
330
FD36
100
AcDbEntity
  8
0
100
AcDbBlockBegin
  2
_Open30
 70
     0
 10
0.0
 20
0.0
 30
0.0
  3
_Open30
  1
_Open30
  0
LINE
  5
FD37
330
FD36
100
AcDbEntity
  8
寸法線
 62
     0
370
    -2
100
AcDbLine
 10
-1.0
 20
0.26794919
 30
0.0
 11
0.0
 21
0.0
 31
0.0
  0
LINE
  5
FD38
330
FD36
100
AcDbEntity
  8
寸法線
 62
     0
370
    -2
100
AcDbLine
 10
0.0
 20
0.0
 30
0.0
 11
-1.0
 21
-0.26794919
 31
0.0
  0
LINE
  5
FD39
330
FD36
100
AcDbEntity
  8
寸法線
 62
     0
370
    -2
100
AcDbLine
 10
0.0
 20
0.0
 30
0.0
 11
-1.0
 21
0.0
 31
0.0
  0
ENDBLK
  5
FD3B
330
FD36
100
AcDbEntity
  8
0
100
AcDbBlockEnd
  0
ENDSEC
  0
SECTION
  2
ENTITIES
  0
LINE
  5
1DE27
330
18
100
AcDbEntity
  8
姿図
100
AcDbLine
 10
-1821.834159341013
 20
981.4209409999498
 30
-0.0000000000000044
 11
-1887.045184353525
 21
981.4209409999498
 31
-0.0000000000000044
  0
LINE
  5
1DE28
330
18
100
AcDbEntity
  8
姿図
100
AcDbLine
 10
-1915.082020257109
 20
1009.37967986759
 30
-0.0000000000000044
 11
-1819.959830478379
 21
1009.613970975419
 31
-0.0000000000000044
  0
LINE
  5
1DE29
330
18
100
AcDbEntity
  8
姿図
100
AcDbLine
 10
-1915.082020257109
 20
983.373366898528
 30
-0.0000000000000044
 11
-1820.272218622151
 21
983.5295609704142
 31
-0.0000000000000044
  0
LINE
  5
1DE2A
330
18
100
AcDbEntity
  8
姿図
100
AcDbLine
 10
-1915.082020257109
 20
1009.37967986759
 30
-0.0000000000000044
 11
-1819.959830478379
 21
1009.613970975419
 31
-0.0000000000000044
  0
LINE
  5
1DE2B
330
18
100
AcDbEntity
  8
姿図
100
AcDbLine
 10
-1915.082020257109
 20
1009.37967986759
 30
-0.0000000000000044
 11
-1819.959830478379
 21
1009.613970975419
 31
-0.0000000000000044
  0
SPLINE
  5
1DE33
330
18
100
AcDbEntity
  8
姿図
100
AcDbSpline
210
0.0
220
0.0
230
1.0
 70
    24
 71
     3
 72
     8
 73
     4
 74
     0
 42
0.000000001
 43
0.0000000001
 40
3.0
 40
3.0
 40
3.0
 40
3.0
 40
4.0
 40
4.0
 40
4.0
 40
4.0
 10
-1909.146645214135
 20
967.9882486468598
 30
-0.0000000000000044
 10
-1909.146645214135
 20
967.9882486468598
 30
-0.0000000000000044
 10
-1908.756160013941
 20
969.9406746478376
 30
-0.0000000000000044
 10
-1908.756160013941
 20
969.9406746478376
 30
-0.0000000000000044
  0
SPLINE
  5
1DE34
330
18
100
AcDbEntity
  8
姿図
100
AcDbSpline
210
0.0
220
0.0
230
1.0
 70
     8
 71
     3
 72
    11
 73
     7
 74
     0
 42
0.000000001
 43
0.0000000001
 40
22.0
 40
22.0
 40
22.0
 40
22.0
 40
23.0
 40
23.0
 40
23.0
 40
24.0
 40
24.0
 40
24.0
 40
24.0
 10
-1882.906041448539
 20
941.7476467408408
 30
-0.0000000000000044
 10
-1882.906041448539
 20
941.7476467408408
 30
-0.0000000000000044
 10
-1883.062235520426
 20
943.5438785675328
 30
-0.0000000000000044
 10
-1883.530817736085
 20
946.3553718614853
 30
-0.0000000000000044
 10
-1883.999399951743
 20
949.166865155438
 30
-0.0000000000000044
 10
-1887.748057677013
 20
970.8778411476276
 30
-0.0000000000000044
 10
-1887.748057677013
 20
970.8778411476276
 30
-0.0000000000000044
  0
SPLINE
  5
1DE35
330
18
100
AcDbEntity
  8
姿図
100
AcDbSpline
210
0.0
220
0.0
230
1.0
 70
    24
 71
     3
 72
     8
 73
     4
 74
     0
 42
0.000000001
 43
0.0000000001
 40
17.0
 40
17.0
 40
17.0
 40
17.0
 40
18.0
 40
18.0
 40
18.0
 40
18.0
 10
-1896.494925702644
 20
971.3464233632862
 30
-0.0000000000000044
 10
-1896.494925702644
 20
971.3464233632862
 30
-0.0000000000000044
 10
-1890.16906579125
 20
944.5591400347935
 30
-0.0000000000000044
 10
-1890.16906579125
 20
944.5591400347935
 30
-0.0000000000000044
  0
SPLINE
  5
1DE36
330
18
100
AcDbEntity
  8
姿図
100
AcDbSpline
210
0.0
220
0.0
230
1.0
 70
    24
 71
     3
 72
     8
 73
     4
 74
     0
 42
0.000000001
 43
0.0000000001
 40
13.0
 40
13.0
 40
13.0
 40
13.0
 40
14.0
 40
14.0
 40
14.0
 40
14.0
 10
-1920.783103880956
 20
942.919102279988
 30
-0.0000000000000044
 10
-1920.783103880956
 20
942.919102279988
 30
-0.0000000000000044
 10
-1917.581125407289
 20
970.7997441116843
 30
-0.0000000000000044
 10
-1917.581125407289
 20
970.7997441116843
 30
-0.0000000000000044
  0
SPLINE
  5
1DE37
330
18
100
AcDbEntity
  8
姿図
100
AcDbSpline
210
0.0
220
0.0
230
1.0
 70
    24
 71
     3
 72
     8
 73
     4
 74
     0
 42
0.000000001
 43
0.0000000001
 40
7.0
 40
7.0
 40
7.0
 40
7.0
 40
8.0
 40
8.0
 40
8.0
 40
8.0
 10
-1917.346834299459
 20
969.9406767163102
 30
-0.0000000000000044
 10
-1917.346834299459
 20
969.9406767163102
 30
-0.0000000000000044
 10
-1920.548812773128
 20
942.0600348846133
 30
-0.0000000000000044
 10
-1920.548812773128
 20
942.0600348846133
 30
-0.0000000000000044
  0
SPLINE
  5
1DE38
330
18
100
AcDbEntity
  8
姿図
100
AcDbSpline
210
0.0
220
0.0
230
1.0
 70
    24
 71
     3
 72
     8
 73
     4
 74
     0
 42
0.000000001
 43
0.0000000001
 40
3.0
 40
3.0
 40
3.0
 40
3.0
 40
4.0
 40
4.0
 40
4.0
 40
4.0
 10
-1890.871939114739
 20
944.246751891021
 30
-0.0000000000000044
 10
-1890.871939114739
 20
944.246751891021
 30
-0.0000000000000044
 10
-1897.197799026132
 20
971.5807144711157
 30
-0.0000000000000044
 10
-1897.197799026132
 20
971.5807144711157
 30
-0.0000000000000044
  0
ELLIPSE
  5
1DE39
330
18
100
AcDbEntity
  8
姿図
100
AcDbEllipse
 10
-1914.094745164196
 20
923.7601546338401
 30
0.0000000000000094
 11
-3.859359164264034
 21
12.22439911949387
 31
0.0
210
0.0
220
0.0
230
1.0
 40
0.6623046749705045
 41
0.1631095167756549
 42
3.081235483912258
  0
ELLIPSE
  5
1DE3A
330
18
100
AcDbEntity
  8
姿図
100
AcDbEllipse
 10
-1912.613606668641
 20
924.3073339927603
 30
0.0000000000000094
 11
-3.859359164263798
 21
12.22439911949395
 31
0.0
210
0.0
220
0.0
230
1.0
 40
0.6623046749705057
 41
0.239569814910302
 42
2.990787662643266
  0
ELLIPSE
  5
1DE3B
330
18
100
AcDbEntity
  8
姿図
100
AcDbEllipse
 10
-1911.223023831737
 20
924.6477733770507
 30
0.0000000000000094
 11
-3.859359164263754
 21
12.22439911949369
 31
0.0
210
0.0
220
0.0
230
1.0
 40
0.6623046749705135
 41
0.2714006911431583
 42
2.874173387987565
  0
ELLIPSE
  5
1DE3C
330
18
100
AcDbEntity
  8
姿図
100
AcDbEllipse
 10
-1910.231551295026
 20
925.0434956444283
 30
0.0000000000000094
 11
-3.85935916426372
 21
12.22439911949389
 31
0.0
210
0.0
220
0.0
230
1.0
 40
0.662304674970511
 41
0.3454145131831476
 42
2.824135529744352
  0
ELLIPSE
  5
1DE3D
330
18
100
AcDbEntity
  8
姿図
100
AcDbEllipse
 10
-1905.022860680513
 20
926.3991706165687
 30
0.0000000000000094
 11
-3.859359164263474
 21
12.22439911949342
 31
0.0
210
0.0
220
0.0
230
1.0
 40
0.662304674970554
 41
0.6873953370103352
 42
2.434906789774356
  0
ELLIPSE
  5
1DE3E
330
18
100
AcDbEntity
  8
姿図
100
AcDbEllipse
 10
-1903.585165553876
 20
926.3622384921498
 30
0.0000000000000094
 11
-3.85935916426392
 21
12.22439911949368
 31
0.0
210
0.0
220
0.0
230
1.0
 40
0.6623046749705185
 41
0.7734484980934191
 42
2.300448355830317
  0
ELLIPSE
  5
1DE3F
330
18
100
AcDbEntity
  8
姿図
100
AcDbEllipse
 10
-1901.946390116914
 20
926.442693479546
 30
0.0000000000000094
 11
-3.859359164262761
 21
12.22439911949446
 31
0.0
210
0.0
220
0.0
230
1.0
 40
0.6623046749704978
 41
0.905421328794652
 42
2.136436596989824
  0
ELLIPSE
  5
1DE40
330
18
100
AcDbEntity
  8
姿図
100
AcDbEllipse
 10
-1915.46500134606
 20
923.2689552677048
 30
0.0000000000000094
 11
-3.85935916426362
 21
12.22439911949397
 31
0.0
210
0.0
220
0.0
230
1.0
 40
0.6623046749705086
 41
0.0
 42
6.283185307179586
  0
ELLIPSE
  5
1DE41
330
18
100
AcDbEntity
  8
姿図
100
AcDbEllipse
 10
-1915.442377691516
 20
923.351048288597
 30
0.0000000000000094
 11
4.002113531826579
 21
-12.67656910183182
 31
0.0
210
0.0
220
0.0
230
1.0
 40
0.6863351737607863
 41
-3.141592653589793
 42
3.141592653589793
  0
ELLIPSE
  5
1DE42
330
18
100
AcDbEntity
  8
姿図
100
AcDbEllipse
 10
-1909.104729016045
 20
925.7687132273375
 30
0.0000000000000094
 11
-3.859359164263398
 21
12.22439911949383
 31
0.0
210
0.0
220
0.0
230
1.0
 40
0.6623046749705267
 41
0.4591420347467441
 42
2.773497807012458
  0
ELLIPSE
  5
1DE43
330
18
100
AcDbEntity
  8
姿図
100
AcDbEllipse
 10
-1907.843353769244
 20
926.0332631839665
 30
0.0000000000000094
 11
-3.859359164263448
 21
12.22439911949407
 31
0.0
210
0.0
220
0.0
230
1.0
 40
0.6623046749705057
 41
0.5254043557524541
 42
2.672012895072679
  0
ELLIPSE
  5
1DE44
330
18
100
AcDbEntity
  8
姿図
100
AcDbEllipse
 10
-1906.443548828637
 20
926.1764209874952
 30
0.0000000000000094
 11
-3.859359164264081
 21
12.22439911949402
 31
0.0
210
0.0
220
0.0
230
1.0
 40
0.6623046749704837
 41
0.5961567302676194
 42
2.553339703901544
  0
ELLIPSE
  5
1DE45
330
18
100
AcDbEntity
  8
姿図
100
AcDbEllipse
 10
-1900.349384874673
 20
926.3639637830242
 30
0.0000000000000094
 11
-3.859359164263982
 21
12.22439911949444
 31
0.0
210
0.0
220
0.0
230
1.0
 40
0.662304674970471
 41
1.0646014204683
 42
1.939163156723263
  0
ELLIPSE
  5
1DE46
330
18
100
AcDbEntity
  8
姿図
100
AcDbEllipse
 10
-1898.978219379277
 20
925.7489815701026
 30
0.0000000000000094
 11
-3.859359164264151
 21
12.22439911948988
 31
0.0
210
0.0
220
0.0
230
1.0
 40
0.6623046749707127
 41
1.243214961785836
 42
1.690122470836892
  0
ARC
  5
1DE47
330
18
100
AcDbEntity
  8
姿図
100
AcDbCircle
 10
-1878.253783544697
 20
934.4299029731621
 30
-0.0000000000000484
 40
17.96893218222434
100
AcDbArc
 50
288.098769154093
 51
336.7149368566637
  0
ELLIPSE
  5
1DE48
330
18
100
AcDbEntity
  8
姿図
100
AcDbEllipse
 10
-1897.90880723138
 20
929.3612059765817
 30
0.0000000000000108
 11
-7.785491283804454
 21
22.52703324251798
 31
6.891030564778095E-16
210
-9.444084353700805E-18
220
2.732611140719172E-17
230
-1.0
 40
0.7445887407027176
 41
1.383605537452026
 42
2.018796356135911
  0
ELLIPSE
  5
1DE49
330
18
100
AcDbEntity
  8
姿図
100
AcDbEllipse
 10
-1898.14742658021
 20
929.162364852544
 30
0.0000000000000108
 11
-7.785491283811407
 21
22.5270332425148
 31
6.891030564777884E-16
210
-9.444084353700820E-18
220
2.732611140719174E-17
230
-1.0
 40
0.7445887407027572
 41
1.406877266824791
 42
2.016282995373657
  0
LINE
  5
1DE4A
330
18
100
AcDbEntity
  8
姿図
100
AcDbLine
 10
-1866.959311658648
 20
923.4067173573035
 30
0.0
 11
-1861.349463054964
 21
929.8059822329462
 31
0.0
  0
LINE
  5
1DE4B
330
18
100
AcDbEntity
  8
姿図
100
AcDbLine
 10
-1866.585182440862
 20
922.7049311356639
 30
0.0
 11
-1860.057000275048
 21
930.187065019388
 31
0.0
  0
ARC
  5
1DE4C
330
18
100
AcDbEntity
  8
姿図
100
AcDbCircle
 10
-1900.607270196362
 20
970.042583593309
 30
-0.0000000000000113
 40
61.37473374111882
100
AcDbArc
 50
295.5277776018743
 51
323.3240679749485
  0
SPLINE
  5
1DE4D
330
18
100
AcDbEntity
  8
姿図
100
AcDbSpline
210
0.0
220
0.0
230
1.0
 70
    24
 71
     3
 72
     8
 73
     4
 74
     0
 42
0.000000001
 43
0.0000000001
 40
21.0
 40
21.0
 40
21.0
 40
21.0
 40
22.0
 40
22.0
 40
22.0
 40
22.0
 10
-1882.593653304767
 20
914.5698782326324
 30
-0.0000000000000044
 10
-1882.593653304767
 20
914.5698782326324
 30
-0.0000000000000044
 10
-1882.906041448539
 20
941.7476467408408
 30
-0.0000000000000044
 10
-1882.906041448539
 20
941.7476467408408
 30
-0.0000000000000044
  0
SPLINE
  5
1DE4E
330
18
100
AcDbEntity
  8
姿図
100
AcDbSpline
210
0.0
220
0.0
230
1.0
 70
    24
 71
     3
 72
     8
 73
     4
 74
     0
 42
0.000000001
 43
0.0000000001
 40
18.0
 40
18.0
 40
18.0
 40
18.0
 40
19.0
 40
19.0
 40
19.0
 40
19.0
 10
-1890.16906579125
 20
944.5591400347935
 30
-0.0000000000000044
 10
-1890.16906579125
 20
944.5591400347935
 30
-0.0000000000000044
 10
-1889.15380432399
 20
914.2574900888596
 30
-0.0000000000000044
 10
-1889.15380432399
 20
914.2574900888596
 30
-0.0000000000000044
  0
SPLINE
  5
1DE4F
330
18
100
AcDbEntity
  8
姿図
100
AcDbSpline
210
0.0
220
0.0
230
1.0
 70
    24
 71
     3
 72
     8
 73
     4
 74
     0
 42
0.000000001
 43
0.0000000001
 40
2.0
 40
2.0
 40
2.0
 40
2.0
 40
3.0
 40
3.0
 40
3.0
 40
3.0
 10
-1889.934774683421
 20
918.630924101675
 30
-0.0000000000000044
 10
-1889.934774683421
 20
918.630924101675
 30
-0.0000000000000044
 10
-1890.871939114739
 20
944.246751891021
 30
-0.0000000000000044
 10
-1890.871939114739
 20
944.246751891021
 30
-0.0000000000000044
  0
SPLINE
  5
1DE50
330
18
100
AcDbEntity
  8
姿図
100
AcDbSpline
210
0.0
220
0.0
230
1.0
 70
    24
 71
     3
 72
     8
 73
     4
 74
     0
 42
0.000000001
 43
0.0000000001
 40
7.0
 40
7.0
 40
7.0
 40
7.0
 40
8.0
 40
8.0
 40
8.0
 40
8.0
 10
-1859.867415845317
 20
930.6578676369168
 30
-0.0000000000000044
 10
-1859.867415845317
 20
930.6578676369168
 30
-0.0000000000000044
 10
-1869.785739410094
 20
924.9567840130683
 30
-0.0000000000000044
 10
-1869.785739410094
 20
924.9567840130683
 30
-0.0000000000000044
  0
SPLINE
  5
1DE51
330
18
100
AcDbEntity
  8
姿図
100
AcDbSpline
210
0.0
220
0.0
230
1.0
 70
    24
 71
     3
 72
     8
 73
     4
 74
     0
 42
0.000000001
 43
0.0000000001
 40
0.0
 40
0.0
 40
0.0
 40
0.0
 40
1.0
 40
1.0
 40
1.0
 40
1.0
 10
-1882.749847376653
 20
922.8481640426037
 30
-0.0000000000000044
 10
-1882.749847376653
 20
922.8481640426037
 30
-0.0000000000000044
 10
-1874.471561566682
 20
927.768277307021
 30
-0.0000000000000044
 10
-1874.471561566682
 20
927.768277307021
 30
-0.0000000000000044
  0
SPLINE
  5
1DE52
330
18
100
AcDbEntity
  8
姿図
100
AcDbSpline
210
0.0
220
0.0
230
1.0
 70
    24
 71
     3
 72
     8
 73
     4
 74
     0
 42
0.000000001
 43
0.0000000001
 40
0.0
 40
0.0
 40
0.0
 40
0.0
 40
1.0
 40
1.0
 40
1.0
 40
1.0
 10
-1882.515556268824
 20
921.9109996112863
 30
-0.0000000000000044
 10
-1882.515556268824
 20
921.9109996112863
 30
-0.0000000000000044
 10
-1874.237270458852
 20
927.1435010194757
 30
-0.0000000000000044
 10
-1874.237270458852
 20
927.1435010194757
 30
-0.0000000000000044
  0
LINE
  5
1DE53
330
18
100
AcDbEntity
  8
姿図
100
AcDbLine
 10
-1873.534397135364
 20
927.6120832351346
 30
-0.0000000000000044
 11
-1871.581971236787
 21
919.1776033532767
 31
-0.0000000000000044
  0
LINE
  5
1DE54
330
18
100
AcDbEntity
  8
姿図
100
AcDbLine
 10
-1872.206747524331
 20
932.063614283893
 30
-0.0000000000000044
 11
-1870.17622458981
 21
924.3320077255232
 31
-0.0000000000000044
  0
ARC
  5
1DE55
330
18
100
AcDbEntity
  8
姿図
100
AcDbCircle
 10
-1892.472046860767
 20
966.5079997879241
 30
0.0000000000000094
 40
60.40002893789136
100
AcDbArc
 50
247.2042148444983
 51
268.7960297272186
  0
ELLIPSE
  5
1DE56
330
18
100
AcDbEntity
  8
姿図
100
AcDbEllipse
 10
-1897.915557012322
 20
929.358873207764
 30
0.0000000000000108
 11
-7.784882683170223
 21
22.52533232295922
 31
6.890508292847254E-16
210
-9.444084353700782E-18
220
2.732611140719176E-17
230
-1.0
 40
0.7445878090676588
 41
3.329003987917414
 42
3.329225720040131
  0
ELLIPSE
  5
1DE57
330
18
100
AcDbEntity
  8
姿図
100
AcDbEllipse
 10
-1898.025129757091
 20
929.3210041443979
 30
0.0000000000000108
 11
-7.775258095634674
 21
22.49742388584492
 31
1.376394609612767E-15
210
-1.888816870740163E-17
220
5.465222281438344E-17
230
-1.0
 40
0.7445887407386321
 41
3.32761543422472
 42
3.342055807969123
  0
ELLIPSE
  5
1DE58
330
18
100
AcDbEntity
  8
姿図
100
AcDbEllipse
 10
-1897.90880723138
 20
929.3612059765817
 30
0.0000000000000108
 11
-7.785491283804454
 21
22.52703324251798
 31
6.891030564778095E-16
210
-9.444084353700805E-18
220
2.732611140719172E-17
230
-1.0
 40
0.7445887407027176
 41
2.770077853063348
 42
3.301632058444413
  0
ELLIPSE
  5
1DE59
330
18
100
AcDbEntity
  8
姿図
100
AcDbEllipse
 10
-1898.14742658021
 20
929.162364852544
 30
0.0000000000000108
 11
-7.785491283811407
 21
22.5270332425148
 31
6.891030564777884E-16
210
-9.444084353700820E-18
220
2.732611140719174E-17
230
-1.0
 40
0.7445887407027572
 41
2.756499337784494
 42
2.858287793139967
  0
ELLIPSE
  5
1DE5A
330
18
100
AcDbEntity
  8
姿図
100
AcDbEllipse
 10
-1890.031590400557
 20
932.0836244704831
 30
0.0000000000000087
 11
-8.13692437732794
 21
23.54389199833048
 31
2.160626447713317E-15
210
-2.833225306110251E-17
220
8.197833422157526E-17
230
-1.0
 40
0.7445887407026733
 41
2.446130701479237
 42
2.942897457598437
  0
LINE
  5
1DE5B
330
18
100
AcDbEntity
  8
姿図
100
AcDbLine
 10
-1867.672949658176
 20
922.9720460238527
 30
0.0
 11
-1866.959311658648
 21
923.4067173573035
 31
0.0
  0
LINE
  5
1DE5C
330
18
100
AcDbEntity
  8
姿図
100
AcDbLine
 10
-1870.218960213832
 20
922.1003157690632
 30
0.0
 11
-1867.672949658176
 21
922.9720460238527
 31
0.0
  0
LINE
  5
1DE5D
330
18
100
AcDbEntity
  8
姿図
100
AcDbLine
 10
-1867.29882044039
 20
922.2702598022136
 30
0.0
 11
-1866.585182440862
 21
922.7049311356639
 31
0.0
  0
LINE
  5
1DE5E
330
18
100
AcDbEntity
  8
姿図
100
AcDbLine
 10
-1870.329529589254
 20
921.0553041902842
 30
0.0
 11
-1867.29882044039
 21
922.2702598022136
 31
0.0
  0
ARC
  5
1DE5F
330
18
100
AcDbEntity
  8
姿図
100
AcDbCircle
 10
-1916.927343227041
 20
1014.698240948034
 30
0.0000000000000032
 40
111.3082674450056
100
AcDbArc
 50
283.0240337579918
 51
290.2222118781298
  0
SPLINE
  5
1DE60
330
18
100
AcDbEntity
  8
姿図
100
AcDbSpline
210
-7.775473282533239E-11
220
9.545635559646773E-10
230
-1.0
 70
     8
 71
     3
 72
     8
 73
     4
 74
     0
 42
0.000000001
 43
0.0000000001
 40
104.4616887805064
 40
104.4616887805064
 40
104.4616887805064
 40
104.4616887805064
 40
104.5558158786619
 40
104.5558158786619
 40
104.5558158786619
 40
104.5558158786619
 10
-1893.346406964926
 20
906.151680106306
 30
-0.0000000000000019
 10
-1893.353790415544
 20
906.1510698149743
 30
-0.0000000000000019
 10
-1893.361168528028
 20
906.1504643707995
 30
-0.0000000000000146
 10
-1893.368541242384
 20
906.1498638204941
 30
-0.0000000000000146
  0
SPLINE
  5
1DE61
330
18
100
AcDbEntity
  8
姿図
100
AcDbSpline
210
0.0
220
0.0
230
1.0
 70
     8
 71
     3
 72
    12
 73
     8
 74
     0
 42
0.000000001
 43
0.0000000001
 40
-1.090507445860422
 40
-1.090507445860422
 40
-1.090507445860422
 40
-1.090507445860422
 40
-0.9471425154221369
 40
-0.9471425154221369
 40
-0.7528206779009274
 40
-0.7528206779009274
 40
-0.6501188551225207
 40
-0.6501188551225207
 40
-0.6501188551225207
 40
-0.6501188551225207
 10
-1893.395875820552
 20
906.1476443842789
 30
-0.0000000000000146
 10
-1893.407886766925
 20
906.1466697633384
 30
-0.0000000000000146
 10
-1893.421834602797
 20
906.145537848404
 30
-0.0000000000000146
 10
-1893.458234345181
 20
906.1425931630833
 30
-0.0000000000000146
 10
-1893.480936699621
 20
906.1407640830537
 30
-0.0000000000000146
 10
-1893.515807508801
 20
906.1379874596289
 30
-0.0000000000000146
 10
-1893.52827560758
 20
906.1370004142957
 30
-0.0000000000000146
 10
-1893.541061558341
 20
906.1359970729334
 30
-0.0000000000000146
  0
SPLINE
  5
1DE62
330
18
100
AcDbEntity
  8
姿図
100
AcDbSpline
210
0.0
220
0.0
230
1.0
 70
     8
 71
     3
 72
     8
 73
     4
 74
     0
 42
0.000000001
 43
0.0000000001
 40
211.7706370983692
 40
211.7706370983692
 40
211.7706370983692
 40
211.7706370983692
 40
212.1566911252955
 40
212.1566911252955
 40
212.1566911252955
 40
212.1566911252955
 10
-1893.482201308519
 20
906.1409606896275
 30
-0.0000000000000146
 10
-1893.452192932151
 20
906.143216803438
 30
-0.0000000000000146
 10
-1893.422091994488
 20
906.1455553044327
 30
-0.0000000000000019
 10
-1893.39190030633
 20
906.1479760119992
 30
-0.0000000000000146
  0
SPLINE
  5
1DE63
330
18
100
AcDbEntity
  8
姿図
100
AcDbSpline
210
0.0
220
0.0
230
1.0
 70
     8
 71
     3
 72
     8
 73
     4
 74
     0
 42
0.000000001
 43
0.0000000001
 40
-0.691446024632862
 40
-0.691446024632862
 40
-0.691446024632862
 40
-0.691446024632862
 40
-0.6779385051869151
 40
-0.6779385051869151
 40
-0.6779385051869151
 40
-0.6779385051869151
 10
-1893.391854539315
 20
906.1479022236792
 30
-0.0000000000000146
 10
-1893.393186933416
 20
906.1477912473538
 30
-0.0000000000000146
 10
-1893.39452748473
 20
906.1477053066335
 30
-0.0000000000000146
 10
-1893.395875820552
 20
906.1476443842789
 30
-0.0000000000000146
  0
SPLINE
  5
1DE64
330
18
100
AcDbEntity
  8
姿図
100
AcDbSpline
210
0.0
220
0.0
230
1.0
 70
    24
 71
     1
 72
     4
 73
     2
 74
     0
 42
0.000000001
 43
0.0000000001
 40
4.585382155010916
 40
4.585382155010916
 40
4.585545755352282
 40
4.585545755352282
 10
-1893.581059452329
 20
906.132875310132
 30
-0.0000000000000146
 10
-1893.591056988758
 20
906.1321003889802
 30
-0.0000000000000146
  0
SPLINE
  5
1DE65
330
18
100
AcDbEntity
  8
姿図
100
AcDbSpline
210
0.0
220
0.0
230
1.0
 70
    24
 71
     1
 72
     4
 73
     2
 74
     0
 42
0.000000001
 43
0.0000000001
 40
4.585218554669551
 40
4.585218554669551
 40
4.585382155010916
 40
4.585382155010916
 10
-1893.571061139893
 20
906.1336524386879
 30
-0.0000000000000146
 10
-1893.581059452329
 20
906.132875310132
 30
-0.0000000000000146
  0
SPLINE
  5
1DE66
330
18
100
AcDbEntity
  8
姿図
100
AcDbSpline
210
0.0
220
0.0
230
1.0
 70
    24
 71
     1
 72
     4
 73
     2
 74
     0
 42
0.000000001
 43
0.0000000001
 40
4.585054954328187
 40
4.585054954328187
 40
4.585218554669551
 40
4.585218554669551
 10
-1893.561062052629
 20
906.1344317750636
 30
-0.0000000000000146
 10
-1893.571061139893
 20
906.1336524386879
 30
-0.0000000000000146
  0
SPLINE
  5
1DE67
330
18
100
AcDbEntity
  8
姿図
100
AcDbSpline
210
0.0
220
0.0
230
1.0
 70
    24
 71
     1
 72
     4
 73
     2
 74
     0
 42
0.000000001
 43
0.0000000001
 40
4.584891353986822
 40
4.584891353986822
 40
4.585054954328187
 40
4.585054954328187
 10
-1893.551062191719
 20
906.1352133196742
 30
-0.0000000000000146
 10
-1893.561062052629
 20
906.1344317750636
 30
-0.0000000000000146
  0
SPLINE
  5
1DE68
330
18
100
AcDbEntity
  8
姿図
100
AcDbSpline
210
0.0
220
0.0
230
1.0
 70
    24
 71
     1
 72
     4
 73
     2
 74
     0
 42
0.000000001
 43
0.0000000001
 40
4.584727753645457
 40
4.584727753645457
 40
4.584891353986822
 40
4.584891353986822
 10
-1893.541061558341
 20
906.1359970729334
 30
-0.0000000000000146
 10
-1893.551062191719
 20
906.1352133196742
 30
-0.0000000000000146
  0
SPLINE
  5
1DE69
330
18
100
AcDbEntity
  8
姿図
100
AcDbSpline
210
0.0
220
0.0
230
1.0
 70
    24
 71
     1
 72
     4
 73
     2
 74
     0
 42
0.000000001
 43
0.0000000001
 40
4.575549799467204
 40
4.575549799467204
 40
4.581065791234352
 40
4.581065791234352
 10
-1893.292354200098
 20
906.1565509644986
 30
-0.0000000000000146
 10
-1893.391854539315
 20
906.1479022236792
 30
-0.0000000000000146
  0
SPLINE
  5
1DE6A
330
18
100
AcDbEntity
  8
姿図
100
AcDbSpline
210
0.0
220
0.0
230
1.0
 70
    24
 71
     1
 72
     4
 73
     2
 74
     0
 42
0.000000001
 43
0.0000000001
 40
4.570033807700057
 40
4.570033807700057
 40
4.575549799467204
 40
4.575549799467204
 10
-1893.192991783211
 20
906.1659107833764
 30
-0.0000000000000146
 10
-1893.292354200098
 20
906.1565509644986
 30
-0.0000000000000146
  0
SPLINE
  5
1DE6B
330
18
100
AcDbEntity
  8
姿図
100
AcDbSpline
210
0.0
220
0.0
230
1.0
 70
    24
 71
     1
 72
     4
 73
     2
 74
     0
 42
0.000000001
 43
0.0000000001
 40
4.564517815932909
 40
4.564517815932909
 40
4.570033807700057
 40
4.570033807700057
 10
-1893.093770412082
 20
906.1759814373227
 30
-0.0000000000000019
 10
-1893.192991783211
 20
906.1659107833764
 30
-0.0000000000000146
  0
SPLINE
  5
1DE6C
330
18
100
AcDbEntity
  8
姿図
100
AcDbSpline
210
0.0
220
0.0
230
1.0
 70
    24
 71
     1
 72
     4
 73
     2
 74
     0
 42
0.000000001
 43
0.0000000001
 40
4.559001824165762
 40
4.559001824165762
 40
4.564517815932909
 40
4.564517815932909
 10
-1892.994693207175
 20
906.1867626595931
 30
-0.0000000000000146
 10
-1893.093770412082
 20
906.1759814373227
 30
-0.0000000000000019
  0
SPLINE
  5
1DE6D
330
18
100
AcDbEntity
  8
姿図
100
AcDbSpline
210
0.0
220
0.0
230
1.0
 70
    24
 71
     1
 72
     4
 73
     2
 74
     0
 42
0.000000001
 43
0.0000000001
 40
4.553485832398614
 40
4.553485832398614
 40
4.559001824165762
 40
4.559001824165762
 10
-1892.895763285851
 20
906.1982541596719
 30
-0.0000000000000146
 10
-1892.994693207175
 20
906.1867626595931
 30
-0.0000000000000146
  0
LINE
  5
1DE6E
330
18
100
AcDbEntity
  8
姿図
100
AcDbLine
 10
-1887.738839927082
 20
910.8758417640354
 30
0.0000000000000032
 11
-1887.486094495112
 21
910.9995984307757
 31
0.0000000000000032
  0
SPLINE
  5
1DE6F
330
18
100
AcDbEntity
  8
姿図
100
AcDbSpline
210
0.0
220
0.0
230
1.0
 70
     8
 71
     3
 72
    16
 73
    12
 74
     0
 42
0.000000001
 43
0.0000000001
 40
60.97286850367482
 40
60.97286850367482
 40
60.97286850367482
 40
60.97286850367482
 40
63.27662545801321
 40
63.27662545801321
 40
65.63207741714923
 40
65.63207741714923
 40
66.46294226239624
 40
66.46294226239624
 40
68.78483332584179
 40
68.78483332584179
 40
76.49128118025473
 40
76.49128118025473
 40
76.49128118025473
 40
76.49128118025473
 10
-1878.452304995238
 20
910.2511163601821
 30
-0.0000000000000047
 10
-1877.87108867956
 20
910.6472331948075
 30
-0.0000000000000056
 10
-1877.3715809976
 20
911.0488389769764
 30
-0.0000000000000075
 10
-1876.539890235548
 20
911.7853077188313
 30
-0.0000000000000168
 10
-1876.160069130079
 20
912.1676840055761
 30
-0.000000000000004
 10
-1875.819701450529
 20
912.5313715113377
 30
-0.000000000000004
 10
-1875.725921775853
 20
912.6341903182497
 30
-0.000000000000004
 10
-1875.363160470274
 20
913.0421290929464
 30
-0.000000000000004
 10
-1875.136971562602
 20
913.3171039268168
 30
-0.0000000000000168
 10
-1874.150212604111
 20
914.5922980585581
 30
-0.000000000000006
 10
-1873.207032383953
 20
916.028310901934
 30
-0.0000000000000126
 10
-1872.392615729983
 20
917.992270320962
 30
-0.0000000000000108
  0
SPLINE
  5
1DE70
330
18
100
AcDbEntity
  8
姿図
100
AcDbSpline
210
0.0
220
0.0
230
1.0
 70
     8
 71
     3
 72
     8
 73
     4
 74
     0
 42
0.000000001
 43
0.0000000001
 40
20.0
 40
20.0
 40
20.0
 40
20.0
 40
21.0
 40
21.0
 40
21.0
 40
21.0
 10
-1885.561340670606
 20
910.5088323635896
 30
-0.0000000000000044
 10
-1883.530817736085
 20
910.665026435476
 30
-0.0000000000000044
 10
-1882.43745923288
 20
912.0707730824522
 30
-0.0000000000000044
 10
-1882.593653304767
 20
914.5698782326324
 30
-0.0000000000000044
  0
SPLINE
  5
1DE71
330
18
100
AcDbEntity
  8
姿図
100
AcDbSpline
210
0.0
220
0.0
230
1.0
 70
     8
 71
     3
 72
     8
 73
     4
 74
     0
 42
0.000000001
 43
0.0000000001
 40
19.0
 40
19.0
 40
19.0
 40
19.0
 40
20.0
 40
20.0
 40
20.0
 40
20.0
 10
-1889.15380432399
 20
914.2574900888596
 30
-0.0000000000000044
 10
-1889.15380432399
 20
914.2574900888596
 30
-0.0000000000000044
 10
-1888.762709011181
 20
910.2623385938944
 30
-0.0000000000000044
 10
-1885.561340670606
 20
910.5088323635896
 30
-0.0000000000000044
  0
SPLINE
  5
1DE72
330
18
100
AcDbEntity
  8
姿図
100
AcDbSpline
210
0.0
220
0.0
230
1.0
 70
     8
 71
     3
 72
    11
 73
     7
 74
     0
 42
0.000000001
 43
0.0000000001
 40
0.0
 40
0.0
 40
0.0
 40
0.0
 40
1.0
 40
1.0
 40
1.0
 40
2.0
 40
2.0
 40
2.0
 40
2.0
 10
-1885.561340670606
 20
910.5088323635896
 30
-0.0000000000000044
 10
-1885.561340670606
 20
910.5088323635896
 30
-0.0000000000000044
 10
-1887.914624011486
 20
909.9828976371602
 30
-0.0000000000000044
 10
-1889.075707288047
 20
912.3050641902817
 30
-0.0000000000000044
 10
-1889.544289503705
 20
913.2422286215992
 30
-0.0000000000000044
 10
-1889.856677647478
 20
914.413684160746
 30
-0.0000000000000044
 10
-1889.934774683421
 20
918.630924101675
 30
-0.0000000000000044
  0
SPLINE
  5
1DE73
330
18
100
AcDbEntity
  8
姿図
100
AcDbSpline
210
0.0
220
0.0
230
1.0
 70
     8
 71
     3
 72
     8
 73
     4
 74
     0
 42
0.000000001
 43
0.0000000001
 40
11.0
 40
11.0
 40
11.0
 40
11.0
 40
12.0
 40
12.0
 40
12.0
 40
12.0
 10
-1883.765108843914
 20
910.665026435476
 30
-0.0000000000000044
 10
-1883.765108843914
 20
910.665026435476
 30
-0.0000000000000044
 10
-1885.639437706549
 20
910.118347183874
 30
-0.0000000000000044
 10
-1886.498505101923
 20
910.4307353276465
 30
-0.0000000000000044
  0
SPLINE
  5
1DE74
330
18
100
AcDbEntity
  8
姿図
100
AcDbSpline
210
0.0
220
0.0
230
1.0
 70
    24
 71
     3
 72
     8
 73
     4
 74
     0
 42
0.000000001
 43
0.0000000001
 40
10.0
 40
10.0
 40
10.0
 40
10.0
 40
11.0
 40
11.0
 40
11.0
 40
11.0
 10
-1872.128650488388
 20
918.1623418860163
 30
-0.0000000000000044
 10
-1872.128650488388
 20
918.1623418860163
 30
-0.0000000000000044
 10
-1883.765108843914
 20
910.665026435476
 30
-0.0000000000000044
 10
-1883.765108843914
 20
910.665026435476
 30
-0.0000000000000044
  0
SPLINE
  5
1DE75
330
18
100
AcDbEntity
  8
姿図
100
AcDbSpline
210
0.0
220
0.0
230
1.0
 70
     8
 71
     3
 72
    11
 73
     7
 74
     0
 42
0.000000001
 43
0.0000000001
 40
8.0
 40
8.0
 40
8.0
 40
8.0
 40
9.0
 40
9.0
 40
9.0
 40
10.0
 40
10.0
 40
10.0
 40
10.0
 10
-1869.785739410094
 20
924.9567840130683
 30
-0.0000000000000044
 10
-1869.785739410094
 20
924.9567840130683
 30
-0.0000000000000044
 10
-1870.098127553866
 20
924.4101047614665
 30
-0.0000000000000044
 10
-1870.17622458981
 20
923.0824551504331
 30
-0.0000000000000044
 10
-1870.254321625753
 20
921.7548055394
 30
-0.0000000000000044
 10
-1870.098127553866
 20
919.4899914970495
 30
-0.0000000000000044
 10
-1872.128650488388
 20
918.1623418860163
 30
-0.0000000000000044
  0
ELLIPSE
  5
1DE76
330
18
100
AcDbEntity
  8
姿図
100
AcDbEllipse
 10
-1885.690993952933
 20
914.9994119303196
 30
-0.0000000000000044
 11
0.05094611329102488
 21
-2.342911078293838
 31
0.0
210
0.0
220
0.0
230
1.0
 40
0.8832045568248487
 41
0.0
 42
6.283185307179586
  0
ELLIPSE
  5
1DE77
330
18
100
AcDbEntity
  8
姿図
100
AcDbEllipse
 10
-1885.481108168836
 20
914.9420594195487
 30
-0.0000000000000044
 11
0.04484478235796799
 21
-2.082994380545616
 31
0.0
210
0.0
220
0.0
230
1.0
 40
0.8835743841866798
 41
0.0
 42
6.283185307179586
  0
ELLIPSE
  5
1DE78
330
18
100
AcDbEntity
  8
姿図
100
AcDbEllipse
 10
-1885.302644239045
 20
914.9670748763745
 30
-0.0000000000000044
 11
0.03782825178495267
 21
-1.780978499359301
 31
0.0
210
0.0
220
0.0
230
1.0
 40
0.8831958179658853
 41
0.0
 42
6.283185307179586
  0
ELLIPSE
  5
1DE79
330
18
100
AcDbEntity
  8
姿図
100
AcDbEllipse
 10
-1890.031590400557
 20
932.0836244704831
 30
0.0000000000000087
 11
-8.136924377323641
 21
23.54389199833204
 31
2.160626447713321E-15
210
-2.833225306110241E-17
220
8.197833422157524E-17
230
-1.0
 40
0.7445887407026982
 41
0.1816174140284592
 42
0.2444861874498684
  0
ELLIPSE
  5
1DE7A
330
18
100
AcDbEntity
  8
姿図
100
AcDbEllipse
 10
-1897.90880723138
 20
929.3612059765817
 30
0.0000000000000108
 11
-7.785491283804454
 21
22.52703324251798
 31
6.891030564778095E-16
210
-9.444084353700805E-18
220
2.732611140719172E-17
230
-1.0
 40
0.7445887407027176
 41
-0.160039409549761
 42
0.7510610570699096
  0
ELLIPSE
  5
1DE7B
330
18
100
AcDbEntity
  8
姿図
100
AcDbEllipse
 10
-1898.14742658021
 20
929.162364852544
 30
0.0000000000000108
 11
-7.785491283811407
 21
22.5270332425148
 31
6.891030564777884E-16
210
-9.444084353700820E-18
220
2.732611140719174E-17
230
-1.0
 40
0.7445887407027572
 41
-0.1600394095493287
 42
0.7701698645318673
  0
SPLINE
  5
1DE7C
330
18
100
AcDbEntity
  8
姿図
100
AcDbSpline
210
0.0
220
0.0
230
1.0
 70
     8
 71
     3
 72
    10
 73
     6
 74
     0
 42
0.000000001
 43
0.0000000001
 40
64.86311517591892
 40
64.86311517591892
 40
64.86311517591892
 40
64.86311517591892
 40
66.12555618457822
 40
66.12555618457822
 40
66.75214355035303
 40
66.75214355035303
 40
66.75214355035303
 40
66.75214355035303
 10
-1893.69386624626
 20
956.440264187718
 30
-0.000000000000004
 10
-1893.915078704144
 20
956.4362598019061
 30
-0.000000000000004
 10
-1894.139439769568
 20
956.4271290029551
 30
-0.000000000000004
 10
-1894.478647676202
 20
956.4047409368779
 30
-0.000000000000004
 10
-1894.59100018125
 20
956.3959409628135
 30
-0.000000000000004
 10
-1894.703145505479
 20
956.3857891306366
 30
-0.000000000000004
  0
ARC
  5
1DE7D
330
18
100
AcDbEntity
  8
姿図
100
AcDbCircle
 10
-1874.334657744221
 20
890.3653350222896
 30
0.0000000000000032
 40
69.09106783335264
100
AcDbArc
 50
106.3185863248103
 51
117.1919480268858
  0
ARC
  5
1DE7E
330
18
100
AcDbEntity
  8
姿図
100
AcDbCircle
 10
-1876.822758494348
 20
908.8630798856927
 30
0.0000000000000175
 40
52.31488118903502
100
AcDbArc
 50
129.3758102475883
 51
152.5905973268868
  0
SPLINE
  5
1DE7F
330
18
100
AcDbEntity
  8
姿図
100
AcDbSpline
210
0.0
220
0.0
230
1.0
 70
     8
 71
     3
 72
    11
 73
     7
 74
     0
 42
0.000000001
 43
0.0000000001
 40
1.820750480054666
 40
1.820750480054666
 40
1.820750480054666
 40
1.820750480054666
 40
2.0
 40
2.0
 40
2.0
 40
3.0
 40
3.0
 40
3.0
 40
3.0
 10
-1913.414084027765
 20
946.251870846759
 30
-0.0000000000000044
 10
-1913.299731130608
 20
947.0359819435585
 30
-0.0000000000000044
 10
-1913.155385316222
 20
947.8583483410291
 30
-0.0000000000000044
 10
-1912.973400176052
 20
948.6982797571989
 30
-0.0000000000000044
 10
-1911.958138655543
 20
953.3841021595458
 30
-0.0000000000000044
 10
-1909.146645214135
 20
967.9882486468598
 30
-0.0000000000000044
 10
-1909.146645214135
 20
967.9882486468598
 30
-0.0000000000000044
  0
SPLINE
  5
1DE80
330
18
100
AcDbEntity
  8
姿図
100
AcDbSpline
210
0.0
220
0.0
230
1.0
 70
     8
 71
     3
 72
     8
 73
     4
 74
     0
 42
0.000000001
 43
0.0000000001
 40
12.0
 40
12.0
 40
12.0
 40
12.0
 40
13.0
 40
13.0
 40
13.0
 40
13.0
 10
-1920.861200916899
 20
939.1704445547177
 30
-0.0000000000000044
 10
-1920.861200916899
 20
939.1704445547177
 30
-0.0000000000000044
 10
-1921.017394988786
 20
941.3571615611252
 30
-0.0000000000000044
 10
-1920.783103880956
 20
942.919102279988
 30
-0.0000000000000044
  0
SPLINE
  5
1DE81
330
18
100
AcDbEntity
  8
姿図
100
AcDbSpline
210
0.0
220
0.0
230
1.0
 70
    24
 71
     3
 72
     8
 73
     4
 74
     0
 42
0.000000001
 43
0.0000000001
 40
11.82698399674106
 40
11.82698399674106
 40
11.82698399674106
 40
11.82698399674106
 40
12.0
 40
12.0
 40
12.0
 40
12.0
 10
-1920.768134275334
 20
937.2470672956886
 30
-0.0000000000000044
 10
-1920.826133937269
 20
938.4457269756992
 30
-0.0000000000000044
 10
-1920.861200916899
 20
939.1704445547177
 30
-0.0000000000000044
 10
-1920.861200916899
 20
939.1704445547177
 30
-0.0000000000000044
  0
SPLINE
  5
1DE82
330
18
100
AcDbEntity
  8
姿図
100
AcDbSpline
210
0.0
220
0.0
230
1.0
 70
    24
 71
     3
 72
     8
 73
     4
 74
     0
 42
0.000000001
 43
0.0000000001
 40
8.0
 40
8.0
 40
8.0
 40
8.0
 40
8.24930054088276
 40
8.24930054088276
 40
8.24930054088276
 40
8.24930054088276
 10
-1920.548812773128
 20
942.0600348846133
 30
-0.0000000000000044
 10
-1920.548812773128
 20
942.0600348846133
 30
-0.0000000000000044
 10
-1920.476005921433
 20
940.3806235055263
 30
-0.0000000000000044
 10
-1920.366693793059
 20
937.8591570776944
 30
-0.0000000000000044
  0
SPLINE
  5
1DE83
330
18
100
AcDbEntity
  8
姿図
100
AcDbSpline
210
0.0
220
0.0
230
1.0
 70
    24
 71
     1
 72
     4
 73
     2
 74
     0
 42
0.000000001
 43
0.0000000001
 40
7.360687962796618
 40
7.360687962796618
 40
7.37499967158405
 40
7.37499967158405
 10
-1908.487412234842
 20
950.5401935242919
 30
-0.0000000000000146
 10
-1908.267764412844
 20
950.6765748968785
 30
-0.0000000000000019
  0
SPLINE
  5
1DE84
330
18
100
AcDbEntity
  8
姿図
100
AcDbSpline
210
0.0
220
0.0
230
1.0
 70
    24
 71
     1
 72
     4
 73
     2
 74
     0
 42
0.000000001
 43
0.0000000001
 40
7.346376254009186
 40
7.346376254009186
 40
7.360687962796618
 40
7.360687962796618
 10
-1908.704859408204
 20
950.3994571508886
 30
-0.0000000000000019
 10
-1908.487412234842
 20
950.5401935242919
 30
-0.0000000000000146
  0
SPLINE
  5
1DE85
330
18
100
AcDbEntity
  8
姿図
100
AcDbSpline
210
0.0
220
0.0
230
1.0
 70
    24
 71
     1
 72
     4
 73
     2
 74
     0
 42
0.000000001
 43
0.0000000001
 40
7.332064545221754
 40
7.332064545221754
 40
7.346376254009186
 40
7.346376254009186
 10
-1908.920060485284
 20
950.254396262075
 30
-0.0000000000000019
 10
-1908.704859408204
 20
950.3994571508886
 30
-0.0000000000000019
  0
SPLINE
  5
1DE86
330
18
100
AcDbEntity
  8
姿図
100
AcDbSpline
210
0.0
220
0.0
230
1.0
 70
    24
 71
     1
 72
     4
 73
     2
 74
     0
 42
0.000000001
 43
0.0000000001
 40
7.317752836434321
 40
7.317752836434321
 40
7.332064545221754
 40
7.332064545221754
 10
-1909.132970586544
 20
950.1050422608462
 30
-0.0000000000000146
 10
-1908.920060485284
 20
950.254396262075
 30
-0.0000000000000019
  0
SPLINE
  5
1DE87
330
18
100
AcDbEntity
  8
姿図
100
AcDbSpline
210
0.0
220
0.0
230
1.0
 70
    24
 71
     1
 72
     4
 73
     2
 74
     0
 42
0.000000001
 43
0.0000000001
 40
7.30344112764689
 40
7.30344112764689
 40
7.317752836434321
 40
7.317752836434321
 10
-1909.343545410755
 20
949.9514274537996
 30
-0.0000000000000019
 10
-1909.132970586544
 20
950.1050422608462
 30
-0.0000000000000146
  0
SPLINE
  5
1DE88
330
18
100
AcDbEntity
  8
姿図
100
AcDbSpline
210
0.0
220
0.0
230
1.0
 70
    24
 71
     1
 72
     4
 73
     2
 74
     0
 42
0.000000001
 43
0.0000000001
 40
7.289129418859456
 40
7.289129418859456
 40
7.30344112764689
 40
7.30344112764689
 10
-1909.551741244484
 20
949.7935850370804
 30
-0.0000000000000019
 10
-1909.343545410755
 20
949.9514274537996
 30
-0.0000000000000019
  0
SPLINE
  5
1DE89
330
18
100
AcDbEntity
  8
姿図
100
AcDbSpline
210
0.0
220
0.0
230
1.0
 70
    24
 71
     1
 72
     4
 73
     2
 74
     0
 42
0.000000001
 43
0.0000000001
 40
7.274817710072025
 40
7.274817710072025
 40
7.289129418859456
 40
7.289129418859456
 10
-1909.757514970832
 20
949.6315490822674
 30
-0.0000000000000146
 10
-1909.551741244484
 20
949.7935850370804
 30
-0.0000000000000019
  0
SPLINE
  5
1DE8A
330
18
100
AcDbEntity
  8
姿図
100
AcDbSpline
210
0.0
220
0.0
230
1.0
 70
    24
 71
     1
 72
     4
 73
     2
 74
     0
 42
0.000000001
 43
0.0000000001
 40
7.260506001284593
 40
7.260506001284593
 40
7.274817710072025
 40
7.274817710072025
 10
-1909.960824077476
 20
949.4653545222529
 30
-0.0000000000000019
 10
-1909.757514970832
 20
949.6315490822674
 30
-0.0000000000000146
  0
SPLINE
  5
1DE8B
330
18
100
AcDbEntity
  8
姿図
100
AcDbSpline
210
0.0
220
0.0
230
1.0
 70
    24
 71
     1
 72
     4
 73
     2
 74
     0
 42
0.000000001
 43
0.0000000001
 40
7.24619429249716
 40
7.24619429249716
 40
7.260506001284593
 40
7.260506001284593
 10
-1910.16162666404
 20
949.2950371372112
 30
-0.0000000000000146
 10
-1909.960824077476
 20
949.4653545222529
 30
-0.0000000000000019
  0
SPLINE
  5
1DE8C
330
18
100
AcDbEntity
  8
姿図
100
AcDbSpline
210
0.0
220
0.0
230
1.0
 70
    24
 71
     1
 72
     4
 73
     2
 74
     0
 42
0.000000001
 43
0.0000000001
 40
7.231882583709728
 40
7.231882583709728
 40
7.24619429249716
 40
7.24619429249716
 10
-1910.359881448834
 20
949.1206335406321
 30
-0.0000000000000146
 10
-1910.16162666404
 20
949.2950371372112
 30
-0.0000000000000146
  0
ARC
  5
1DE8D
330
18
100
AcDbEntity
  8
姿図
100
AcDbCircle
 10
-1878.902970014788
 20
938.0548149993549
 30
-0.0000000000000044
 40
15.49096073739947
100
AcDbArc
 50
359.0994776742483
 51
85.07207034149381
  0
ARC
  5
1DE8E
330
18
100
AcDbEntity
  8
姿図
100
AcDbCircle
 10
-1894.312247884644
 20
931.9906485700883
 30
-0.0000000000000044
 40
24.9131798258007
100
AcDbArc
 50
6.692591648343327
 51
59.3287808977645
  0
ARC
  5
1DE8F
330
18
100
AcDbEntity
  8
姿図
100
AcDbCircle
 10
-1897.169213404576
 20
930.3686564587958
 30
0.0000000000000108
 40
27.7160621246792
100
AcDbArc
 50
9.301004327640015
 51
64.0996544440936
  0
LINE
  5
1DE90
330
18
100
AcDbEntity
  8
姿図
100
AcDbLine
 10
-1851.331718316253
 20
949.8146192538484
 30
0.0000000000000108
 11
-1851.387424757044
 21
946.501243735132
 31
0.0000000000000108
  0
ELLIPSE
  5
1DE91
330
18
100
AcDbEntity
  8
姿図
100
AcDbEllipse
 10
-1890.031590400557
 20
932.0836244704831
 30
0.0000000000000087
 11
-8.136924377323641
 21
23.54389199833204
 31
2.160626447713321E-15
210
-2.833225306110241E-17
220
8.197833422157524E-17
230
-1.0
 40
0.7445887407026982
 41
0.7073626242949911
 42
1.721396946041301
  0
ARC
  5
1DE92
330
18
100
AcDbEntity
  8
姿図
100
AcDbCircle
 10
-1870.360917144743
 20
939.4472988107807
 30
0.0000000000000038
 40
17.4147793819442
100
AcDbArc
 50
17.09268596762959
 51
67.43728728017877
  0
LINE
  5
1DE93
330
18
100
AcDbEntity
  8
姿図
100
AcDbLine
 10
-1875.203005238272
 20
947.9751214896044
 30
0.0
 11
-1874.8362456418
 21
948.0873063446402
 31
0.0
  0
SPLINE
  5
1DE94
330
18
100
AcDbEntity
  8
姿図
100
AcDbSpline
210
0.0
220
0.0
230
1.0
 70
     8
 71
     3
 72
    14
 73
    10
 74
     0
 42
0.000000001
 43
0.0000000001
 40
0.0507684683112425
 40
0.0507684683112425
 40
0.0507684683112425
 40
0.0507684683112425
 40
16.17239265914957
 40
16.17239265914957
 40
33.44137084920912
 40
33.44137084920912
 40
41.29196149669883
 40
41.29196149669883
 40
46.30216709690585
 40
46.30216709690585
 40
46.30216709690585
 40
46.30216709690585
 10
-1871.369842221483
 20
934.7075631528817
 30
-0.000000000000004
 10
-1871.88245542326
 20
936.9470525373661
 30
-0.000000000000004
 10
-1872.631684581899
 20
939.1597035684201
 30
-0.000000000000004
 10
-1874.636349924573
 20
943.5061865121045
 30
-0.000000000000004
 10
-1876.289894631929
 20
946.4095633132695
 30
-0.000000000000004
 10
-1879.889910973648
 20
950.3643347427258
 30
-0.000000000000004
 10
-1881.105735004108
 20
951.4783357859835
 30
-0.000000000000004
 10
-1883.179727720279
 20
953.0392307464942
 30
-0.000000000000004
 10
-1884.00625676158
 20
953.5798767300064
 30
-0.000000000000004
 10
-1884.847995888803
 20
954.053083352477
 30
-0.000000000000004
  0
SPLINE
  5
1DE95
330
18
100
AcDbEntity
  8
姿図
100
AcDbSpline
210
0.0
220
0.0
230
1.0
 70
     8
 71
     3
 72
     8
 73
     4
 74
     0
 42
0.000000001
 43
0.0000000001
 40
-29.73791167171498
 40
-29.73791167171498
 40
-29.73791167171498
 40
-29.73791167171498
 40
-21.81652578453031
 40
-21.81652578453031
 40
-21.81652578453031
 40
-21.81652578453031
 10
-1873.425459109866
 20
953.2349602305183
 30
0.0000000000000032
 10
-1868.93183889815
 20
952.164355231075
 30
0.0000000000000102
 10
-1863.685564014652
 20
947.9182555956443
 30
0.0000000000000107
 10
-1862.522715067383
 20
938.3113771593432
 30
-0.0000000000000044
  0
SPLINE
  5
1DE96
330
18
100
AcDbEntity
  8
姿図
100
AcDbSpline
210
0.0
220
0.0
230
1.0
 70
     8
 71
     3
 72
    11
 73
     7
 74
     0
 42
0.000000001
 43
0.0000000001
 40
5.0
 40
5.0
 40
5.0
 40
5.0
 40
6.0
 40
6.0
 40
6.0
 40
7.0
 40
7.0
 40
7.0
 40
7.0
 10
-1862.522715067383
 20
938.3113771593432
 30
-0.0000000000000044
 10
-1862.522715067383
 20
938.3113771593432
 30
-0.0000000000000044
 10
-1859.633124737487
 20
939.1704445547177
 30
-0.0000000000000044
 10
-1859.242639557772
 20
937.4523097639687
 30
-0.0000000000000044
 10
-1858.852154378056
 20
935.73417497322
 30
-0.0000000000000044
 10
-1857.602601802966
 20
932.063614283893
 30
-0.0000000000000044
 10
-1859.867415845317
 20
930.6578676369168
 30
-0.0000000000000044
  0
SPLINE
  5
1DE97
330
18
100
AcDbEntity
  8
姿図
100
AcDbSpline
210
0.0
220
0.0
230
1.0
 70
     8
 71
     3
 72
    11
 73
     7
 74
     0
 42
0.000000001
 43
0.0000000001
 40
3.0
 40
3.0
 40
3.0
 40
3.0
 40
4.0
 40
4.0
 40
4.0
 40
5.0
 40
5.0
 40
5.0
 40
5.0
 10
-1873.143911955649
 20
931.1264498525754
 30
-0.0000000000000044
 10
-1873.143911955649
 20
931.1264498525754
 30
-0.0000000000000044
 10
-1873.065814919705
 20
931.9855172479499
 30
-0.0000000000000044
 10
-1871.191486057071
 20
933.0007787152106
 30
-0.0000000000000044
 10
-1869.317157194435
 20
934.0160401824712
 30
-0.0000000000000044
 10
-1861.976035815781
 20
937.9208919796276
 30
-0.0000000000000044
 10
-1861.976035815781
 20
937.9208919796276
 30
-0.0000000000000044
  0
ELLIPSE
  5
1DE98
330
18
100
AcDbEntity
  8
姿図
100
AcDbEllipse
 10
-1862.054132851725
 20
933.5474579668123
 30
-0.0000000000000044
 11
0.2428329711356634
 21
-2.330708416427725
 31
0.0
210
0.0
220
0.0
230
1.0
 40
0.8832587106904687
 41
0.0
 42
6.283185307179586
  0
ELLIPSE
  5
1DE99
330
18
100
AcDbEntity
  8
姿図
100
AcDbEllipse
 10
-1861.839976135974
 20
933.5077993157474
 30
-0.0000000000000044
 11
0.2153769819369076
 21
-2.07262211795942
 31
0.0
210
0.0
220
0.0
230
1.0
 40
0.8834614323077814
 41
0.0
 42
6.283185307179586
  0
ELLIPSE
  5
1DE9A
330
18
100
AcDbEntity
  8
姿図
100
AcDbEllipse
 10
-1861.664257805102
 20
933.5474579668123
 30
-0.0000000000000044
 11
0.1836500610850118
 21
-1.771826502959715
 31
0.0
210
0.0
220
0.0
230
1.0
 40
0.8833402404600682
 41
0.0
 42
6.283185307179586
  0
LINE
  5
1DE9B
330
18
100
AcDbEntity
  8
姿図
100
AcDbLine
 10
-1868.144655950731
 20
935.1571063235749
 30
0.0000000000000108
 11
-1871.490419202734
 21
934.5392085713931
 31
0.0000000000000108
  0
LINE
  5
1DE9C
330
18
100
AcDbEntity
  8
姿図
100
AcDbLine
 10
-1882.867351472891
 20
938.3816188594262
 30
0.0000000000000032
 11
-1882.804565858685
 21
938.4245778138377
 31
0.0000000000000032
  0
LINE
  5
1DE9D
330
18
100
AcDbEntity
  8
姿図
100
AcDbLine
 10
-1890.924244901754
 20
943.5766186728106
 30
0.0000000000000032
 11
-1890.849298136565
 21
943.6278984876171
 31
0.0000000000000032
  0
SPLINE
  5
1DE9E
330
18
100
AcDbEntity
  8
姿図
100
AcDbSpline
210
0.0
220
0.0
230
1.0
 70
     8
 71
     3
 72
     8
 73
     4
 74
     0
 42
0.000000001
 43
0.0000000001
 40
-5.558709854342928
 40
-5.558709854342928
 40
-5.558709854342928
 40
-5.558709854342928
 40
-5.251204385375416
 40
-5.251204385375416
 40
-5.251204385375416
 40
-5.251204385375416
 10
-1864.474879020837
 20
936.5797469179317
 30
-0.000000000000004
 10
-1864.44819488643
 20
936.6003944163647
 30
-0.000000000000004
 10
-1864.421301311373
 20
936.6203876931809
 30
-0.0000000000000168
 10
-1864.394218814367
 20
936.6396797977011
 30
-0.0000000000000168
  0
SPLINE
  5
1DE9F
330
18
100
AcDbEntity
  8
姿図
100
AcDbSpline
210
2.284267924107179E-6
220
-1.758223720804215E-5
230
-0.9999999998428235
 70
     8
 71
     3
 72
     8
 73
     4
 74
     0
 42
0.000000001
 43
0.0000000001
 40
110.2937215201613
 40
110.2937215201613
 40
110.2937215201613
 40
110.2937215201613
 40
110.302956437032
 40
110.302956437032
 40
110.302956437032
 40
110.302956437032
 10
-1864.393781029978
 20
936.6397366735191
 30
-0.000000000000004
 10
-1864.393926962435
 20
936.6397177138701
 30
-0.0000000000000168
 10
-1864.394072890454
 20
936.6396987552771
 30
-0.000000000000004
 10
-1864.394218814367
 20
936.6396797977011
 30
-0.0000000000000168
  0
SPLINE
  5
1DEA0
330
18
100
AcDbEntity
  8
姿図
100
AcDbSpline
210
0.0
220
0.0
230
1.0
 70
     8
 71
     3
 72
     8
 73
     4
 74
     0
 42
0.000000001
 43
0.0000000001
 40
-5.558709854342928
 40
-5.558709854342928
 40
-5.558709854342928
 40
-5.558709854342928
 40
-5.251204385375416
 40
-5.251204385375416
 40
-5.251204385375416
 40
-5.251204385375416
 10
-1864.474833417605
 20
936.5797168765168
 30
-0.000000000000004
 10
-1864.448149503788
 20
936.6003642042615
 30
-0.000000000000004
 10
-1864.421256151054
 20
936.6203573157991
 30
-0.0000000000000168
 10
-1864.39417387793
 20
936.6396492608367
 30
-0.0000000000000168
  0
SPLINE
  5
1DEA1
330
18
100
AcDbEntity
  8
姿図
100
AcDbSpline
210
2.283875921352596E-6
220
-1.757921979519078E-5
230
-0.9999999998428775
 70
     8
 71
     3
 72
     8
 73
     4
 74
     0
 42
0.000000001
 43
0.0000000001
 40
110.2937215201613
 40
110.2937215201613
 40
110.2937215201613
 40
110.2937215201613
 40
110.302956437032
 40
110.302956437032
 40
110.302956437032
 40
110.302956437032
 10
-1864.39373609716
 20
936.6397061361847
 30
-0.000000000000004
 10
-1864.393882028413
 20
936.6396871766926
 30
-0.0000000000000168
 10
-1864.394027955223
 20
936.639668218256
 30
-0.000000000000004
 10
-1864.39417387793
 20
936.6396492608367
 30
-0.0000000000000168
  0
LINE
  5
1DEA2
330
18
100
AcDbEntity
  8
姿図
100
AcDbLine
 10
-1873.807839436126
 20
947.5477735051438
 30
0.0
 11
-1866.993018628958
 21
947.8003905159078
 31
0.0
  0
LINE
  5
1DEA3
330
18
100
AcDbEntity
  8
姿図
100
AcDbLine
 10
-1874.42501747886
 20
947.4855425377802
 30
0.0
 11
-1873.807839436126
 21
947.5477735051438
 31
0.0
  0
LINE
  5
1DEA4
330
18
100
AcDbEntity
  8
姿図
100
AcDbLine
 10
-1874.730151418984
 20
947.3922078107048
 30
0.0
 11
-1874.42501747886
 21
947.4855425377802
 31
0.0
  0
LINE
  5
1DEA5
330
18
100
AcDbEntity
  8
姿図
100
AcDbLine
 10
-1864.474232915509
 20
941.12799326716
 30
0.0000000000000032
 11
-1869.85649148964
 21
936.7427542276721
 31
0.0000000000000032
  0
LINE
  5
1DEA6
330
18
100
AcDbEntity
  8
姿図
100
AcDbLine
 10
-1868.614888439118
 20
941.8585520691445
 30
0.0
 11
-1864.383570026094
 21
942.4709831467414
 31
0.0
  0
LINE
  5
1DEA7
330
18
100
AcDbEntity
  8
姿図
100
AcDbLine
 10
-1869.146558314825
 20
941.8020383361952
 30
0.0
 11
-1868.614888439118
 21
941.8585520691445
 31
0.0
  0
LINE
  5
1DEA8
330
18
100
AcDbEntity
  8
姿図
100
AcDbLine
 10
-1871.090196972659
 20
941.0130030562423
 30
0.0
 11
-1869.146558314825
 21
941.8020383361952
 31
0.0
  0
LINE
  5
1DEA9
330
18
100
AcDbEntity
  8
姿図
100
AcDbLine
 10
-1866.993018628958
 20
947.8003905159078
 30
0.0000000000000032
 11
-1872.826473718046
 21
944.6012804929778
 31
0.0000000000000032
  0
SPLINE
  5
1DEAA
330
18
100
AcDbEntity
  8
姿図
100
AcDbSpline
210
0.0
220
0.0
230
1.0
 70
     8
 71
     3
 72
     8
 73
     4
 74
     0
 42
0.000000001
 43
0.0000000001
 40
20.17474574740567
 40
20.17474574740567
 40
20.17474574740567
 40
20.17474574740567
 40
20.51051228626665
 40
20.51051228626665
 40
20.51051228626665
 40
20.51051228626665
 10
-1871.338071544617
 20
934.5673442368325
 30
-0.000000000000004
 10
-1871.348552516859
 20
934.6140385670808
 30
-0.000000000000004
 10
-1871.359151336093
 20
934.6607782198653
 30
-0.000000000000004
 10
-1871.369868794695
 20
934.7075654082248
 30
-0.000000000000004
  0
LINE
  5
1DEAB
330
18
100
AcDbEntity
  8
姿図
100
AcDbLine
 10
-1868.149661762144
 20
941.0398487177956
 30
0.0
 11
-1864.193092638165
 21
941.6549455347988
 31
0.0
  0
LINE
  5
1DEAC
330
18
100
AcDbEntity
  8
姿図
100
AcDbLine
 10
-1868.681331637852
 20
940.9833349848457
 30
0.0
 11
-1868.149661762144
 21
941.0398487177956
 31
0.0
  0
LINE
  5
1DEAD
330
18
100
AcDbEntity
  8
姿図
100
AcDbLine
 10
-1870.768291774667
 20
940.1361172321194
 30
0.0
 11
-1868.681331637852
 21
940.9833349848457
 31
0.0
  0
SPLINE
  5
1DEAE
330
18
100
AcDbEntity
  8
姿図
100
AcDbSpline
210
0.0
220
0.0
230
1.0
 70
    24
 71
     3
 72
     8
 73
     4
 74
     0
 42
0.000000001
 43
0.0000000001
 40
4.0
 40
4.0
 40
4.0
 40
4.0
 40
5.0
 40
5.0
 40
5.0
 40
5.0
 10
-1872.244575776116
 20
932.8567873051904
 30
-0.0000000000000044
 10
-1872.244575776116
 20
932.8567873051904
 30
-0.0000000000000044
 10
-1862.522715067383
 20
938.3113771593432
 30
-0.0000000000000044
 10
-1862.522715067383
 20
938.3113771593432
 30
-0.0000000000000044
  0
SPLINE
  5
1DEAF
330
18
100
AcDbEntity
  8
姿図
100
AcDbSpline
210
0.0
220
0.0
230
1.0
 70
     8
 71
     3
 72
     8
 73
     4
 74
     0
 42
0.000000001
 43
0.0000000001
 40
3.0
 40
3.0
 40
3.0
 40
3.0
 40
4.0
 40
4.0
 40
4.0
 40
4.0
 10
-1873.612494171307
 20
931.4388379963477
 30
-0.0000000000000044
 10
-1873.612494171307
 20
931.4388379963477
 30
-0.0000000000000044
 10
-1873.844344746763
 20
931.9318255357391
 30
-0.0000000000000044
 10
-1872.244575776116
 20
932.8567873051904
 30
-0.0000000000000044
  0
SPLINE
  5
1DEB0
330
18
100
AcDbEntity
  8
姿図
100
AcDbSpline
210
0.0
220
0.0
230
1.0
 70
    24
 71
     3
 72
     8
 73
     4
 74
     0
 42
0.000000001
 43
0.0000000001
 40
2.0
 40
2.0
 40
2.0
 40
2.0
 40
3.0
 40
3.0
 40
3.0
 40
3.0
 10
-1873.690591207251
 20
929.4083150618267
 30
-0.0000000000000044
 10
-1873.690591207251
 20
929.4083150618267
 30
-0.0000000000000044
 10
-1873.612494171307
 20
931.4388379963477
 30
-0.0000000000000044
 10
-1873.612494171307
 20
931.4388379963477
 30
-0.0000000000000044
  0
SPLINE
  5
1DEB1
330
18
100
AcDbEntity
  8
姿図
100
AcDbSpline
210
0.0
220
0.0
230
1.0
 70
     8
 71
     3
 72
     8
 73
     4
 74
     0
 42
0.000000001
 43
0.0000000001
 40
1.0
 40
1.0
 40
1.0
 40
1.0
 40
2.0
 40
2.0
 40
2.0
 40
2.0
 10
-1874.471561566682
 20
927.768277307021
 30
-0.0000000000000044
 10
-1874.471561566682
 20
927.768277307021
 30
-0.0000000000000044
 10
-1873.612494171307
 20
927.6901802710777
 30
-0.0000000000000044
 10
-1873.690591207251
 20
929.4083150618267
 30
-0.0000000000000044
  0
SPLINE
  5
1DEB2
330
18
100
AcDbEntity
  8
姿図
100
AcDbSpline
210
0.0
220
0.0
230
1.0
 70
    24
 71
     3
 72
     8
 73
     4
 74
     0
 42
0.000000001
 43
0.0000000001
 40
2.0
 40
2.0
 40
2.0
 40
2.0
 40
3.0
 40
3.0
 40
3.0
 40
3.0
 10
-1873.222008991592
 20
928.7054417383385
 30
-0.0000000000000044
 10
-1873.222008991592
 20
928.7054417383385
 30
-0.0000000000000044
 10
-1873.143911955649
 20
931.1264498525754
 30
-0.0000000000000044
 10
-1873.143911955649
 20
931.1264498525754
 30
-0.0000000000000044
  0
SPLINE
  5
1DEB3
330
18
100
AcDbEntity
  8
姿図
100
AcDbSpline
210
0.0
220
0.0
230
1.0
 70
     8
 71
     3
 72
     8
 73
     4
 74
     0
 42
0.000000001
 43
0.0000000001
 40
1.0
 40
1.0
 40
1.0
 40
1.0
 40
2.0
 40
2.0
 40
2.0
 40
2.0
 10
-1874.237270458852
 20
927.1435010194757
 30
-0.0000000000000044
 10
-1874.237270458852
 20
927.1435010194757
 30
-0.0000000000000044
 10
-1873.300106027535
 20
927.2996950913621
 30
-0.0000000000000044
 10
-1873.222008991592
 20
928.7054417383385
 30
-0.0000000000000044
  0
ELLIPSE
  5
1DEB4
330
18
100
AcDbEntity
  8
姿図
100
AcDbEllipse
 10
-1849.963423353592
 20
946.5896475039738
 30
0.0000000000000108
 11
-0.04307024783415563
 21
0.1888054742135976
 31
5.598986549208259E-18
210
-6.430221859997065E-18
220
2.818792899007104E-17
230
-1.0
 40
0.7445887406997004
 41
0.0194714738012121
 42
1.456954302896388
  0
LINE
  5
1DEB5
330
18
100
AcDbEntity
  8
姿図
100
AcDbLine
 10
-1852.645914022936
 20
934.7919724415635
 30
0.0000000000000108
 11
-1851.00394516216
 21
935.4424056921684
 31
0.0000000000000108
  0
LINE
  5
1DEB6
330
18
100
AcDbEntity
  8
姿図
100
AcDbLine
 10
-1851.00394516216
 20
935.4424056921684
 30
0.0000000000000108
 11
-1852.64630054832
 21
937.3957150869398
 31
0.0000000000000108
  0
LINE
  5
1DEB7
330
18
100
AcDbEntity
  8
姿図
100
AcDbLine
 10
-1853.306414334642
 20
937.1029519266444
 30
0.0000000000000108
 11
-1849.38338297806
 21
938.9148433547523
 31
0.0000000000000108
  0
SPLINE
  5
1DEB8
330
18
100
AcDbEntity
  8
姿図
100
AcDbSpline
210
0.0
220
0.0
230
1.0
 70
     8
 71
     3
 72
     8
 73
     4
 74
     0
 42
0.000000001
 43
0.0000000001
 40
0.0522524473711178
 40
0.0522524473711178
 40
0.0522524473711178
 40
0.0522524473711178
 40
3.974673657107151
 40
3.974673657107151
 40
3.974673657107151
 40
3.974673657107151
 10
-1853.290768965824
 20
936.9964506782553
 30
0.0000000000000108
 10
-1853.381562235258
 20
936.5377600807244
 30
0.0000000000000108
 10
-1853.495787744258
 20
936.0923656726604
 30
0.0000000000000108
 10
-1853.633235563103
 20
935.6632631920354
 30
0.0000000000000108
  0
ARC
  5
1DEB9
330
18
100
AcDbEntity
  8
姿図
100
AcDbCircle
 10
-1864.268308732391
 20
930.7507462265264
 30
-0.000000000000016
 40
4.251358383233494
100
AcDbArc
 50
306.3504860386658
 51
358.7481707922232
  0
LINE
  5
1DEBA
330
18
100
AcDbEntity
  8
姿図
100
AcDbLine
 10
-1850.003748262755
 20
946.7790415909647
 30
0.0000000000000108
 11
-1854.203356551461
 21
945.9358949575173
 31
0.0000000000000108
  0
ELLIPSE
  5
1DEBB
330
18
100
AcDbEntity
  8
姿図
100
AcDbEllipse
 10
-1857.634809339614
 20
945.7617346711286
 30
0.0000000000000108
 11
-6.175250020948564
 21
9.526104246520918
 31
4.623440665928955E-16
210
-9.645332789995639E-18
220
4.228189348510659E-17
230
-1.0
 40
0.6510494580119226
 41
1.884826547670682
 42
2.693896839940106
  0
LINE
  5
1DEBC
330
18
100
AcDbEntity
  8
姿図
100
AcDbLine
 10
-1856.484619591168
 20
931.9046982539485
 30
0.0
 11
-1859.822964108156
 21
928.842368141735
 31
0.0
  0
LINE
  5
1DEBD
330
18
100
AcDbEntity
  8
姿図
100
AcDbLine
 10
-1854.437639576172
 20
934.6752533811198
 30
0.0
 11
-1856.484619591168
 21
931.9046982539485
 31
0.0
  0
LINE
  5
1DEBE
330
18
100
AcDbEntity
  8
姿図
100
AcDbLine
 10
-1852.890979423967
 20
935.0817783449163
 30
0.0
 11
-1851.383100238343
 21
933.3841734567909
 31
0.0
  0
LINE
  5
1DEBF
330
18
100
AcDbEntity
  8
姿図
100
AcDbLine
 10
-1853.653767066513
 20
935.6793476101923
 30
0.0
 11
-1852.890979423967
 21
935.0817783449163
 31
0.0
  0
SPLINE
  5
1DEC0
330
18
100
AcDbEntity
  8
姿図
100
AcDbSpline
210
0.0
220
0.0
230
1.0
 70
     8
 71
     3
 72
    14
 73
    10
 74
     0
 42
0.000000001
 43
0.0000000001
 40
-17.67097520731171
 40
-17.67097520731171
 40
-17.67097520731171
 40
-17.67097520731171
 40
-15.46329434907155
 40
-15.46329434907155
 40
-11.48389074227961
 40
-11.48389074227961
 40
-5.954339038219556
 40
-5.954339038219556
 40
-0.5047492958822968
 40
-0.5047492958822968
 40
-0.5047492958822968
 40
-0.5047492958822968
 10
-1853.715339121999
 20
944.5658213720776
 30
0.0000000000000108
 10
-1853.60892409385
 20
944.1848994459481
 30
0.0000000000000032
 10
-1853.514305376247
 20
943.8035784167648
 30
0.0000000000000032
 10
-1853.284402286121
 20
942.7427110404185
 30
0.0000000000000032
 10
-1853.17885976077
 20
942.076356446029
 30
0.0000000000000032
 10
-1853.01922386719
 20
940.4686323223912
 30
0.0000000000000108
 10
-1853.012722730426
 20
939.6709526556072
 30
0.0000000000000032
 10
-1853.083362069987
 20
938.2978226397706
 30
0.0000000000000184
 10
-1853.16455624217
 20
937.6338652762095
 30
0.0000000000000184
 10
-1853.290757651284
 20
936.9964551341593
 30
0.0000000000000032
  0
SPLINE
  5
1DEC1
330
18
100
AcDbEntity
  8
姿図
100
AcDbSpline
210
0.0
220
0.0
230
1.0
 70
     8
 71
     3
 72
     8
 73
     4
 74
     0
 42
0.000000001
 43
0.0000000001
 40
5.0
 40
5.0
 40
5.0
 40
5.0
 40
6.0
 40
6.0
 40
6.0
 40
6.0
 10
-1861.976035815781
 20
937.9208919796276
 30
-0.0000000000000044
 10
-1861.976035815781
 20
937.9208919796276
 30
-0.0000000000000044
 10
-1859.555027701544
 20
938.5456682671727
 30
-0.0000000000000044
 10
-1859.242639557772
 20
937.4523097639687
 30
-0.0000000000000044
  0
ARC
  5
1DEC2
330
18
100
AcDbEntity
  8
姿図
100
AcDbCircle
 10
-1879.143575103095
 20
927.7930737131214
 30
-0.0000000000000044
 40
25.74343985380927
100
AcDbArc
 50
86.50062563076675
 51
95.4838747417806
  0
LINE
  5
1DEC3
330
18
100
AcDbEntity
  8
姿図
100
AcDbLine
 10
-1866.133048505943
 20
955.1735004397335
 30
0.0000000000000073
 11
-1871.987751731245
 21
953.632801509503
 31
0.0000000000000073
  0
ARC
  5
1DEC4
330
18
100
AcDbEntity
  8
姿図
100
AcDbCircle
 10
-1865.800748485847
 20
948.8140042832617
 30
0.0000000000000073
 40
7.042385568725733
100
AcDbArc
 50
72.46502945999049
 51
82.95695694361976
  0
LINE
  5
1DEC5
330
18
100
AcDbEntity
  8
姿図
100
AcDbLine
 10
-1865.114067294253
 20
956.4164413824894
 30
0.0000000000000108
 11
-1864.937246714926
 21
955.8032502504759
 31
0.0000000000000073
  0
ELLIPSE
  5
1DEC6
330
18
100
AcDbEntity
  8
姿図
100
AcDbEllipse
 10
-1865.622824250881
 20
956.5003181656923
 30
0.0000000000000108
 11
-0.493859489800556
 21
0.2939417366816048
 31
2.292246977576348E-17
210
-1.286044371999403E-17
220
5.637585798014207E-17
230
-1.0
 40
0.5954474281840118
 41
1.067175184772985
 42
2.559533103277177
  0
ARC
  5
1DEC7
330
18
100
AcDbEntity
  8
姿図
100
AcDbCircle
 10
-1875.360275411209
 20
857.4194319060941
 30
0.0000000000000108
 40
99.9474805491337
100
AcDbArc
 50
84.4580327350145
 51
95.72615034867906
  0
ARC
  5
1DEC8
330
18
100
AcDbEntity
  8
姿図
100
AcDbCircle
 10
-1880.273784653712
 20
928.6206138630232
 30
0.0000000000000032
 40
25.54927806912594
100
AcDbArc
 50
74.45210543303166
 51
94.83564678406209
  0
LINE
  5
1DEC9
330
18
100
AcDbEntity
  8
姿図
100
AcDbLine
 10
-1874.219067599063
 20
948.1495373120033
 30
0.0
 11
-1867.404246791897
 21
948.4021543227675
 31
0.0
  0
LINE
  5
1DECA
330
18
100
AcDbEntity
  8
姿図
100
AcDbLine
 10
-1874.8362456418
 20
948.0873063446402
 30
0.0
 11
-1874.219067599063
 21
948.1495373120033
 31
0.0
  0
ARC
  5
1DECB
330
18
100
AcDbEntity
  8
姿図
100
AcDbCircle
 10
-1873.948766876228
 20
924.8630732747679
 30
-0.0000000000000119
 40
26.61141798800752
100
AcDbArc
 50
83.3367269243011
 51
99.49707069864934
  0
LINE
  5
1DECC
330
18
100
AcDbEntity
  8
姿図
100
AcDbLine
 10
-1869.923682348674
 20
950.6778993125015
 30
-0.0000000000000044
 11
-1876.165806568867
 21
949.0603057607213
 31
0.0000000000000032
  0
ARC
  5
1DECD
330
18
100
AcDbEntity
  8
姿図
100
AcDbCircle
 10
-1873.349942810299
 20
924.3851462470366
 30
-0.0000000000000119
 40
26.51505467677588
100
AcDbArc
 50
82.5755110408184
 51
99.41000613499361
  0
LINE
  5
1DECE
330
18
100
AcDbEntity
  8
姿図
100
AcDbLine
 10
-1855.142827463259
 20
952.2814777352457
 30
0.0000000000000108
 11
-1857.939506455823
 21
951.7314188341531
 31
0.0000000000000108
  0
LINE
  5
1DECF
330
18
100
AcDbEntity
  8
姿図
100
AcDbLine
 10
-1855.932107189703
 20
952.3423866292555
 30
0.0000000000000108
 11
-1855.935753233362
 21
952.1255228048051
 31
0.0000000000000108
  0
LINE
  5
1DED0
330
18
100
AcDbEntity
  8
姿図
100
AcDbLine
 10
-1851.726762377842
 20
950.2746627021104
 30
0.0000000000000108
 11
-1855.983609681623
 21
949.4200243104935
 31
0.0000000000000108
  0
LINE
  5
1DED1
330
18
100
AcDbEntity
  8
姿図
100
AcDbLine
 10
-1854.747783401674
 20
951.8214342869835
 30
0.0000000000000108
 11
-1854.784896754821
 21
949.6139610757684
 31
0.0000000000000108
  0
ELLIPSE
  5
1DED2
330
18
100
AcDbEntity
  8
姿図
100
AcDbEllipse
 10
-1856.242110190768
 20
952.40301754693
 30
0.0000000000000108
 11
-0.09083069569013985
 21
0.3981712071506591
 31
0.0
210
0.0
220
0.0
230
-1.0
 40
0.7445887407020884
 41
0.0194714738088548
 42
1.889738879634891
  0
ELLIPSE
  5
1DED3
330
18
100
AcDbEntity
  8
姿図
100
AcDbEllipse
 10
-1855.057786402737
 20
951.8820652046581
 30
0.0000000000000108
 11
-0.09083069569013985
 21
0.3981712071506591
 31
0.0
210
0.0
220
0.0
230
-1.0
 40
0.7445887407020884
 41
0.0194714738088548
 42
1.889738879634891
  0
ELLIPSE
  5
1DED4
330
18
100
AcDbEntity
  8
姿図
100
AcDbEllipse
 10
-1851.641721317318
 20
949.8752501715237
 30
0.0000000000000108
 11
-0.09083069569013985
 21
0.3981712071506591
 31
5.313457457117605E-17
210
-2.893599836998682E-17
220
1.268456804553197E-16
230
-1.0
 40
0.7445887407020884
 41
0.0194714738088548
 42
1.889738879634891
  0
LINE
  5
1DED5
330
18
100
AcDbEntity
  8
姿図
100
AcDbLine
 10
-1856.32715125129
 20
952.8024300775185
 30
0.0000000000000108
 11
-1858.561954155132
 21
952.3628825882593
 31
0.0000000000000108
  0
LINE
  5
1DED6
330
18
100
AcDbEntity
  8
姿図
100
AcDbLine
 10
-1894.179903677499
 20
1013.282678234721
 30
-0.0000000000000044
 11
-1894.190720986282
 21
1010.993401995037
 31
-0.0000000000000044
  0
LINE
  5
1DED7
330
18
100
AcDbEntity
  8
姿図
100
AcDbLine
 10
-1894.89284550859
 20
1013.69429539284
 30
-0.0000000000000044
 11
-1894.89284550859
 21
1011.762095416428
 31
-0.0000000000000044
  0
ARC
  5
1DED8
330
18
100
AcDbEntity
  8
姿図
100
AcDbCircle
 10
-1898.78778391929
 20
985.807448889039
 30
-0.0000000000000044
 40
26.24527046127078
100
AcDbArc
 50
81.46547474947272
 51
102.6277850518559
  0
SPLINE
  5
1DED9
330
18
100
AcDbEntity
  8
姿図
100
AcDbSpline
210
0.0
220
0.0
230
1.0
 70
    24
 71
     3
 72
     8
 73
     4
 74
     0
 42
0.000000001
 43
0.0000000001
 40
43.0
 40
43.0
 40
43.0
 40
43.0
 40
44.0
 40
44.0
 40
44.0
 40
44.0
 10
-1904.525432496579
 20
1011.417868845772
 30
-0.0000000000000044
 10
-1904.525432496579
 20
1011.417868845772
 30
-0.0000000000000044
 10
-1904.525432496579
 20
1013.350068822713
 30
-0.0000000000000044
 10
-1904.525432496579
 20
1013.350068822713
 30
-0.0000000000000044
  0
SPLINE
  5
1DEDA
330
18
100
AcDbEntity
  8
姿図
100
AcDbSpline
210
0.0
220
0.0
230
1.0
 70
     8
 71
     3
 72
    14
 73
    10
 74
     0
 42
0.000000001
 43
0.0000000001
 40
46.0
 40
46.0
 40
46.0
 40
46.0
 40
47.0
 40
47.0
 40
47.0
 40
48.0
 40
48.0
 40
48.0
 40
49.0
 40
49.0
 40
49.0
 40
49.0
 10
-1903.928706129394
 20
1018.597680495764
 30
-0.0000000000000044
 10
-1903.928706129394
 20
1018.597680495764
 30
-0.0000000000000044
 10
-1903.834423363378
 20
1020.939234760622
 30
-0.0000000000000044
 10
-1898.885174873931
 20
1020.939234760622
 30
-0.0000000000000044
 10
-1893.935926384478
 20
1020.939234760622
 30
-0.0000000000000044
 10
-1893.244917251277
 20
1019.180085430132
 30
-0.0000000000000044
 10
-1893.244917251277
 20
1018.708671600066
 30
-0.0000000000000044
 10
-1893.244917251277
 20
1018.221742884441
 30
-0.0000000000000044
 10
-1893.244917251277
 20
1009.767323714153
 30
-0.0000000000000044
 10
-1893.244917251277
 20
1009.767323714153
 30
-0.0000000000000044
  0
LINE
  5
1DEDB
330
18
100
AcDbEntity
  8
姿図
100
AcDbLine
 10
-1894.190720986282
 20
1010.993401995037
 30
-0.0000000000000044
 11
-1894.89284550859
 21
1011.762095416428
 31
-0.0000000000000044
  0
LINE
  5
1DEDC
330
18
100
AcDbEntity
  8
姿図
100
AcDbLine
 10
-1903.011929998922
 20
1010.993401995037
 30
-0.0000000000000044
 11
-1894.190720986282
 21
1010.993401995037
 31
-0.0000000000000044
  0
SPLINE
  5
1DEDD
330
18
100
AcDbEntity
  8
姿図
100
AcDbSpline
210
0.0
220
0.0
230
1.0
 70
    24
 71
     3
 72
     8
 73
     4
 74
     0
 42
0.000000001
 43
0.0000000001
 40
5.0
 40
5.0
 40
5.0
 40
5.0
 40
6.0
 40
6.0
 40
6.0
 40
6.0
 10
-1896.182536567642
 20
975.5636615306537
 30
-0.0000000000000044
 10
-1896.182536567642
 20
975.5636615306537
 30
-0.0000000000000044
 10
-1892.355781605725
 20
975.2512733704973
 30
-0.0000000000000044
 10
-1892.355781605725
 20
975.2512733704973
 30
-0.0000000000000044
  0
SPLINE
  5
1DEDE
330
18
100
AcDbEntity
  8
姿図
100
AcDbSpline
210
0.0
220
0.0
230
1.0
 70
    24
 71
     3
 72
     8
 73
     4
 74
     0
 42
0.000000001
 43
0.0000000001
 40
25.0
 40
25.0
 40
25.0
 40
25.0
 40
26.0
 40
26.0
 40
26.0
 40
26.0
 10
-1888.685222108331
 20
972.9864611180922
 30
-0.0000000000000044
 10
-1888.685222108331
 20
972.9864611180922
 30
-0.0000000000000044
 10
-1897.978769385563
 20
973.6893344415801
 30
-0.0000000000000044
 10
-1897.978769385563
 20
973.6893344415801
 30
-0.0000000000000044
  0
LINE
  5
1DEDF
330
18
100
AcDbEntity
  8
姿図
100
AcDbLine
 10
-1893.839626480577
 20
977.6722832746798
 30
-0.0000000000000044
 11
-1896.182537558871
 21
977.6722832746798
 31
-0.0000000000000044
  0
LINE
  5
1DEE0
330
18
100
AcDbEntity
  8
姿図
100
AcDbLine
 10
-1912.270526963155
 20
978.6094477059974
 30
-0.0000000000000044
 11
-1894.230111660293
 21
978.6875447419404
 31
-0.0000000000000044
  0
LINE
  5
1DEE1
330
18
100
AcDbEntity
  8
姿図
100
AcDbLine
 10
-1915.082020257109
 20
983.373366898528
 30
-0.0000000000000044
 11
-1915.082020257109
 21
1009.37967986759
 31
-0.0000000000000044
  0
SPLINE
  5
1DEE2
330
18
100
AcDbEntity
  8
姿図
100
AcDbSpline
210
0.0
220
0.0
230
1.0
 70
     8
 71
     3
 72
    11
 73
     7
 74
     0
 42
0.000000001
 43
0.0000000001
 40
1.0
 40
1.0
 40
1.0
 40
1.0
 40
2.0
 40
2.0
 40
2.0
 40
3.0
 40
3.0
 40
3.0
 40
3.0
 10
-1907.975189613549
 20
971.580712488659
 30
-0.0000000000000044
 10
-1907.975189613549
 20
971.580712488659
 30
-0.0000000000000044
 10
-1907.506607373313
 20
970.4873539281114
 30
-0.0000000000000044
 10
-1908.599965933861
 20
970.174965767955
 30
-0.0000000000000044
 10
-1909.693324494408
 20
969.8625776077984
 30
-0.0000000000000044
 10
-1910.942877135034
 20
969.9406746478376
 30
-0.0000000000000044
 10
-1910.942877135034
 20
971.5026154486197
 30
-0.0000000000000044
  0
SPLINE
  5
1DEE3
330
18
100
AcDbEntity
  8
姿図
100
AcDbSpline
210
0.0
220
0.0
230
1.0
 70
     8
 71
     3
 72
     8
 73
     4
 74
     0
 42
0.000000001
 43
0.0000000001
 40
0.0
 40
0.0
 40
0.0
 40
0.0
 40
1.0
 40
1.0
 40
1.0
 40
1.0
 10
-1910.942877135034
 20
971.5026154486197
 30
-0.0000000000000044
 10
-1910.942877135034
 20
971.5026154486197
 30
-0.0000000000000044
 10
-1909.146645214135
 20
971.8931006488156
 30
-0.0000000000000044
 10
-1907.975189613549
 20
971.580712488659
 30
-0.0000000000000044
  0
LINE
  5
1DEE4
330
18
100
AcDbEntity
  8
姿図
100
AcDbLine
 10
-1907.975189613549
 20
971.580712488659
 30
-0.0000000000000044
 11
-1897.666380328385
 21
972.205488808972
 31
-0.0000000000000044
  0
SPLINE
  5
1DEE5
330
18
100
AcDbEntity
  8
姿図
100
AcDbSpline
210
0.0
220
0.0
230
1.0
 70
    24
 71
     3
 72
     8
 73
     4
 74
     0
 42
0.000000001
 43
0.0000000001
 40
4.0
 40
4.0
 40
4.0
 40
4.0
 40
5.0
 40
5.0
 40
5.0
 40
5.0
 10
-1900.634067849872
 20
975.5636615306537
 30
-0.0000000000000044
 10
-1900.634067849872
 20
975.5636615306537
 30
-0.0000000000000044
 10
-1896.182536567642
 20
975.5636615306537
 30
-0.0000000000000044
 10
-1896.182536567642
 20
975.5636615306537
 30
-0.0000000000000044
  0
SPLINE
  5
1DEE6
330
18
100
AcDbEntity
  8
姿図
100
AcDbSpline
210
0.0
220
0.0
230
1.0
 70
    24
 71
     3
 72
     8
 73
     4
 74
     0
 42
0.000000001
 43
0.0000000001
 40
3.0
 40
3.0
 40
3.0
 40
3.0
 40
4.0
 40
4.0
 40
4.0
 40
4.0
 10
-1900.634067849872
 20
974.3922059300669
 30
-0.0000000000000044
 10
-1900.634067849872
 20
974.3922059300669
 30
-0.0000000000000044
 10
-1900.634067849872
 20
975.5636615306537
 30
-0.0000000000000044
 10
-1900.634067849872
 20
975.5636615306537
 30
-0.0000000000000044
  0
SPLINE
  5
1DEE7
330
18
100
AcDbEntity
  8
姿図
100
AcDbSpline
210
0.0
220
0.0
230
1.0
 70
     8
 71
     3
 72
    11
 73
     7
 74
     0
 42
0.000000001
 43
0.0000000001
 40
1.0
 40
1.0
 40
1.0
 40
1.0
 40
2.0
 40
2.0
 40
2.0
 40
3.0
 40
3.0
 40
3.0
 40
3.0
 10
-1913.98866169656
 20
973.2988473695198
 30
-0.0000000000000044
 10
-1913.98866169656
 20
973.2988473695198
 30
-0.0000000000000044
 10
-1914.535340976834
 20
973.6893325697151
 30
-0.0000000000000044
 10
-1908.990451134057
 20
974.0017207298715
 30
-0.0000000000000044
 10
-1903.445561291281
 20
974.3141088900277
 30
-0.0000000000000044
 10
-1900.634067849872
 20
974.3922059300669
 30
-0.0000000000000044
 10
-1900.634067849872
 20
974.3922059300669
 30
-0.0000000000000044
  0
SPLINE
  5
1DEE8
330
18
100
AcDbEntity
  8
姿図
100
AcDbSpline
210
0.0
220
0.0
230
1.0
 70
    24
 71
     3
 72
     8
 73
     4
 74
     0
 42
0.000000001
 43
0.0000000001
 40
0.0
 40
0.0
 40
0.0
 40
0.0
 40
1.0
 40
1.0
 40
1.0
 40
1.0
 10
-1913.98866169656
 20
972.5959740091673
 30
-0.0000000000000044
 10
-1913.98866169656
 20
972.5959740091673
 30
-0.0000000000000044
 10
-1913.98866169656
 20
973.2988473695198
 30
-0.0000000000000044
 10
-1913.98866169656
 20
973.2988473695198
 30
-0.0000000000000044
  0
LINE
  5
1DEE9
330
18
100
AcDbEntity
  8
姿図
100
AcDbLine
 10
-1896.182536567642
 20
975.5636615306537
 30
-0.0000000000000044
 11
-1896.182536567642
 21
973.6893325697151
 31
-0.0000000000000044
  0
LINE
  5
1DEEA
330
18
100
AcDbEntity
  8
姿図
100
AcDbLine
 10
-1913.363885376248
 20
974.7045940902233
 30
-0.0000000000000044
 11
-1900.634067849872
 21
975.5636615306537
 31
-0.0000000000000044
  0
LINE
  5
1DEEB
330
18
100
AcDbEntity
  8
姿図
100
AcDbLine
 10
-1913.676273536404
 20
973.5331384896369
 30
-0.0000000000000044
 11
-1913.363885376248
 21
974.7045940902233
 31
-0.0000000000000044
  0
SPLINE
  5
1DEEC
330
18
100
AcDbEntity
  8
姿図
100
AcDbSpline
210
0.0
220
0.0
230
1.0
 70
     8
 71
     3
 72
     8
 73
     4
 74
     0
 42
0.000000001
 43
0.0000000001
 40
16.0
 40
16.0
 40
16.0
 40
16.0
 40
17.0
 40
17.0
 40
17.0
 40
17.0
 10
-1898.213060493393
 20
973.5331403696939
 30
-0.0000000000000044
 10
-1898.213060493393
 20
973.5331403696939
 30
-0.0000000000000044
 10
-1896.729216810473
 20
973.8455285134662
 30
-0.0000000000000044
 10
-1896.494925702644
 20
971.3464233632862
 30
-0.0000000000000044
  0
SPLINE
  5
1DEED
330
18
100
AcDbEntity
  8
姿図
100
AcDbSpline
210
0.0
220
0.0
230
1.0
 70
    24
 71
     3
 72
     8
 73
     4
 74
     0
 42
0.000000001
 43
0.0000000001
 40
15.0
 40
15.0
 40
15.0
 40
15.0
 40
16.0
 40
16.0
 40
16.0
 40
16.0
 10
-1916.643960975971
 20
972.2835877946038
 30
-0.0000000000000044
 10
-1916.643960975971
 20
972.2835877946038
 30
-0.0000000000000044
 10
-1898.213060493393
 20
973.5331403696939
 30
-0.0000000000000044
 10
-1898.213060493393
 20
973.5331403696939
 30
-0.0000000000000044
  0
SPLINE
  5
1DEEE
330
18
100
AcDbEntity
  8
姿図
100
AcDbSpline
210
0.0
220
0.0
230
1.0
 70
     8
 71
     3
 72
     8
 73
     4
 74
     0
 42
0.000000001
 43
0.0000000001
 40
14.0
 40
14.0
 40
14.0
 40
14.0
 40
15.0
 40
15.0
 40
15.0
 40
15.0
 10
-1917.581125407289
 20
970.7997441116843
 30
-0.0000000000000044
 10
-1917.581125407289
 20
970.7997441116843
 30
-0.0000000000000044
 10
-1917.815416515117
 20
972.2835877946038
 30
-0.0000000000000044
 10
-1916.643960975971
 20
972.2835877946038
 30
-0.0000000000000044
  0
SPLINE
  5
1DEEF
330
18
100
AcDbEntity
  8
姿図
100
AcDbSpline
210
0.0
220
0.0
230
1.0
 70
     8
 71
     3
 72
     8
 73
     4
 74
     0
 42
0.000000001
 43
0.0000000001
 40
6.0
 40
6.0
 40
6.0
 40
6.0
 40
7.0
 40
7.0
 40
7.0
 40
7.0
 10
-1916.253475796256
 20
971.7369085430021
 30
-0.0000000000000044
 10
-1916.253475796256
 20
971.7369085430021
 30
-0.0000000000000044
 10
-1917.11254319163
 20
972.0492966867744
 30
-0.0000000000000044
 10
-1917.346834299459
 20
969.9406767163102
 30
-0.0000000000000044
  0
SPLINE
  5
1DEF0
330
18
100
AcDbEntity
  8
姿図
100
AcDbSpline
210
0.0
220
0.0
230
1.0
 70
    24
 71
     3
 72
     8
 73
     4
 74
     0
 42
0.000000001
 43
0.0000000001
 40
5.0
 40
5.0
 40
5.0
 40
5.0
 40
6.0
 40
6.0
 40
6.0
 40
6.0
 10
-1898.681642709052
 20
972.9864611180922
 30
-0.0000000000000044
 10
-1898.681642709052
 20
972.9864611180922
 30
-0.0000000000000044
 10
-1916.253475796256
 20
971.7369085430021
 30
-0.0000000000000044
 10
-1916.253475796256
 20
971.7369085430021
 30
-0.0000000000000044
  0
SPLINE
  5
1DEF1
330
18
100
AcDbEntity
  8
姿図
100
AcDbSpline
210
0.0
220
0.0
230
1.0
 70
     8
 71
     3
 72
     8
 73
     4
 74
     0
 42
0.000000001
 43
0.0000000001
 40
4.0
 40
4.0
 40
4.0
 40
4.0
 40
5.0
 40
5.0
 40
5.0
 40
5.0
 10
-1897.197799026132
 20
971.5807144711157
 30
-0.0000000000000044
 10
-1897.197799026132
 20
971.5807144711157
 30
-0.0000000000000044
 10
-1897.353993098019
 20
973.0645581540352
 30
-0.0000000000000044
 10
-1898.681642709052
 20
972.9864611180922
 30
-0.0000000000000044
  0
SPLINE
  5
1DEF2
330
18
100
AcDbEntity
  8
姿図
100
AcDbSpline
210
0.0
220
0.0
230
1.0
 70
    24
 71
     3
 72
     8
 73
     4
 74
     0
 42
0.000000001
 43
0.0000000001
 40
2.0
 40
2.0
 40
2.0
 40
2.0
 40
3.0
 40
3.0
 40
3.0
 40
3.0
 10
-1910.161906992692
 20
977.9846714184521
 30
-0.0000000000000044
 10
-1910.161906992692
 20
977.9846714184521
 30
-0.0000000000000044
 10
-1910.240004028635
 20
975.2512751604427
 30
-0.0000000000000044
 10
-1910.240004028635
 20
975.2512751604427
 30
-0.0000000000000044
  0
SPLINE
  5
1DEF3
330
18
100
AcDbEntity
  8
姿図
100
AcDbSpline
210
0.0
220
0.0
230
1.0
 70
     8
 71
     3
 72
     8
 73
     4
 74
     0
 42
0.000000001
 43
0.0000000001
 40
1.0
 40
1.0
 40
1.0
 40
1.0
 40
2.0
 40
2.0
 40
2.0
 40
2.0
 10
-1896.494925702644
 20
977.8284773465659
 30
-0.0000000000000044
 10
-1896.494925702644
 20
977.8284773465659
 30
-0.0000000000000044
 10
-1901.571233038947
 20
978.999932885713
 30
-0.0000000000000044
 10
-1910.161906992692
 20
977.9846714184521
 30
-0.0000000000000044
  0
SPLINE
  5
1DEF4
330
18
100
AcDbEntity
  8
姿図
100
AcDbSpline
210
0.0
220
0.0
230
1.0
 70
    24
 71
     3
 72
     8
 73
     4
 74
     0
 42
0.000000001
 43
0.0000000001
 40
0.0
 40
0.0
 40
0.0
 40
0.0
 40
1.0
 40
1.0
 40
1.0
 40
1.0
 10
-1896.260634594814
 20
975.8760514479877
 30
-0.0000000000000044
 10
-1896.260634594814
 20
975.8760514479877
 30
-0.0000000000000044
 10
-1896.494925702644
 20
977.8284773465659
 30
-0.0000000000000044
 10
-1896.494925702644
 20
977.8284773465659
 30
-0.0000000000000044
  0
LINE
  5
1DEF5
330
18
100
AcDbEntity
  8
姿図
100
AcDbLine
 10
-1911.88004178344
 20
977.7503803106229
 30
-0.0000000000000044
 11
-1915.082020257109
 21
983.373366898528
 31
-0.0000000000000044
  0
LINE
  5
1DEF6
330
18
100
AcDbEntity
  8
姿図
100
AcDbLine
 10
-1910.240004028635
 20
977.6722832746798
 30
-0.0000000000000044
 11
-1911.88004178344
 21
977.7503803106229
 31
-0.0000000000000044
  0
LINE
  5
1DEF7
330
18
100
AcDbEntity
  8
姿図
100
AcDbLine
 10
-1902.218659648584
 20
980.830212982137
 30
-0.0000000000000044
 11
-1902.296756684527
 21
978.7215930116727
 31
-0.0000000000000044
  0
LINE
  5
1DEF8
330
18
100
AcDbEntity
  8
姿図
100
AcDbLine
 10
-1904.483473690934
 20
980.752115946194
 30
-0.0000000000000044
 11
-1902.218659648584
 21
980.830212982137
 31
-0.0000000000000044
  0
LINE
  5
1DEF9
330
18
100
AcDbEntity
  8
姿図
100
AcDbLine
 10
-1904.405376654991
 20
978.6434959757296
 30
-0.0000000000000044
 11
-1904.483473690934
 21
980.752115946194
 31
-0.0000000000000044
  0
LINE
  5
1DEFA
330
18
100
AcDbEntity
  8
姿図
100
AcDbLine
 10
-1903.834423363378
 20
1011.213788427841
 30
-0.0000000000000044
 11
-1903.011929998922
 21
1010.993401995037
 31
-0.0000000000000044
  0
SPLINE
  5
1DEFB
330
18
100
AcDbEntity
  8
姿図
100
AcDbSpline
210
0.0
220
0.0
230
1.0
 70
    24
 71
     3
 72
     8
 73
     4
 74
     0
 42
0.000000001
 43
0.0000000001
 40
42.0
 40
42.0
 40
42.0
 40
42.0
 40
43.0
 40
43.0
 40
43.0
 40
43.0
 10
-1903.834423363378
 20
1011.213788428201
 30
-0.0000000000000044
 10
-1903.834423363378
 20
1011.213788428201
 30
-0.0000000000000044
 10
-1904.525432496579
 20
1011.417868845772
 30
-0.0000000000000044
 10
-1904.525432496579
 20
1011.417868845772
 30
-0.0000000000000044
  0
SPLINE
  5
1DEFC
330
18
100
AcDbEntity
  8
姿図
100
AcDbSpline
210
0.0
220
0.0
230
1.0
 70
     8
 71
     3
 72
     8
 73
     4
 74
     0
 42
0.000000001
 43
0.0000000001
 40
41.0
 40
41.0
 40
41.0
 40
41.0
 40
42.0
 40
42.0
 40
42.0
 40
42.0
 10
-1903.834423363378
 20
1009.673040948098
 30
-0.0000000000000044
 10
-1903.836942847423
 20
1010.44401141451
 30
-0.0000000000000044
 10
-1903.834423363378
 20
1011.213788428201
 30
-0.0000000000000044
 10
-1903.834423363378
 20
1011.213788428201
 30
-0.0000000000000044
  0
SPLINE
  5
1DEFD
330
18
100
AcDbEntity
  8
姿図
100
AcDbSpline
210
0.0
220
0.0
230
1.0
 70
    24
 71
     3
 72
     8
 73
     4
 74
     0
 42
0.000000001
 43
0.0000000001
 40
6.0
 40
6.0
 40
6.0
 40
6.0
 40
7.0
 40
7.0
 40
7.0
 40
7.0
 10
-1892.355781605725
 20
975.2512733704973
 30
-0.0000000000000044
 10
-1892.355781605725
 20
975.2512733704973
 30
-0.0000000000000044
 10
-1892.199587525648
 20
973.3769444095585
 30
-0.0000000000000044
 10
-1892.199587525648
 20
973.3769444095585
 30
-0.0000000000000044
  0
SPLINE
  5
1DEFE
330
18
100
AcDbEntity
  8
姿図
100
AcDbSpline
210
0.0
220
0.0
230
1.0
 70
     8
 71
     3
 72
     8
 73
     4
 74
     0
 42
0.000000001
 43
0.0000000001
 40
24.0
 40
24.0
 40
24.0
 40
24.0
 40
25.0
 40
25.0
 40
25.0
 40
25.0
 10
-1887.748057677013
 20
970.8778411476276
 30
-0.0000000000000044
 10
-1887.748057677013
 20
970.8778411476276
 30
-0.0000000000000044
 10
-1888.060445820786
 20
972.9083640821489
 30
-0.0000000000000044
 10
-1888.685222108331
 20
972.9864611180922
 30
-0.0000000000000044
  0
LINE
  5
1DEFF
330
18
100
AcDbEntity
  8
姿図
100
AcDbLine
 10
-1887.045184353525
 20
981.4209409999498
 30
-0.0000000000000044
 11
-1893.839626480577
 21
977.6722832746798
 31
-0.0000000000000044
  0
LINE
  5
1DF00
330
18
100
AcDbEntity
  8
姿図
100
AcDbLine
 10
-1887.435669533241
 20
983.0609787547553
 30
-0.0000000000000044
 11
-1886.108019922208
 21
983.295269862585
 31
-0.0000000000000044
  0
LINE
  5
1DF01
330
18
100
AcDbEntity
  8
姿図
100
AcDbLine
 10
-1894.230111660293
 20
978.6875447419404
 30
-0.0000000000000044
 11
-1887.435669533241
 21
983.0609787547553
 31
-0.0000000000000044
  0
LINE
  5
1DF02
330
18
100
AcDbEntity
  8
姿図
100
AcDbLine
 10
-1887.435669533241
 20
983.0609787547553
 30
-0.0000000000000044
 11
-1887.279475461355
 21
981.3428439640068
 31
-0.0000000000000044
  0
LINE
  5
1DF03
330
18
100
AcDbEntity
  8
姿図
100
AcDbLine
 10
-1894.230111660293
 20
978.6875447419404
 30
-0.0000000000000044
 11
-1893.839626480577
 21
977.6722832746798
 31
-0.0000000000000044
  0
SPLINE
  5
1DF04
330
18
100
AcDbEntity
  8
姿図
100
AcDbSpline
210
0.0
220
0.0
230
1.0
 70
     8
 71
     3
 72
     8
 73
     4
 74
     0
 42
0.000000001
 43
0.0000000001
 40
49.0
 40
49.0
 40
49.0
 40
49.0
 40
49.66101424066932
 40
49.66101424066932
 40
49.66101424066932
 40
49.66101424066932
 10
-1893.244917251277
 20
1009.767323714153
 30
-0.0000000000000044
 10
-1893.244917251277
 20
1009.767323714153
 30
-0.0000000000000044
 10
-1891.631498258785
 20
1009.636956956499
 30
-0.0000000000000044
 10
-1890.20156642933
 20
1009.353473430433
 30
-0.0000000000000044
  0
LINE
  5
1DF05
330
18
100
AcDbEntity
  8
姿図
100
AcDbLine
 10
-1894.89284550859
 20
1013.69429539284
 30
-0.0000000000000044
 11
-1894.179903677499
 21
1013.282678234721
 31
-0.0000000000000044
  0
LINE
  5
1DF07
330
18
100
AcDbEntity
  8
姿図
100
AcDbLine
 10
-1897.075763358967
 20
1015.513725009994
 30
-0.0000000000000044
 11
-1896.350986562762
 21
1015.130323377907
 31
-0.0000000000000044
  0
LINE
  5
1DF08
330
18
100
AcDbEntity
  8
姿図
100
AcDbLine
 10
-1897.075763358967
 20
1016.609856791786
 30
-0.0000000000000044
 11
-1896.350986562762
 21
1017.12242808389
 31
-0.0000000000000044
  0
LINE
  5
1DF09
330
18
100
AcDbEntity
  8
姿図
100
AcDbLine
 10
-1900.671443073035
 20
1015.130323377907
 30
-0.0000000000000044
 11
-1901.574249752137
 21
1015.513725009994
 31
-0.0000000000000044
  0
LINE
  5
1DF0A
330
18
100
AcDbEntity
  8
姿図
100
AcDbLine
 10
-1896.350986562762
 20
1015.130323377907
 30
-0.0000000000000044
 11
-1900.671443073035
 21
1015.130323377907
 31
-0.0000000000000044
  0
LINE
  5
1DF0B
330
18
100
AcDbEntity
  8
姿図
100
AcDbLine
 10
-1896.350986562762
 20
1017.12242808389
 30
-0.0000000000000044
 11
-1896.350986562762
 21
1015.130323377907
 31
-0.0000000000000044
  0
LINE
  5
1DF0C
330
18
100
AcDbEntity
  8
姿図
100
AcDbLine
 10
-1900.686450231713
 20
1017.12242808389
 30
-0.0000000000000044
 11
-1896.350986562762
 21
1017.12242808389
 31
-0.0000000000000044
  0
LINE
  5
1DF0D
330
18
100
AcDbEntity
  8
姿図
100
AcDbLine
 10
-1901.574249752137
 20
1016.609856791786
 30
-0.0000000000000044
 11
-1900.686450231713
 21
1017.12242808389
 31
-0.0000000000000044
  0
LINE
  5
1DF0E
330
18
100
AcDbEntity
  8
姿図
100
AcDbLine
 10
-1897.075763358967
 20
1016.609856791786
 30
-0.0000000000000044
 11
-1901.574249752137
 21
1016.609856791786
 31
-0.0000000000000044
  0
LINE
  5
1DF0F
330
18
100
AcDbEntity
  8
姿図
100
AcDbLine
 10
-1897.075763358967
 20
1015.513725009994
 30
-0.0000000000000044
 11
-1897.075763358967
 21
1016.609856791786
 31
-0.0000000000000044
  0
LINE
  5
1DF10
330
18
100
AcDbEntity
  8
姿図
100
AcDbLine
 10
-1901.574249752137
 20
1015.513725009994
 30
-0.0000000000000044
 11
-1897.075763358967
 21
1015.513725009994
 31
-0.0000000000000044
  0
LINE
  5
1DF11
330
18
100
AcDbEntity
  8
姿図
100
AcDbLine
 10
-1901.574249752137
 20
1016.542746791386
 30
-0.0000000000000044
 11
-1901.574249752137
 21
1015.513725009994
 31
-0.0000000000000044
  0
ARC
  5
1DF12
330
18
100
AcDbEntity
  8
姿図
100
AcDbCircle
 10
-1898.78778391929
 20
987.7396488654188
 30
-0.0000000000000044
 40
26.24527046127078
100
AcDbArc
 50
81.46547474947272
 51
102.6277850518559
  0
SPLINE
  5
1DF13
330
18
100
AcDbEntity
  8
姿図
100
AcDbSpline
210
0.0
220
0.0
230
1.0
 70
    24
 71
     3
 72
     8
 73
     4
 74
     0
 42
0.000000001
 43
0.0000000001
 40
45.0
 40
45.0
 40
45.0
 40
45.0
 40
46.0
 40
46.0
 40
46.0
 40
46.0
 10
-1903.740140597356
 20
1013.459866474284
 30
-0.0000000000000044
 10
-1903.740140597356
 20
1013.459866474284
 30
-0.0000000000000044
 10
-1903.928706129394
 20
1018.597680495764
 30
-0.0000000000000044
 10
-1903.928706129394
 20
1018.597680495764
 30
-0.0000000000000044
  0
SPLINE
  5
1DF14
330
18
100
AcDbEntity
  8
姿図
100
AcDbSpline
210
0.0
220
0.0
230
1.0
 70
    24
 71
     3
 72
     8
 73
     4
 74
     0
 42
0.000000001
 43
0.0000000001
 40
44.0
 40
44.0
 40
44.0
 40
44.0
 40
45.0
 40
45.0
 40
45.0
 40
45.0
 10
-1904.525432496579
 20
1013.350068822713
 30
-0.0000000000000044
 10
-1904.525432496579
 20
1013.350068822713
 30
-0.0000000000000044
 10
-1903.740140597356
 20
1013.459866474284
 30
-0.0000000000000044
 10
-1903.740140597356
 20
1013.459866474284
 30
-0.0000000000000044
  0
LINE
  5
1DF7B
330
18
100
AcDbEntity
  8
姿図
100
AcDbLine
 10
-1819.959830478379
 20
1009.613970975419
 30
-0.0000000000000044
 11
-1819.959830478379
 21
983.8419491141867
 31
-0.0000000000000044
  0
LINE
  5
1DF7C
330
18
100
AcDbEntity
  8
姿図
100
AcDbLine
 10
-1819.959830478379
 20
983.8419491141867
 30
-0.0000000000000044
 11
-1821.834159341013
 21
981.4209409999498
 31
-0.0000000000000044
  0
TEXT
  5
1DF8F
330
18
100
AcDbEntity
  8
文字
100
AcDbText
 10
-1923.893678196881
 20
871.6173451894922
 30
0.0
 40
9.0
  1
SX-513CBPC
100
AcDbText
  0
ENDSEC
  0
SECTION
  2
OBJECTS
  0
DICTIONARY
  5
C
330
0
100
AcDbDictionary
281
     1
  3
ACAD_GROUP
350
D
  3
ACAD_IMAGE_VARS
350
1E09D
  3
ACAD_LAYOUT
350
40CB
  3
ACAD_MLINESTYLE
350
E
  3
ACAD_PLOTSETTINGS
350
40CC
  3
ACAD_PLOTSTYLENAME
350
40C9
  3
ACAD_SCALELIST
350
171C9
  3
AcDbVariableDictionary
350
6377
  3
APPDATA
350
1E09C
  3
DWGPROPS
350
1E0C1
  0
DICTIONARY
  5
189BB
330
2
100
AcDbDictionary
280
     1
281
     1
  3
ACAD_LAYERSTATES
360
189BC
  0
DICTIONARY
  5
171F1
330
F
100
AcDbDictionary
280
     1
281
     1
  3
ADSK_XREC_LAYER_RECONCILED
360
171F2
  0
DICTIONARY
  5
171F9
330
4C
100
AcDbDictionary
280
     1
281
     1
  3
ADSK_XREC_LAYER_RECONCILED
360
171FA
  0
DICTIONARY
  5
171FB
330
4D
100
AcDbDictionary
280
     1
281
     1
  3
ADSK_XREC_LAYER_RECONCILED
360
171FC
  0
DICTIONARY
  5
171FF
330
40D4
100
AcDbDictionary
280
     1
281
     1
  3
ADSK_XREC_LAYER_RECONCILED
360
17200
  0
DICTIONARY
  5
D
102
{ACAD_REACTORS
330
C
102
}
330
C
100
AcDbDictionary
281
     1
  0
RASTERVARIABLES
  5
1E09D
102
{ACAD_REACTORS
330
C
102
}
330
C
100
AcDbRasterVariables
 90
        0
 70
     1
 71
     1
 72
     0
  0
DICTIONARY
  5
40CB
102
{ACAD_REACTORS
330
C
102
}
330
C
100
AcDbDictionary
281
     1
  3
Model
350
40CD
  3
ﾚｲｱｳﾄ1
350
40CE
  0
DICTIONARY
  5
E
102
{ACAD_REACTORS
330
C
102
}
330
C
100
AcDbDictionary
281
     1
  3
STANDARD
350
1B
  0
DICTIONARY
  5
40CC
102
{ACAD_REACTORS
330
C
102
}
330
C
100
AcDbDictionary
281
     1
  0
ACDBDICTIONARYWDFLT
  5
40C9
102
{ACAD_REACTORS
330
C
102
}
330
C
100
AcDbDictionary
281
     1
  3
Normal
350
40CA
100
AcDbDictionaryWithDefault
340
40CA
  0
DICTIONARY
  5
171C9
102
{ACAD_REACTORS
330
C
102
}
330
C
100
AcDbDictionary
281
     1
  3
A0
350
171CA
  3
A1
350
171CB
  3
A2
350
171CC
  3
A3
350
171CD
  3
A4
350
171CE
  3
A5
350
171CF
  3
A6
350
171D0
  3
A7
350
171D1
  3
A8
350
171D2
  3
A9
350
171D3
  3
B0
350
171D4
  3
B1
350
171D5
  3
B2
350
171D6
  3
B3
350
171D7
  3
B4
350
171D8
  3
B5
350
171D9
  3
B6
350
171DA
  3
B7
350
171DB
  3
B8
350
171DC
  3
B9
350
171DD
  3
C0
350
171DE
  3
C1
350
171DF
  3
C2
350
171E0
  3
C3
350
171E1
  3
C4
350
171E2
  3
C5
350
171E3
  3
C6
350
171E4
  3
C7
350
171E5
  3
C8
350
171E6
  3
C9
350
171E7
  3
D0
350
171E8
  3
D1
350
171E9
  3
D2
350
171EA
  0
DICTIONARY
  5
6377
102
{ACAD_REACTORS
330
C
102
}
330
C
100
AcDbDictionary
281
     1
  3
DIMASSOC
350
73F2
  3
INDEXCTL
350
17245
  3
PROJECTNAME
350
12912
  3
SORTENTS
350
6378
  0
DICTIONARY
  5
1E09C
102
{ACAD_REACTORS
330
C
102
}
330
C
100
AcDbDictionary
281
     1
  0
XRECORD
  5
1E0C1
102
{ACAD_REACTORS
330
C
102
}
330
C
100
AcDbXrecord
280
     1
  1
DWGPROPS COOKIE
  2

  3

  4

  6

  7

  8
SPAX
  9

300
=
301
=
302
=
303
=
304
=
305
=
306
=
307
=
308
=
309
=
 40
0.0
 41
2449505.547222222
 42
2456826.064381261
  1

 90
        0
  0
DICTIONARY
  5
189BC
102
{ACAD_REACTORS
330
189BB
102
}
330
189BB
100
AcDbDictionary
281
     1
  0
XRECORD
  5
171F2
102
{ACAD_REACTORS
330
171F1
102
}
330
171F1
100
AcDbXrecord
280
     1
290
     1
  0
XRECORD
  5
171FA
102
{ACAD_REACTORS
330
171F9
102
}
330
171F9
100
AcDbXrecord
280
     1
290
     1
  0
XRECORD
  5
171FC
102
{ACAD_REACTORS
330
171FB
102
}
330
171FB
100
AcDbXrecord
280
     1
290
     1
  0
XRECORD
  5
17200
102
{ACAD_REACTORS
330
171FF
102
}
330
171FF
100
AcDbXrecord
280
     1
290
     1
  0
LAYOUT
  5
40CD
102
{ACAD_REACTORS
330
40CB
102
}
330
40CB
100
AcDbPlotSettings
  1

  2
JUST PDF 2
  4
A4
  6
CUT1
 40
3.174999952316284
 41
3.174999952316284
 42
3.175003051757812
 43
3.17498779296875
 44
209.8886566162109
 45
297.0530090332031
 46
14.27171755861552
 47
9.855173074625782
 48
-1933.696215688242
 49
275.3272938870396
140
-1408.710560203524
141
1088.305319303039
142
1.0
143
3.0
 70
 11940
 72
     1
 73
     0
 74
     4
  7
spax form.ctb
 75
    17
147
0.5
148
1933.696215688242
149
-275.3272938870396
100
AcDbLayout
  1
Model
 70
     1
 71
     0
 10
0.0
 20
0.0
 11
12.0
 21
9.0
 12
0.0
 22
0.0
 32
0.0
 14
-1925.016906597522
 24
871.6173451894922
 34
-0.0000000000000484
 15
-1819.959830478379
 25
1020.937537619698
 35
0.0000000000000175
146
0.0
 13
0.0
 23
0.0
 33
0.0
 16
1.0
 26
0.0
 36
0.0
 17
0.0
 27
1.0
 37
0.0
 76
     0
330
18
331
1E085
1001
ACAD_PSEXT
1000
JUST PDF 2
1000
JUST PDF 2
1000
JUST PDF 2 Port:
1000

1070
     0
  0
LAYOUT
  5
40CE
102
{ACAD_REACTORS
330
40CB
102
}
330
40CB
100
AcDbPlotSettings
  1

  2
なし
  4

  6

 40
0.0
 41
0.0
 42
0.0
 43
0.0
 44
0.0
 45
0.0
 46
0.0
 47
0.0
 48
0.0
 49
0.0
140
0.0
141
0.0
142
1.0
143
1.0
 70
   688
 72
     0
 73
     0
 74
     5
  7
Aiba.ctb
 75
    16
147
1.0
148
0.0
149
0.0
100
AcDbLayout
  1
ﾚｲｱｳﾄ1
 70
     0
 71
     1
 10
0.0
 20
0.0
 11
12.0
 21
9.0
 12
0.0
 22
0.0
 32
0.0
 14
1.000000000000000E+20
 24
1.000000000000000E+20
 34
1.000000000000000E+20
 15
-1.000000000000000E+20
 25
-1.000000000000000E+20
 35
-1.000000000000000E+20
146
0.0
 13
0.0
 23
0.0
 33
0.0
 16
1.0
 26
0.0
 36
0.0
 17
0.0
 27
1.0
 37
0.0
 76
     0
330
15
  0
MLINESTYLE
  5
1B
102
{ACAD_REACTORS
330
E
102
}
330
E
100
AcDbMlineStyle
  2
STANDARD
 70
     0
  3

 62
     0
 51
90.0
 52
90.0
 71
     2
 49
0.5
 62
   256
  6
BYLAYER
 49
-0.5
 62
   256
  6
BYLAYER
  0
ACDBPLACEHOLDER
  5
40CA
102
{ACAD_REACTORS
330
40C9
102
}
330
40C9
  0
SCALE
  5
171CA
102
{ACAD_REACTORS
330
171C9
102
}
330
171C9
100
AcDbScale
 70
     0
300
1:1
140
1.0
141
1.0
290
     1
1001
ACAD
1000
AcRTDxfName
1000
SCALE
  0
SCALE
  5
171CB
102
{ACAD_REACTORS
330
171C9
102
}
330
171C9
100
AcDbScale
 70
     0
300
1:2
140
1.0
141
2.0
290
     0
1001
ACAD
1000
AcRTDxfName
1000
SCALE
  0
SCALE
  5
171CC
102
{ACAD_REACTORS
330
171C9
102
}
330
171C9
100
AcDbScale
 70
     0
300
1:4
140
1.0
141
4.0
290
     0
1001
ACAD
1000
AcRTDxfName
1000
SCALE
  0
SCALE
  5
171CD
102
{ACAD_REACTORS
330
171C9
102
}
330
171C9
100
AcDbScale
 70
     0
300
1:5
140
1.0
141
5.0
290
     0
1001
ACAD
1000
AcRTDxfName
1000
SCALE
  0
SCALE
  5
171CE
102
{ACAD_REACTORS
330
171C9
102
}
330
171C9
100
AcDbScale
 70
     0
300
1:8
140
1.0
141
8.0
290
     0
1001
ACAD
1000
AcRTDxfName
1000
SCALE
  0
SCALE
  5
171CF
102
{ACAD_REACTORS
330
171C9
102
}
330
171C9
100
AcDbScale
 70
     0
300
1:10
140
1.0
141
10.0
290
     0
1001
ACAD
1000
AcRTDxfName
1000
SCALE
  0
SCALE
  5
171D0
102
{ACAD_REACTORS
330
171C9
102
}
330
171C9
100
AcDbScale
 70
     0
300
1:16
140
1.0
141
16.0
290
     0
1001
ACAD
1000
AcRTDxfName
1000
SCALE
  0
SCALE
  5
171D1
102
{ACAD_REACTORS
330
171C9
102
}
330
171C9
100
AcDbScale
 70
     0
300
1:20
140
1.0
141
20.0
290
     0
1001
ACAD
1000
AcRTDxfName
1000
SCALE
  0
SCALE
  5
171D2
102
{ACAD_REACTORS
330
171C9
102
}
330
171C9
100
AcDbScale
 70
     0
300
1:30
140
1.0
141
30.0
290
     0
1001
ACAD
1000
AcRTDxfName
1000
SCALE
  0
SCALE
  5
171D3
102
{ACAD_REACTORS
330
171C9
102
}
330
171C9
100
AcDbScale
 70
     0
300
1:40
140
1.0
141
40.0
290
     0
1001
ACAD
1000
AcRTDxfName
1000
SCALE
  0
SCALE
  5
171D4
102
{ACAD_REACTORS
330
171C9
102
}
330
171C9
100
AcDbScale
 70
     0
300
1:50
140
1.0
141
50.0
290
     0
1001
ACAD
1000
AcRTDxfName
1000
SCALE
  0
SCALE
  5
171D5
102
{ACAD_REACTORS
330
171C9
102
}
330
171C9
100
AcDbScale
 70
     0
300
1:100
140
1.0
141
100.0
290
     0
1001
ACAD
1000
AcRTDxfName
1000
SCALE
  0
SCALE
  5
171D6
102
{ACAD_REACTORS
330
171C9
102
}
330
171C9
100
AcDbScale
 70
     0
300
2:1
140
2.0
141
1.0
290
     0
1001
ACAD
1000
AcRTDxfName
1000
SCALE
  0
SCALE
  5
171D7
102
{ACAD_REACTORS
330
171C9
102
}
330
171C9
100
AcDbScale
 70
     0
300
4:1
140
4.0
141
1.0
290
     0
1001
ACAD
1000
AcRTDxfName
1000
SCALE
  0
SCALE
  5
171D8
102
{ACAD_REACTORS
330
171C9
102
}
330
171C9
100
AcDbScale
 70
     0
300
8:1
140
8.0
141
1.0
290
     0
1001
ACAD
1000
AcRTDxfName
1000
SCALE
  0
SCALE
  5
171D9
102
{ACAD_REACTORS
330
171C9
102
}
330
171C9
100
AcDbScale
 70
     0
300
10:1
140
10.0
141
1.0
290
     0
1001
ACAD
1000
AcRTDxfName
1000
SCALE
  0
SCALE
  5
171DA
102
{ACAD_REACTORS
330
171C9
102
}
330
171C9
100
AcDbScale
 70
     0
300
100:1
140
100.0
141
1.0
290
     0
1001
ACAD
1000
AcRTDxfName
1000
SCALE
  0
SCALE
  5
171DB
102
{ACAD_REACTORS
330
171C9
102
}
330
171C9
100
AcDbScale
 70
     0
300
1/128" = 1'-0"
140
0.0078125
141
12.0
290
     0
1001
ACAD
1000
AcRTDxfName
1000
SCALE
  0
SCALE
  5
171DC
102
{ACAD_REACTORS
330
171C9
102
}
330
171C9
100
AcDbScale
 70
     0
300
1/64" = 1'-0"
140
0.015625
141
12.0
290
     0
1001
ACAD
1000
AcRTDxfName
1000
SCALE
  0
SCALE
  5
171DD
102
{ACAD_REACTORS
330
171C9
102
}
330
171C9
100
AcDbScale
 70
     0
300
1/32" = 1'-0"
140
0.03125
141
12.0
290
     0
1001
ACAD
1000
AcRTDxfName
1000
SCALE
  0
SCALE
  5
171DE
102
{ACAD_REACTORS
330
171C9
102
}
330
171C9
100
AcDbScale
 70
     0
300
1/16" = 1'-0"
140
0.0625
141
12.0
290
     0
1001
ACAD
1000
AcRTDxfName
1000
SCALE
  0
SCALE
  5
171DF
102
{ACAD_REACTORS
330
171C9
102
}
330
171C9
100
AcDbScale
 70
     0
300
3/32" = 1'-0"
140
0.09375
141
12.0
290
     0
1001
ACAD
1000
AcRTDxfName
1000
SCALE
  0
SCALE
  5
171E0
102
{ACAD_REACTORS
330
171C9
102
}
330
171C9
100
AcDbScale
 70
     0
300
1/8" = 1'-0"
140
0.125
141
12.0
290
     0
1001
ACAD
1000
AcRTDxfName
1000
SCALE
  0
SCALE
  5
171E1
102
{ACAD_REACTORS
330
171C9
102
}
330
171C9
100
AcDbScale
 70
     0
300
3/16" = 1'-0"
140
0.1875
141
12.0
290
     0
1001
ACAD
1000
AcRTDxfName
1000
SCALE
  0
SCALE
  5
171E2
102
{ACAD_REACTORS
330
171C9
102
}
330
171C9
100
AcDbScale
 70
     0
300
1/4" = 1'-0"
140
0.25
141
12.0
290
     0
1001
ACAD
1000
AcRTDxfName
1000
SCALE
  0
SCALE
  5
171E3
102
{ACAD_REACTORS
330
171C9
102
}
330
171C9
100
AcDbScale
 70
     0
300
3/8" = 1'-0"
140
0.375
141
12.0
290
     0
1001
ACAD
1000
AcRTDxfName
1000
SCALE
  0
SCALE
  5
171E4
102
{ACAD_REACTORS
330
171C9
102
}
330
171C9
100
AcDbScale
 70
     0
300
1/2" = 1'-0"
140
0.5
141
12.0
290
     0
1001
ACAD
1000
AcRTDxfName
1000
SCALE
  0
SCALE
  5
171E5
102
{ACAD_REACTORS
330
171C9
102
}
330
171C9
100
AcDbScale
 70
     0
300
3/4" = 1'-0"
140
0.75
141
12.0
290
     0
1001
ACAD
1000
AcRTDxfName
1000
SCALE
  0
SCALE
  5
171E6
102
{ACAD_REACTORS
330
171C9
102
}
330
171C9
100
AcDbScale
 70
     0
300
1" = 1'-0"
140
1.0
141
12.0
290
     0
1001
ACAD
1000
AcRTDxfName
1000
SCALE
  0
SCALE
  5
171E7
102
{ACAD_REACTORS
330
171C9
102
}
330
171C9
100
AcDbScale
 70
     0
300
1-1/2" = 1'-0"
140
1.5
141
12.0
290
     0
1001
ACAD
1000
AcRTDxfName
1000
SCALE
  0
SCALE
  5
171E8
102
{ACAD_REACTORS
330
171C9
102
}
330
171C9
100
AcDbScale
 70
     0
300
3" = 1'-0"
140
3.0
141
12.0
290
     0
1001
ACAD
1000
AcRTDxfName
1000
SCALE
  0
SCALE
  5
171E9
102
{ACAD_REACTORS
330
171C9
102
}
330
171C9
100
AcDbScale
 70
     0
300
6" = 1'-0"
140
6.0
141
12.0
290
     0
1001
ACAD
1000
AcRTDxfName
1000
SCALE
  0
SCALE
  5
171EA
102
{ACAD_REACTORS
330
171C9
102
}
330
171C9
100
AcDbScale
 70
     0
300
1'-0" = 1'-0"
140
12.0
141
12.0
290
     0
1001
ACAD
1000
AcRTDxfName
1000
SCALE
  0
DICTIONARYVAR
  5
73F2
102
{ACAD_REACTORS
330
6377
102
}
330
6377
100
DictionaryVariables
280
     0
  1
1
  0
DICTIONARYVAR
  5
17245
102
{ACAD_REACTORS
330
6377
102
}
330
6377
100
DictionaryVariables
280
     0
  1
0
  0
DICTIONARYVAR
  5
12912
102
{ACAD_REACTORS
330
6377
102
}
330
6377
100
DictionaryVariables
280
     0
  1

  0
DICTIONARYVAR
  5
6378
102
{ACAD_REACTORS
330
6377
102
}
330
6377
100
DictionaryVariables
280
     0
  1
96
  0
ENDSEC
  0
EOF
