  0
SECTION
  2
HEADER
  9
$ACADVER
  1
AC1015
  9
$ACADMAINTVER
 70
     6
  9
$DWGCODEPAGE
  3
ANSI_932
  9
$INSBASE
 10
0.0
 20
0.0
 30
0.0
  9
$EXTMIN
 10
2397.047419703823
 20
-192.4841163835669
 30
-0.0000000000000127
  9
$EXTMAX
 10
2449.482504355844
 20
-104.4861697919928
 30
0.0000000000000146
  9
$LIMMIN
 10
0.0
 20
0.0
  9
$LIMMAX
 10
840.0
 20
594.0
  9
$ORTHOMODE
 70
     1
  9
$REGENMODE
 70
     1
  9
$FILLMODE
 70
     1
  9
$QTEXTMODE
 70
     0
  9
$MIRRTEXT
 70
     1
  9
$LTSCALE
 40
7.0
  9
$ATTMODE
 70
     0
  9
$TEXTSIZE
 40
6.0
  9
$TRACEWID
 40
1.0
  9
$TEXTSTYLE
  7
STANDARD
  9
$CLAYER
  8
寸法線
  9
$CELTYPE
  6
BYLAYER
  9
$CECOLOR
 62
   256
  9
$CELTSCALE
 40
1.0
  9
$DISPSILH
 70
     0
  9
$DIMSCALE
 40
1.0
  9
$DIMASZ
 40
6.0
  9
$DIMEXO
 40
3.0
  9
$DIMDLI
 40
7.149999999999999
  9
$DIMRND
 40
0.0
  9
$DIMDLE
 40
0.0
  9
$DIMEXE
 40
2.0
  9
$DIMTP
 40
0.0
  9
$DIMTM
 40
0.0
  9
$DIMTXT
 40
5.0
  9
$DIMCEN
 40
0.0
  9
$DIMTSZ
 40
0.0
  9
$DIMTOL
 70
     0
  9
$DIMLIM
 70
     0
  9
$DIMTIH
 70
     0
  9
$DIMTOH
 70
     0
  9
$DIMSE1
 70
     0
  9
$DIMSE2
 70
     0
  9
$DIMTAD
 70
     3
  9
$DIMZIN
 70
     8
  9
$DIMBLK
  1
Open30
  9
$DIMASO
 70
     1
  9
$DIMSHO
 70
     0
  9
$DIMPOST
  1

  9
$DIMAPOST
  1

  9
$DIMALT
 70
     0
  9
$DIMALTD
 70
     2
  9
$DIMALTF
 40
25.4
  9
$DIMLFAC
 40
1.0
  9
$DIMTOFL
 70
     0
  9
$DIMTVP
 40
0.0
  9
$DIMTIX
 70
     0
  9
$DIMSOXD
 70
     0
  9
$DIMSAH
 70
     0
  9
$DIMBLK1
  1

  9
$DIMBLK2
  1

  9
$DIMSTYLE
  2
STANDARD
  9
$DIMCLRD
 70
     0
  9
$DIMCLRE
 70
     0
  9
$DIMCLRT
 70
     0
  9
$DIMTFAC
 40
1.0
  9
$DIMGAP
 40
2.0
  9
$DIMJUST
 70
     0
  9
$DIMSD1
 70
     0
  9
$DIMSD2
 70
     0
  9
$DIMTOLJ
 70
     1
  9
$DIMTZIN
 70
     0
  9
$DIMALTZ
 70
     0
  9
$DIMALTTZ
 70
     0
  9
$DIMUPT
 70
     1
  9
$DIMDEC
 70
     2
  9
$DIMTDEC
 70
     2
  9
$DIMALTU
 70
     2
  9
$DIMALTTD
 70
     2
  9
$DIMTXSTY
  7
STANDARD
  9
$DIMAUNIT
 70
     0
  9
$DIMADEC
 70
     2
  9
$DIMALTRND
 40
0.0
  9
$DIMAZIN
 70
     2
  9
$DIMDSEP
 70
    46
  9
$DIMATFIT
 70
     3
  9
$DIMFRAC
 70
     0
  9
$DIMLDRBLK
  1
Open30
  9
$DIMLUNIT
 70
     2
  9
$DIMLWD
 70
    -2
  9
$DIMLWE
 70
    -2
  9
$DIMTMOVE
 70
     0
  9
$LUNITS
 70
     2
  9
$LUPREC
 70
     2
  9
$SKETCHINC
 40
0.1
  9
$FILLETRAD
 40
3.0
  9
$AUNITS
 70
     0
  9
$AUPREC
 70
     2
  9
$MENU
  1
ACAD
  9
$ELEVATION
 40
0.0
  9
$PELEVATION
 40
0.0
  9
$THICKNESS
 40
0.0
  9
$LIMCHECK
 70
     0
  9
$CHAMFERA
 40
0.0
  9
$CHAMFERB
 40
0.0
  9
$CHAMFERC
 40
0.0
  9
$CHAMFERD
 40
0.0
  9
$SKPOLY
 70
     0
  9
$TDCREATE
 40
2449505.922222222
  9
$TDUCREATE
 40
2449505.547222222
  9
$TDUPDATE
 40
2456821.610853449
  9
$TDUUPDATE
 40
2456821.235853449
  9
$TDINDWG
 40
2.2080899074
  9
$TDUSRTIMER
 40
2456821.235721794
  9
$USRTIMER
 70
     1
  9
$ANGBASE
 50
0.0
  9
$ANGDIR
 70
     0
  9
$PDMODE
 70
     3
  9
$PDSIZE
 40
0.0
  9
$PLINEWID
 40
0.0
  9
$SPLFRAME
 70
     0
  9
$SPLINETYPE
 70
     6
  9
$SPLINESEGS
 70
     8
  9
$HANDSEED
  5
1A666
  9
$SURFTAB1
 70
     6
  9
$SURFTAB2
 70
     6
  9
$SURFTYPE
 70
     6
  9
$SURFU
 70
     6
  9
$SURFV
 70
     6
  9
$UCSBASE
  2

  9
$UCSNAME
  2

  9
$UCSORG
 10
0.0
 20
0.0
 30
0.0
  9
$UCSXDIR
 10
1.0
 20
0.0
 30
0.0
  9
$UCSYDIR
 10
0.0
 20
1.0
 30
0.0
  9
$UCSORTHOREF
  2

  9
$UCSORTHOVIEW
 70
     0
  9
$UCSORGTOP
 10
0.0
 20
0.0
 30
0.0
  9
$UCSORGBOTTOM
 10
0.0
 20
0.0
 30
0.0
  9
$UCSORGLEFT
 10
0.0
 20
0.0
 30
0.0
  9
$UCSORGRIGHT
 10
0.0
 20
0.0
 30
0.0
  9
$UCSORGFRONT
 10
0.0
 20
0.0
 30
0.0
  9
$UCSORGBACK
 10
0.0
 20
0.0
 30
0.0
  9
$PUCSBASE
  2

  9
$PUCSNAME
  2

  9
$PUCSORG
 10
0.0
 20
0.0
 30
0.0
  9
$PUCSXDIR
 10
1.0
 20
0.0
 30
0.0
  9
$PUCSYDIR
 10
0.0
 20
1.0
 30
0.0
  9
$PUCSORTHOREF
  2

  9
$PUCSORTHOVIEW
 70
     0
  9
$PUCSORGTOP
 10
0.0
 20
0.0
 30
0.0
  9
$PUCSORGBOTTOM
 10
0.0
 20
0.0
 30
0.0
  9
$PUCSORGLEFT
 10
0.0
 20
0.0
 30
0.0
  9
$PUCSORGRIGHT
 10
0.0
 20
0.0
 30
0.0
  9
$PUCSORGFRONT
 10
0.0
 20
0.0
 30
0.0
  9
$PUCSORGBACK
 10
0.0
 20
0.0
 30
0.0
  9
$USERI1
 70
     0
  9
$USERI2
 70
     0
  9
$USERI3
 70
     0
  9
$USERI4
 70
     0
  9
$USERI5
 70
     0
  9
$USERR1
 40
0.0
  9
$USERR2
 40
0.0
  9
$USERR3
 40
0.0
  9
$USERR4
 40
0.0
  9
$USERR5
 40
0.0
  9
$WORLDVIEW
 70
     0
  9
$SHADEDGE
 70
     3
  9
$SHADEDIF
 70
    70
  9
$TILEMODE
 70
     1
  9
$MAXACTVP
 70
    16
  9
$PINSBASE
 10
0.0
 20
0.0
 30
0.0
  9
$PLIMCHECK
 70
     0
  9
$PEXTMIN
 10
1.000000000000000E+20
 20
1.000000000000000E+20
 30
1.000000000000000E+20
  9
$PEXTMAX
 10
-1.000000000000000E+20
 20
-1.000000000000000E+20
 30
-1.000000000000000E+20
  9
$PLIMMIN
 10
0.0
 20
0.0
  9
$PLIMMAX
 10
0.0
 20
0.0
  9
$UNITMODE
 70
     0
  9
$VISRETAIN
 70
     0
  9
$PLINEGEN
 70
     0
  9
$PSLTSCALE
 70
     0
  9
$TREEDEPTH
 70
  3020
  9
$CMLSTYLE
  2
STANDARD
  9
$CMLJUST
 70
     0
  9
$CMLSCALE
 40
1.0
  9
$PROXYGRAPHICS
 70
     1
  9
$MEASUREMENT
 70
     0
  9
$CELWEIGHT
370
    -1
  9
$ENDCAPS
280
     0
  9
$JOINSTYLE
280
     0
  9
$LWDISPLAY
290
     0
  9
$INSUNITS
 70
     0
  9
$HYPERLINKBASE
  1

  9
$STYLESHEET
  1
spax form.ctb
  9
$XEDIT
290
     1
  9
$CEPSNTYPE
380
     0
  9
$PSTYLEMODE
290
     1
  9
$FINGERPRINTGUID
  2
{C1CFCF3E-DF91-11D3-B30C-0060B0FA8DFC}
  9
$VERSIONGUID
  2
{BD95EDF7-856B-41E3-B334-8E057EF02C86}
  9
$EXTNAMES
290
     1
  9
$PSVPSCALE
 40
0.0
  9
$OLESTARTUP
290
     0
  0
ENDSEC
  0
SECTION
  2
CLASSES
  0
CLASS
  1
LWPOLYLINE
  2
AcDbPolyline
  3
ObjectDBX Classes
 90
        0
280
     0
281
     1
  0
CLASS
  1
ACDBDICTIONARYWDFLT
  2
AcDbDictionaryWithDefault
  3
ObjectDBX Classes
 90
        0
280
     0
281
     0
  0
CLASS
  1
ACDBPLACEHOLDER
  2
AcDbPlaceHolder
  3
ObjectDBX Classes
 90
        0
280
     0
281
     0
  0
CLASS
  1
LAYOUT
  2
AcDbLayout
  3
ObjectDBX Classes
 90
        0
280
     0
281
     0
  0
CLASS
  1
DICTIONARYVAR
  2
AcDbDictionaryVar
  3
ObjectDBX Classes
 90
        0
280
     0
281
     0
  0
CLASS
  1
LONG_TRANSACTION
  2
AcDbLongTransaction
  3
ObjectDBX Classes
 90
        0
280
     0
281
     0
  0
CLASS
  1
LWPOLYLINE
  2
AcDbPolyline
  3
ObjectDBX Classes
 90
        0
280
     0
281
     1
  0
CLASS
  1
HATCH
  2
AcDbHatch
  3
ObjectDBX Classes
 90
        0
280
     0
281
     1
  0
CLASS
  1
XRECORD
  2
AcDbXrecord
  3
ObjectDBX Classes
 90
        0
280
     0
281
     0
  0
CLASS
  1
MATERIAL
  2
AcDbMaterial
  3
ObjectDBX Classes
 90
     1153
280
     0
281
     0
  0
CLASS
  1
VISUALSTYLE
  2
AcDbVisualStyle
  3
ObjectDBX Classes
 90
     4095
280
     0
281
     0
  0
CLASS
  1
TABLESTYLE
  2
AcDbTableStyle
  3
ObjectDBX Classes
 90
     4095
280
     0
281
     0
  0
CLASS
  1
SCALE
  2
AcDbScale
  3
ObjectDBX Classes
 90
     1153
280
     0
281
     0
  0
CLASS
  1
MLEADERSTYLE
  2
AcDbMLeaderStyle
  3
ACDB_MLEADERSTYLE_CLASS
 90
     4095
280
     0
281
     0
  0
CLASS
  1
CELLSTYLEMAP
  2
AcDbCellStyleMap
  3
ObjectDBX Classes
 90
     1152
280
     0
281
     0
  0
CLASS
  1
SORTENTSTABLE
  2
AcDbSortentsTable
  3
ObjectDBX Classes
 90
        0
280
     0
281
     0
  0
CLASS
  1
RASTERVARIABLES
  2
AcDbRasterVariables
  3
ISM
 90
        0
280
     0
281
     0
  0
CLASS
  1
SUN
  2
AcDbSun
  3
SCENEOE
 90
     1153
280
     0
281
     0
  0
ENDSEC
  0
SECTION
  2
TABLES
  0
TABLE
  2
VPORT
  5
8
330
0
100
AcDbSymbolTable
 70
     1
  0
VPORT
  5
19FD8
330
8
100
AcDbSymbolTableRecord
100
AcDbViewportTableRecord
  2
*Active
 70
     0
 10
0.0
 20
0.0
 11
1.0
 21
1.0
 12
2423.264962029833
 22
-148.4851430877798
 13
0.0
 23
0.0
 14
1.0
 24
1.0
 15
20.0
 25
20.0
 16
0.0
 26
0.0
 36
1.0
 17
0.0
 27
0.0
 37
0.0
 40
89.75790552340558
 41
1.731829573934837
 42
50.0
 43
0.0
 44
0.0
 50
0.0
 51
0.0
 71
    16
 72
  2000
 73
     1
 74
     0
 75
     0
 76
     0
 77
     0
 78
     1
281
     0
 65
     1
110
0.0
120
0.0
130
0.0
111
1.0
121
0.0
131
0.0
112
0.0
122
1.0
132
0.0
 79
     0
146
0.0
  0
ENDTAB
  0
TABLE
  2
LTYPE
  5
5
330
0
100
AcDbSymbolTable
 70
     5
  0
LTYPE
  5
12
330
5
100
AcDbSymbolTableRecord
100
AcDbLinetypeTableRecord
  2
BYBLOCK
 70
     0
  3

 72
    65
 73
     0
 40
0.0
  0
LTYPE
  5
13
330
5
100
AcDbSymbolTableRecord
100
AcDbLinetypeTableRecord
  2
BYLAYER
 70
     0
  3

 72
    65
 73
     0
 40
0.0
  0
LTYPE
  5
14
330
5
100
AcDbSymbolTableRecord
100
AcDbLinetypeTableRecord
  2
CONTINUOUS
 70
     0
  3
Solid line
 72
    65
 73
     0
 40
0.0
  0
LTYPE
  5
3D
330
5
100
AcDbSymbolTableRecord
100
AcDbLinetypeTableRecord
  2
PHANTOM
 70
     0
  3
_____ _ _ _____ _ _ _____ _ _ _____ _ _ ____
 72
    65
 73
     6
 40
2.5
 49
1.25
 74
     0
 49
-0.25
 74
     0
 49
0.25
 74
     0
 49
-0.25
 74
     0
 49
0.25
 74
     0
 49
-0.25
 74
     0
  0
LTYPE
  5
40D2
330
5
100
AcDbSymbolTableRecord
100
AcDbLinetypeTableRecord
  2
CENTER
 70
     0
  3
____ _ ____ _ ____ _ ____ _ ____ _ ____ _ ____ 
 72
    65
 73
     4
 40
2.0
 49
1.25
 74
     0
 49
-0.25
 74
     0
 49
0.25
 74
     0
 49
-0.25
 74
     0
  0
LTYPE
  5
A244
330
5
100
AcDbSymbolTableRecord
100
AcDbLinetypeTableRecord
  2
HIDDEN
 70
     0
  3
_ _ _ _ _ _ _ _ _ _ _ _ _ _ _ _ _ _ _ _ _ _ _
 72
    65
 73
     2
 40
0.375
 49
0.25
 74
     0
 49
-0.125
 74
     0
  0
ENDTAB
  0
TABLE
  2
LAYER
  5
2
102
{ACAD_XDICTIONARY
360
14E07
102
}
330
0
100
AcDbSymbolTable
 70
    23
  0
LAYER
  5
F
102
{ACAD_XDICTIONARY
360
173F1
102
}
330
2
100
AcDbSymbolTableRecord
100
AcDbLayerTableRecord
  2
0
 70
     0
 62
     7
  6
CONTINUOUS
370
    -3
390
40CA
  0
LAYER
  5
4C
102
{ACAD_XDICTIONARY
360
173F9
102
}
330
2
100
AcDbSymbolTableRecord
100
AcDbLayerTableRecord
  2
寸法線
 70
     0
 62
     7
  6
CONTINUOUS
370
    -3
390
40CA
  0
LAYER
  5
4D
102
{ACAD_XDICTIONARY
360
173FB
102
}
330
2
100
AcDbSymbolTableRecord
100
AcDbLayerTableRecord
  2
姿図
 70
     0
 62
     8
  6
CONTINUOUS
370
    -3
390
40CA
  0
LAYER
  5
40D4
102
{ACAD_XDICTIONARY
360
173FF
102
}
330
2
100
AcDbSymbolTableRecord
100
AcDbLayerTableRecord
  2
文字
 70
     0
 62
     7
  6
CONTINUOUS
370
    -3
390
40CA
  0
ENDTAB
  0
TABLE
  2
STYLE
  5
3
330
0
100
AcDbSymbolTable
 70
     1
  0
STYLE
  5
10
330
3
100
AcDbSymbolTableRecord
100
AcDbTextStyleTableRecord
  2
STANDARD
 70
     0
 40
0.0
 41
1.0
 50
0.0
 71
     0
 42
6.0
  3
MONOTXT
  4
BIGFONT
  0
ENDTAB
  0
TABLE
  2
VIEW
  5
6
330
0
100
AcDbSymbolTable
 70
     1
  0
VIEW
  5
41
330
6
100
AcDbSymbolTableRecord
100
AcDbViewTableRecord
  2
CUT1
 70
     0
 40
612.7795527156796
 10
420.0000000000169
 20
306.3897763578398
 41
840.0000000000338
 11
0.0
 21
0.0
 31
1.0
 12
0.0
 22
0.0
 32
0.0
 42
50.0
 43
0.0
 44
0.0
 50
0.0
 71
     0
281
     0
 72
     0
  0
ENDTAB
  0
TABLE
  2
UCS
  5
7
330
0
100
AcDbSymbolTable
 70
     0
  0
ENDTAB
  0
TABLE
  2
APPID
  5
9
330
0
100
AcDbSymbolTable
 70
     7
  0
APPID
  5
11
330
9
100
AcDbSymbolTableRecord
100
AcDbRegAppTableRecord
  2
ACAD
 70
     0
  0
APPID
  5
173EB
330
9
100
AcDbSymbolTableRecord
100
AcDbRegAppTableRecord
  2
ACAD_MLEADERVER
 70
     0
  0
APPID
  5
18772
330
9
100
AcDbSymbolTableRecord
100
AcDbRegAppTableRecord
  2
ACAD_PSEXT
 70
     0
  0
APPID
  5
18773
330
9
100
AcDbSymbolTableRecord
100
AcDbRegAppTableRecord
  2
AcadAnnotative
 70
     0
  0
APPID
  5
18774
330
9
100
AcDbSymbolTableRecord
100
AcDbRegAppTableRecord
  2
ACAD_DSTYLE_DIMJAG
 70
     0
  0
APPID
  5
18775
330
9
100
AcDbSymbolTableRecord
100
AcDbRegAppTableRecord
  2
ACAD_DSTYLE_DIMTALN
 70
     0
  0
APPID
  5
18785
330
9
100
AcDbSymbolTableRecord
100
AcDbRegAppTableRecord
  2
ACAD_EXEMPT_FROM_CAD_STANDARDS
 70
     0
  0
ENDTAB
  0
TABLE
  2
DIMSTYLE
  5
A
330
0
100
AcDbSymbolTable
 70
     2
100
AcDbDimStyleTable
  0
DIMSTYLE
105
1B3A
330
A
100
AcDbSymbolTableRecord
100
AcDbDimStyleTableRecord
  2
STANDARD
 70
     0
 41
4.0
 42
3.0
 43
7.149999999999999
 44
2.0
 73
     0
 74
     0
 77
     3
 78
     8
 79
     2
140
5.0
141
0.0
147
2.0
178
     0
179
     2
271
     2
272
     2
288
     1
340
10
341
49C3
342
49C3
  0
ENDTAB
  0
TABLE
  2
BLOCK_RECORD
  5
1
330
0
100
AcDbSymbolTable
 70
    92
  0
BLOCK_RECORD
  5
18
102
{ACAD_XDICTIONARY
360
9FD5
102
}
330
1
100
AcDbSymbolTableRecord
100
AcDbBlockTableRecord
  2
*MODEL_SPACE
340
40CD
  0
BLOCK_RECORD
  5
15
330
1
100
AcDbSymbolTableRecord
100
AcDbBlockTableRecord
  2
*PAPER_SPACE
340
40CE
  0
BLOCK_RECORD
  5
49C3
330
1
100
AcDbSymbolTableRecord
100
AcDbBlockTableRecord
  2
_OPEN
340
0
  0
BLOCK_RECORD
  5
FD36
330
1
100
AcDbSymbolTableRecord
100
AcDbBlockTableRecord
  2
_Open30
340
0
102
{BLKREFS
331
15579
331
1557A
331
15582
331
15583
331
1558A
331
1558B
331
15593
331
15594
331
1559D
331
1559E
331
155A6
331
155A7
331
155AF
331
155B0
331
155B7
331
155B8
331
155C1
331
155C2
331
155CA
331
155CB
331
155D2
331
155D3
331
155DB
331
155DC
331
155E4
331
155E5
331
155ED
331
155EE
331
155F6
331
155F7
331
15600
331
15601
331
15609
331
1560A
331
15611
331
15612
331
1561B
331
1561C
331
15624
331
15625
331
1562D
331
1562E
331
15636
331
15637
331
1563E
331
1563F
331
15647
331
15648
331
15651
331
15652
331
1565A
331
1565B
331
15662
331
15663
331
15675
331
15676
331
1567D
331
1567E
331
15686
331
15687
331
15690
331
15691
331
15698
331
15699
331
16CDF
331
16CE0
331
17350
331
17351
331
17358
331
17359
331
17362
331
17363
331
1736B
331
1736C
331
17373
331
17374
331
1737D
331
1737E
331
17385
331
17386
331
1738E
331
1738F
331
180CC
331
180CD
331
180D5
331
180D6
331
180DF
331
180E0
331
180E8
331
180E9
331
180F0
331
180F1
331
180FA
331
180FB
331
18103
331
18104
331
1810B
331
1810C
331
1872B
331
1872C
331
18735
331
18736
331
1873D
331
1873E
331
18747
331
18748
331
18750
331
18751
331
18758
331
18759
331
18761
331
18762
331
1876B
331
1876C
331
19299
331
1929A
331
192A3
331
192A4
331
192AB
331
192AC
331
192B4
331
192B5
331
192BE
331
192BF
331
192C7
331
192C8
331
192D0
331
192D1
331
192D8
331
192D9
331
1990A
331
1990B
331
19914
331
19915
331
1991C
331
1991D
331
19926
331
19927
331
1992F
331
19930
331
19937
331
19938
331
19941
331
19942
331
19949
331
1994A
331
19F8B
331
19F8C
331
19F94
331
19F95
331
19F9C
331
19F9D
331
19FA5
331
19FA6
331
19FAF
331
19FB0
331
19FB7
331
19FB8
331
19FC1
331
19FC2
331
19FC9
331
19FCA
331
1A5E7
331
1A5E8
331
1A5F1
331
1A5F2
331
1A5F9
331
1A5FA
331
1A603
331
1A604
331
1A60B
331
1A60C
331
1A615
331
1A616
331
1A61E
331
1A61F
331
1A626
331
1A627
102
}
  0
ENDTAB
  0
ENDSEC
  0
SECTION
  2
BLOCKS
  0
BLOCK
  5
52
330
18
100
AcDbEntity
  8
0
100
AcDbBlockBegin
  2
*MODEL_SPACE
 70
     0
 10
0.0
 20
0.0
 30
0.0
  3
*MODEL_SPACE
  1
*MODEL_SPACE
  0
ENDBLK
  5
53
330
18
100
AcDbEntity
  8
0
100
AcDbBlockEnd
  0
BLOCK
  5
50
330
15
100
AcDbEntity
 67
     1
  8
0
100
AcDbBlockBegin
  2
*PAPER_SPACE
 70
     0
 10
0.0
 20
0.0
 30
0.0
  3
*PAPER_SPACE
  1
*PAPER_SPACE
  0
ENDBLK
  5
51
330
15
100
AcDbEntity
 67
     1
  8
0
100
AcDbBlockEnd
  0
BLOCK
  5
49C7
330
49C3
100
AcDbEntity
  8
0
100
AcDbBlockBegin
  2
_OPEN
 70
     0
 10
0.0
 20
0.0
 30
0.0
  3
_OPEN
  1
_OPEN
  0
LINE
  5
49C4
330
49C3
100
AcDbEntity
  8
0
  6
ByBlock
 62
     0
100
AcDbLine
 10
-1.0
 20
0.1666666666666667
 30
0.0
 11
0.0
 21
0.0
 31
0.0
  0
LINE
  5
49C5
330
49C3
100
AcDbEntity
  8
0
  6
ByBlock
 62
     0
100
AcDbLine
 10
0.0
 20
0.0
 30
0.0
 11
-1.0
 21
-0.1666666666666667
 31
0.0
  0
LINE
  5
49C6
330
49C3
100
AcDbEntity
  8
0
  6
ByBlock
 62
     0
100
AcDbLine
 10
0.0
 20
0.0
 30
0.0
 11
-1.0
 21
0.0
 31
0.0
  0
ENDBLK
  5
49C8
330
49C3
100
AcDbEntity
  8
0
100
AcDbBlockEnd
  0
BLOCK
  5
FD3A
330
FD36
100
AcDbEntity
  8
0
100
AcDbBlockBegin
  2
_Open30
 70
     0
 10
0.0
 20
0.0
 30
0.0
  3
_Open30
  1
_Open30
  0
LINE
  5
FD37
330
FD36
100
AcDbEntity
  8
寸法線
 62
     0
370
    -2
100
AcDbLine
 10
-1.0
 20
0.26794919
 30
0.0
 11
0.0
 21
0.0
 31
0.0
  0
LINE
  5
FD38
330
FD36
100
AcDbEntity
  8
寸法線
 62
     0
370
    -2
100
AcDbLine
 10
0.0
 20
0.0
 30
0.0
 11
-1.0
 21
-0.26794919
 31
0.0
  0
LINE
  5
FD39
330
FD36
100
AcDbEntity
  8
寸法線
 62
     0
370
    -2
100
AcDbLine
 10
0.0
 20
0.0
 30
0.0
 11
-1.0
 21
0.0
 31
0.0
  0
ENDBLK
  5
FD3B
330
FD36
100
AcDbEntity
  8
0
100
AcDbBlockEnd
  0
ENDSEC
  0
SECTION
  2
ENTITIES
  0
TEXT
  5
13DFB
330
18
100
AcDbEntity
  8
文字
100
AcDbText
 10
2305.592032708582
 20
1491.146011814958
 30
0.0
 40
4.5
  1

 11
2305.592032708582
 21
1493.396011814958
 31
0.0
100
AcDbText
 73
     2
  0
SPLINE
  5
1A3F5
330
18
100
AcDbEntity
  8
姿図
100
AcDbSpline
210
0.0
220
0.0
230
1.0
 70
     8
 71
     3
 72
    20
 73
    16
 74
     0
 42
0.000000001
 43
0.0000000001
 40
61.91009950387845
 40
61.91009950387845
 40
61.91009950387845
 40
61.91009950387845
 40
63.27662545801321
 40
63.27662545801321
 40
65.63207741714923
 40
65.63207741714923
 40
66.46294226239624
 40
66.46294226239624
 40
68.78483332584179
 40
68.78483332584179
 40
78.37384755292882
 40
78.37384755292882
 40
82.12808435629299
 40
82.12808435629299
 40
85.66477676586585
 40
85.66477676586585
 40
85.66477676586585
 40
85.66477676586585
 10
2431.554431943183
 20
-168.7151958614119
 30
-0.0000000000000016
 10
2431.728985976974
 20
-168.5303403497231
 30
-0.0000000000000024
 10
2431.884313079632
 20
-168.3520068545887
 30
-0.0000000000000028
 10
2432.255447056649
 20
-167.8996805452886
 30
0.0
 10
2432.462107459169
 20
-167.612536697371
 30
-0.0000000000000049
 10
2432.644784185506
 20
-167.3421760939899
 30
0.0
 10
2432.694803256658
 20
-167.2660638473743
 30
-0.0000000000000049
 10
2432.887066223027
 20
-166.9653104119685
 30
0.0000000000000048
 10
2433.004478376698
 20
-166.7649974676289
 30
-0.0000000000000049
 10
2433.602101646648
 20
-165.6713809935223
 30
-0.0000000000000049
 10
2434.188953312996
 20
-164.3153358003352
 30
-0.0000000000000049
 10
2434.570831277621
 20
-161.7576910467743
 30
-0.0000000000000049
 10
2434.621843406387
 20
-161.0225095419581
 30
0.0000000000000048
 10
2434.614736084467
 20
-159.5550033690603
 30
0.0000000000000048
 10
2434.418700942504
 20
-157.7864897658964
 30
-0.0000000000000049
 10
2434.418700942504
 20
-157.7864897658964
 30
-0.0000000000000049
  0
SPLINE
  5
1A3F6
330
18
100
AcDbEntity
  8
姿図
100
AcDbSpline
210
0.0
220
0.0
230
1.0
 70
     8
 71
     3
 72
     8
 73
     4
 74
     0
 42
0.000000001
 43
0.0000000001
 40
-29.73791167171498
 40
-29.73791167171498
 40
-29.73791167171498
 40
-29.73791167171498
 40
-21.81652578453031
 40
-21.81652578453031
 40
-21.81652578453031
 40
-21.81652578453031
 10
2427.333864430772
 20
-141.7001487883657
 30
0.0
 10
2430.273454328873
 20
-141.6333930263814
 30
0.0000000000000044
 10
2431.707363584914
 20
-142.3436844157924
 30
0.0000000000000048
 10
2434.355712193617
 20
-145.6769563396305
 30
0.0000000000000048
  0
SPLINE
  5
1A3F7
330
18
100
AcDbEntity
  8
姿図
100
AcDbSpline
210
0.0
220
0.0
230
1.0
 70
     8
 71
     3
 72
     8
 73
     4
 74
     0
 42
0.000000001
 43
0.0000000001
 40
8.0
 40
8.0
 40
8.0
 40
8.0
 40
9.0
 40
9.0
 40
9.0
 40
9.0
 10
2437.264613539059
 20
-149.9316390684345
 30
-0.0000000000000097
 10
2437.264613539059
 20
-149.9316390684345
 30
-0.0000000000000097
 10
2432.521348466184
 20
-119.9480002844028
 30
0.0000000000000033
 10
2432.260880619328
 20
-118.9327615825567
 30
0.0000000000000033
  0
SPLINE
  5
1A3F8
330
18
100
AcDbEntity
  8
姿図
100
AcDbSpline
210
0.0
220
0.0
230
1.0
 70
     8
 71
     3
 72
    14
 73
    10
 74
     0
 42
0.000000001
 43
0.0000000001
 40
-17.67097520731171
 40
-17.67097520731171
 40
-17.67097520731171
 40
-17.67097520731171
 40
-15.46329434907155
 40
-15.46329434907155
 40
-11.48389074227961
 40
-11.48389074227961
 40
-5.954339038219556
 40
-5.954339038219556
 40
-0.5047492958822968
 40
-0.5047492958822968
 40
-0.5047492958822968
 40
-0.5047492958822968
 10
2440.869465469588
 20
-143.8535721611419
 30
0.0000000000000048
 10
2440.996518193852
 20
-144.0709085407024
 30
0.0
 10
2441.116372610853
 20
-144.2903962401994
 30
0.0
 10
2441.429294473159
 20
-144.9064144674036
 30
0.0
 10
2441.601919368972
 20
-145.2996276235634
 30
0.0
 10
2441.959919282027
 20
-146.2636869512856
 30
0.0000000000000048
 10
2442.092780662848
 20
-146.7537539662459
 30
0.0
 10
2442.271107404787
 20
-147.610576978297
 30
0.0000000000000097
 10
2442.328374574913
 20
-148.0324800162847
 30
0.0000000000000097
 10
2442.353643097101
 20
-148.4453089586879
 30
0.0
  0
SPLINE
  5
1A3F9
330
18
100
AcDbEntity
  8
姿図
100
AcDbSpline
210
0.0
220
0.0
230
1.0
 70
     8
 71
     3
 72
     8
 73
     4
 74
     0
 42
0.000000001
 43
0.0000000001
 40
13.0
 40
13.0
 40
13.0
 40
13.0
 40
14.0
 40
14.0
 40
14.0
 40
14.0
 10
2421.329040050794
 20
-119.0797354148375
 30
0.0
 10
2421.329040050794
 20
-119.0797354148375
 30
0.0
 10
2418.054859242588
 20
-119.7130728887533
 30
0.0000000000000033
 10
2417.616960767651
 20
-119.8498369857749
 30
0.0000000000000033
  0
SPLINE
  5
1A3FA
330
18
100
AcDbEntity
  8
姿図
100
AcDbSpline
210
0.0
220
0.0
230
1.0
 70
     8
 71
     3
 72
     8
 73
     4
 74
     0
 42
0.000000001
 43
0.0000000001
 40
10.0
 40
10.0
 40
10.0
 40
10.0
 40
10.56265067495566
 40
10.56265067495566
 40
10.56265067495566
 40
10.56265067495566
 10
2430.475142076039
 20
-118.1375393799134
 30
0.0000000000000033
 10
2430.475142076039
 20
-118.1375393799134
 30
0.0000000000000033
 10
2428.576738892963
 20
-118.3303515777048
 30
0.0000000000000033
 10
2426.935309830018
 20
-118.7284011016467
 30
0.0
  0
ELLIPSE
  5
1A405
330
18
100
AcDbEntity
  8
姿図
100
AcDbEllipse
 10
2441.774222763407
 20
-116.8665294036126
 30
0.0
 11
-0.02816331815782049
 21
1.249001609542
 31
0.0
210
0.0
220
0.0
230
1.0
 40
0.5599999999999931
 41
3.197033155767157
 42
9.434679777203067
  0
SPLINE
  5
1A406
330
18
100
AcDbEntity
  8
姿図
100
AcDbSpline
210
0.0
220
0.0
230
1.0
 70
     8
 71
     3
 72
    14
 73
    10
 74
     0
 42
0.000000001
 43
0.0000000001
 40
0.0
 40
0.0
 40
0.0
 40
0.0
 40
1.0
 40
1.0
 40
1.0
 40
2.0
 40
2.0
 40
2.0
 40
2.022340226574567
 40
2.022340226574567
 40
2.022340226574567
 40
2.022340226574567
 10
2441.941409770916
 20
-118.1046112658697
 30
0.0
 10
2441.941409770916
 20
-118.1046112658697
 30
0.0
 10
2439.115740010775
 20
-118.3335396973993
 30
0.0
 10
2439.115740010775
 20
-118.3335396973993
 30
0.0
 10
2438.732938483633
 20
-118.3852321126941
 30
0.0
 10
2438.347586685632
 20
-117.8730391340652
 30
0.0
 10
2438.255227160402
 20
-117.1890825593479
 30
0.0
 10
2438.253163827682
 20
-117.1738028145018
 30
0.0
 10
2438.251264223208
 20
-117.1585669387806
 30
0.0
 10
2438.249526329423
 20
-117.1433800216404
 30
0.0
  0
SPLINE
  5
1A407
330
18
100
AcDbEntity
  8
姿図
100
AcDbSpline
210
0.0
220
0.0
230
1.0
 70
     8
 71
     3
 72
    17
 73
    13
 74
     0
 42
0.000000001
 43
0.0000000001
 40
0.0
 40
0.0
 40
0.0
 40
0.0
 40
1.0
 40
1.0
 40
1.0
 40
2.0
 40
2.0
 40
2.0
 40
3.0
 40
3.0
 40
3.0
 40
4.0
 40
4.0
 40
4.0
 40
4.0
 10
2410.563205820846
 20
-118.5220464463922
 30
0.0
 10
2410.563205820846
 20
-118.5220464463922
 30
0.0
 10
2410.066947750448
 20
-109.4367314844313
 30
0.0
 10
2410.066947750448
 20
-109.4367314844313
 30
0.0
 10
2410.529011005849
 20
-106.8802567471472
 30
0.0
 10
2416.516309738241
 20
-104.8066256441801
 30
0.0
 10
2423.909684460007
 20
-104.5183286495122
 30
0.0
 10
2431.303734317776
 20
-104.230016431428
 30
0.0
 10
2437.303080935748
 20
-105.8361247431595
 30
0.0
 10
2437.310347770554
 20
-108.1055712424787
 30
0.0
 10
2437.310347770554
 20
-108.1055712424787
 30
0.0
 10
2437.342646391954
 20
-117.4764423830721
 30
0.0
 10
2437.342646391954
 20
-117.4764423830721
 30
0.0
  0
ELLIPSE
  5
1A409
330
18
100
AcDbEntity
  8
姿図
100
AcDbEllipse
 10
2423.955948995009
 20
-117.9985007733588
 30
0.0
 11
13.39274317416243
 21
0.5235456730338032
 31
0.0
210
0.0
220
0.0
230
1.0
 40
0.2879532291547235
 41
5.399359498153573
 42
10.44616924006069
  0
LINE
  5
1A40A
330
18
100
AcDbEntity
  8
姿図
100
AcDbLine
 10
2449.263850443033
 20
-113.5674773520726
 30
0.0
 11
2449.482504355844
 21
-123.264455794155
 31
0.0
  0
SPLINE
  5
1A40B
330
18
100
AcDbEntity
  8
姿図
100
AcDbSpline
210
0.0
220
0.0
230
1.0
 70
     8
 71
     3
 72
    11
 73
     7
 74
     0
 42
0.000000001
 43
0.0000000001
 40
0.0773469307906505
 40
0.0773469307906505
 40
0.0773469307906505
 40
0.0773469307906505
 40
1.0
 40
1.0
 40
1.0
 40
2.0
 40
2.0
 40
2.0
 40
2.0
 10
2428.452282408358
 20
-118.4430930958032
 30
0.0
 10
2428.115344516948
 20
-117.5697995568986
 30
0.0
 10
2426.201146719085
 20
-117.0600571881404
 30
0.0
 10
2424.096424565014
 20
-116.8742331030861
 30
0.0
 10
2421.39740644572
 20
-117.1683751155416
 30
0.0
 10
2420.22173851656
 20
-117.810488815643
 30
0.0
 10
2419.892515591134
 20
-119.1263053101032
 30
0.0
  0
ARC
  5
1A427
330
18
100
AcDbEntity
  8
姿図
100
AcDbCircle
 10
2433.625736489873
 20
-169.172917286013
 30
0.0
 40
34.02315326323126
100
AcDbArc
 50
143.7710201066352
 51
167.1791035800666
  0
ELLIPSE
  5
1A428
330
18
100
AcDbEntity
  8
姿図
100
AcDbEllipse
 10
2406.93418097248
 20
-166.5436234397577
 30
0.0
 11
-4.456000980367604
 21
7.069656768612845
 31
0.0
210
0.0
220
0.0
230
1.0
 40
0.6623046749705085
 41
0.0
 42
6.283185307179586
  0
ELLIPSE
  5
1A429
330
18
100
AcDbEntity
  8
姿図
100
AcDbEllipse
 10
2406.934864612564
 20
-166.4881162456305
 30
0.0
 11
4.62082461422436
 21
-7.331157276322933
 31
0.0
210
0.0
220
0.0
230
1.0
 40
0.6863351737607862
 41
-3.141592653589793
 42
3.141592653589793
  0
ELLIPSE
  5
1A42A
330
18
100
AcDbEntity
  8
姿図
100
AcDbEllipse
 10
2407.716937806633
 20
-166.0071934698345
 30
0.0
 11
-4.456000980368274
 21
7.06965676861236
 31
0.0
210
0.0
220
0.0
230
1.0
 40
0.6623046749705125
 41
0.1631095167755552
 42
3.081235483912125
  0
ELLIPSE
  5
1A42B
330
18
100
AcDbEntity
  8
姿図
100
AcDbEllipse
 10
2414.933342975121
 20
-162.3058245071703
 30
0.0
 11
-4.456000980367746
 21
7.069656768613173
 31
0.0
210
0.0
220
0.0
230
1.0
 40
0.662304674970479
 41
0.9054213287946076
 42
2.136436596989779
  0
ELLIPSE
  5
1A42C
330
18
100
AcDbEntity
  8
姿図
100
AcDbEllipse
 10
2415.953369379432
 20
-162.0912522638838
 30
0.0
 11
-4.456000980367095
 21
7.069656768613266
 31
0.0
210
0.0
220
0.0
230
1.0
 40
0.6623046749704969
 41
1.06460142046836
 42
1.939163156723323
  0
ELLIPSE
  5
1A42D
330
18
100
AcDbEntity
  8
姿図
100
AcDbEllipse
 10
2416.91971123151
 20
-162.2521811272023
 30
0.0
 11
-4.456000980369319
 21
7.069656768618889
 31
0.0
210
0.0
220
0.0
230
1.0
 40
0.662304674970031
 41
1.243214961786411
 42
1.690122470836986
  0
ELLIPSE
  5
1A42E
330
18
100
AcDbEntity
  8
姿図
100
AcDbEllipse
 10
2410.531116769901
 20
-163.9151144169397
 30
0.0
 11
-4.456000980367439
 21
7.069656768612796
 31
0.0
210
0.0
220
0.0
230
1.0
 40
0.6623046749705267
 41
0.4591420347467441
 42
2.773497807012458
  0
ELLIPSE
  5
1A42F
330
18
100
AcDbEntity
  8
姿図
100
AcDbEllipse
 10
2411.282715988183
 20
-163.5396133103351
 30
0.0
 11
-4.456000980367563
 21
7.069656768613028
 31
0.0
210
0.0
220
0.0
230
1.0
 40
0.6623046749704752
 41
0.525404355752475
 42
2.672012895072623
  0
ELLIPSE
  5
1A430
330
18
100
AcDbEntity
  8
姿図
100
AcDbEllipse
 10
2412.141686523361
 20
-163.2177543071131
 30
0.0
 11
-4.456000980367791
 21
7.06965676861278
 31
0.0
210
0.0
220
0.0
230
1.0
 40
0.6623046749705144
 41
0.596156730267611
 42
2.553339703901541
  0
ELLIPSE
  5
1A431
330
18
100
AcDbEntity
  8
姿図
100
AcDbEllipse
 10
2413.00065705854
 20
-162.8422532005085
 30
0.0
 11
-4.456000980367578
 21
7.069656768612583
 31
0.0
210
0.0
220
0.0
230
1.0
 40
0.6623046749705205
 41
0.6873953370103449
 42
2.434906789774352
  0
ELLIPSE
  5
1A432
330
18
100
AcDbEntity
  8
姿図
100
AcDbEllipse
 10
2413.913314358381
 20
-162.6276822338069
 30
0.0
 11
-4.456000980367747
 21
7.069656768612615
 31
0.0
210
0.0
220
0.0
230
1.0
 40
0.6623046749705187
 41
0.7734484980934191
 42
2.300448355830317
  0
ELLIPSE
  5
1A433
330
18
100
AcDbEntity
  8
姿図
100
AcDbEllipse
 10
2409.380866885492
 20
-164.9723898066169
 30
0.0
 11
-4.456000980367715
 21
7.069656768612587
 31
0.0
210
0.0
220
0.0
230
1.0
 40
0.6623046749705154
 41
0.2714006911431415
 42
2.874173387987511
  0
ELLIPSE
  5
1A434
330
18
100
AcDbEntity
  8
姿図
100
AcDbEllipse
 10
2409.940575633179
 20
-164.5588311467983
 30
0.0
 11
-4.456000980367689
 21
7.06965676861275
 31
0.0
210
0.0
220
0.0
230
1.0
 40
0.6623046749705125
 41
0.345414513183139
 42
2.824135529744306
  0
ELLIPSE
  5
1A435
330
18
100
AcDbEntity
  8
姿図
100
AcDbEllipse
 10
2408.560350551937
 20
-165.4171201199434
 30
0.0
 11
-4.456000980367713
 21
7.069656768612803
 31
0.0
210
0.0
220
0.0
230
1.0
 40
0.6623046749705057
 41
0.239569814910302
 42
2.990787662643266
  0
SPLINE
  5
1A436
330
18
100
AcDbEntity
  8
姿図
100
AcDbSpline
210
0.0
220
0.0
230
1.0
 70
     8
 71
     3
 72
    20
 73
    16
 74
     0
 42
0.000000001
 43
0.0000000001
 40
60.97286850367482
 40
60.97286850367482
 40
60.97286850367482
 40
60.97286850367482
 40
63.27662545801321
 40
63.27662545801321
 40
65.63207741714923
 40
65.63207741714923
 40
66.46294226239624
 40
66.46294226239624
 40
68.78483332584179
 40
68.78483332584179
 40
78.37384755292882
 40
78.37384755292882
 40
82.12808435629299
 40
82.12808435629299
 40
84.32250915659358
 40
84.32250915659358
 40
84.32250915659358
 40
84.32250915659358
 10
2431.182619480683
 20
-168.9765855981815
 30
-0.000000000000005
 10
2431.476474561969
 20
-168.6388126598405
 30
-0.0000000000000056
 10
2431.719136391432
 20
-168.3108596476646
 30
-0.0000000000000068
 10
2432.112223028178
 20
-167.7230759413318
 30
-0.0000000000000127
 10
2432.284302326132
 20
-167.426296593955
 30
-0.0000000000000046
 10
2432.435109872113
 20
-167.1473969817406
 30
-0.0000000000000046
 10
2432.476238801519
 20
-167.0689439125873
 30
-0.0000000000000046
 10
2432.633685268583
 20
-166.7591820685249
 30
-0.0000000000000046
 10
2432.728525789988
 20
-166.5533459387344
 30
-0.0000000000000127
 10
2433.205435970499
 20
-165.4315193501001
 30
-0.0000000000000046
 10
2433.651553134567
 20
-164.0474016214743
 30
-0.0000000000000127
 10
2433.810054121021
 20
-161.4692872710453
 30
-0.0000000000000046
 10
2433.800266734897
 20
-160.7308540893351
 30
-0.0000000000000046
 10
2433.700604793169
 20
-159.532203163382
 30
-0.0000000000000046
 10
2433.645566728792
 20
-159.0823056472026
 30
-0.0000000000000046
 10
2433.572326249707
 20
-158.6304682356771
 30
-0.0000000000000046
  0
ARC
  5
1A437
330
18
100
AcDbEntity
  8
姿図
100
AcDbCircle
 10
2406.61559917947
 20
-135.0511971733164
 30
0.0
 40
40.50125572339087
100
AcDbArc
 50
312.149744181786
 51
337.7894011511034
  0
ARC
  5
1A438
330
18
100
AcDbEntity
  8
姿図
100
AcDbCircle
 10
2375.893539792264
 20
-88.54556476176538
 30
0.0
 40
97.59766731684536
100
AcDbArc
 50
299.1742857521451
 51
304.7718218859779
  0
ARC
  5
1A439
330
18
100
AcDbEntity
  8
姿図
100
AcDbCircle
 10
2414.732935501503
 20
-139.1745092885527
 30
0.0
 40
35.67385242140735
100
AcDbArc
 50
261.6380248236465
 51
284.1755966320895
  0
ARC
  5
1A43A
330
18
100
AcDbEntity
  8
姿図
100
AcDbCircle
 10
2429.039630518407
 20
-152.3640440243367
 30
0.0
 40
9.620582517572863
100
AcDbArc
 50
89.9991346662252
 51
118.3230229954102
  0
ARC
  5
1A43B
330
18
100
AcDbEntity
  8
姿図
100
AcDbCircle
 10
2429.517121815169
 20
-152.6156750094445
 30
0.0
 40
9.620582517572863
100
AcDbArc
 50
89.9991346662252
 51
118.3230229954102
  0
ARC
  5
1A43C
330
18
100
AcDbEntity
  8
姿図
100
AcDbCircle
 10
2427.093721917281
 20
-157.9610572437033
 30
0.0
 40
16.26268158145045
100
AcDbArc
 50
89.15391243979948
 51
109.5374537908163
  0
SPLINE
  5
1A43D
330
18
100
AcDbEntity
  8
姿図
100
AcDbSpline
210
0.0
220
0.0
230
1.0
 70
     8
 71
     3
 72
    20
 73
    16
 74
     0
 42
0.000000001
 43
0.0000000001
 40
0.0507684683112425
 40
0.0507684683112425
 40
0.0507684683112425
 40
0.0507684683112425
 40
16.17239265914957
 40
16.17239265914957
 40
33.44137084920912
 40
33.44137084920912
 40
41.29196149669883
 40
41.29196149669883
 40
50.54402678597219
 40
50.54402678597219
 40
58.56297097631615
 40
58.56297097631615
 40
66.12555618457822
 40
66.12555618457822
 40
66.75214355035303
 40
66.75214355035303
 40
66.75214355035303
 40
66.75214355035303
 10
2431.592423542105
 20
-152.7750701203964
 30
-0.0000000000000046
 10
2430.915045155638
 20
-151.4790647783346
 30
-0.0000000000000046
 10
2430.096322042212
 20
-150.2378067426451
 30
-0.0000000000000046
 10
2428.159945724847
 20
-147.8855918853868
 30
-0.0000000000000046
 10
2426.67287036616
 20
-146.3651511621591
 30
-0.0000000000000046
 10
2423.817542587773
 20
-144.5118222820334
 30
-0.0000000000000046
 10
2422.889023373677
 20
-144.0223582113457
 30
-0.0000000000000046
 10
2420.855621439467
 20
-143.1899140814897
 30
-0.0000000000000046
 10
2419.753788571133
 20
-142.8913906880058
 30
-0.0000000000000046
 10
2417.717831788728
 20
-142.611181826281
 30
-0.0000000000000046
 10
2416.900027557557
 20
-142.6071838979173
 30
0.0000000000000035
 10
2415.553314502918
 20
-142.7200388447912
 30
-0.0000000000000046
 10
2414.749424523299
 20
-142.8522407309002
 30
-0.0000000000000046
 10
2413.859737051353
 20
-143.1495446273592
 30
-0.0000000000000046
 10
2413.791985172092
 20
-143.1731122604966
 30
-0.0000000000000046
 10
2413.724579232211
 20
-143.1974787402959
 30
-0.0000000000000046
  0
ARC
  5
1A43E
330
18
100
AcDbEntity
  8
姿図
100
AcDbCircle
 10
2436.930170181375
 20
-180.5547355732341
 30
0.0
 40
43.97799551346176
100
AcDbArc
 50
120.5127637963621
 51
131.8937550336379
  0
SPLINE
  5
1A43F
330
18
100
AcDbEntity
  8
姿図
100
AcDbSpline
210
0.0
220
0.0
230
1.0
 70
     8
 71
     1
 72
    95
 73
    93
 74
     0
 42
0.000000001
 43
0.0000000001
 40
4.868828357704044
 40
4.868828357704044
 40
4.899304006515187
 40
4.929779655326332
 40
4.960255304137476
 40
4.99073095294862
 40
5.021206601759763
 40
5.051682250570908
 40
5.082157899382052
 40
5.112633548193195
 40
5.141866847195869
 40
5.171100146198544
 40
5.200333445201219
 40
5.229566744203892
 40
5.258800043206566
 40
5.288033342209241
 40
5.317266641211915
 40
5.346499940214589
 40
5.375733239217263
 40
5.410288874003569
 40
5.444844508789874
 40
5.479400143576179
 40
5.513955778362485
 40
5.548511413148789
 40
5.583067047935096
 40
5.617622682721401
 40
5.652178317507706
 40
5.686733952294011
 40
5.721773394811629
 40
5.756812837329247
 40
5.791852279846864
 40
5.826891722364483
 40
5.861931164882101
 40
5.896970607399719
 40
5.932010049917338
 40
5.967049492434954
 40
6.002088934952573
 40
6.037128377470191
 40
6.072869040478575
 40
6.108609703486958
 40
6.144350366495342
 40
6.180091029503725
 40
6.215831692512109
 40
6.251572355520493
 40
6.287313018528875
 40
6.323053681537259
 40
6.358794344545643
 40
6.394535007554026
 40
6.434056964704096
 40
6.473578921854168
 40
6.51310087900424
 40
6.55262283615431
 40
6.59214479330438
 40
6.631666750454452
 40
6.671188707604522
 40
6.710710664754592
 40
6.750232621904663
 40
6.785926488730394
 40
6.821620355556124
 40
6.857314222381854
 40
6.893008089207585
 40
6.928701956033316
 40
6.964395822859046
 40
7.000089689684777
 40
7.035783556510507
 40
7.071477423336238
 40
7.107171290161968
 40
7.142623453249049
 40
7.178075616336131
 40
7.213527779423211
 40
7.248979942510293
 40
7.284432105597374
 40
7.319884268684455
 40
7.355336431771536
 40
7.390788594858618
 40
7.426240757945699
 40
7.46169292103278
 40
7.497078312165116
 40
7.532463703297453
 40
7.567849094429789
 40
7.603234485562125
 40
7.638619876694462
 40
7.674005267826798
 40
7.709390658959135
 40
7.74477605009147
 40
7.780161441223807
 40
7.808943887482561
 40
7.837726333741315
 40
7.866508780000069
 40
7.895291226258823
 40
7.924073672517576
 40
7.952856118776331
 40
7.981638565035084
 40
8.010421011293838
 40
8.010421011293838
 10
2437.629456527769
 20
-153.2927185934012
 30
-0.0000000000000046
 10
2437.65788316412
 20
-153.2870757455177
 30
-0.0000000000000046
 10
2437.68599244083
 20
-153.2800788851965
 30
-0.0000000000000046
 10
2437.713708429054
 20
-153.2717548821128
 30
-0.0000000000000046
 10
2437.740959767023
 20
-153.2621383761181
 30
-0.0000000000000046
 10
2437.767680870928
 20
-153.2512707719817
 30
-0.0000000000000046
 10
2437.793812870348
 20
-153.2391990492798
 30
-0.0000000000000127
 10
2437.819304237847
 20
-153.2259744652864
 30
-0.0000000000000127
 10
2437.844111107313
 20
-153.2116512294868
 30
-0.0000000000000046
 10
2437.867229898085
 20
-153.1969312897623
 30
-0.0000000000000046
 10
2437.88966003997
 20
-153.1813016247478
 30
-0.0000000000000046
 10
2437.91138199891
 20
-153.1648115729837
 30
-0.0000000000000046
 10
2437.932381705639
 20
-153.1475093416919
 30
-0.0000000000000046
 10
2437.952649985446
 20
-153.1294414460682
 30
-0.0000000000000046
 10
2437.972181940874
 20
-153.1106522922875
 30
-0.0000000000000127
 10
2437.990976320404
 20
-153.0911838956146
 30
-0.0000000000000127
 10
2438.009034900108
 20
-153.0710757195542
 30
-0.0000000000000127
 10
2438.026361898947
 20
-153.0503646187254
 30
-0.0000000000000046
 10
2438.045908497469
 20
-153.0251519229736
 30
-0.0000000000000046
 10
2438.064454117971
 20
-152.9991967002715
 30
-0.0000000000000046
 10
2438.082013218643
 20
-152.9725465896191
 30
-0.0000000000000046
 10
2438.098601312468
 20
-152.9452451407925
 30
-0.0000000000000046
 10
2438.114234339983
 20
-152.9173322820885
 30
-0.0000000000000046
 10
2438.128928185536
 20
-152.8888448018505
 30
-0.0000000000000127
 10
2438.142698318887
 20
-152.8598168204843
 30
-0.0000000000000127
 10
2438.155559543012
 20
-152.8302802368468
 30
-0.0000000000000046
 10
2438.167525829441
 20
-152.8002651387043
 30
-0.0000000000000127
 10
2438.178759213321
 20
-152.7693705755622
 30
-0.0000000000000046
 10
2438.189098423557
 20
-152.738042150368
 30
-0.0000000000000046
 10
2438.198555030836
 20
-152.7063076780513
 30
-0.0000000000000046
 10
2438.207139624747
 20
-152.674194349643
 30
-0.0000000000000046
 10
2438.214861873435
 20
-152.6417289461746
 30
-0.0000000000000046
 10
2438.221730598727
 20
-152.6089380142888
 30
-0.0000000000000046
 10
2438.227753860464
 20
-152.5758480076305
 30
-0.0000000000000046
 10
2438.2329390452
 20
-152.5424853981077
 30
-0.0000000000000127
 10
2438.237292955599
 20
-152.5088767608946
 30
-0.0000000000000127
 10
2438.240821897833
 20
-152.4750488368142
 30
-0.0000000000000046
 10
2438.243577674571
 20
-152.440345974402
 30
-0.0000000000000046
 10
2438.245487159485
 20
-152.4054718527003
 30
-0.0000000000000127
 10
2438.24655596462
 20
-152.370455592985
 30
-0.0000000000000046
 10
2438.246789489772
 20
-152.3353265865575
 30
-0.0000000000000046
 10
2438.246192985686
 20
-152.3001144854005
 30
-0.0000000000000046
 10
2438.244771608912
 20
-152.2648491842757
 30
-0.0000000000000046
 10
2438.24253046829
 20
-152.229560795961
 30
-0.0000000000000046
 10
2438.239474663128
 20
-152.1942796211735
 30
-0.0000000000000046
 10
2438.235609313194
 20
-152.159036114488
 30
-0.0000000000000046
 10
2438.230939580683
 20
-152.1238608474486
 30
-0.0000000000000127
 10
2438.224845554167
 20
-152.0850805004837
 30
-0.0000000000000127
 10
2438.217781466205
 20
-152.0464625713656
 30
-0.0000000000000127
 10
2438.209754554327
 20
-152.008048549396
 30
-0.0000000000000046
 10
2438.200772131535
 20
-151.9698798545445
 30
-0.0000000000000046
 10
2438.190841557373
 20
-151.9319977785841
 30
-0.0000000000000046
 10
2438.179970196165
 20
-151.894443431942
 30
-0.0000000000000046
 10
2438.168165362795
 20
-151.8572576982255
 30
-0.0000000000000127
 10
2438.155434256421
 20
-151.8204811985642
 30
-0.0000000000000046
 10
2438.141783882621
 20
-151.7841542681332
 30
-0.0000000000000046
 10
2438.128671260977
 20
-151.7517656243541
 30
-0.0000000000000127
 10
2438.114819005792
 20
-151.719805635728
 30
-0.0000000000000046
 10
2438.100231489175
 20
-151.6883034249487
 30
-0.0000000000000046
 10
2438.084912698193
 20
-151.6572879731217
 30
-0.0000000000000127
 10
2438.068866164762
 20
-151.6267881663699
 30
-0.0000000000000127
 10
2438.052094894885
 20
-151.5968328603145
 30
-0.0000000000000046
 10
2438.03460129951
 20
-151.5674509649638
 30
-0.0000000000000046
 10
2438.016387129934
 20
-151.5386715527108
 30
-0.0000000000000046
 10
2437.997453421579
 20
-151.5105239922633
 30
-0.0000000000000046
 10
2437.977800450949
 20
-151.4830381113128
 30
-0.0000000000000046
 10
2437.957568090349
 20
-151.4564234291998
 30
-0.0000000000000046
 10
2437.936624419742
 20
-151.4305222890411
 30
-0.0000000000000046
 10
2437.91496746061
 20
-151.4053665269117
 30
-0.0000000000000046
 10
2437.892594596049
 20
-151.3809893780559
 30
-0.0000000000000127
 10
2437.869502711073
 20
-151.357425797588
 30
-0.0000000000000127
 10
2437.845688404672
 20
-151.3347128099616
 30
-0.0000000000000127
 10
2437.821148289467
 20
-151.3128898799854
 30
-0.0000000000000127
 10
2437.795879395863
 20
-151.2919992937917
 30
-0.0000000000000046
 10
2437.769879697808
 20
-151.2720865326386
 30
-0.0000000000000046
 10
2437.743148775912
 20
-151.2532006157797
 30
-0.0000000000000127
 10
2437.715741032497
 20
-151.2354268681696
 30
-0.0000000000000127
 10
2437.687612162424
 20
-151.2187852489366
 30
-0.0000000000000046
 10
2437.658771992163
 20
-151.2033362655678
 30
-0.0000000000000046
 10
2437.629236063535
 20
-151.1891442511825
 30
-0.0000000000000046
 10
2437.599026973171
 20
-151.1762769367375
 30
-0.0000000000000046
 10
2437.568175751011
 20
-151.1648047126017
 30
-0.0000000000000127
 10
2437.536723195798
 20
-151.1547995351397
 30
-0.0000000000000046
 10
2437.504721061732
 20
-151.1463334530343
 30
-0.0000000000000127
 10
2437.472232971145
 20
-151.1394767576929
 30
-0.0000000000000127
 10
2437.445500948507
 20
-151.1351325420029
 30
-0.0000000000000046
 10
2437.418544396568
 20
-151.1319298632858
 30
-0.0000000000000046
 10
2437.391415455334
 20
-151.1298977550938
 30
-0.0000000000000127
 10
2437.364171043644
 20
-151.1290606731565
 30
-0.0000000000000046
 10
2437.336872231429
 20
-151.1294376613779
 30
-0.0000000000000046
 10
2437.309583414865
 20
-151.1310416258874
 30
-0.0000000000000127
 10
2437.282371319644
 20
-151.133878764647
 30
-0.0000000000000127
 10
2437.25530387198
 20
-151.1379481932482
 30
-0.0000000000000046
  0
LWPOLYLINE
  5
1A440
330
18
100
AcDbEntity
  8
姿図
100
AcDbPolyline
 90
        3
 70
     0
 43
0.0
 10
2442.022499747726
 20
-150.0597012715829
 10
2441.209771400511
 20
-152.0961561064822
 10
2439.649106742348
 20
-154.5208611920583
  0
LWPOLYLINE
  5
1A441
330
18
100
AcDbEntity
  8
姿図
100
AcDbPolyline
 90
        4
 70
     0
 43
0.0
 10
2434.637083590209
 20
-160.830652648615
 10
2436.108025947085
 20
-159.7748562918915
 10
2436.47718254043
 20
-159.391954372595
 10
2438.768463657093
 20
-154.8309159954619
  0
LWPOLYLINE
  5
1A442
330
18
100
AcDbEntity
  8
姿図
100
AcDbPolyline
 90
        4
 70
     0
 43
0.0
 10
2434.617795189734
 20
-160.2261513238012
 10
2435.764313294063
 20
-159.4032165352224
 10
2436.133469887407
 20
-159.0203146159257
 10
2438.424751004071
 20
-154.4592762387925
  0
SPLINE
  5
1A443
330
18
100
AcDbEntity
  8
姿図
100
AcDbSpline
210
0.0
220
0.0
230
1.0
 70
     8
 71
     3
 72
     8
 73
     4
 74
     0
 42
0.000000001
 43
0.0000000001
 40
20.17474574740567
 40
20.17474574740567
 40
20.17474574740567
 40
20.17474574740567
 40
20.51051228626665
 40
20.51051228626665
 40
20.51051228626665
 40
20.51051228626665
 10
2431.634635424478
 20
-152.8562681219861
 30
-0.0000000000000046
 10
2431.620639381603
 20
-152.8292123680493
 30
-0.0000000000000046
 10
2431.606563460932
 20
-152.8021477470664
 30
-0.0000000000000046
 10
2431.592406817117
 20
-152.7750730245108
 30
-0.0000000000000046
  0
LWPOLYLINE
  5
1A444
330
18
100
AcDbEntity
  8
姿図
100
AcDbPolyline
 90
        4
 70
     0
 43
0.0
 10
2426.84750052435
 20
-145.3749859799578
 10
2427.296830346766
 20
-145.0973692137746
 10
2427.666763006857
 20
-144.9593545530637
 10
2431.82171904493
 20
-143.7029431498908
  0
LWPOLYLINE
  5
1A445
330
18
100
AcDbEntity
  8
姿図
100
AcDbPolyline
 90
        4
 70
     0
 43
0.0
 10
2427.197896521726
 20
-145.6790506733163
 10
2427.647226344143
 20
-145.4014339071331
 10
2428.017159004233
 20
-145.2634192464221
 10
2432.172115042307
 20
-144.0070078432492
  0
LINE
  5
1A446
330
18
100
AcDbEntity
  8
姿図
100
AcDbLine
 10
2432.172115042307
 20
-144.0070078432492
 30
0.0
 11
2429.368069162652
 21
-146.6626046805762
 31
0.0
  0
LWPOLYLINE
  5
1A447
330
18
100
AcDbEntity
  8
姿図
100
AcDbPolyline
 90
        4
 70
     0
 43
0.0
 10
2430.512108772851
 20
-149.0227035473644
 10
2431.815204496341
 20
-148.0479739273325
 10
2432.133414868076
 20
-147.9272924243429
 10
2434.639629235004
 20
-146.8666939535755
  0
LWPOLYLINE
  5
1A448
330
18
100
AcDbEntity
  8
姿図
100
AcDbPolyline
 90
        4
 70
     0
 43
0.0
 10
2430.930795539258
 20
-149.4516110437099
 10
2432.233891262747
 20
-148.476881423678
 10
2432.552101634483
 20
-148.3561999206885
 10
2434.888727108912
 20
-147.3383437433555
  0
ARC
  5
1A449
330
18
100
AcDbEntity
  8
姿図
100
AcDbCircle
 10
2415.413901939077
 20
-161.5554595644077
 30
0.0
 40
20.05365414378541
100
AcDbArc
 50
39.63303634461229
 51
47.92697906334807
  0
LINE
  5
1A44A
330
18
100
AcDbEntity
  8
姿図
100
AcDbLine
 10
2429.517267114094
 20
-142.9950924929684
 30
0.0
 11
2428.032746331704
 21
-143.7930402651012
 31
0.0
  0
SPLINE
  5
1A44B
330
18
100
AcDbEntity
  8
姿図
100
AcDbSpline
210
0.0
220
0.0
230
1.0
 70
     8
 71
     3
 72
    14
 73
    10
 74
     0
 42
0.000000001
 43
0.0000000001
 40
-12.4176878319165
 40
-12.4176878319165
 40
-12.4176878319165
 40
-12.4176878319165
 40
-9.929941621284126
 40
-9.929941621284126
 40
-7.882361304732088
 40
-7.882361304732088
 40
-6.55536423551068
 40
-6.55536423551068
 40
-6.54232051596743
 40
-6.54232051596743
 40
-6.54232051596743
 40
-6.54232051596743
 10
2435.575366151749
 20
-150.4585500195975
 30
-0.0000000000000046
 10
2435.770881544735
 20
-150.3791425482567
 30
-0.0000000000000046
 10
2436.005724932104
 20
-150.2827574656047
 30
-0.0000000000000046
 10
2436.418568131812
 20
-150.1251232730932
 30
-0.0000000000000046
 10
2436.60918437158
 20
-150.0558324908355
 30
-0.0000000000000127
 10
2436.920033071132
 20
-149.961177560239
 30
-0.0000000000000046
 10
2437.060961036022
 20
-149.9233510402677
 30
-0.0000000000000127
 10
2437.194955908631
 20
-149.8998256150434
 30
-0.0000000000000046
 10
2437.196258168297
 20
-149.8995982046061
 30
-0.0000000000000127
 10
2437.197558434145
 20
-149.8993724545343
 30
-0.0000000000000046
  0
SPLINE
  5
1A44C
330
18
100
AcDbEntity
  8
姿図
100
AcDbSpline
210
0.0
220
0.0
230
1.0
 70
     8
 71
     3
 72
    14
 73
    10
 74
     0
 42
0.000000001
 43
0.0000000001
 40
-12.4176878319165
 40
-12.4176878319165
 40
-12.4176878319165
 40
-12.4176878319165
 40
-9.929941621284126
 40
-9.929941621284126
 40
-7.882361304732088
 40
-7.882361304732088
 40
-6.55536423551068
 40
-6.55536423551068
 40
-6.54232051596743
 40
-6.54232051596743
 40
-6.54232051596743
 40
-6.54232051596743
 10
2435.57533355435
 20
-150.458538476838
 30
-0.0000000000000046
 10
2435.77085056362
 20
-150.3791303490526
 30
-0.0000000000000046
 10
2436.005695892391
 20
-150.2827444696053
 30
-0.0000000000000046
 10
2436.418542504987
 20
-150.1251089739643
 30
-0.0000000000000046
 10
2436.60916032054
 20
-150.0558176188948
 30
-0.0000000000000127
 10
2436.920011589814
 20
-149.9611619058052
 30
-0.0000000000000046
 10
2437.060940719724
 20
-149.92333507313
 30
-0.0000000000000127
 10
2437.194936700042
 20
-149.899809453426
 30
-0.0000000000000046
 10
2437.196238970474
 20
-149.8995820411093
 30
-0.0000000000000127
 10
2437.19753924707
 20
-149.8993562891711
 30
-0.0000000000000046
  0
SPLINE
  5
1A44D
330
18
100
AcDbEntity
  8
姿図
100
AcDbSpline
210
6.678070287520410E-6
220
-1.644267965014538E-5
230
-0.9999999998425209
 70
     8
 71
     3
 72
     8
 73
     4
 74
     0
 42
0.000000001
 43
0.0000000001
 40
110.2937215201613
 40
110.2937215201613
 40
110.2937215201613
 40
110.2937215201613
 40
110.302956437032
 40
110.302956437032
 40
110.302956437032
 40
110.302956437032
 10
2435.575366151749
 20
-150.4585500195975
 30
-0.0000000000000046
 10
2435.575279367219
 20
-150.4585852666424
 30
-0.0000000000000127
 10
2435.575192585254
 20
-150.4586205123202
 30
-0.0000000000000046
 10
2435.57510580565
 20
-150.4586557567092
 30
-0.0000000000000127
  0
SPLINE
  5
1A44E
330
18
100
AcDbEntity
  8
姿図
100
AcDbSpline
210
0.0
220
0.0
230
1.0
 70
     8
 71
     3
 72
     8
 73
     4
 74
     0
 42
0.000000001
 43
0.0000000001
 40
-5.558709854342928
 40
-5.558709854342928
 40
-5.558709854342928
 40
-5.558709854342928
 40
-5.251204385375416
 40
-5.251204385375416
 40
-5.251204385375416
 40
-5.251204385375416
 10
2435.535126753368
 20
-150.5085849637234
 30
-0.0000000000000046
 10
2435.548220155743
 20
-150.4915621982246
 30
-0.0000000000000046
 10
2435.561548189321
 20
-150.4749083888647
 30
-0.0000000000000127
 10
2435.57510580565
 20
-150.4586557567092
 30
-0.0000000000000127
  0
SPLINE
  5
1A44F
330
18
100
AcDbEntity
  8
姿図
100
AcDbSpline
210
6.675042154986655E-6
220
-1.643522378896765E-5
230
-0.9999999998426636
 70
     8
 71
     3
 72
     8
 73
     4
 74
     0
 42
0.000000001
 43
0.0000000001
 40
110.2937215201613
 40
110.2937215201613
 40
110.2937215201613
 40
110.2937215201613
 40
110.302956437032
 40
110.302956437032
 40
110.302956437032
 40
110.302956437032
 10
2435.57533355435
 20
-150.458538476838
 30
-0.0000000000000046
 10
2435.575246769103
 20
-150.4585737241745
 30
-0.0000000000000127
 10
2435.575159986419
 20
-150.4586089701437
 30
-0.0000000000000046
 10
2435.575073206098
 20
-150.4586442148239
 30
-0.0000000000000127
  0
SPLINE
  5
1A450
330
18
100
AcDbEntity
  8
姿図
100
AcDbSpline
210
0.0
220
0.0
230
1.0
 70
     8
 71
     3
 72
     8
 73
     4
 74
     0
 42
0.000000001
 43
0.0000000001
 40
-5.558709854342928
 40
-5.558709854342928
 40
-5.558709854342928
 40
-5.558709854342928
 40
-5.251204385375416
 40
-5.251204385375416
 40
-5.251204385375416
 40
-5.251204385375416
 10
2435.535093823318
 20
-150.5085738345928
 30
-0.0000000000000046
 10
2435.548187333933
 20
-150.4915509283702
 30
-0.0000000000000046
 10
2435.561515477692
 20
-150.4748969813364
 30
-0.0000000000000127
 10
2435.575073206098
 20
-150.4586442148239
 30
-0.0000000000000127
  0
LINE
  5
1A451
330
18
100
AcDbEntity
  8
姿図
100
AcDbLine
 10
2434.80075893544
 20
-147.7081948620925
 30
0.0
 11
2432.892637865999
 21
-150.322342715249
 31
0.0
  0
LWPOLYLINE
  5
1A452
330
18
100
AcDbEntity
  8
姿図
100
AcDbPolyline
 90
        3
 70
     0
 43
0.0
 10
2442.342912785778
 20
-149.3148699547522
 10
2442.909080124187
 20
-149.5595605317222
 10
2444.111689032623
 20
-150.3611599719565
  0
ELLIPSE
  5
1A453
330
18
100
AcDbEntity
  8
姿図
100
AcDbEllipse
 10
2424.336900353654
 20
-121.5586732663363
 30
0.0
 11
-1.368581469670259
 21
-0.164959621253248
 31
0.0
210
0.0
220
0.0
230
1.0
 40
0.4628655777425251
 41
5.477092832877411
 42
9.981255930046515
  0
LINE
  5
1A454
330
18
100
AcDbEntity
  8
姿図
100
AcDbLine
 10
2424.739017958549
 20
-122.134148351074
 30
0.0
 11
2425.576578280777
 21
-121.1678427066078
 31
0.0
  0
LINE
  5
1A455
330
18
100
AcDbEntity
  8
姿図
100
AcDbLine
 10
2425.157062498997
 20
-121.995369755352
 30
0.0
 11
2425.701151088271
 21
-121.3676467592262
 31
0.0
  0
ELLIPSE
  5
1A456
330
18
100
AcDbEntity
  8
姿図
100
AcDbEllipse
 10
2424.440277502224
 20
-122.0418515481193
 30
0.0
 11
-2.971800284693409
 21
-0.1926051474123313
 31
0.0
210
0.0
220
0.0
230
1.0
 40
0.423425259805966
 41
0.3786499284263661
 42
2.848220962939281
  0
ELLIPSE
  5
1A457
330
18
100
AcDbEntity
  8
姿図
100
AcDbEllipse
 10
2424.440277502224
 20
-122.0418515481193
 30
0.0
 11
-2.971800284693409
 21
-0.1926051474123313
 31
0.0
210
0.0
220
0.0
230
1.0
 40
0.423425259805966
 41
3.551025708286839
 42
6.045724500716436
  0
ELLIPSE
  5
1A458
330
18
100
AcDbEntity
  8
姿図
100
AcDbEllipse
 10
2424.525849050431
 20
-122.3174956525862
 30
0.0
 11
-2.918677587539621
 21
-0.1486649413191063
 31
0.0
210
0.0
220
0.0
230
1.0
 40
0.4310041458033451
 41
3.612298197460502
 42
5.991115740086309
  0
ELLIPSE
  5
1A459
330
18
100
AcDbEntity
  8
姿図
100
AcDbEllipse
 10
2424.423912205625
 20
-121.8125554381207
 30
0.0
 11
2.901719977023499
 21
0.2148090239093373
 31
0.0
210
0.0
220
0.0
230
1.0
 40
0.4346217930958619
 41
3.572038920501568
 42
5.869050530619732
  0
ELLIPSE
  5
1A45A
330
18
100
AcDbEntity
  8
姿図
100
AcDbEllipse
 10
2424.229732141032
 20
-119.3075743939715
 30
0.0
 11
-2.977196164755572
 21
-0.07068713799741955
 31
0.0
210
0.0
220
0.0
230
1.0
 40
0.423425259805966
 41
3.562126164169125
 42
6.045724500716436
  0
LINE
  5
1A45B
330
18
100
AcDbEntity
  8
姿図
100
AcDbLine
 10
2422.975938563811
 20
-121.7635602309803
 30
0.0
 11
2423.478308900461
 21
-121.1839681955947
 31
0.0
  0
LINE
  5
1A45C
330
18
100
AcDbEntity
  8
姿図
100
AcDbLine
 10
2423.105906308318
 20
-121.9571400655356
 30
0.0
 11
2423.829981355542
 21
-121.1217640495262
 31
0.0
  0
LINE
  5
1A45D
330
18
100
AcDbEntity
  8
姿図
100
AcDbLine
 10
2423.300306236006
 20
-122.0763835440811
 30
0.0
 11
2424.162705903438
 21
-121.0814203822521
 31
0.0
  0
LINE
  5
1A45E
330
18
100
AcDbEntity
  8
姿図
100
AcDbLine
 10
2423.530956832084
 20
-122.1538040941128
 30
0.0
 11
2424.480225524069
 21
-121.0586188628687
 31
0.0
  0
LINE
  5
1A45F
330
18
100
AcDbEntity
  8
姿図
100
AcDbLine
 10
2423.789819226178
 20
-122.1986762784462
 30
0.0
 11
2424.784750523649
 21
-121.0508094286362
 31
0.0
  0
LINE
  5
1A460
330
18
100
AcDbEntity
  8
姿図
100
AcDbLine
 10
2424.074940023102
 20
-122.2132537577955
 30
0.0
 11
2425.07763699819
 21
-121.0564275316677
 31
0.0
  0
LINE
  5
1A461
330
18
100
AcDbEntity
  8
姿図
100
AcDbLine
 10
2424.38849933928
 20
-122.1950212998212
 30
0.0
 11
2425.359697493926
 21
-121.0745357254403
 31
0.0
  0
LWPOLYLINE
  5
1A462
330
18
100
AcDbEntity
  8
姿図
100
AcDbPolyline
 90
        3
 70
     0
 43
0.0
 10
2420.591183726096
 20
-122.6256392975291
 10
2420.510106424055
 20
-122.6696774113585
 10
2420.498132608645
 20
-122.7164326348967
  0
LWPOLYLINE
  5
1A463
330
18
100
AcDbEntity
  8
姿図
100
AcDbPolyline
 90
        3
 70
     0
 43
0.0
 10
2420.466858326034
 20
-122.7822149031698
 10
2420.385781023992
 20
-122.826253016999
 10
2420.373807208582
 20
-122.8730082405372
  0
LINE
  5
1A464
330
18
100
AcDbEntity
  8
姿図
100
AcDbLine
 10
2449.482504355844
 20
-123.264455794155
 30
0.0
 11
2433.032920211357
 21
-123.4713952050755
 31
0.0
  0
LINE
  5
1A465
330
18
100
AcDbEntity
  8
姿図
100
AcDbLine
 10
2433.705718585978
 20
-120.2970360478481
 30
0.0
 11
2449.385855874788
 21
-123.2656716534469
 31
0.0
  0
LINE
  5
1A466
330
18
100
AcDbEntity
  8
姿図
100
AcDbLine
 10
2438.519606484033
 20
-117.9564922506851
 30
0.0
 11
2441.336044742986
 21
-117.7100603994257
 31
0.0
  0
LINE
  5
1A494
330
18
100
AcDbEntity
  8
姿図
100
AcDbLine
 10
2437.316879950219
 20
-110.0007671133793
 30
0.0
 11
2449.263850443033
 21
-113.5674773520726
 31
0.0
  0
LINE
  5
1A495
330
18
100
AcDbEntity
  8
姿図
100
AcDbLine
 10
2438.388716221192
 20
-116.3018245368156
 30
0.0
 11
2441.208871446952
 21
-116.1023812455568
 31
0.0
  0
LINE
  5
1A496
330
18
100
AcDbEntity
  8
姿図
100
AcDbLine
 10
2438.251808449768
 20
-116.9066776988828
 30
0.0
 11
2441.079815633562
 21
-116.6746825905612
 31
0.0
  0
SPLINE
  5
1A497
330
18
100
AcDbEntity
  8
姿図
100
AcDbSpline
210
0.0
220
0.0
230
1.0
 70
     8
 71
     3
 72
    14
 73
    10
 74
     0
 42
0.000000001
 43
0.0000000001
 40
0.0
 40
0.0
 40
0.0
 40
0.0
 40
1.0
 40
1.0
 40
1.0
 40
2.0
 40
2.0
 40
2.0
 40
2.022340226574543
 40
2.022340226574543
 40
2.022340226574543
 40
2.022340226574543
 10
2441.74605944525
 20
-115.61752779407
 30
0.0
 10
2441.74605944525
 20
-115.61752779407
 30
0.0
 10
2438.919299356637
 20
-115.8325748158298
 30
0.0
 10
2438.919299356637
 20
-115.8325748158298
 30
0.0
 10
2438.533121561686
 20
-115.841282609336
 30
0.0
 10
2438.232463443096
 20
-116.4073588862683
 30
0.0
 10
2438.248021773451
 20
-117.09734788354
 30
0.0
 10
2438.248369350076
 20
-117.112762394073
 30
0.0
 10
2438.248871797875
 20
-117.128108010788
 30
0.0
 10
2438.249526329423
 20
-117.1433800216406
 30
0.0
  0
LINE
  5
1A498
330
18
100
AcDbEntity
  8
姿図
100
AcDbLine
 10
2438.27519189606
 20
-117.4635204787147
 30
0.0
 11
2441.108340426043
 21
-117.2188204480839
 31
0.0
  0
TEXT
  5
1A525
330
18
100
AcDbEntity
  8
文字
100
AcDbText
 10
2397.047419703823
 20
-192.4841163835669
 30
0.0
 40
6.5
  1
SX-514F
100
AcDbText
  0
ELLIPSE
  5
1A52E
330
18
100
AcDbEntity
  8
姿図
100
AcDbEllipse
 10
2416.116514620008
 20
-160.3538841360393
 30
0.0000000000000048
 11
-8.432450251294176
 21
12.61181116429641
 31
4.386293637723247E-16
210
-1.606993413196815E-17
220
2.403464813373136E-17
230
-1.0
 40
0.744588740702728
 41
-0.1600394095497981
 42
3.301632058444354
  0
ELLIPSE
  5
1A52F
330
18
100
AcDbEntity
  8
姿図
100
AcDbEllipse
 10
2416.00172210687
 20
-160.5148541291379
 30
0.0000000000000048
 11
-8.432450251296261
 21
12.6118111642947
 31
4.386293637723172E-16
210
-1.606993413196816E-17
220
2.403464813373136E-17
230
-1.0
 40
0.7445887407027381
 41
-0.1600394095495612
 42
2.858287793139751
  0
ELLIPSE
  5
1A530
330
18
100
AcDbEntity
  8
姿図
100
AcDbEllipse
 10
2420.526592443291
 20
-157.4052382211204
 30
0.0000000000000035
 11
-8.813086741627005
 21
13.18110186809148
 31
1.375286606555147E-15
210
-4.820980239590449E-17
220
7.210394440119406E-17
230
-1.0
 40
0.7445887407026734
 41
2.121095593058011
 42
2.942897457598437
  0
SPLINE
  5
1A531
330
18
100
AcDbEntity
  8
姿図
100
AcDbSpline
210
0.0
220
0.0
230
1.0
 70
     8
 71
     3
 72
     8
 73
     4
 74
     0
 42
0.000000001
 43
0.0000000001
 40
6.0
 40
6.0
 40
6.0
 40
6.0
 40
6.981114317255776
 40
6.981114317255776
 40
6.981114317255776
 40
6.981114317255776
 10
2428.764516884165
 20
-121.4757210633228
 30
0.0000000000000033
 10
2428.962192992553
 20
-122.0567492565884
 30
0.0000000000000033
 10
2435.17219362346
 20
-149.5292213224137
 30
0.0000000000000033
 10
2435.406718403166
 20
-150.6801376469199
 30
0.0000000000000033
  0
LINE
  5
1A532
330
18
100
AcDbEntity
  8
姿図
100
AcDbLine
 10
2431.510516677336
 20
-139.3285935797256
 30
0.0000000000000026
 11
2428.154767296734
 21
-141.2229548850879
 31
0.0000000000000026
  0
LINE
  5
1A533
330
18
100
AcDbEntity
  8
姿図
100
AcDbLine
 10
2439.061721823468
 20
-139.5532030758858
 30
0.0000000000000048
 11
2439.395471365487
 21
-140.9183005396068
 31
0.0000000000000048
  0
LINE
  5
1A534
330
18
100
AcDbEntity
  8
姿図
100
AcDbLine
 10
2441.48911735909
 20
-140.2369256047554
 30
0.0000000000000048
 11
2441.990069106221
 21
-142.2859110664932
 31
0.0000000000000048
  0
LINE
  5
1A535
330
18
100
AcDbEntity
  8
姿図
100
AcDbLine
 10
2441.171579412008
 20
-140.017501210673
 30
0.0000000000000048
 11
2438.688774006968
 21
-141.231346415704
 31
0.0000000000000048
  0
ARC
  5
1A536
330
18
100
AcDbEntity
  8
姿図
100
AcDbCircle
 10
2430.731662725918
 20
-150.3116394695093
 30
0.0000000000000048
 40
12.02005315416621
100
AcDbArc
 50
32.49829009887419
 51
65.60516287845797
  0
SPLINE
  5
1A537
330
18
100
AcDbEntity
  8
姿図
100
AcDbSpline
210
0.0
220
0.0
230
1.0
 70
     8
 71
     3
 72
     8
 73
     4
 74
     0
 42
0.000000001
 43
0.0000000001
 40
15.0
 40
15.0
 40
15.0
 40
15.0
 40
15.72631331981369
 40
15.72631331981369
 40
15.72631331981369
 40
15.72631331981369
 10
2417.153609610054
 20
-121.0048784968313
 30
0.0000000000000033
 10
2417.153609610054
 20
-121.0048784968313
 30
0.0000000000000033
 10
2415.974663321033
 20
-131.5095053044871
 30
0.0000000000000033
 10
2414.690342233271
 20
-142.5386638948668
 30
0.0000000000000033
  0
SPLINE
  5
1A538
330
18
100
AcDbEntity
  8
姿図
100
AcDbSpline
210
0.0
220
0.0
230
1.0
 70
     8
 71
     3
 72
     8
 73
     4
 74
     0
 42
0.000000001
 43
0.0000000001
 40
0.2696514016814274
 40
0.2696514016814274
 40
0.2696514016814274
 40
0.2696514016814274
 40
1.0
 40
1.0
 40
1.0
 40
1.0
 10
2415.279151818248
 20
-142.3027493081141
 30
0.0000000000000033
 10
2416.734944674567
 20
-131.9161683926685
 30
0.0000000000000033
 10
2418.26868691007
 20
-122.4192832987736
 30
0.0000000000000033
 10
2418.26868691007
 20
-122.4192832987736
 30
0.0000000000000033
  0
LINE
  5
1A539
330
18
100
AcDbEntity
  8
姿図
100
AcDbLine
 10
2420.367479879863
 20
-122.8637053950589
 30
0.0000000000000033
 11
2417.211308373508
 21
-142.2302785933122
 31
0.0000000000000033
  0
ARC
  5
1A53A
330
18
100
AcDbEntity
  8
姿図
100
AcDbCircle
 10
2441.620861728436
 20
-201.004624020043
 30
0.0000000000000048
 40
63.61878588667222
100
AcDbArc
 50
99.1598397417618
 51
112.3175226532983
  0
SPLINE
  5
1A53B
330
18
100
AcDbEntity
  8
姿図
100
AcDbSpline
210
0.0
220
0.0
230
1.0
 70
     8
 71
     3
 72
    18
 73
    14
 74
     0
 42
0.000000001
 43
0.0000000001
 40
28.74698734064234
 40
28.74698734064234
 40
28.74698734064234
 40
28.74698734064234
 40
33.44137084920912
 40
33.44137084920912
 40
41.29196149669883
 40
41.29196149669883
 40
50.54402678597219
 40
50.54402678597219
 40
58.56297097631615
 40
58.56297097631615
 40
66.12555618457822
 40
66.12555618457822
 40
66.63663448405963
 40
66.63663448405963
 40
66.63663448405963
 40
66.63663448405963
 10
2427.728843793053
 20
-146.1173247779471
 30
0.000000000000004
 10
2427.269959435639
 20
-145.7255770279197
 30
0.0000000000000045
 10
2426.773081187925
 20
-145.3392696159809
 30
0.0000000000000048
 10
2425.341820933402
 20
-144.3508790888967
 30
0.0000000000000048
 10
2424.400455483455
 20
-143.8199413567153
 30
0.0
 10
2422.319022543737
 20
-142.8954677662167
 30
0.0000000000000048
 10
2421.178486360599
 20
-142.546309241522
 30
0.0
 10
2419.048460655187
 20
-142.1711719250114
 30
0.0000000000000048
 10
2418.183849739914
 20
-142.1284969731561
 30
0.0000000000000048
 10
2416.750132806361
 20
-142.1770599648845
 30
0.0000000000000048
 10
2415.888919990894
 20
-142.2705580529861
 30
0.0000000000000048
 10
2414.936865245167
 20
-142.5206891860477
 30
0.0000000000000048
 10
2414.876779462756
 20
-142.5370756798631
 30
0.0000000000000049
 10
2414.816889585653
 20
-142.5540042585859
 30
0.0000000000000049
  0
ELLIPSE
  5
1A53C
330
18
100
AcDbEntity
  8
姿図
100
AcDbEllipse
 10
2420.526592443291
 20
-157.4052382211204
 30
0.0000000000000035
 11
-8.813086741624367
 21
13.18110186809307
 31
1.375286606555136E-15
210
-4.820980239590454E-17
220
7.210394440119418E-17
230
-1.0
 40
0.7445887407027083
 41
0.1816174140284772
 42
1.721396946041295
  0
SPLINE
  5
1A53D
330
18
100
AcDbEntity
  8
姿図
100
AcDbSpline
210
0.0
220
0.0
230
1.0
 70
    24
 71
     1
 72
     4
 73
     2
 74
     0
 42
0.000000001
 43
0.0000000001
 40
0.500003153875532
 40
0.500003153875532
 40
1.000006307751064
 40
1.000006307751064
 10
2414.707473609697
 20
-142.6016657797826
 30
0.0000000000000049
 10
2414.59752235253
 20
-142.6693172263032
 30
0.0000000000000146
  0
SPLINE
  5
1A53E
330
18
100
AcDbEntity
  8
姿図
100
AcDbSpline
210
0.0
220
0.0
230
1.0
 70
    24
 71
     1
 72
     4
 73
     2
 74
     0
 42
0.000000001
 43
0.0000000001
 40
0.0
 40
0.0
 40
0.500003153875532
 40
0.500003153875532
 10
2414.816889585653
 20
-142.5540042585859
 30
0.0000000000000049
 10
2414.707473609697
 20
-142.6016657797826
 30
0.0000000000000049
  0
SPLINE
  5
1A53F
330
18
100
AcDbEntity
  8
姿図
100
AcDbSpline
210
0.0
220
0.0
230
1.0
 70
     8
 71
     3
 72
    10
 73
     6
 74
     0
 42
0.000000001
 43
0.0000000001
 40
0.0507684683112425
 40
0.0507684683112425
 40
0.0507684683112425
 40
0.0507684683112425
 40
16.17239265914957
 40
16.17239265914957
 40
28.35901754380262
 40
28.35901754380262
 40
28.35901754380262
 40
28.35901754380262
 10
2432.596323191709
 20
-152.3539386784674
 30
0.0000000000000048
 10
2432.269452780913
 20
-151.6189138325493
 30
0.0000000000000097
 10
2431.506686116204
 20
-150.34515951735
 30
0.0000000000000048
 10
2429.93613480526
 20
-148.2833254267269
 30
0.0000000000000007
 10
2429.016813796262
 20
-147.2336754949589
 30
0.0000000000000026
 10
2427.728843793053
 20
-146.1173247779471
 30
0.000000000000004
  0
LINE
  5
1A540
330
18
100
AcDbEntity
  8
姿図
100
AcDbLine
 10
2435.213230709235
 20
-151.1749529760688
 30
0.0000000000000048
 11
2431.545382764626
 21
-152.8982012932107
 31
0.0000000000000048
  0
ELLIPSE
  5
1A541
330
18
100
AcDbEntity
  8
姿図
100
AcDbEllipse
 10
2437.338217396585
 20
-152.2334201414452
 30
0.0000000000000035
 11
-0.2806144918418402
 21
1.616077800114547
 31
7.113492607458197E-17
210
-7.419382137505987E-18
220
4.272872254132248E-17
230
-1.0
 40
0.6338586263934136
 41
0.2361340123154301
 42
2.425367404911971
  0
ELLIPSE
  5
1A542
330
18
100
AcDbEntity
  8
姿図
100
AcDbEllipse
 10
2438.067357019611
 20
-152.1068129046015
 30
0.0000000000000035
 11
-0.3039990328287905
 21
1.750750950124022
 31
1.027504487743934E-16
210
-9.892509516674704E-18
220
5.697163005509659E-17
230
-1.0
 40
0.6338586263934508
 41
4.868828357704053
 42
11.15201366488364
  0
ELLIPSE
  5
1A543
330
18
100
AcDbEntity
  8
姿図
100
AcDbEllipse
 10
2438.067357019611
 20
-152.1068129046015
 30
0.0000000000000035
 11
-0.3975371967761109
 21
2.289443550162184
 31
1.343659714742069E-16
210
-9.892509516674622E-18
220
5.697163005509664E-17
230
-1.0
 40
0.6338586263934506
 41
4.868828357704045
 42
11.15201366488363
  0
ELLIPSE
  5
1A544
330
18
100
AcDbEntity
  8
姿図
100
AcDbEllipse
 10
2436.609077773558
 20
-152.3600273782891
 30
0.0000000000000035
 11
-0.3975371967765779
 21
2.289443550162053
 31
1.343659714742040E-16
210
-9.892509516674621E-18
220
5.697163005509665E-17
230
-1.0
 40
0.6338586263935189
 41
3.141592653589996
 42
5.180284413961087
  0
LINE
  5
1A545
330
18
100
AcDbEntity
  8
姿図
100
AcDbLine
 10
2437.629456527769
 20
-153.2927185934019
 30
0.0000000000000035
 11
2437.52529372448
 21
-153.3108053415225
 31
0.0000000000000035
  0
LINE
  5
1A546
330
18
100
AcDbEntity
  8
姿図
100
AcDbLine
 10
2437.629440911106
 20
-153.2927304801225
 30
0.0000000000000035
 11
2437.525277246724
 21
-153.3108173777624
 31
0.0000000000000035
  0
LINE
  5
1A547
330
18
100
AcDbEntity
  8
姿図
100
AcDbLine
 10
2438.464894216388
 20
-154.3962564547641
 30
0.0000000000000035
 11
2437.006614970334
 21
-154.6494709284522
 31
0.0000000000000035
  0
LINE
  5
1A548
330
18
100
AcDbEntity
  8
姿図
100
AcDbLine
 10
2438.464885506113
 20
-154.3962774642022
 30
0.0000000000000035
 11
2437.006594204769
 21
-154.649494031161
 31
0.0000000000000035
  0
ARC
  5
1A549
330
18
100
AcDbEntity
  8
姿図
100
AcDbCircle
 10
2426.989072268399
 20
-153.9110721860228
 30
0.0000000000000026
 40
11.86515413592403
100
AcDbArc
 50
308.053258300767
 51
351.0102729434057
  0
ELLIPSE
  5
1A54A
330
18
100
AcDbEntity
  8
姿図
100
AcDbEllipse
 10
2436.609053721637
 20
-152.3600315546465
 30
0.0000000000000035
 11
-0.3975404831321024
 21
2.289462476514186
 31
1.343670822496395E-16
210
-9.892509516674658E-18
220
5.697163005509669E-17
230
-1.0
 40
0.633858626393141
 41
3.141592653589124
 42
3.809748048092986
  0
ELLIPSE
  5
1A54B
330
18
100
AcDbEntity
  8
姿図
100
AcDbEllipse
 10
2437.338217396585
 20
-152.2334201414452
 30
0.0000000000000035
 11
-0.1870763278943654
 21
1.077385200076459
 31
4.742328404972388E-17
210
-7.419382137506012E-18
220
4.272872254132248E-17
230
-1.0
 40
0.6338586263915938
 41
3.141592653589115
 42
3.378250081949307
  0
ELLIPSE
  5
1A54C
330
18
100
AcDbEntity
  8
姿図
100
AcDbEllipse
 10
2437.338199372309
 20
-152.2334232711668
 30
0.0000000000000035
 11
-0.1870778744139725
 21
1.07739410659501
 31
4.742367608810381E-17
210
-7.419382137505989E-18
220
4.272872254132248E-17
230
-1.0
 40
0.6338586263915973
 41
3.141592653587503
 42
3.378250081946796
  0
LINE
  5
1A54D
330
18
100
AcDbEntity
  8
姿図
100
AcDbLine
 10
2437.440359452908
 20
-154.6027426190682
 30
0.0000000000000048
 11
2433.500894995153
 21
-158.7048485418117
 31
0.0000000000000048
  0
ELLIPSE
  5
1A54E
330
18
100
AcDbEntity
  8
姿図
100
AcDbEllipse
 10
2437.338217396585
 20
-152.2334201414452
 30
0.0000000000000035
 11
-0.2806144918469327
 21
1.616077800112755
 31
7.113492607454317E-17
210
-7.419382137505973E-18
220
4.272872254132248E-17
230
-1.0
 40
0.6338586263919846
 41
2.425367404914656
 42
2.90545864127894
  0
ELLIPSE
  5
1A54F
330
18
100
AcDbEntity
  8
姿図
100
AcDbEllipse
 10
2437.129891790006
 20
-152.2695936376869
 30
0.0000000000000035
 11
-0.3039990328381846
 21
1.750750950118853
 31
1.027504487741919E-16
210
-9.892509516674604E-18
220
5.697163005509664E-17
230
-1.0
 40
0.6338586263928145
 41
2.631951070262136
 42
2.705517797147201
  0
ELLIPSE
  5
1A550
330
18
100
AcDbEntity
  8
姿図
100
AcDbEllipse
 10
2437.338199372309
 20
-152.2334232711668
 30
0.0000000000000035
 11
-0.280616811627326
 21
1.616091159890881
 31
7.113551413213316E-17
210
-7.419382137505975E-18
220
4.272872254132251E-17
230
-1.0
 40
0.6338586263920021
 41
2.425367404913896
 42
2.905458641278171
  0
ELLIPSE
  5
1A551
330
18
100
AcDbEntity
  8
姿図
100
AcDbEllipse
 10
2437.129872043545
 20
-152.2695970664473
 30
0.0000000000000035
 11
-0.3040015457909485
 21
1.750765423274438
 31
1.027512981928667E-16
210
-9.892509516674438E-18
220
5.697163005509664E-17
230
-1.0
 40
0.6338586264284999
 41
2.631951070170127
 42
2.705517797047795
  0
ARC
  5
1A552
330
18
100
AcDbEntity
  8
姿図
100
AcDbCircle
 10
2436.542346366245
 20
-154.0485972350363
 30
0.0000000000000026
 40
2.763779877119617
100
AcDbArc
 50
321.6058978528187
 51
6.603639829775626
  0
LINE
  5
1A553
330
18
100
AcDbEntity
  8
姿図
100
AcDbLine
 10
2437.669819822836
 20
-149.8173693544396
 30
0.0000000000000035
 11
2437.197558434145
 21
-149.899372454535
 31
0.0000000000000035
  0
LINE
  5
1A554
330
18
100
AcDbEntity
  8
姿図
100
AcDbLine
 10
2437.669804539847
 20
-149.8173525111739
 30
0.0000000000000035
 11
2437.19753924707
 21
-149.8993562891716
 31
0.0000000000000035
  0
ELLIPSE
  5
1A555
330
18
100
AcDbEntity
  8
姿図
100
AcDbEllipse
 10
2436.609077773558
 20
-152.3600273782891
 30
0.0000000000000035
 11
-0.3975371967733172
 21
2.28944355016386
 31
1.343659714742747E-16
210
-9.892509516674656E-18
220
5.697163005509663E-17
230
-1.0
 40
0.6338586263935343
 41
-1.249552989790042
 42
-0.5274645292557247
  0
ELLIPSE
  5
1A556
330
18
100
AcDbEntity
  8
姿図
100
AcDbEllipse
 10
2436.609053721637
 20
-152.3600315546465
 30
0.0000000000000035
 11
-0.3975404831338719
 21
2.28946247651362
 31
1.343670822496247E-16
210
-9.892509516674647E-18
220
5.697163005509669E-17
230
-1.0
 40
0.6338586263935218
 41
-1.249552989788739
 42
-0.52746452925353
  0
ELLIPSE
  5
1A557
330
18
100
AcDbEntity
  8
姿図
100
AcDbEllipse
 10
2437.129891790006
 20
-152.2695936376869
 30
0.0000000000000035
 11
-0.3039990327501068
 21
1.750750950118319
 31
1.027504487732901E-16
210
-9.892509516674629E-18
220
5.697163005509660E-17
230
-1.0
 40
0.6338586263759957
 41
0.4360748564000962
 42
0.5096415832883365
  0
ELLIPSE
  5
1A558
330
18
100
AcDbEntity
  8
姿図
100
AcDbEllipse
 10
2437.338217396585
 20
-152.2334201414452
 30
0.0000000000000035
 11
-0.1870763278903052
 21
1.077385200077164
 31
4.742328404972386E-17
210
-7.419382137506024E-18
220
4.272872254132246E-17
230
-1.0
 40
0.6338586264024266
 41
-0.2366574283618756
 42
-0.000000000006624
  0
ELLIPSE
  5
1A559
330
18
100
AcDbEntity
  8
姿図
100
AcDbEllipse
 10
2437.129872043545
 20
-152.2695970664473
 30
0.0000000000000035
 11
-0.3040015460233217
 21
1.750765423223235
 31
1.027512981922483E-16
210
-9.892509516674638E-18
220
5.697163005509660E-17
230
-1.0
 40
0.633858626415972
 41
0.4360748565125947
 42
0.5096415833923702
  0
ELLIPSE
  5
1A55A
330
18
100
AcDbEntity
  8
姿図
100
AcDbEllipse
 10
2437.338199372309
 20
-152.2334232711668
 30
0.0000000000000035
 11
-0.1870778744200541
 21
1.077394106593954
 31
4.742367608810386E-17
210
-7.419382137505990E-18
220
4.272872254132251E-17
230
-1.0
 40
0.6338586263859887
 41
-0.2366574283554155
 42
0.0000000000066163
  0
LINE
  5
1A55B
330
18
100
AcDbEntity
  8
姿図
100
AcDbLine
 10
2437.25530387198
 20
-151.1379481932491
 30
0.0000000000000035
 11
2437.151141068691
 21
-151.1560349413697
 31
0.0000000000000035
  0
LINE
  5
1A55C
330
18
100
AcDbEntity
  8
姿図
100
AcDbLine
 10
2437.255285162274
 20
-151.1379422669328
 30
0.0000000000000035
 11
2437.151121497893
 21
-151.1560291645727
 31
0.0000000000000035
  0
SPLINE
  5
1A55D
330
18
100
AcDbEntity
  8
姿図
100
AcDbSpline
210
0.0
220
0.0
230
1.0
 70
     8
 71
     3
 72
     8
 73
     4
 74
     0
 42
0.000000001
 43
0.0000000001
 40
0.0522524473711178
 40
0.0522524473711178
 40
0.0522524473711178
 40
0.0522524473711178
 40
3.974673657107151
 40
3.974673657107151
 40
3.974673657107151
 40
3.974673657107151
 10
2442.353636850755
 20
-148.4453135298821
 30
0.0000000000000048
 10
2442.371834828846
 20
-148.7423881181918
 30
0.0000000000000048
 10
2442.373458100018
 20
-149.0350617686807
 30
0.0000000000000048
 10
2442.35815197686
 20
-149.3214561461574
 30
0.0000000000000048
  0
ELLIPSE
  5
1A55E
330
18
100
AcDbEntity
  8
姿図
100
AcDbEllipse
 10
2442.852520591927
 20
-142.0014464395903
 30
0.0000000000000048
 11
-0.05701759619174988
 21
0.1092865286371816
 31
3.563878994241696E-18
210
-1.337346560097143E-17
220
2.563313308469538E-17
230
-1.0
 40
0.7445887406997005
 41
0.0194714738012121
 42
1.456954302896388
  0
ELLIPSE
  5
1A55F
330
18
100
AcDbEntity
  8
姿図
100
AcDbEllipse
 10
2438.263126988649
 20
-143.7504285036517
 30
0.0000000000000048
 11
-5.340857563396746
 21
4.867491343621651
 31
2.942922424551468E-16
210
-2.006019840145720E-17
220
3.844969962704308E-17
230
-1.0
 40
0.651049458011923
 41
1.884826547670682
 42
2.693896839940106
  0
LINE
  5
1A560
330
18
100
AcDbEntity
  8
姿図
100
AcDbLine
 10
2442.326799853031
 20
-148.3822699841211
 30
0.0000000000000048
 11
2444.449444157663
 21
-146.6329863508264
 31
0.0000000000000048
  0
LINE
  5
1A561
330
18
100
AcDbEntity
  8
姿図
100
AcDbLine
 10
2444.012637193772
 20
-149.0326934354119
 30
0.0000000000000048
 11
2442.685926663835
 21
-148.0953848167759
 31
0.0000000000000048
  0
LINE
  5
1A562
330
18
100
AcDbEntity
  8
姿図
100
AcDbLine
 10
2443.10677836164
 20
-149.6984005376709
 30
0.0000000000000048
 11
2444.012637193772
 21
-149.0326934354119
 31
0.0000000000000048
  0
LINE
  5
1A563
330
18
100
AcDbEntity
  8
姿図
100
AcDbLine
 10
2442.797098166388
 20
-141.891354025085
 30
0.0000000000000048
 11
2440.347677406337
 21
-143.0888774550955
 31
0.0000000000000048
  0
SPLINE
  5
1A564
330
18
100
AcDbEntity
  8
姿図
100
AcDbSpline
210
0.0
220
0.0
230
1.0
 70
     8
 71
     3
 72
     8
 73
     4
 74
     0
 42
0.000000001
 43
0.0000000001
 40
14.0
 40
14.0
 40
14.0
 40
14.0
 40
15.0
 40
15.0
 40
15.0
 40
15.0
 10
2417.616960767651
 20
-119.8498369857749
 30
0.0000000000000033
 10
2417.179185623003
 20
-119.9883290781014
 30
0.0000000000000033
 10
2417.153609610054
 20
-121.0048784968313
 30
0.0000000000000033
 10
2417.153609610054
 20
-121.0048784968313
 30
0.0000000000000033
  0
ARC
  5
1A565
330
18
100
AcDbEntity
  8
姿図
100
AcDbCircle
 10
2418.497855726148
 20
-122.6056427610482
 30
0.0000000000000033
 40
0.2953780551123366
100
AcDbArc
 50
78.41246877166932
 51
140.8820839421117
  0
ARC
  5
1A566
330
18
100
AcDbEntity
  8
姿図
100
AcDbCircle
 10
2418.688411456282
 20
-122.770677218762
 30
0.0000000000000033
 40
0.2953780551123366
100
AcDbArc
 50
78.41246877166932
 51
140.8820839421117
  0
SPLINE
  5
1A567
330
18
100
AcDbEntity
  8
姿図
100
AcDbSpline
210
0.0
220
0.0
230
1.0
 70
     8
 71
     3
 72
     8
 73
     4
 74
     0
 42
0.000000001
 43
0.0000000001
 40
3.357032710531275
 40
3.357032710531275
 40
3.357032710531275
 40
3.357032710531275
 40
4.0
 40
4.0
 40
4.0
 40
4.0
 10
2421.709133731741
 20
-122.6859776677751
 30
0.0000000000000033
 10
2421.16681589211
 20
-122.7275460162763
 30
0.0000000000000033
 10
2420.45924073098
 20
-122.7827585853214
 30
0.0000000000000033
 10
2420.45924073098
 20
-122.7827585853214
 30
0.0000000000000033
  0
SPLINE
  5
1A568
330
18
100
AcDbEntity
  8
姿図
100
AcDbSpline
210
0.0
220
0.0
230
1.0
 70
    24
 71
     3
 72
     8
 73
     4
 74
     0
 42
0.000000001
 43
0.0000000001
 40
1.0
 40
1.0
 40
1.0
 40
1.0
 40
2.0
 40
2.0
 40
2.0
 40
2.0
 10
2418.557186762427
 20
-122.3162848104472
 30
0.0000000000000033
 10
2418.557186762427
 20
-122.3162848104472
 30
0.0000000000000033
 10
2421.545152592475
 20
-121.9314411856936
 30
0.0000000000000033
 10
2421.545152592475
 20
-121.9314411856936
 30
0.0000000000000033
  0
SPLINE
  5
1A569
330
18
100
AcDbEntity
  8
姿図
100
AcDbSpline
210
0.0
220
0.0
230
1.0
 70
    24
 71
     3
 72
     8
 73
     4
 74
     0
 42
0.000000001
 43
0.0000000001
 40
1.0
 40
1.0
 40
1.0
 40
1.0
 40
2.0
 40
2.0
 40
2.0
 40
2.0
 10
2418.74774249256
 20
-122.4813192681607
 30
0.0000000000000033
 10
2418.74774249256
 20
-122.4813192681607
 30
0.0000000000000033
 10
2421.735708322608
 20
-122.0964756434074
 30
0.0000000000000033
 10
2421.735708322608
 20
-122.0964756434074
 30
0.0000000000000033
  0
SPLINE
  5
1A56A
330
18
100
AcDbEntity
  8
姿図
100
AcDbSpline
210
0.0
220
0.0
230
1.0
 70
     8
 71
     3
 72
     8
 73
     4
 74
     0
 42
0.000000001
 43
0.0000000001
 40
3.357032710531275
 40
3.357032710531275
 40
3.357032710531275
 40
3.357032710531275
 40
4.0
 40
4.0
 40
4.0
 40
4.0
 10
2421.833459131803
 20
-122.5294020621344
 30
0.0000000000000033
 10
2421.291141292173
 20
-122.5709704106358
 30
0.0000000000000033
 10
2420.583566131043
 20
-122.6261829796807
 30
0.0000000000000033
 10
2420.583566131043
 20
-122.6261829796807
 30
0.0000000000000033
  0
LINE
  5
1A56B
330
18
100
AcDbEntity
  8
姿図
100
AcDbLine
 10
2438.744183876389
 20
-139.333778681803
 30
0.0000000000000048
 11
2437.111175828294
 21
-140.1242212290718
 31
0.0000000000000048
  0
LINE
  5
1A56C
330
18
100
AcDbEntity
  8
姿図
100
AcDbLine
 10
2437.930861059325
 20
-139.2043555654024
 30
0.0000000000000048
 11
2436.625937920995
 21
-139.8359916254052
 31
0.0000000000000048
  0
ELLIPSE
  5
1A56D
330
18
100
AcDbEntity
  8
姿図
100
AcDbEllipse
 10
2431.610315949036
 20
-138.4292728090323
 30
0.0000000000000048
 11
-0.3515444554127111
 21
0.1011956774957645
 31
1.459065990103792E-17
210
-2.674693120194279E-17
220
5.126626616939076E-17
230
-1.0
 40
0.5954474281840116
 41
1.067175184772985
 42
2.559533103277177
  0
LINE
  5
1A56E
330
18
100
AcDbEntity
  8
姿図
100
AcDbLine
 10
2431.93709820373
 20
-138.3987286546859
 30
0.0000000000000048
 11
2432.145019602491
 21
-138.7476956127017
 31
0.0000000000000026
  0
ARC
  5
1A56F
330
18
100
AcDbEntity
  8
姿図
100
AcDbCircle
 10
2432.742433454038
 20
-143.190342156574
 30
0.0000000000000026
 40
4.482634451279683
100
AcDbArc
 50
87.16683646673617
 51
97.65876395038528
  0
ELLIPSE
  5
1A570
330
18
100
AcDbEntity
  8
姿図
100
AcDbEllipse
 10
2438.861064036625
 20
-139.5659521914134
 30
0.0000000000000048
 11
-0.1202442100759039
 21
0.2304739797081218
 31
0.0
210
0.0
220
0.0
230
-1.0
 40
0.7445887407020882
 41
0.0194714738088548
 42
1.889738879634891
  0
ELLIPSE
  5
1A571
330
18
100
AcDbEntity
  8
姿図
100
AcDbEllipse
 10
2438.047741219562
 20
-139.436529075013
 30
0.0000000000000048
 11
-0.1202442100759039
 21
0.2304739797081218
 31
0.0
210
0.0
220
0.0
230
-1.0
 40
0.7445887407020882
 41
0.0194714738088548
 42
1.889738879634891
  0
LINE
  5
1A572
330
18
100
AcDbEntity
  8
姿図
100
AcDbLine
 10
2438.248399006406
 20
-139.4237799594854
 30
0.0000000000000048
 11
2438.281186811812
 21
-139.5578881585008
 31
0.0000000000000048
  0
ELLIPSE
  5
1A573
330
18
100
AcDbEntity
  8
姿図
100
AcDbEllipse
 10
2441.288459572245
 20
-140.2496747202828
 30
0.0000000000000048
 11
-0.1202442100759039
 21
0.2304739797081218
 31
3.382133400712687E-17
210
-6.018059520437149E-17
220
1.153490988811291E-16
230
-1.0
 40
0.7445887407020882
 41
0.0194714738088548
 42
1.889738879634891
  0
SPLINE
  5
1A574
330
18
100
AcDbEntity
  8
姿図
100
AcDbSpline
210
0.0
220
0.0
230
1.0
 70
     8
 71
     3
 72
     8
 73
     4
 74
     0
 42
0.000000001
 43
0.0000000001
 40
9.0
 40
9.0
 40
9.0
 40
9.0
 40
10.0
 40
10.0
 40
10.0
 40
10.0
 10
2432.260880619328
 20
-118.9327615825567
 30
0.0000000000000033
 10
2431.999579607394
 20
-117.9180165446825
 30
0.0000000000000033
 10
2430.475142076039
 20
-118.1375393799134
 30
0.0000000000000033
 10
2430.475142076039
 20
-118.1375393799134
 30
0.0000000000000033
  0
SPLINE
  5
1A575
330
18
100
AcDbEntity
  8
姿図
100
AcDbSpline
210
0.0
220
0.0
230
1.0
 70
     8
 71
     3
 72
     8
 73
     4
 74
     0
 42
0.000000001
 43
0.0000000001
 40
4.562871291847087
 40
4.562871291847087
 40
4.562871291847087
 40
4.562871291847087
 40
5.0
 40
5.0
 40
5.0
 40
5.0
 10
2427.119084464794
 20
-121.3656587891136
 30
0.0000000000000033
 10
2427.945785165857
 20
-121.2864503503978
 30
0.0000000000000033
 10
2428.539889835658
 20
-121.2729166198727
 30
0.0000000000000033
 10
2428.539889835658
 20
-121.2729166198727
 30
0.0000000000000033
  0
SPLINE
  5
1A576
330
18
100
AcDbEntity
  8
姿図
100
AcDbSpline
210
0.0
220
0.0
230
1.0
 70
     8
 71
     3
 72
     8
 73
     4
 74
     0
 42
0.000000001
 43
0.0000000001
 40
0.0
 40
0.0
 40
0.0
 40
0.0
 40
0.4810436403893932
 40
0.4810436403893932
 40
0.4810436403893932
 40
0.4810436403893932
 10
2428.95278266657
 20
-122.3300334499332
 30
0.0000000000000033
 10
2428.95278266657
 20
-122.3300334499332
 30
0.0000000000000033
 10
2428.11234514807
 20
-122.2564927203731
 30
0.0000000000000033
 10
2427.308689378438
 20
-122.221362878856
 30
0.0000000000000033
  0
SPLINE
  5
1A577
330
18
100
AcDbEntity
  8
姿図
100
AcDbSpline
210
0.0
220
0.0
230
1.0
 70
     8
 71
     3
 72
     8
 73
     4
 74
     0
 42
0.000000001
 43
0.0000000001
 40
5.0
 40
5.0
 40
5.0
 40
5.0
 40
6.0
 40
6.0
 40
6.0
 40
6.0
 10
2428.539889835658
 20
-121.2729166198727
 30
0.0000000000000033
 10
2428.539889835658
 20
-121.2729166198727
 30
0.0000000000000033
 10
2428.663163321239
 20
-121.2723681469976
 30
0.0000000000000033
 10
2428.764516884165
 20
-121.4757210633228
 30
0.0000000000000033
  0
SPLINE
  5
1A578
330
18
100
AcDbEntity
  8
姿図
100
AcDbSpline
210
0.0
220
0.0
230
1.0
 70
     8
 71
     3
 72
     8
 73
     4
 74
     0
 42
0.000000001
 43
0.0000000001
 40
0.0
 40
0.0
 40
0.0
 40
0.0
 40
0.4810436403893932
 40
0.4810436403893932
 40
0.4810436403893932
 40
0.4810436403893932
 10
2428.909478979635
 20
-122.1849686836996
 30
0.0000000000000033
 10
2428.909478979635
 20
-122.1849686836996
 30
0.0000000000000033
 10
2428.069041461134
 20
-122.1114279541395
 30
0.0000000000000033
 10
2427.13567836107
 20
-122.1070767979796
 30
0.0000000000000033
  0
SPLINE
  5
1A579
330
18
100
AcDbEntity
  8
姿図
100
AcDbSpline
210
0.0
220
0.0
230
1.0
 70
     8
 71
     3
 72
     8
 73
     4
 74
     0
 42
0.000000001
 43
0.0000000001
 40
5.0
 40
5.0
 40
5.0
 40
5.0
 40
6.0
 40
6.0
 40
6.0
 40
6.0
 10
2428.557706032401
 20
-121.5225414637408
 30
0.0000000000000033
 10
2428.557706032401
 20
-121.5225414637408
 30
0.0000000000000033
 10
2428.680979517983
 20
-121.5219929908657
 30
0.0000000000000033
 10
2428.782333080909
 20
-121.7253459071907
 30
0.0000000000000033
  0
SPLINE
  5
1A57A
330
18
100
AcDbEntity
  8
姿図
100
AcDbSpline
210
0.0
220
0.0
230
1.0
 70
     8
 71
     3
 72
     8
 73
     4
 74
     0
 42
0.000000001
 43
0.0000000001
 40
4.562871291847087
 40
4.562871291847087
 40
4.562871291847087
 40
4.562871291847087
 40
5.0
 40
5.0
 40
5.0
 40
5.0
 10
2427.136900661538
 20
-121.6152836329819
 30
0.0000000000000033
 10
2427.963601362601
 20
-121.5360751942657
 30
0.0000000000000033
 10
2428.557706032401
 20
-121.5225414637408
 30
0.0000000000000033
 10
2428.557706032401
 20
-121.5225414637408
 30
0.0000000000000033
  0
ENDSEC
  0
SECTION
  2
OBJECTS
  0
DICTIONARY
  5
C
330
0
100
AcDbDictionary
281
     1
  3
ACAD_GROUP
350
D
  3
ACAD_IMAGE_VARS
350
1A641
  3
ACAD_LAYOUT
350
40CB
  3
ACAD_MLINESTYLE
350
E
  3
ACAD_PLOTSETTINGS
350
40CC
  3
ACAD_PLOTSTYLENAME
350
40C9
  3
ACAD_SCALELIST
350
173C7
  3
AcDbVariableDictionary
350
6377
  3
APPDATA
350
1A640
  3
DWGPROPS
350
1A665
  0
DICTIONARY
  5
14E07
330
2
100
AcDbDictionary
280
     1
281
     1
  3
ACAD_LAYERFILTERS
360
16CE5
  3
ACAD_LAYERSTATES
360
14E08
  0
DICTIONARY
  5
173F1
330
F
100
AcDbDictionary
280
     1
281
     1
  3
ADSK_XREC_LAYER_RECONCILED
360
173F2
  0
DICTIONARY
  5
173F9
330
4C
100
AcDbDictionary
280
     1
281
     1
  3
ADSK_XREC_LAYER_RECONCILED
360
173FA
  0
DICTIONARY
  5
173FB
330
4D
100
AcDbDictionary
280
     1
281
     1
  3
ADSK_XREC_LAYER_RECONCILED
360
173FC
  0
DICTIONARY
  5
173FF
330
40D4
100
AcDbDictionary
280
     1
281
     1
  3
ADSK_XREC_LAYER_RECONCILED
360
17400
  0
DICTIONARY
  5
9FD5
330
18
100
AcDbDictionary
280
     1
281
     1
  3
ACAD_SORTENTS
360
192E9
  0
DICTIONARY
  5
D
102
{ACAD_REACTORS
330
C
102
}
330
C
100
AcDbDictionary
281
     1
  0
RASTERVARIABLES
  5
1A641
102
{ACAD_REACTORS
330
C
102
}
330
C
100
AcDbRasterVariables
 90
        0
 70
     1
 71
     1
 72
     0
  0
DICTIONARY
  5
40CB
102
{ACAD_REACTORS
330
C
102
}
330
C
100
AcDbDictionary
281
     1
  3
Model
350
40CD
  3
ﾚｲｱｳﾄ1
350
40CE
  0
DICTIONARY
  5
E
102
{ACAD_REACTORS
330
C
102
}
330
C
100
AcDbDictionary
281
     1
  3
STANDARD
350
1B
  0
DICTIONARY
  5
40CC
102
{ACAD_REACTORS
330
C
102
}
330
C
100
AcDbDictionary
281
     1
  0
ACDBDICTIONARYWDFLT
  5
40C9
102
{ACAD_REACTORS
330
C
102
}
330
C
100
AcDbDictionary
281
     1
  3
Normal
350
40CA
100
AcDbDictionaryWithDefault
340
40CA
  0
DICTIONARY
  5
173C7
102
{ACAD_REACTORS
330
C
102
}
330
C
100
AcDbDictionary
281
     1
  3
A0
350
173C8
  3
A1
350
173C9
  3
A2
350
173CA
  3
A3
350
173CB
  3
A4
350
173CC
  3
A5
350
173CD
  3
A6
350
173CE
  3
A7
350
173CF
  3
A8
350
173D0
  3
A9
350
173D1
  3
B0
350
173D2
  3
B1
350
173D3
  3
B2
350
173D4
  3
B3
350
173D5
  3
B4
350
173D6
  3
B5
350
173D7
  3
B6
350
173D8
  3
B7
350
173D9
  3
B8
350
173DA
  3
B9
350
173DB
  3
C0
350
173DC
  3
C1
350
173DD
  3
C2
350
173DE
  3
C3
350
173DF
  3
C4
350
173E0
  3
C5
350
173E1
  3
C6
350
173E2
  3
C7
350
173E3
  3
C8
350
173E4
  3
C9
350
173E5
  3
D0
350
173E6
  3
D1
350
173E7
  3
D2
350
173E8
  0
DICTIONARY
  5
6377
102
{ACAD_REACTORS
330
C
102
}
330
C
100
AcDbDictionary
281
     1
  3
DIMASSOC
350
73F2
  3
INDEXCTL
350
1743C
  3
PROJECTNAME
350
12CB7
  3
SORTENTS
350
6378
  0
DICTIONARY
  5
1A640
102
{ACAD_REACTORS
330
C
102
}
330
C
100
AcDbDictionary
281
     1
  0
XRECORD
  5
1A665
102
{ACAD_REACTORS
330
C
102
}
330
C
100
AcDbXrecord
280
     1
  1
DWGPROPS COOKIE
  2

  3

  4

  6

  7

  8
SPAX
  9

300
=
301
=
302
=
303
=
304
=
305
=
306
=
307
=
308
=
309
=
 40
0.0
 41
2449505.547222222
 42
2456821.235853449
  1

 90
        0
  0
DICTIONARY
  5
16CE5
102
{ACAD_REACTORS
330
14E07
102
}
330
14E07
100
AcDbDictionary
281
     1
  0
DICTIONARY
  5
14E08
102
{ACAD_REACTORS
330
14E07
102
}
330
14E07
100
AcDbDictionary
281
     1
  0
XRECORD
  5
173F2
102
{ACAD_REACTORS
330
173F1
102
}
330
173F1
100
AcDbXrecord
280
     1
290
     1
  0
XRECORD
  5
173FA
102
{ACAD_REACTORS
330
173F9
102
}
330
173F9
100
AcDbXrecord
280
     1
290
     1
  0
XRECORD
  5
173FC
102
{ACAD_REACTORS
330
173FB
102
}
330
173FB
100
AcDbXrecord
280
     1
290
     1
  0
XRECORD
  5
17400
102
{ACAD_REACTORS
330
173FF
102
}
330
173FF
100
AcDbXrecord
280
     1
290
     1
  0
SORTENTSTABLE
  5
192E9
102
{ACAD_REACTORS
330
9FD5
102
}
330
9FD5
100
AcDbSortentsTable
330
18
331
0
  5
1A2A7
331
13DFB
  5
13DFB
331
1A3F5
  5
1A3F7
331
1A3F6
  5
1A3F8
331
1A3F7
  5
1A3F9
331
1A3F8
  5
1A3FA
331
1A3F9
  5
1A3FB
331
1A3FA
  5
1A3FC
331
1A405
  5
1A407
331
1A406
  5
1A408
331
1A407
  5
1A409
331
1A409
  5
1A40B
331
1A40A
  5
1A40C
331
1A40B
  5
1A40D
331
1A427
  5
1A429
331
1A428
  5
1A42A
331
1A429
  5
1A42B
331
1A42A
  5
1A42C
331
1A42B
  5
1A42D
331
1A42C
  5
1A42E
331
1A42D
  5
1A42F
331
1A42E
  5
1A430
331
1A42F
  5
1A431
331
1A430
  5
1A432
331
1A431
  5
1A433
331
1A432
  5
1A434
331
1A433
  5
1A435
331
1A434
  5
1A436
331
1A435
  5
1A437
331
1A436
  5
1A438
331
1A437
  5
1A439
331
1A438
  5
1A43A
331
1A439
  5
1A43B
331
1A43A
  5
1A43C
331
1A43B
  5
1A43D
331
1A43C
  5
1A43E
331
1A43D
  5
1A43F
331
1A43E
  5
1A440
331
1A43F
  5
1A441
331
1A440
  5
1A442
331
1A441
  5
1A443
331
1A442
  5
1A444
331
1A443
  5
1A445
331
1A444
  5
1A446
331
1A445
  5
1A447
331
1A446
  5
1A448
331
1A447
  5
1A449
331
1A448
  5
1A44A
331
1A449
  5
1A44B
331
1A44A
  5
1A44C
331
1A44B
  5
1A44D
331
1A44C
  5
1A44E
331
1A44D
  5
1A44F
331
1A44E
  5
1A450
331
1A44F
  5
1A451
331
1A450
  5
1A452
331
1A451
  5
1A453
331
1A452
  5
1A454
331
1A453
  5
1A455
331
1A454
  5
1A456
331
1A455
  5
1A457
331
1A456
  5
1A458
331
1A457
  5
1A459
331
1A458
  5
1A45A
331
1A459
  5
1A45B
331
1A45A
  5
1A45C
331
1A45B
  5
1A45D
331
1A45C
  5
1A45E
331
1A45D
  5
1A45F
331
1A45E
  5
1A460
331
1A45F
  5
1A461
331
1A460
  5
1A462
331
1A461
  5
1A463
331
1A462
  5
1A464
331
1A463
  5
1A465
331
1A464
  5
1A466
331
1A465
  5
1A467
331
1A466
  5
1A468
331
0
  5
1A474
331
1A494
  5
1A496
331
1A495
  5
1A497
331
1A496
  5
1A498
331
1A497
  5
1A499
331
1A498
  5
1A49A
331
1A525
  5
1A527
331
1A52E
  5
1A530
331
1A52F
  5
1A531
331
1A530
  5
1A532
331
1A531
  5
1A533
331
1A532
  5
1A534
331
1A533
  5
1A535
331
1A534
  5
1A536
331
1A535
  5
1A537
331
1A536
  5
1A538
331
1A537
  5
1A539
331
1A538
  5
1A53A
331
1A539
  5
1A53B
331
1A53A
  5
1A53C
331
1A53B
  5
1A53D
331
1A53C
  5
1A53E
331
1A53D
  5
1A53F
331
1A53E
  5
1A540
331
1A53F
  5
1A541
331
1A540
  5
1A542
331
1A541
  5
1A543
331
1A542
  5
1A544
331
1A543
  5
1A545
331
1A544
  5
1A546
331
1A545
  5
1A547
331
1A546
  5
1A548
331
1A547
  5
1A549
331
1A548
  5
1A54A
331
1A549
  5
1A54B
331
1A54A
  5
1A54C
331
1A54B
  5
1A54D
331
1A54C
  5
1A54E
331
1A54D
  5
1A54F
331
1A54E
  5
1A550
331
1A54F
  5
1A551
331
1A550
  5
1A552
331
1A551
  5
1A553
331
1A552
  5
1A554
331
1A553
  5
1A555
331
1A554
  5
1A556
331
1A555
  5
1A557
331
1A556
  5
1A558
331
1A557
  5
1A559
331
1A558
  5
1A55A
331
1A559
  5
1A55B
331
1A55A
  5
1A55C
331
1A55B
  5
1A55D
331
1A55C
  5
1A55E
331
1A55D
  5
1A55F
331
1A55E
  5
1A560
331
1A55F
  5
1A561
331
1A560
  5
1A562
331
1A561
  5
1A563
331
1A562
  5
1A564
331
1A563
  5
1A565
331
1A564
  5
1A566
331
1A565
  5
1A567
331
1A566
  5
1A568
331
1A567
  5
1A569
331
1A568
  5
1A56A
331
1A569
  5
1A56B
331
1A56A
  5
1A56C
331
1A56B
  5
1A56D
331
1A56C
  5
1A56E
331
1A56D
  5
1A56F
331
1A56E
  5
1A570
331
1A56F
  5
1A571
331
1A570
  5
1A572
331
1A571
  5
1A573
331
1A572
  5
1A574
331
1A573
  5
1A575
331
1A574
  5
1A576
331
1A575
  5
1A577
331
1A576
  5
1A578
331
1A577
  5
1A579
331
1A578
  5
1A57A
331
1A579
  5
1A57B
331
1A57A
  5
1A57C
  0
LAYOUT
  5
40CD
102
{ACAD_REACTORS
330
40CB
102
}
330
40CB
100
AcDbPlotSettings
  1

  2
JUST PDF 2
  4
A4
  6
CUT1
 40
3.174999952316284
 41
3.174999952316284
 42
3.175003051757812
 43
3.17498779296875
 44
209.8886566162109
 45
297.0530090332031
 46
14.27171755861536
 47
9.855173074625782
 48
2380.128877439509
 49
-599.9999999999999
140
2730.119314429321
141
-58.01464972266683
142
1.0
143
2.0
 70
 11956
 72
     1
 73
     0
 74
     4
  7
spax form.ctb
 75
    17
147
0.5
148
-2380.128877439509
149
599.9999999999999
100
AcDbLayout
  1
Model
 70
     1
 71
     0
 10
0.0
 20
0.0
 11
12.0
 21
9.0
 12
0.0
 22
0.0
 32
0.0
 14
2397.047419703823
 24
-192.4841163835669
 34
-0.0000000000000127
 15
2449.482504355844
 25
-104.4861697919928
 35
0.0000000000000146
146
0.0
 13
0.0
 23
0.0
 33
0.0
 16
1.0
 26
0.0
 36
0.0
 17
0.0
 27
1.0
 37
0.0
 76
     0
330
18
331
19FD8
1001
ACAD_PSEXT
1000
JUST PDF 2
1000
JUST PDF 2
1000
JUST PDF 2 Port:
1000

1070
     0
  0
LAYOUT
  5
40CE
102
{ACAD_REACTORS
330
40CB
102
}
330
40CB
100
AcDbPlotSettings
  1

  2
なし
  4

  6

 40
0.0
 41
0.0
 42
0.0
 43
0.0
 44
0.0
 45
0.0
 46
0.0
 47
0.0
 48
0.0
 49
0.0
140
0.0
141
0.0
142
1.0
143
1.0
 70
   688
 72
     0
 73
     0
 74
     5
  7
Aiba.ctb
 75
    16
147
1.0
148
0.0
149
0.0
100
AcDbLayout
  1
ﾚｲｱｳﾄ1
 70
     0
 71
     1
 10
0.0
 20
0.0
 11
12.0
 21
9.0
 12
0.0
 22
0.0
 32
0.0
 14
1.000000000000000E+20
 24
1.000000000000000E+20
 34
1.000000000000000E+20
 15
-1.000000000000000E+20
 25
-1.000000000000000E+20
 35
-1.000000000000000E+20
146
0.0
 13
0.0
 23
0.0
 33
0.0
 16
1.0
 26
0.0
 36
0.0
 17
0.0
 27
1.0
 37
0.0
 76
     0
330
15
  0
MLINESTYLE
  5
1B
102
{ACAD_REACTORS
330
E
102
}
330
E
100
AcDbMlineStyle
  2
STANDARD
 70
     0
  3

 62
     0
 51
90.0
 52
90.0
 71
     2
 49
0.5
 62
   256
  6
BYLAYER
 49
-0.5
 62
   256
  6
BYLAYER
  0
ACDBPLACEHOLDER
  5
40CA
102
{ACAD_REACTORS
330
40C9
102
}
330
40C9
  0
SCALE
  5
173C8
102
{ACAD_REACTORS
330
173C7
102
}
330
173C7
100
AcDbScale
 70
     0
300
1:1
140
1.0
141
1.0
290
     1
1001
ACAD
1000
AcRTDxfName
1000
SCALE
1000
AcRTDxfName
1000
SCALE
1000
AcRTDxfName
1000
SCALE
  0
SCALE
  5
173C9
102
{ACAD_REACTORS
330
173C7
102
}
330
173C7
100
AcDbScale
 70
     0
300
1:2
140
1.0
141
2.0
290
     0
1001
ACAD
1000
AcRTDxfName
1000
SCALE
1000
AcRTDxfName
1000
SCALE
1000
AcRTDxfName
1000
SCALE
  0
SCALE
  5
173CA
102
{ACAD_REACTORS
330
173C7
102
}
330
173C7
100
AcDbScale
 70
     0
300
1:4
140
1.0
141
4.0
290
     0
1001
ACAD
1000
AcRTDxfName
1000
SCALE
1000
AcRTDxfName
1000
SCALE
1000
AcRTDxfName
1000
SCALE
  0
SCALE
  5
173CB
102
{ACAD_REACTORS
330
173C7
102
}
330
173C7
100
AcDbScale
 70
     0
300
1:5
140
1.0
141
5.0
290
     0
1001
ACAD
1000
AcRTDxfName
1000
SCALE
1000
AcRTDxfName
1000
SCALE
1000
AcRTDxfName
1000
SCALE
  0
SCALE
  5
173CC
102
{ACAD_REACTORS
330
173C7
102
}
330
173C7
100
AcDbScale
 70
     0
300
1:8
140
1.0
141
8.0
290
     0
1001
ACAD
1000
AcRTDxfName
1000
SCALE
1000
AcRTDxfName
1000
SCALE
1000
AcRTDxfName
1000
SCALE
  0
SCALE
  5
173CD
102
{ACAD_REACTORS
330
173C7
102
}
330
173C7
100
AcDbScale
 70
     0
300
1:10
140
1.0
141
10.0
290
     0
1001
ACAD
1000
AcRTDxfName
1000
SCALE
1000
AcRTDxfName
1000
SCALE
1000
AcRTDxfName
1000
SCALE
  0
SCALE
  5
173CE
102
{ACAD_REACTORS
330
173C7
102
}
330
173C7
100
AcDbScale
 70
     0
300
1:16
140
1.0
141
16.0
290
     0
1001
ACAD
1000
AcRTDxfName
1000
SCALE
1000
AcRTDxfName
1000
SCALE
1000
AcRTDxfName
1000
SCALE
  0
SCALE
  5
173CF
102
{ACAD_REACTORS
330
173C7
102
}
330
173C7
100
AcDbScale
 70
     0
300
1:20
140
1.0
141
20.0
290
     0
1001
ACAD
1000
AcRTDxfName
1000
SCALE
1000
AcRTDxfName
1000
SCALE
1000
AcRTDxfName
1000
SCALE
  0
SCALE
  5
173D0
102
{ACAD_REACTORS
330
173C7
102
}
330
173C7
100
AcDbScale
 70
     0
300
1:30
140
1.0
141
30.0
290
     0
1001
ACAD
1000
AcRTDxfName
1000
SCALE
1000
AcRTDxfName
1000
SCALE
1000
AcRTDxfName
1000
SCALE
  0
SCALE
  5
173D1
102
{ACAD_REACTORS
330
173C7
102
}
330
173C7
100
AcDbScale
 70
     0
300
1:40
140
1.0
141
40.0
290
     0
1001
ACAD
1000
AcRTDxfName
1000
SCALE
1000
AcRTDxfName
1000
SCALE
1000
AcRTDxfName
1000
SCALE
  0
SCALE
  5
173D2
102
{ACAD_REACTORS
330
173C7
102
}
330
173C7
100
AcDbScale
 70
     0
300
1:50
140
1.0
141
50.0
290
     0
1001
ACAD
1000
AcRTDxfName
1000
SCALE
1000
AcRTDxfName
1000
SCALE
1000
AcRTDxfName
1000
SCALE
  0
SCALE
  5
173D3
102
{ACAD_REACTORS
330
173C7
102
}
330
173C7
100
AcDbScale
 70
     0
300
1:100
140
1.0
141
100.0
290
     0
1001
ACAD
1000
AcRTDxfName
1000
SCALE
1000
AcRTDxfName
1000
SCALE
1000
AcRTDxfName
1000
SCALE
  0
SCALE
  5
173D4
102
{ACAD_REACTORS
330
173C7
102
}
330
173C7
100
AcDbScale
 70
     0
300
2:1
140
2.0
141
1.0
290
     0
1001
ACAD
1000
AcRTDxfName
1000
SCALE
1000
AcRTDxfName
1000
SCALE
1000
AcRTDxfName
1000
SCALE
  0
SCALE
  5
173D5
102
{ACAD_REACTORS
330
173C7
102
}
330
173C7
100
AcDbScale
 70
     0
300
4:1
140
4.0
141
1.0
290
     0
1001
ACAD
1000
AcRTDxfName
1000
SCALE
1000
AcRTDxfName
1000
SCALE
1000
AcRTDxfName
1000
SCALE
  0
SCALE
  5
173D6
102
{ACAD_REACTORS
330
173C7
102
}
330
173C7
100
AcDbScale
 70
     0
300
8:1
140
8.0
141
1.0
290
     0
1001
ACAD
1000
AcRTDxfName
1000
SCALE
1000
AcRTDxfName
1000
SCALE
1000
AcRTDxfName
1000
SCALE
  0
SCALE
  5
173D7
102
{ACAD_REACTORS
330
173C7
102
}
330
173C7
100
AcDbScale
 70
     0
300
10:1
140
10.0
141
1.0
290
     0
1001
ACAD
1000
AcRTDxfName
1000
SCALE
1000
AcRTDxfName
1000
SCALE
1000
AcRTDxfName
1000
SCALE
  0
SCALE
  5
173D8
102
{ACAD_REACTORS
330
173C7
102
}
330
173C7
100
AcDbScale
 70
     0
300
100:1
140
100.0
141
1.0
290
     0
1001
ACAD
1000
AcRTDxfName
1000
SCALE
1000
AcRTDxfName
1000
SCALE
1000
AcRTDxfName
1000
SCALE
  0
SCALE
  5
173D9
102
{ACAD_REACTORS
330
173C7
102
}
330
173C7
100
AcDbScale
 70
     0
300
1/128" = 1'-0"
140
0.0078125
141
12.0
290
     0
1001
ACAD
1000
AcRTDxfName
1000
SCALE
1000
AcRTDxfName
1000
SCALE
1000
AcRTDxfName
1000
SCALE
  0
SCALE
  5
173DA
102
{ACAD_REACTORS
330
173C7
102
}
330
173C7
100
AcDbScale
 70
     0
300
1/64" = 1'-0"
140
0.015625
141
12.0
290
     0
1001
ACAD
1000
AcRTDxfName
1000
SCALE
1000
AcRTDxfName
1000
SCALE
1000
AcRTDxfName
1000
SCALE
  0
SCALE
  5
173DB
102
{ACAD_REACTORS
330
173C7
102
}
330
173C7
100
AcDbScale
 70
     0
300
1/32" = 1'-0"
140
0.03125
141
12.0
290
     0
1001
ACAD
1000
AcRTDxfName
1000
SCALE
1000
AcRTDxfName
1000
SCALE
1000
AcRTDxfName
1000
SCALE
  0
SCALE
  5
173DC
102
{ACAD_REACTORS
330
173C7
102
}
330
173C7
100
AcDbScale
 70
     0
300
1/16" = 1'-0"
140
0.0625
141
12.0
290
     0
1001
ACAD
1000
AcRTDxfName
1000
SCALE
1000
AcRTDxfName
1000
SCALE
1000
AcRTDxfName
1000
SCALE
  0
SCALE
  5
173DD
102
{ACAD_REACTORS
330
173C7
102
}
330
173C7
100
AcDbScale
 70
     0
300
3/32" = 1'-0"
140
0.09375
141
12.0
290
     0
1001
ACAD
1000
AcRTDxfName
1000
SCALE
1000
AcRTDxfName
1000
SCALE
1000
AcRTDxfName
1000
SCALE
  0
SCALE
  5
173DE
102
{ACAD_REACTORS
330
173C7
102
}
330
173C7
100
AcDbScale
 70
     0
300
1/8" = 1'-0"
140
0.125
141
12.0
290
     0
1001
ACAD
1000
AcRTDxfName
1000
SCALE
1000
AcRTDxfName
1000
SCALE
1000
AcRTDxfName
1000
SCALE
  0
SCALE
  5
173DF
102
{ACAD_REACTORS
330
173C7
102
}
330
173C7
100
AcDbScale
 70
     0
300
3/16" = 1'-0"
140
0.1875
141
12.0
290
     0
1001
ACAD
1000
AcRTDxfName
1000
SCALE
1000
AcRTDxfName
1000
SCALE
1000
AcRTDxfName
1000
SCALE
  0
SCALE
  5
173E0
102
{ACAD_REACTORS
330
173C7
102
}
330
173C7
100
AcDbScale
 70
     0
300
1/4" = 1'-0"
140
0.25
141
12.0
290
     0
1001
ACAD
1000
AcRTDxfName
1000
SCALE
1000
AcRTDxfName
1000
SCALE
1000
AcRTDxfName
1000
SCALE
  0
SCALE
  5
173E1
102
{ACAD_REACTORS
330
173C7
102
}
330
173C7
100
AcDbScale
 70
     0
300
3/8" = 1'-0"
140
0.375
141
12.0
290
     0
1001
ACAD
1000
AcRTDxfName
1000
SCALE
1000
AcRTDxfName
1000
SCALE
1000
AcRTDxfName
1000
SCALE
  0
SCALE
  5
173E2
102
{ACAD_REACTORS
330
173C7
102
}
330
173C7
100
AcDbScale
 70
     0
300
1/2" = 1'-0"
140
0.5
141
12.0
290
     0
1001
ACAD
1000
AcRTDxfName
1000
SCALE
1000
AcRTDxfName
1000
SCALE
1000
AcRTDxfName
1000
SCALE
  0
SCALE
  5
173E3
102
{ACAD_REACTORS
330
173C7
102
}
330
173C7
100
AcDbScale
 70
     0
300
3/4" = 1'-0"
140
0.75
141
12.0
290
     0
1001
ACAD
1000
AcRTDxfName
1000
SCALE
1000
AcRTDxfName
1000
SCALE
1000
AcRTDxfName
1000
SCALE
  0
SCALE
  5
173E4
102
{ACAD_REACTORS
330
173C7
102
}
330
173C7
100
AcDbScale
 70
     0
300
1" = 1'-0"
140
1.0
141
12.0
290
     0
1001
ACAD
1000
AcRTDxfName
1000
SCALE
1000
AcRTDxfName
1000
SCALE
1000
AcRTDxfName
1000
SCALE
  0
SCALE
  5
173E5
102
{ACAD_REACTORS
330
173C7
102
}
330
173C7
100
AcDbScale
 70
     0
300
1-1/2" = 1'-0"
140
1.5
141
12.0
290
     0
1001
ACAD
1000
AcRTDxfName
1000
SCALE
1000
AcRTDxfName
1000
SCALE
1000
AcRTDxfName
1000
SCALE
  0
SCALE
  5
173E6
102
{ACAD_REACTORS
330
173C7
102
}
330
173C7
100
AcDbScale
 70
     0
300
3" = 1'-0"
140
3.0
141
12.0
290
     0
1001
ACAD
1000
AcRTDxfName
1000
SCALE
1000
AcRTDxfName
1000
SCALE
1000
AcRTDxfName
1000
SCALE
  0
SCALE
  5
173E7
102
{ACAD_REACTORS
330
173C7
102
}
330
173C7
100
AcDbScale
 70
     0
300
6" = 1'-0"
140
6.0
141
12.0
290
     0
1001
ACAD
1000
AcRTDxfName
1000
SCALE
1000
AcRTDxfName
1000
SCALE
1000
AcRTDxfName
1000
SCALE
  0
SCALE
  5
173E8
102
{ACAD_REACTORS
330
173C7
102
}
330
173C7
100
AcDbScale
 70
     0
300
1'-0" = 1'-0"
140
12.0
141
12.0
290
     0
1001
ACAD
1000
AcRTDxfName
1000
SCALE
1000
AcRTDxfName
1000
SCALE
1000
AcRTDxfName
1000
SCALE
  0
DICTIONARYVAR
  5
73F2
102
{ACAD_REACTORS
330
6377
102
}
330
6377
100
DictionaryVariables
280
     0
  1
1
  0
DICTIONARYVAR
  5
1743C
102
{ACAD_REACTORS
330
6377
102
}
330
6377
100
DictionaryVariables
280
     0
  1
0
  0
DICTIONARYVAR
  5
12CB7
102
{ACAD_REACTORS
330
6377
102
}
330
6377
100
DictionaryVariables
280
     0
  1

  0
DICTIONARYVAR
  5
6378
102
{ACAD_REACTORS
330
6377
102
}
330
6377
100
DictionaryVariables
280
     0
  1
96
  0
ENDSEC
  0
EOF
