  0
SECTION
  2
HEADER
  9
$ACADVER
  1
AC1015
  9
$ACADMAINTVER
 70
     6
  9
$DWGCODEPAGE
  3
ANSI_932
  9
$INSBASE
 10
0.0
 20
0.0
 30
0.0
  9
$EXTMIN
 10
2804.917842228177
 20
-188.3151769145525
 30
-0.0000000000000127
  9
$EXTMAX
 10
2860.185239025976
 20
-102.4254848226983
 30
0.0000000000000146
  9
$LIMMIN
 10
0.0
 20
0.0
  9
$LIMMAX
 10
840.0
 20
594.0
  9
$ORTHOMODE
 70
     1
  9
$REGENMODE
 70
     1
  9
$FILLMODE
 70
     1
  9
$QTEXTMODE
 70
     0
  9
$MIRRTEXT
 70
     1
  9
$LTSCALE
 40
7.0
  9
$ATTMODE
 70
     0
  9
$TEXTSIZE
 40
6.0
  9
$TRACEWID
 40
1.0
  9
$TEXTSTYLE
  7
STANDARD
  9
$CLAYER
  8
寸法線
  9
$CELTYPE
  6
BYLAYER
  9
$CECOLOR
 62
   256
  9
$CELTSCALE
 40
1.0
  9
$DISPSILH
 70
     0
  9
$DIMSCALE
 40
1.0
  9
$DIMASZ
 40
6.0
  9
$DIMEXO
 40
3.0
  9
$DIMDLI
 40
7.149999999999999
  9
$DIMRND
 40
0.0
  9
$DIMDLE
 40
0.0
  9
$DIMEXE
 40
2.0
  9
$DIMTP
 40
0.0
  9
$DIMTM
 40
0.0
  9
$DIMTXT
 40
5.0
  9
$DIMCEN
 40
0.0
  9
$DIMTSZ
 40
0.0
  9
$DIMTOL
 70
     0
  9
$DIMLIM
 70
     0
  9
$DIMTIH
 70
     0
  9
$DIMTOH
 70
     0
  9
$DIMSE1
 70
     0
  9
$DIMSE2
 70
     0
  9
$DIMTAD
 70
     3
  9
$DIMZIN
 70
     8
  9
$DIMBLK
  1
Open30
  9
$DIMASO
 70
     1
  9
$DIMSHO
 70
     0
  9
$DIMPOST
  1

  9
$DIMAPOST
  1

  9
$DIMALT
 70
     0
  9
$DIMALTD
 70
     2
  9
$DIMALTF
 40
25.4
  9
$DIMLFAC
 40
1.0
  9
$DIMTOFL
 70
     0
  9
$DIMTVP
 40
0.0
  9
$DIMTIX
 70
     0
  9
$DIMSOXD
 70
     0
  9
$DIMSAH
 70
     0
  9
$DIMBLK1
  1

  9
$DIMBLK2
  1

  9
$DIMSTYLE
  2
STANDARD
  9
$DIMCLRD
 70
     0
  9
$DIMCLRE
 70
     0
  9
$DIMCLRT
 70
     0
  9
$DIMTFAC
 40
1.0
  9
$DIMGAP
 40
2.0
  9
$DIMJUST
 70
     0
  9
$DIMSD1
 70
     0
  9
$DIMSD2
 70
     0
  9
$DIMTOLJ
 70
     1
  9
$DIMTZIN
 70
     0
  9
$DIMALTZ
 70
     0
  9
$DIMALTTZ
 70
     0
  9
$DIMUPT
 70
     1
  9
$DIMDEC
 70
     2
  9
$DIMTDEC
 70
     2
  9
$DIMALTU
 70
     2
  9
$DIMALTTD
 70
     2
  9
$DIMTXSTY
  7
STANDARD
  9
$DIMAUNIT
 70
     0
  9
$DIMADEC
 70
     2
  9
$DIMALTRND
 40
0.0
  9
$DIMAZIN
 70
     2
  9
$DIMDSEP
 70
    46
  9
$DIMATFIT
 70
     3
  9
$DIMFRAC
 70
     0
  9
$DIMLDRBLK
  1
Open30
  9
$DIMLUNIT
 70
     2
  9
$DIMLWD
 70
    -2
  9
$DIMLWE
 70
    -2
  9
$DIMTMOVE
 70
     0
  9
$LUNITS
 70
     2
  9
$LUPREC
 70
     2
  9
$SKETCHINC
 40
0.1
  9
$FILLETRAD
 40
0.0
  9
$AUNITS
 70
     0
  9
$AUPREC
 70
     2
  9
$MENU
  1
ACAD
  9
$ELEVATION
 40
0.0
  9
$PELEVATION
 40
0.0
  9
$THICKNESS
 40
0.0
  9
$LIMCHECK
 70
     0
  9
$CHAMFERA
 40
0.0
  9
$CHAMFERB
 40
0.0
  9
$CHAMFERC
 40
0.0
  9
$CHAMFERD
 40
0.0
  9
$SKPOLY
 70
     0
  9
$TDCREATE
 40
2449505.922222222
  9
$TDUCREATE
 40
2449505.547222222
  9
$TDUPDATE
 40
2456821.611044028
  9
$TDUUPDATE
 40
2456821.236044028
  9
$TDINDWG
 40
2.2487143519
  9
$TDUSRTIMER
 40
2456821.235894618
  9
$USRTIMER
 70
     1
  9
$ANGBASE
 50
0.0
  9
$ANGDIR
 70
     0
  9
$PDMODE
 70
     3
  9
$PDSIZE
 40
0.0
  9
$PLINEWID
 40
0.0
  9
$SPLFRAME
 70
     0
  9
$SPLINETYPE
 70
     6
  9
$SPLINESEGS
 70
     8
  9
$HANDSEED
  5
1CEA6
  9
$SURFTAB1
 70
     6
  9
$SURFTAB2
 70
     6
  9
$SURFTYPE
 70
     6
  9
$SURFU
 70
     6
  9
$SURFV
 70
     6
  9
$UCSBASE
  2

  9
$UCSNAME
  2

  9
$UCSORG
 10
0.0
 20
0.0
 30
0.0
  9
$UCSXDIR
 10
1.0
 20
0.0
 30
0.0
  9
$UCSYDIR
 10
0.0
 20
1.0
 30
0.0
  9
$UCSORTHOREF
  2

  9
$UCSORTHOVIEW
 70
     0
  9
$UCSORGTOP
 10
0.0
 20
0.0
 30
0.0
  9
$UCSORGBOTTOM
 10
0.0
 20
0.0
 30
0.0
  9
$UCSORGLEFT
 10
0.0
 20
0.0
 30
0.0
  9
$UCSORGRIGHT
 10
0.0
 20
0.0
 30
0.0
  9
$UCSORGFRONT
 10
0.0
 20
0.0
 30
0.0
  9
$UCSORGBACK
 10
0.0
 20
0.0
 30
0.0
  9
$PUCSBASE
  2

  9
$PUCSNAME
  2

  9
$PUCSORG
 10
0.0
 20
0.0
 30
0.0
  9
$PUCSXDIR
 10
1.0
 20
0.0
 30
0.0
  9
$PUCSYDIR
 10
0.0
 20
1.0
 30
0.0
  9
$PUCSORTHOREF
  2

  9
$PUCSORTHOVIEW
 70
     0
  9
$PUCSORGTOP
 10
0.0
 20
0.0
 30
0.0
  9
$PUCSORGBOTTOM
 10
0.0
 20
0.0
 30
0.0
  9
$PUCSORGLEFT
 10
0.0
 20
0.0
 30
0.0
  9
$PUCSORGRIGHT
 10
0.0
 20
0.0
 30
0.0
  9
$PUCSORGFRONT
 10
0.0
 20
0.0
 30
0.0
  9
$PUCSORGBACK
 10
0.0
 20
0.0
 30
0.0
  9
$USERI1
 70
     0
  9
$USERI2
 70
     0
  9
$USERI3
 70
     0
  9
$USERI4
 70
     0
  9
$USERI5
 70
     0
  9
$USERR1
 40
0.0
  9
$USERR2
 40
0.0
  9
$USERR3
 40
0.0
  9
$USERR4
 40
0.0
  9
$USERR5
 40
0.0
  9
$WORLDVIEW
 70
     0
  9
$SHADEDGE
 70
     3
  9
$SHADEDIF
 70
    70
  9
$TILEMODE
 70
     1
  9
$MAXACTVP
 70
    16
  9
$PINSBASE
 10
0.0
 20
0.0
 30
0.0
  9
$PLIMCHECK
 70
     0
  9
$PEXTMIN
 10
1.000000000000000E+20
 20
1.000000000000000E+20
 30
1.000000000000000E+20
  9
$PEXTMAX
 10
-1.000000000000000E+20
 20
-1.000000000000000E+20
 30
-1.000000000000000E+20
  9
$PLIMMIN
 10
0.0
 20
0.0
  9
$PLIMMAX
 10
0.0
 20
0.0
  9
$UNITMODE
 70
     0
  9
$VISRETAIN
 70
     0
  9
$PLINEGEN
 70
     0
  9
$PSLTSCALE
 70
     0
  9
$TREEDEPTH
 70
  3020
  9
$CMLSTYLE
  2
STANDARD
  9
$CMLJUST
 70
     0
  9
$CMLSCALE
 40
1.0
  9
$PROXYGRAPHICS
 70
     1
  9
$MEASUREMENT
 70
     0
  9
$CELWEIGHT
370
    -1
  9
$ENDCAPS
280
     0
  9
$JOINSTYLE
280
     0
  9
$LWDISPLAY
290
     0
  9
$INSUNITS
 70
     0
  9
$HYPERLINKBASE
  1

  9
$STYLESHEET
  1
spax form.ctb
  9
$XEDIT
290
     1
  9
$CEPSNTYPE
380
     0
  9
$PSTYLEMODE
290
     1
  9
$FINGERPRINTGUID
  2
{C1CFCF3E-DF91-11D3-B30C-0060B0FA8DFC}
  9
$VERSIONGUID
  2
{F8BFCF0D-BC7F-4790-953F-C9C4C4FF5E79}
  9
$EXTNAMES
290
     1
  9
$PSVPSCALE
 40
0.0
  9
$OLESTARTUP
290
     0
  0
ENDSEC
  0
SECTION
  2
CLASSES
  0
CLASS
  1
LWPOLYLINE
  2
AcDbPolyline
  3
ObjectDBX Classes
 90
        0
280
     0
281
     1
  0
CLASS
  1
ACDBDICTIONARYWDFLT
  2
AcDbDictionaryWithDefault
  3
ObjectDBX Classes
 90
        0
280
     0
281
     0
  0
CLASS
  1
ACDBPLACEHOLDER
  2
AcDbPlaceHolder
  3
ObjectDBX Classes
 90
        0
280
     0
281
     0
  0
CLASS
  1
LAYOUT
  2
AcDbLayout
  3
ObjectDBX Classes
 90
        0
280
     0
281
     0
  0
CLASS
  1
DICTIONARYVAR
  2
AcDbDictionaryVar
  3
ObjectDBX Classes
 90
        0
280
     0
281
     0
  0
CLASS
  1
LONG_TRANSACTION
  2
AcDbLongTransaction
  3
ObjectDBX Classes
 90
        0
280
     0
281
     0
  0
CLASS
  1
LWPOLYLINE
  2
AcDbPolyline
  3
ObjectDBX Classes
 90
        0
280
     0
281
     1
  0
CLASS
  1
HATCH
  2
AcDbHatch
  3
ObjectDBX Classes
 90
        0
280
     0
281
     1
  0
CLASS
  1
XRECORD
  2
AcDbXrecord
  3
ObjectDBX Classes
 90
        0
280
     0
281
     0
  0
CLASS
  1
MATERIAL
  2
AcDbMaterial
  3
ObjectDBX Classes
 90
     1153
280
     0
281
     0
  0
CLASS
  1
VISUALSTYLE
  2
AcDbVisualStyle
  3
ObjectDBX Classes
 90
     4095
280
     0
281
     0
  0
CLASS
  1
TABLESTYLE
  2
AcDbTableStyle
  3
ObjectDBX Classes
 90
     4095
280
     0
281
     0
  0
CLASS
  1
SCALE
  2
AcDbScale
  3
ObjectDBX Classes
 90
     1153
280
     0
281
     0
  0
CLASS
  1
MLEADERSTYLE
  2
AcDbMLeaderStyle
  3
ACDB_MLEADERSTYLE_CLASS
 90
     4095
280
     0
281
     0
  0
CLASS
  1
CELLSTYLEMAP
  2
AcDbCellStyleMap
  3
ObjectDBX Classes
 90
     1152
280
     0
281
     0
  0
CLASS
  1
RASTERVARIABLES
  2
AcDbRasterVariables
  3
ISM
 90
        0
280
     0
281
     0
  0
CLASS
  1
SUN
  2
AcDbSun
  3
SCENEOE
 90
     1153
280
     0
281
     0
  0
ENDSEC
  0
SECTION
  2
TABLES
  0
TABLE
  2
VPORT
  5
8
330
0
100
AcDbSymbolTable
 70
     1
  0
VPORT
  5
1C7B5
330
8
100
AcDbSymbolTableRecord
100
AcDbViewportTableRecord
  2
*Active
 70
     0
 10
0.0
 20
0.0
 11
1.0
 21
1.0
 12
2832.551540627077
 22
-145.3703308686254
 13
0.0
 23
0.0
 14
1.0
 24
1.0
 15
20.0
 25
20.0
 16
0.0
 26
0.0
 36
1.0
 17
0.0
 27
0.0
 37
0.0
 40
87.60748593369127
 41
1.731829573934837
 42
50.0
 43
0.0
 44
0.0
 50
0.0
 51
0.0
 71
    16
 72
  2000
 73
     1
 74
     0
 75
     0
 76
     0
 77
     0
 78
     1
281
     0
 65
     1
110
0.0
120
0.0
130
0.0
111
1.0
121
0.0
131
0.0
112
0.0
122
1.0
132
0.0
 79
     0
146
0.0
  0
ENDTAB
  0
TABLE
  2
LTYPE
  5
5
330
0
100
AcDbSymbolTable
 70
     5
  0
LTYPE
  5
12
330
5
100
AcDbSymbolTableRecord
100
AcDbLinetypeTableRecord
  2
BYBLOCK
 70
     0
  3

 72
    65
 73
     0
 40
0.0
  0
LTYPE
  5
13
330
5
100
AcDbSymbolTableRecord
100
AcDbLinetypeTableRecord
  2
BYLAYER
 70
     0
  3

 72
    65
 73
     0
 40
0.0
  0
LTYPE
  5
14
330
5
100
AcDbSymbolTableRecord
100
AcDbLinetypeTableRecord
  2
CONTINUOUS
 70
     0
  3
Solid line
 72
    65
 73
     0
 40
0.0
  0
LTYPE
  5
3D
330
5
100
AcDbSymbolTableRecord
100
AcDbLinetypeTableRecord
  2
PHANTOM
 70
     0
  3
_____ _ _ _____ _ _ _____ _ _ _____ _ _ ____
 72
    65
 73
     6
 40
2.5
 49
1.25
 74
     0
 49
-0.25
 74
     0
 49
0.25
 74
     0
 49
-0.25
 74
     0
 49
0.25
 74
     0
 49
-0.25
 74
     0
  0
LTYPE
  5
40D2
330
5
100
AcDbSymbolTableRecord
100
AcDbLinetypeTableRecord
  2
CENTER
 70
     0
  3
____ _ ____ _ ____ _ ____ _ ____ _ ____ _ ____ 
 72
    65
 73
     4
 40
2.0
 49
1.25
 74
     0
 49
-0.25
 74
     0
 49
0.25
 74
     0
 49
-0.25
 74
     0
  0
LTYPE
  5
A244
330
5
100
AcDbSymbolTableRecord
100
AcDbLinetypeTableRecord
  2
HIDDEN
 70
     0
  3
_ _ _ _ _ _ _ _ _ _ _ _ _ _ _ _ _ _ _ _ _ _ _
 72
    65
 73
     2
 40
0.375
 49
0.25
 74
     0
 49
-0.125
 74
     0
  0
ENDTAB
  0
TABLE
  2
LAYER
  5
2
102
{ACAD_XDICTIONARY
360
1993C
102
}
330
0
100
AcDbSymbolTable
 70
    22
  0
LAYER
  5
F
102
{ACAD_XDICTIONARY
360
166BD
102
}
330
2
100
AcDbSymbolTableRecord
100
AcDbLayerTableRecord
  2
0
 70
     0
 62
     7
  6
CONTINUOUS
370
    -3
390
40CA
  0
LAYER
  5
4C
102
{ACAD_XDICTIONARY
360
166C5
102
}
330
2
100
AcDbSymbolTableRecord
100
AcDbLayerTableRecord
  2
寸法線
 70
     0
 62
     7
  6
CONTINUOUS
370
    -3
390
40CA
  0
LAYER
  5
4D
102
{ACAD_XDICTIONARY
360
166C7
102
}
330
2
100
AcDbSymbolTableRecord
100
AcDbLayerTableRecord
  2
姿図
 70
     0
 62
     8
  6
CONTINUOUS
370
    -3
390
40CA
  0
LAYER
  5
40D4
102
{ACAD_XDICTIONARY
360
166CB
102
}
330
2
100
AcDbSymbolTableRecord
100
AcDbLayerTableRecord
  2
文字
 70
     0
 62
     7
  6
CONTINUOUS
370
    -3
390
40CA
  0
ENDTAB
  0
TABLE
  2
STYLE
  5
3
330
0
100
AcDbSymbolTable
 70
     1
  0
STYLE
  5
10
330
3
100
AcDbSymbolTableRecord
100
AcDbTextStyleTableRecord
  2
STANDARD
 70
     0
 40
0.0
 41
1.0
 50
0.0
 71
     0
 42
6.0
  3
MONOTXT
  4
BIGFONT
  0
ENDTAB
  0
TABLE
  2
VIEW
  5
6
330
0
100
AcDbSymbolTable
 70
     1
  0
VIEW
  5
41
330
6
100
AcDbSymbolTableRecord
100
AcDbViewTableRecord
  2
CUT1
 70
     0
 40
612.7795527156796
 10
420.0000000000169
 20
306.3897763578398
 41
840.0000000000338
 11
0.0
 21
0.0
 31
1.0
 12
0.0
 22
0.0
 32
0.0
 42
50.0
 43
0.0
 44
0.0
 50
0.0
 71
     0
281
     0
 72
     0
  0
ENDTAB
  0
TABLE
  2
UCS
  5
7
330
0
100
AcDbSymbolTable
 70
     0
  0
ENDTAB
  0
TABLE
  2
APPID
  5
9
330
0
100
AcDbSymbolTable
 70
     7
  0
APPID
  5
11
330
9
100
AcDbSymbolTableRecord
100
AcDbRegAppTableRecord
  2
ACAD
 70
     0
  0
APPID
  5
166B8
330
9
100
AcDbSymbolTableRecord
100
AcDbRegAppTableRecord
  2
ACAD_MLEADERVER
 70
     0
  0
APPID
  5
16E93
330
9
100
AcDbSymbolTableRecord
100
AcDbRegAppTableRecord
  2
ACAD_PSEXT
 70
     0
  0
APPID
  5
1AD1B
330
9
100
AcDbSymbolTableRecord
100
AcDbRegAppTableRecord
  2
AcadAnnotative
 70
     0
  0
APPID
  5
1AD1C
330
9
100
AcDbSymbolTableRecord
100
AcDbRegAppTableRecord
  2
ACAD_DSTYLE_DIMJAG
 70
     0
  0
APPID
  5
1AD1D
330
9
100
AcDbSymbolTableRecord
100
AcDbRegAppTableRecord
  2
ACAD_DSTYLE_DIMTALN
 70
     0
  0
APPID
  5
1AD2D
330
9
100
AcDbSymbolTableRecord
100
AcDbRegAppTableRecord
  2
ACAD_EXEMPT_FROM_CAD_STANDARDS
 70
     0
  0
ENDTAB
  0
TABLE
  2
DIMSTYLE
  5
A
330
0
100
AcDbSymbolTable
 70
     2
100
AcDbDimStyleTable
  0
DIMSTYLE
105
1B3A
330
A
100
AcDbSymbolTableRecord
100
AcDbDimStyleTableRecord
  2
STANDARD
 70
     0
 41
4.0
 42
3.0
 43
7.149999999999999
 44
2.0
 73
     0
 74
     0
 77
     3
 78
     8
 79
     2
140
5.0
141
0.0
147
2.0
178
     0
179
     2
271
     2
272
     2
288
     1
340
10
341
49C3
342
49C3
  0
ENDTAB
  0
TABLE
  2
BLOCK_RECORD
  5
1
330
0
100
AcDbSymbolTable
 70
    74
  0
BLOCK_RECORD
  5
18
330
1
100
AcDbSymbolTableRecord
100
AcDbBlockTableRecord
  2
*MODEL_SPACE
340
40CD
  0
BLOCK_RECORD
  5
15
330
1
100
AcDbSymbolTableRecord
100
AcDbBlockTableRecord
  2
*PAPER_SPACE
340
40CE
  0
BLOCK_RECORD
  5
49C3
330
1
100
AcDbSymbolTableRecord
100
AcDbBlockTableRecord
  2
_OPEN
340
0
  0
BLOCK_RECORD
  5
FD36
330
1
100
AcDbSymbolTableRecord
100
AcDbBlockTableRecord
  2
_Open30
340
0
102
{BLKREFS
331
14807
331
14808
331
1480F
331
14810
331
14819
331
1481A
331
14821
331
14822
331
1482B
331
1482C
331
14834
331
14835
331
1483C
331
1483D
331
14846
331
14847
331
1484E
331
1484F
331
14857
331
14858
331
14861
331
14862
331
14869
331
1486A
331
14873
331
14874
331
1487C
331
1487D
331
1488D
331
1488E
331
14896
331
14897
331
148A0
331
148A1
331
148A9
331
148AA
331
148BB
331
148BC
331
148C3
331
148C4
331
148D6
331
148D7
331
15F1C
331
15F1D
331
15F37
331
15F38
331
15F41
331
15F42
331
1662F
331
16630
331
16637
331
16638
331
16641
331
16642
331
16649
331
1664A
331
16652
331
16653
331
1665C
331
1665D
331
16DD5
331
16DD6
331
16DDD
331
16DDE
331
16DE7
331
16DE8
331
16DEF
331
16DF0
331
16DF9
331
16DFA
331
16E01
331
16E02
331
1A621
331
1A622
331
1A62B
331
1A62C
331
1A633
331
1A634
331
1A63D
331
1A63E
331
1A645
331
1A646
331
1A64F
331
1A650
331
1ACE7
331
1ACE8
331
1ACEF
331
1ACF0
331
1ACF9
331
1ACFA
331
1AD01
331
1AD02
331
1AD0B
331
1AD0C
331
1AD13
331
1AD14
331
1B9DC
331
1B9DD
331
1B9E6
331
1B9E7
331
1B9EE
331
1B9EF
331
1B9F8
331
1B9F9
331
1BA00
331
1BA01
331
1BA0A
331
1BA0B
331
1C0A9
331
1C0AA
331
1C0B2
331
1C0B3
331
1C0BA
331
1C0BB
331
1C0C4
331
1C0C5
331
1C0CC
331
1C0CD
331
1C0E1
331
1C0E2
331
1C778
331
1C779
331
1C782
331
1C783
331
1C78B
331
1C78C
331
1C793
331
1C794
331
1C79D
331
1C79E
331
1C7A5
331
1C7A6
331
1CE3B
331
1CE3C
331
1CE44
331
1CE45
331
1CE4E
331
1CE4F
331
1CE56
331
1CE57
331
1CE60
331
1CE61
331
1CE69
331
1CE6A
102
}
  0
ENDTAB
  0
ENDSEC
  0
SECTION
  2
BLOCKS
  0
BLOCK
  5
52
330
18
100
AcDbEntity
  8
0
100
AcDbBlockBegin
  2
*MODEL_SPACE
 70
     0
 10
0.0
 20
0.0
 30
0.0
  3
*MODEL_SPACE
  1
*MODEL_SPACE
  0
ENDBLK
  5
53
330
18
100
AcDbEntity
  8
0
100
AcDbBlockEnd
  0
BLOCK
  5
50
330
15
100
AcDbEntity
 67
     1
  8
0
100
AcDbBlockBegin
  2
*PAPER_SPACE
 70
     0
 10
0.0
 20
0.0
 30
0.0
  3
*PAPER_SPACE
  1
*PAPER_SPACE
  0
ENDBLK
  5
51
330
15
100
AcDbEntity
 67
     1
  8
0
100
AcDbBlockEnd
  0
BLOCK
  5
49C7
330
49C3
100
AcDbEntity
  8
0
100
AcDbBlockBegin
  2
_OPEN
 70
     0
 10
0.0
 20
0.0
 30
0.0
  3
_OPEN
  1
_OPEN
  0
LINE
  5
49C4
330
49C3
100
AcDbEntity
  8
0
  6
ByBlock
 62
     0
100
AcDbLine
 10
-1.0
 20
0.1666666666666667
 30
0.0
 11
0.0
 21
0.0
 31
0.0
  0
LINE
  5
49C5
330
49C3
100
AcDbEntity
  8
0
  6
ByBlock
 62
     0
100
AcDbLine
 10
0.0
 20
0.0
 30
0.0
 11
-1.0
 21
-0.1666666666666667
 31
0.0
  0
LINE
  5
49C6
330
49C3
100
AcDbEntity
  8
0
  6
ByBlock
 62
     0
100
AcDbLine
 10
0.0
 20
0.0
 30
0.0
 11
-1.0
 21
0.0
 31
0.0
  0
ENDBLK
  5
49C8
330
49C3
100
AcDbEntity
  8
0
100
AcDbBlockEnd
  0
BLOCK
  5
FD3A
330
FD36
100
AcDbEntity
  8
0
100
AcDbBlockBegin
  2
_Open30
 70
     0
 10
0.0
 20
0.0
 30
0.0
  3
_Open30
  1
_Open30
  0
LINE
  5
FD37
330
FD36
100
AcDbEntity
  8
寸法線
 62
     0
370
    -2
100
AcDbLine
 10
-1.0
 20
0.26794919
 30
0.0
 11
0.0
 21
0.0
 31
0.0
  0
LINE
  5
FD38
330
FD36
100
AcDbEntity
  8
寸法線
 62
     0
370
    -2
100
AcDbLine
 10
0.0
 20
0.0
 30
0.0
 11
-1.0
 21
-0.26794919
 31
0.0
  0
LINE
  5
FD39
330
FD36
100
AcDbEntity
  8
寸法線
 62
     0
370
    -2
100
AcDbLine
 10
0.0
 20
0.0
 30
0.0
 11
-1.0
 21
0.0
 31
0.0
  0
ENDBLK
  5
FD3B
330
FD36
100
AcDbEntity
  8
0
100
AcDbBlockEnd
  0
ENDSEC
  0
SECTION
  2
ENTITIES
  0
TEXT
  5
CA4E
330
18
100
AcDbEntity
  8
文字
100
AcDbText
 10
2018.197819497403
 20
1480.062596338712
 30
0.0
 40
5.03717579889388
  1

 72
     1
 11
2018.197819497403
 21
1480.062596338712
 31
0.0
100
AcDbText
  0
TEXT
  5
CA4F
330
18
100
AcDbEntity
  8
文字
100
AcDbText
 10
2018.197819497403
 20
1470.995432159606
 30
0.0
 40
5.03717579889388
  1

 72
     1
 11
2018.197819497403
 21
1470.995432159606
 31
0.0
100
AcDbText
  0
TEXT
  5
CF46
330
18
100
AcDbEntity
  8
文字
100
AcDbText
 10
2018.197819497403
 20
1489.129760517818
 30
0.0
 40
5.03717579889388
  1

 72
     1
 11
2018.197819497403
 21
1489.129760517818
 31
0.0
100
AcDbText
  0
TEXT
  5
1305D
330
18
100
AcDbEntity
  8
文字
100
AcDbText
 10
2317.197133686364
 20
1518.060006404568
 30
0.0
 40
4.5
  1

 11
2317.197133686364
 21
1520.310006404568
 31
0.0
100
AcDbText
 73
     2
  0
SPLINE
  5
1CBB7
330
18
100
AcDbEntity
  8
姿図
100
AcDbSpline
210
0.0
220
0.0
230
1.0
 70
     8
 71
     3
 72
     8
 73
     4
 74
     0
 42
0.000000001
 43
0.0000000001
 40
10.0
 40
10.0
 40
10.0
 40
10.0
 40
10.56265067495566
 40
10.56265067495566
 40
10.56265067495566
 40
10.56265067495566
 10
2846.187638098389
 20
-112.924142914495
 30
0.0000000000000033
 10
2846.187638098389
 20
-112.924142914495
 30
0.0000000000000033
 10
2844.289234915314
 20
-113.1169551122864
 30
0.0000000000000033
 10
2842.647805852368
 20
-113.5150046362282
 30
0.0
  0
SPLINE
  5
1CBB8
330
18
100
AcDbEntity
  8
姿図
100
AcDbSpline
210
0.0
220
0.0
230
1.0
 70
     8
 71
     3
 72
     8
 73
     4
 74
     0
 42
0.000000001
 43
0.0000000001
 40
13.0
 40
13.0
 40
13.0
 40
13.0
 40
14.0
 40
14.0
 40
14.0
 40
14.0
 10
2837.041536073144
 20
-113.8663389494191
 30
0.0
 10
2837.041536073144
 20
-113.8663389494191
 30
0.0
 10
2833.767355264938
 20
-114.4996764233349
 30
0.0000000000000033
 10
2833.32945679
 20
-114.6364405203565
 30
0.0000000000000033
  0
SPLINE
  5
1CBB9
330
18
100
AcDbEntity
  8
姿図
100
AcDbSpline
210
0.0
220
0.0
230
1.0
 70
     8
 71
     3
 72
    14
 73
    10
 74
     0
 42
0.000000001
 43
0.0000000001
 40
-17.67097520731171
 40
-17.67097520731171
 40
-17.67097520731171
 40
-17.67097520731171
 40
-15.46329434907155
 40
-15.46329434907155
 40
-11.48389074227961
 40
-11.48389074227961
 40
-5.954339038219556
 40
-5.954339038219556
 40
-0.5047492958822968
 40
-0.5047492958822968
 40
-0.5047492958822968
 40
-0.5047492958822968
 10
2856.581961491938
 20
-138.6401756957234
 30
0.0000000000000048
 10
2856.709014216202
 20
-138.8575120752839
 30
0.0
 10
2856.828868633203
 20
-139.0769997747809
 30
0.0
 10
2857.141790495509
 20
-139.6930180019851
 30
0.0
 10
2857.314415391322
 20
-140.086231158145
 30
0.0
 10
2857.672415304377
 20
-141.0502904858672
 30
0.0000000000000048
 10
2857.805276685198
 20
-141.5403575008274
 30
0.0
 10
2857.983603427137
 20
-142.3971805128785
 30
0.0000000000000097
 10
2858.040870597263
 20
-142.8190835508663
 30
0.0000000000000097
 10
2858.066139119451
 20
-143.2319124932694
 30
0.0
  0
SPLINE
  5
1CBBA
330
18
100
AcDbEntity
  8
姿図
100
AcDbSpline
210
0.0
220
0.0
230
1.0
 70
     8
 71
     3
 72
     8
 73
     4
 74
     0
 42
0.000000001
 43
0.0000000001
 40
8.0
 40
8.0
 40
8.0
 40
8.0
 40
9.0
 40
9.0
 40
9.0
 40
9.0
 10
2852.977109561409
 20
-144.7182426030161
 30
-0.0000000000000097
 10
2852.977109561409
 20
-144.7182426030161
 30
-0.0000000000000097
 10
2848.233844488534
 20
-114.7346038189844
 30
0.0000000000000033
 10
2847.973376641678
 20
-113.7193651171383
 30
0.0000000000000033
  0
SPLINE
  5
1CBBB
330
18
100
AcDbEntity
  8
姿図
100
AcDbSpline
210
0.0
220
0.0
230
1.0
 70
     8
 71
     3
 72
     8
 73
     4
 74
     0
 42
0.000000001
 43
0.0000000001
 40
-29.73791167171498
 40
-29.73791167171498
 40
-29.73791167171498
 40
-29.73791167171498
 40
-21.81652578453031
 40
-21.81652578453031
 40
-21.81652578453031
 40
-21.81652578453031
 10
2843.046360453122
 20
-136.4867523229473
 30
0.0
 10
2845.985950351223
 20
-136.419996560963
 30
0.0000000000000044
 10
2847.419859607264
 20
-137.1302879503739
 30
0.0000000000000048
 10
2850.068208215967
 20
-140.463559874212
 30
0.0000000000000048
  0
SPLINE
  5
1CBBC
330
18
100
AcDbEntity
  8
姿図
100
AcDbSpline
210
0.0
220
0.0
230
1.0
 70
     8
 71
     3
 72
    20
 73
    16
 74
     0
 42
0.000000001
 43
0.0000000001
 40
61.91009950387845
 40
61.91009950387845
 40
61.91009950387845
 40
61.91009950387845
 40
63.27662545801321
 40
63.27662545801321
 40
65.63207741714923
 40
65.63207741714923
 40
66.46294226239624
 40
66.46294226239624
 40
68.78483332584179
 40
68.78483332584179
 40
78.37384755292882
 40
78.37384755292882
 40
82.12808435629299
 40
82.12808435629299
 40
85.66477676586585
 40
85.66477676586585
 40
85.66477676586585
 40
85.66477676586585
 10
2847.266927965533
 20
-163.5017993959934
 30
-0.0000000000000016
 10
2847.441481999324
 20
-163.3169438843047
 30
-0.0000000000000024
 10
2847.596809101982
 20
-163.1386103891703
 30
-0.0000000000000028
 10
2847.967943078999
 20
-162.6862840798701
 30
0.0
 10
2848.174603481519
 20
-162.3991402319525
 30
-0.0000000000000049
 10
2848.357280207856
 20
-162.1287796285715
 30
0.0
 10
2848.407299279008
 20
-162.0526673819559
 30
-0.0000000000000049
 10
2848.599562245377
 20
-161.7519139465501
 30
0.0000000000000048
 10
2848.716974399048
 20
-161.5516010022104
 30
-0.0000000000000049
 10
2849.314597668998
 20
-160.4579845281039
 30
-0.0000000000000049
 10
2849.901449335346
 20
-159.1019393349168
 30
-0.0000000000000049
 10
2850.283327299971
 20
-156.5442945813559
 30
-0.0000000000000049
 10
2850.334339428737
 20
-155.8091130765397
 30
0.0000000000000048
 10
2850.327232106817
 20
-154.3416069036418
 30
0.0000000000000048
 10
2850.131196964854
 20
-152.5730933004779
 30
-0.0000000000000049
 10
2850.131196964854
 20
-152.5730933004779
 30
-0.0000000000000049
  0
ARC
  5
1CCAB
330
18
100
AcDbEntity
  8
姿図
100
AcDbCircle
 10
2830.445431523853
 20
-133.9611128231343
 30
0.0
 40
35.67385242140735
100
AcDbArc
 50
261.6380248236465
 51
284.1755966320895
  0
SPLINE
  5
1CCAC
330
18
100
AcDbEntity
  8
姿図
100
AcDbSpline
210
0.0
220
0.0
230
1.0
 70
     8
 71
     3
 72
    20
 73
    16
 74
     0
 42
0.000000001
 43
0.0000000001
 40
0.0507684683112425
 40
0.0507684683112425
 40
0.0507684683112425
 40
0.0507684683112425
 40
16.17239265914957
 40
16.17239265914957
 40
33.44137084920912
 40
33.44137084920912
 40
41.29196149669883
 40
41.29196149669883
 40
50.54402678597219
 40
50.54402678597219
 40
58.56297097631615
 40
58.56297097631615
 40
66.12555618457822
 40
66.12555618457822
 40
66.75214355035303
 40
66.75214355035303
 40
66.75214355035303
 40
66.75214355035303
 10
2847.304919564455
 20
-147.561673654978
 30
-0.0000000000000046
 10
2846.627541177988
 20
-146.2656683129162
 30
-0.0000000000000046
 10
2845.808818064562
 20
-145.0244102772267
 30
-0.0000000000000046
 10
2843.872441747197
 20
-142.6721954199684
 30
-0.0000000000000046
 10
2842.38536638851
 20
-141.1517546967407
 30
-0.0000000000000046
 10
2839.530038610123
 20
-139.298425816615
 30
-0.0000000000000046
 10
2838.601519396027
 20
-138.8089617459273
 30
-0.0000000000000046
 10
2836.568117461817
 20
-137.9765176160713
 30
-0.0000000000000046
 10
2835.466284593482
 20
-137.6779942225874
 30
-0.0000000000000046
 10
2833.430327811077
 20
-137.3977853608626
 30
-0.0000000000000046
 10
2832.612523579906
 20
-137.3937874324988
 30
0.0000000000000035
 10
2831.265810525267
 20
-137.5066423793728
 30
-0.0000000000000046
 10
2830.461920545648
 20
-137.6388442654818
 30
-0.0000000000000046
 10
2829.572233073703
 20
-137.9361481619408
 30
-0.0000000000000046
 10
2829.504481194441
 20
-137.9597157950782
 30
-0.0000000000000046
 10
2829.43707525456
 20
-137.9840822748774
 30
-0.0000000000000046
  0
ARC
  5
1CCAE
330
18
100
AcDbEntity
  8
姿図
100
AcDbCircle
 10
2842.806217939631
 20
-152.7476607782849
 30
0.0
 40
16.26268158145045
100
AcDbArc
 50
89.15391243979948
 51
109.5374537908163
  0
ARC
  5
1CCAF
330
18
100
AcDbEntity
  8
姿図
100
AcDbCircle
 10
2849.338232512223
 20
-163.9595208205945
 30
0.0
 40
34.02315326323126
100
AcDbArc
 50
143.7710201066352
 51
167.1791035800666
  0
ELLIPSE
  5
1CCB0
330
18
100
AcDbEntity
  8
姿図
100
AcDbEllipse
 10
2831.665865401782
 20
-156.8778557984654
 30
0.0
 11
-4.456000980367095
 21
7.069656768613266
 31
0.0
210
0.0
220
0.0
230
1.0
 40
0.6623046749704969
 41
1.06460142046836
 42
1.939163156723323
  0
ELLIPSE
  5
1CCB1
330
18
100
AcDbEntity
  8
姿図
100
AcDbEllipse
 10
2832.63220725386
 20
-157.0387846617839
 30
0.0
 11
-4.456000980369319
 21
7.069656768618889
 31
0.0
210
0.0
220
0.0
230
1.0
 40
0.662304674970031
 41
1.243214961786411
 42
1.690122470836986
  0
ELLIPSE
  5
1CCB2
330
18
100
AcDbEntity
  8
姿図
100
AcDbEllipse
 10
2830.645838997471
 20
-157.0924280417519
 30
0.0
 11
-4.456000980367746
 21
7.069656768613173
 31
0.0
210
0.0
220
0.0
230
1.0
 40
0.662304674970479
 41
0.9054213287946076
 42
2.136436596989779
  0
ELLIPSE
  5
1CCB3
330
18
100
AcDbEntity
  8
姿図
100
AcDbEllipse
 10
2826.243612792251
 20
-158.7017179515212
 30
0.0
 11
-4.456000980367439
 21
7.069656768612796
 31
0.0
210
0.0
220
0.0
230
1.0
 40
0.6623046749705267
 41
0.4591420347467441
 42
2.773497807012458
  0
ELLIPSE
  5
1CCB4
330
18
100
AcDbEntity
  8
姿図
100
AcDbEllipse
 10
2826.995212010533
 20
-158.3262168449166
 30
0.0
 11
-4.456000980367563
 21
7.069656768613028
 31
0.0
210
0.0
220
0.0
230
1.0
 40
0.6623046749704752
 41
0.525404355752475
 42
2.672012895072623
  0
ELLIPSE
  5
1CCB5
330
18
100
AcDbEntity
  8
姿図
100
AcDbEllipse
 10
2827.854182545711
 20
-158.0043578416946
 30
0.0
 11
-4.456000980367791
 21
7.06965676861278
 31
0.0
210
0.0
220
0.0
230
1.0
 40
0.6623046749705144
 41
0.596156730267611
 42
2.553339703901541
  0
ELLIPSE
  5
1CCB6
330
18
100
AcDbEntity
  8
姿図
100
AcDbEllipse
 10
2828.71315308089
 20
-157.62885673509
 30
0.0
 11
-4.456000980367578
 21
7.069656768612583
 31
0.0
210
0.0
220
0.0
230
1.0
 40
0.6623046749705205
 41
0.6873953370103449
 42
2.434906789774352
  0
ELLIPSE
  5
1CCB7
330
18
100
AcDbEntity
  8
姿図
100
AcDbEllipse
 10
2829.625810380731
 20
-157.4142857683885
 30
0.0
 11
-4.456000980367747
 21
7.069656768612615
 31
0.0
210
0.0
220
0.0
230
1.0
 40
0.6623046749705187
 41
0.7734484980934191
 42
2.300448355830317
  0
ELLIPSE
  5
1CCB8
330
18
100
AcDbEntity
  8
姿図
100
AcDbEllipse
 10
2825.093362907842
 20
-159.7589933411984
 30
0.0
 11
-4.456000980367715
 21
7.069656768612587
 31
0.0
210
0.0
220
0.0
230
1.0
 40
0.6623046749705154
 41
0.2714006911431415
 42
2.874173387987511
  0
ELLIPSE
  5
1CCB9
330
18
100
AcDbEntity
  8
姿図
100
AcDbEllipse
 10
2825.653071655529
 20
-159.3454346813799
 30
0.0
 11
-4.456000980367689
 21
7.06965676861275
 31
0.0
210
0.0
220
0.0
230
1.0
 40
0.6623046749705125
 41
0.345414513183139
 42
2.824135529744306
  0
ELLIPSE
  5
1CCBA
330
18
100
AcDbEntity
  8
姿図
100
AcDbEllipse
 10
2822.64667699483
 20
-161.3302269743392
 30
0.0
 11
-4.456000980367604
 21
7.069656768612845
 31
0.0
210
0.0
220
0.0
230
1.0
 40
0.6623046749705085
 41
0.0
 42
6.283185307179586
  0
ELLIPSE
  5
1CCBB
330
18
100
AcDbEntity
  8
姿図
100
AcDbEllipse
 10
2822.647360634914
 20
-161.2747197802121
 30
0.0
 11
4.62082461422436
 21
-7.331157276322933
 31
0.0
210
0.0
220
0.0
230
1.0
 40
0.6863351737607862
 41
-3.141592653589793
 42
3.141592653589793
  0
ELLIPSE
  5
1CCBC
330
18
100
AcDbEntity
  8
姿図
100
AcDbEllipse
 10
2823.429433828983
 20
-160.7937970044161
 30
0.0
 11
-4.456000980368274
 21
7.06965676861236
 31
0.0
210
0.0
220
0.0
230
1.0
 40
0.6623046749705125
 41
0.1631095167755552
 42
3.081235483912125
  0
ELLIPSE
  5
1CCBD
330
18
100
AcDbEntity
  8
姿図
100
AcDbEllipse
 10
2824.272846574287
 20
-160.203723654525
 30
0.0
 11
-4.456000980367713
 21
7.069656768612803
 31
0.0
210
0.0
220
0.0
230
1.0
 40
0.6623046749705057
 41
0.239569814910302
 42
2.990787662643266
  0
SPLINE
  5
1CCBE
330
18
100
AcDbEntity
  8
姿図
100
AcDbSpline
210
-3.174662292504602E-10
220
9.035776533163395E-10
230
-1.0
 70
     8
 71
     3
 72
     8
 73
     4
 74
     0
 42
0.000000001
 43
0.0000000001
 40
104.4616887805064
 40
104.4616887805064
 40
104.4616887805064
 40
104.4616887805064
 40
104.5558158786619
 40
104.5558158786619
 40
104.5558158786619
 40
104.5558158786619
 10
2838.387312131031
 20
-168.6931619178349
 30
-0.0000000000000033
 10
2838.38286485912
 20
-168.6947304005539
 30
-0.0000000000000033
 10
2838.378420090784
 20
-168.6962950366315
 30
-0.0000000000000114
 10
2838.373977855415
 20
-168.6978557876162
 30
-0.0000000000000114
  0
SPLINE
  5
1CCBF
330
18
100
AcDbEntity
  8
姿図
100
AcDbSpline
210
0.0
220
0.0
230
1.0
 70
     8
 71
     3
 72
    12
 73
     8
 74
     0
 42
0.000000001
 43
0.0000000001
 40
-1.090507445860422
 40
-1.090507445860422
 40
-1.090507445860422
 40
-1.090507445860422
 40
-0.9471425154221369
 40
-0.9471425154221369
 40
-0.7528206779009274
 40
-0.7528206779009274
 40
-0.6501188551225207
 40
-0.6501188551225207
 40
-0.6501188551225207
 40
-0.6501188551225207
 10
2838.357506972606
 20
-168.7036379367808
 30
-0.0000000000000114
 10
2838.350269488165
 20
-168.7061782655658
 30
-0.0000000000000114
 10
2838.341864904799
 20
-168.7091283264222
 30
-0.0000000000000114
 10
2838.319929919353
 20
-168.716821403098
 30
-0.0000000000000114
 10
2838.306247955618
 20
-168.7216149183282
 30
-0.0000000000000114
 10
2838.285227158176
 20
-168.7289575353914
 30
-0.0000000000000114
 10
2838.277710220169
 20
-168.7315793629562
 30
-0.0000000000000114
 10
2838.270000218828
 20
-168.7342625701326
 30
-0.0000000000000114
  0
SPLINE
  5
1CCC0
330
18
100
AcDbEntity
  8
姿図
100
AcDbSpline
210
0.0
220
0.0
230
1.0
 70
     8
 71
     3
 72
     8
 73
     4
 74
     0
 42
0.000000001
 43
0.0000000001
 40
211.7706370983692
 40
211.7706370983692
 40
211.7706370983692
 40
211.7706370983692
 40
212.1566911252955
 40
212.1566911252955
 40
212.1566911252955
 40
212.1566911252955
 10
2838.305437598139
 20
-168.721698158563
 30
-0.0000000000000114
 10
2838.3235487661
 20
-168.7154614970204
 30
-0.0000000000000114
 10
2838.34170361342
 20
-168.7091591586159
 30
-0.0000000000000033
 10
2838.359901054398
 20
-168.7027915470694
 30
-0.0000000000000114
  0
SPLINE
  5
1CCC1
330
18
100
AcDbEntity
  8
姿図
100
AcDbSpline
210
0.0
220
0.0
230
1.0
 70
     8
 71
     3
 72
     8
 73
     4
 74
     0
 42
0.000000001
 43
0.0000000001
 40
-0.691446024632862
 40
-0.691446024632862
 40
-0.691446024632862
 40
-0.691446024632862
 40
-0.6779385051869151
 40
-0.6779385051869151
 40
-0.6779385051869151
 40
-0.6779385051869151
 10
2838.359941152247
 20
-168.7028295839355
 30
-0.0000000000000114
 10
2838.359138748168
 20
-168.7031131476608
 30
-0.0000000000000114
 10
2838.358327277537
 20
-168.7033826151403
 30
-0.0000000000000114
 10
2838.357506972606
 20
-168.7036379367808
 30
-0.0000000000000114
  0
SPLINE
  5
1CCC2
330
18
100
AcDbEntity
  8
姿図
100
AcDbSpline
210
0.0
220
0.0
230
1.0
 70
     8
 71
     1
 72
     8
 73
     6
 74
     0
 42
0.000000001
 43
0.0000000001
 40
4.584727753645457
 40
4.584727753645457
 40
4.584891353986822
 40
4.585054954328187
 40
4.585218554669551
 40
4.585382155010916
 40
4.585545755352282
 40
4.585545755352282
 10
2838.270000218828
 20
-168.7342625701326
 30
-0.0000000000000114
 10
2838.263969615297
 20
-168.7363606351469
 30
-0.0000000000000114
 10
2838.257939130573
 20
-168.7384572155495
 30
-0.0000000000000114
 10
2838.251908765445
 20
-168.7405523114046
 30
-0.0000000000000114
 10
2838.24587852071
 20
-168.7426459227772
 30
-0.0000000000000114
 10
2838.23984839716
 20
-168.7447380497324
 30
-0.0000000000000114
  0
SPLINE
  5
1CCC3
330
18
100
AcDbEntity
  8
姿図
100
AcDbSpline
210
0.0
220
0.0
230
1.0
 70
     8
 71
     1
 72
     8
 73
     6
 74
     0
 42
0.000000001
 43
0.0000000001
 40
4.553485832398614
 40
4.553485832398614
 40
4.559001824165762
 40
4.564517815932909
 40
4.570033807700057
 40
4.575549799467204
 40
4.581065791234352
 40
4.581065791234352
 10
2838.6572417862
 20
-168.5916892308237
 30
-0.0000000000000114
 10
2838.598188748064
 20
-168.6147456781437
 30
-0.0000000000000114
 10
2838.538930290361
 20
-168.6373886124964
 30
-0.0000000000000033
 10
2838.479468285464
 20
-168.6596173514322
 30
-0.0000000000000114
 10
2838.419804611498
 20
-168.6814312266347
 30
-0.0000000000000114
 10
2838.359941152247
 20
-168.7028295839355
 30
-0.0000000000000114
  0
ARC
  5
1CCC4
330
18
100
AcDbEntity
  8
姿図
100
AcDbCircle
 10
2835.130832193852
 20
-159.0326820894868
 30
-0.0000000000000033
 40
10.19977863332881
100
AcDbArc
 50
275.8727705641267
 51
287.212885908897
  0
SPLINE
  5
1CCC5
330
18
100
AcDbEntity
  8
姿図
100
AcDbSpline
210
0.0
220
0.0
230
1.0
 70
     8
 71
     1
 72
    15
 73
    13
 74
     0
 42
0.000000001
 43
0.0000000001
 40
7.20717324291482
 40
7.20717324291482
 40
7.217570874922297
 40
7.231882583709728
 40
7.24619429249716
 40
7.260506001284593
 40
7.274817710072025
 40
7.289129418859456
 40
7.30344112764689
 40
7.317752836434321
 40
7.332064545221754
 40
7.346376254009186
 40
7.360687962796618
 40
7.37499967158405
 40
7.37499967158405
 10
2820.814555767787
 20
-145.232079125743
 30
-0.0000000000000055
 10
2820.879487478783
 20
-145.1278079828751
 30
-0.0000000000000114
 10
2820.971128216461
 20
-144.9863296968044
 30
-0.0000000000000114
 10
2821.065016669889
 20
-144.8469260271486
 30
-0.0000000000000114
 10
2821.161133854344
 20
-144.7096265885325
 30
-0.0000000000000033
 10
2821.259460268034
 20
-144.5744605919579
 30
-0.0000000000000114
 10
2821.359975893642
 20
-144.4414568353127
 30
-0.0000000000000033
 10
2821.462660200213
 20
-144.3106436936837
 30
-0.0000000000000033
 10
2821.567492145428
 20
-144.1820491095266
 30
-0.0000000000000114
 10
2821.67445017827
 20
-144.0557005826731
 30
-0.0000000000000033
 10
2821.783512242132
 20
-143.9316251602304
 30
-0.0000000000000033
 10
2821.89465577838
 20
-143.8098494263938
 30
-0.0000000000000114
 10
2822.007857730376
 20
-143.6903994921906
 30
-0.0000000000000033
  0
ARC
  5
1CCC6
330
18
100
AcDbEntity
  8
姿図
100
AcDbCircle
 10
2852.642666203725
 20
-175.3413391078157
 30
0.0
 40
43.97799551346176
100
AcDbArc
 50
120.5127637963621
 51
131.8937550336379
  0
LWPOLYLINE
  5
1CCCC
330
18
100
AcDbEntity
  8
姿図
100
AcDbPolyline
 90
        3
 70
     0
 43
0.0
 10
2857.734995770076
 20
-144.8463048061644
 10
2856.922267422861
 20
-146.8827596410638
 10
2855.361602764698
 20
-149.3074647266399
  0
ARC
  5
1CCCD
330
18
100
AcDbEntity
  8
姿図
100
AcDbCircle
 10
2822.32809520182
 20
-129.8378007078979
 30
0.0
 40
40.50125572339087
100
AcDbArc
 50
312.149744181786
 51
337.7894011510965
  0
SPLINE
  5
1CCCF
330
18
100
AcDbEntity
  8
姿図
100
AcDbSpline
210
0.0
220
0.0
230
1.0
 70
     8
 71
     3
 72
    20
 73
    16
 74
     0
 42
0.000000001
 43
0.0000000001
 40
60.97286850367482
 40
60.97286850367482
 40
60.97286850367482
 40
60.97286850367482
 40
63.27662545801321
 40
63.27662545801321
 40
65.63207741714923
 40
65.63207741714923
 40
66.46294226239624
 40
66.46294226239624
 40
68.78483332584179
 40
68.78483332584179
 40
78.37384755292882
 40
78.37384755292882
 40
82.12808435629299
 40
82.12808435629299
 40
84.32250915659358
 40
84.32250915659358
 40
84.32250915659358
 40
84.32250915659358
 10
2846.895115503033
 20
-163.763189132763
 30
-0.000000000000005
 10
2847.188970584319
 20
-163.425416194422
 30
-0.0000000000000056
 10
2847.431632413782
 20
-163.0974631822462
 30
-0.0000000000000068
 10
2847.824719050528
 20
-162.5096794759133
 30
-0.0000000000000127
 10
2847.996798348482
 20
-162.2129001285366
 30
-0.0000000000000046
 10
2848.147605894463
 20
-161.9340005163222
 30
-0.0000000000000046
 10
2848.188734823869
 20
-161.8555474471689
 30
-0.0000000000000046
 10
2848.346181290933
 20
-161.5457856031064
 30
-0.0000000000000046
 10
2848.441021812338
 20
-161.339949473316
 30
-0.0000000000000127
 10
2848.917931992849
 20
-160.2181228846816
 30
-0.0000000000000046
 10
2849.364049156917
 20
-158.8340051560558
 30
-0.0000000000000127
 10
2849.522550143371
 20
-156.2558908056269
 30
-0.0000000000000046
 10
2849.512762757247
 20
-155.5174576239167
 30
-0.0000000000000046
 10
2849.413100815519
 20
-154.3188066979635
 30
-0.0000000000000046
 10
2849.358062751142
 20
-153.8689091817841
 30
-0.0000000000000046
 10
2849.284822272057
 20
-153.4170717702586
 30
-0.0000000000000046
  0
ARC
  5
1CCD0
330
18
100
AcDbEntity
  8
姿図
100
AcDbCircle
 10
2806.334122488538
 20
-105.672280772214
 30
0.0
 40
70.85017846467
100
AcDbArc
 50
297.7258407647547
 51
305.291567769414
  0
SPLINE
  5
1CCD1
330
18
100
AcDbEntity
  8
姿図
100
AcDbSpline
210
0.0
220
0.0
230
1.0
 70
     8
 71
     1
 72
    95
 73
    93
 74
     0
 42
0.000000001
 43
0.0000000001
 40
4.868828357704044
 40
4.868828357704044
 40
4.899304006515187
 40
4.929779655326332
 40
4.960255304137476
 40
4.99073095294862
 40
5.021206601759763
 40
5.051682250570908
 40
5.082157899382052
 40
5.112633548193195
 40
5.141866847195869
 40
5.171100146198544
 40
5.200333445201219
 40
5.229566744203892
 40
5.258800043206566
 40
5.288033342209241
 40
5.317266641211915
 40
5.346499940214589
 40
5.375733239217263
 40
5.410288874003569
 40
5.444844508789874
 40
5.479400143576179
 40
5.513955778362485
 40
5.548511413148789
 40
5.583067047935096
 40
5.617622682721401
 40
5.652178317507706
 40
5.686733952294011
 40
5.721773394811629
 40
5.756812837329247
 40
5.791852279846864
 40
5.826891722364483
 40
5.861931164882101
 40
5.896970607399719
 40
5.932010049917338
 40
5.967049492434954
 40
6.002088934952573
 40
6.037128377470191
 40
6.072869040478575
 40
6.108609703486958
 40
6.144350366495342
 40
6.180091029503725
 40
6.215831692512109
 40
6.251572355520493
 40
6.287313018528875
 40
6.323053681537259
 40
6.358794344545643
 40
6.394535007554026
 40
6.434056964704096
 40
6.473578921854168
 40
6.51310087900424
 40
6.55262283615431
 40
6.59214479330438
 40
6.631666750454452
 40
6.671188707604522
 40
6.710710664754592
 40
6.750232621904663
 40
6.785926488730394
 40
6.821620355556124
 40
6.857314222381854
 40
6.893008089207585
 40
6.928701956033316
 40
6.964395822859046
 40
7.000089689684777
 40
7.035783556510507
 40
7.071477423336238
 40
7.107171290161968
 40
7.142623453249049
 40
7.178075616336131
 40
7.213527779423211
 40
7.248979942510293
 40
7.284432105597374
 40
7.319884268684455
 40
7.355336431771536
 40
7.390788594858618
 40
7.426240757945699
 40
7.46169292103278
 40
7.497078312165116
 40
7.532463703297453
 40
7.567849094429789
 40
7.603234485562125
 40
7.638619876694462
 40
7.674005267826798
 40
7.709390658959135
 40
7.74477605009147
 40
7.780161441223807
 40
7.808943887482561
 40
7.837726333741315
 40
7.866508780000069
 40
7.895291226258823
 40
7.924073672517576
 40
7.952856118776331
 40
7.981638565035084
 40
8.010421011293838
 40
8.010421011293838
 10
2853.341952550119
 20
-148.0793221279828
 30
-0.0000000000000046
 10
2853.37037918647
 20
-148.0736792800992
 30
-0.0000000000000046
 10
2853.39848846318
 20
-148.0666824197781
 30
-0.0000000000000046
 10
2853.426204451404
 20
-148.0583584166943
 30
-0.0000000000000046
 10
2853.453455789373
 20
-148.0487419106996
 30
-0.0000000000000046
 10
2853.480176893278
 20
-148.0378743065633
 30
-0.0000000000000046
 10
2853.506308892698
 20
-148.0258025838614
 30
-0.0000000000000127
 10
2853.531800260197
 20
-148.012577999868
 30
-0.0000000000000127
 10
2853.556607129663
 20
-147.9982547640684
 30
-0.0000000000000046
 10
2853.579725920436
 20
-147.9835348243439
 30
-0.0000000000000046
 10
2853.60215606232
 20
-147.9679051593293
 30
-0.0000000000000046
 10
2853.62387802126
 20
-147.9514151075653
 30
-0.0000000000000046
 10
2853.644877727989
 20
-147.9341128762735
 30
-0.0000000000000046
 10
2853.665146007796
 20
-147.9160449806498
 30
-0.0000000000000046
 10
2853.684677963224
 20
-147.897255826869
 30
-0.0000000000000127
 10
2853.703472342754
 20
-147.8777874301961
 30
-0.0000000000000127
 10
2853.721530922458
 20
-147.8576792541357
 30
-0.0000000000000127
 10
2853.738857921297
 20
-147.836968153307
 30
-0.0000000000000046
 10
2853.758404519819
 20
-147.8117554575551
 30
-0.0000000000000046
 10
2853.776950140321
 20
-147.785800234853
 30
-0.0000000000000046
 10
2853.794509240993
 20
-147.7591501242007
 30
-0.0000000000000046
 10
2853.811097334818
 20
-147.7318486753741
 30
-0.0000000000000046
 10
2853.826730362333
 20
-147.7039358166701
 30
-0.0000000000000046
 10
2853.841424207886
 20
-147.6754483364321
 30
-0.0000000000000127
 10
2853.855194341237
 20
-147.6464203550659
 30
-0.0000000000000127
 10
2853.868055565362
 20
-147.6168837714283
 30
-0.0000000000000046
 10
2853.880021851791
 20
-147.5868686732858
 30
-0.0000000000000127
 10
2853.891255235671
 20
-147.5559741101438
 30
-0.0000000000000046
 10
2853.901594445907
 20
-147.5246456849495
 30
-0.0000000000000046
 10
2853.911051053186
 20
-147.4929112126329
 30
-0.0000000000000046
 10
2853.919635647097
 20
-147.4607978842246
 30
-0.0000000000000046
 10
2853.927357895785
 20
-147.4283324807561
 30
-0.0000000000000046
 10
2853.934226621077
 20
-147.3955415488704
 30
-0.0000000000000046
 10
2853.940249882814
 20
-147.3624515422121
 30
-0.0000000000000046
 10
2853.94543506755
 20
-147.3290889326893
 30
-0.0000000000000127
 10
2853.949788977949
 20
-147.2954802954762
 30
-0.0000000000000127
 10
2853.953317920183
 20
-147.2616523713957
 30
-0.0000000000000046
 10
2853.956073696922
 20
-147.2269495089836
 30
-0.0000000000000046
 10
2853.957983181836
 20
-147.1920753872819
 30
-0.0000000000000127
 10
2853.95905198697
 20
-147.1570591275665
 30
-0.0000000000000046
 10
2853.959285512122
 20
-147.121930121139
 30
-0.0000000000000046
 10
2853.958689008036
 20
-147.0867180199821
 30
-0.0000000000000046
 10
2853.957267631262
 20
-147.0514527188573
 30
-0.0000000000000046
 10
2853.95502649064
 20
-147.0161643305426
 30
-0.0000000000000046
 10
2853.951970685478
 20
-146.980883155755
 30
-0.0000000000000046
 10
2853.948105335544
 20
-146.9456396490696
 30
-0.0000000000000046
 10
2853.943435603033
 20
-146.9104643820301
 30
-0.0000000000000127
 10
2853.937341576517
 20
-146.8716840350653
 30
-0.0000000000000127
 10
2853.930277488555
 20
-146.8330661059472
 30
-0.0000000000000127
 10
2853.922250576677
 20
-146.7946520839776
 30
-0.0000000000000046
 10
2853.913268153885
 20
-146.7564833891261
 30
-0.0000000000000046
 10
2853.903337579723
 20
-146.7186013131657
 30
-0.0000000000000046
 10
2853.892466218515
 20
-146.6810469665236
 30
-0.0000000000000046
 10
2853.880661385145
 20
-146.643861232807
 30
-0.0000000000000127
 10
2853.867930278771
 20
-146.6070847331457
 30
-0.0000000000000046
 10
2853.854279904971
 20
-146.5707578027148
 30
-0.0000000000000046
 10
2853.841167283327
 20
-146.5383691589357
 30
-0.0000000000000127
 10
2853.827315028142
 20
-146.5064091703096
 30
-0.0000000000000046
 10
2853.812727511525
 20
-146.4749069595302
 30
-0.0000000000000046
 10
2853.797408720543
 20
-146.4438915077033
 30
-0.0000000000000127
 10
2853.781362187112
 20
-146.4133917009515
 30
-0.0000000000000127
 10
2853.764590917235
 20
-146.3834363948961
 30
-0.0000000000000046
 10
2853.74709732186
 20
-146.3540544995453
 30
-0.0000000000000046
 10
2853.728883152284
 20
-146.3252750872923
 30
-0.0000000000000046
 10
2853.709949443929
 20
-146.2971275268449
 30
-0.0000000000000046
 10
2853.690296473299
 20
-146.2696416458944
 30
-0.0000000000000046
 10
2853.670064112699
 20
-146.2430269637814
 30
-0.0000000000000046
 10
2853.649120442092
 20
-146.2171258236226
 30
-0.0000000000000046
 10
2853.62746348296
 20
-146.1919700614933
 30
-0.0000000000000046
 10
2853.605090618399
 20
-146.1675929126375
 30
-0.0000000000000127
 10
2853.581998733423
 20
-146.1440293321696
 30
-0.0000000000000127
 10
2853.558184427022
 20
-146.1213163445432
 30
-0.0000000000000127
 10
2853.533644311817
 20
-146.099493414567
 30
-0.0000000000000127
 10
2853.508375418213
 20
-146.0786028283733
 30
-0.0000000000000046
 10
2853.482375720158
 20
-146.0586900672201
 30
-0.0000000000000046
 10
2853.455644798262
 20
-146.0398041503613
 30
-0.0000000000000127
 10
2853.428237054847
 20
-146.0220304027512
 30
-0.0000000000000127
 10
2853.400108184774
 20
-146.0053887835181
 30
-0.0000000000000046
 10
2853.371268014513
 20
-145.9899398001494
 30
-0.0000000000000046
 10
2853.341732085885
 20
-145.975747785764
 30
-0.0000000000000046
 10
2853.311522995521
 20
-145.9628804713191
 30
-0.0000000000000046
 10
2853.280671773361
 20
-145.9514082471833
 30
-0.0000000000000127
 10
2853.249219218148
 20
-145.9414030697212
 30
-0.0000000000000046
 10
2853.217217084082
 20
-145.9329369876159
 30
-0.0000000000000127
 10
2853.184728993495
 20
-145.9260802922745
 30
-0.0000000000000127
 10
2853.157996970857
 20
-145.9217360765845
 30
-0.0000000000000046
 10
2853.131040418918
 20
-145.9185333978673
 30
-0.0000000000000046
 10
2853.103911477684
 20
-145.9165012896754
 30
-0.0000000000000127
 10
2853.076667065994
 20
-145.915664207738
 30
-0.0000000000000046
 10
2853.049368253779
 20
-145.9160411959595
 30
-0.0000000000000046
 10
2853.022079437215
 20
-145.917645160469
 30
-0.0000000000000127
 10
2852.994867341994
 20
-145.9204822992285
 30
-0.0000000000000127
 10
2852.96779989433
 20
-145.9245517278298
 30
-0.0000000000000046
  0
SPLINE
  5
1CCD2
330
18
100
AcDbEntity
  8
姿図
100
AcDbSpline
210
0.0
220
0.0
230
1.0
 70
     8
 71
     3
 72
     8
 73
     4
 74
     0
 42
0.000000001
 43
0.0000000001
 40
20.17474574740567
 40
20.17474574740567
 40
20.17474574740567
 40
20.17474574740567
 40
20.51051228626665
 40
20.51051228626665
 40
20.51051228626665
 40
20.51051228626665
 10
2847.347131446828
 20
-147.6428716565676
 30
-0.0000000000000046
 10
2847.333135403953
 20
-147.6158159026309
 30
-0.0000000000000046
 10
2847.319059483282
 20
-147.588751281648
 30
-0.0000000000000046
 10
2847.304902839467
 20
-147.5616765590923
 30
-0.0000000000000046
  0
LWPOLYLINE
  5
1CCD3
330
18
100
AcDbEntity
  8
姿図
100
AcDbPolyline
 90
        4
 70
     0
 43
0.0
 10
2850.330291212084
 20
-155.0127548583828
 10
2851.476809316413
 20
-154.189820069804
 10
2851.845965909757
 20
-153.8069181505073
 10
2854.137247026421
 20
-149.2458797733741
  0
LWPOLYLINE
  5
1CCD4
330
18
100
AcDbEntity
  8
姿図
100
AcDbPolyline
 90
        4
 70
     0
 43
0.0
 10
2850.349579612559
 20
-155.6172561831966
 10
2851.820521969436
 20
-154.5614598264731
 10
2852.18967856278
 20
-154.1785579071766
 10
2854.480959679443
 20
-149.6175195300434
  0
LWPOLYLINE
  5
1CCD9
330
18
100
AcDbEntity
  8
姿図
100
AcDbPolyline
 90
        4
 70
     0
 43
0.0
 10
2842.910392544076
 20
-140.4656542078978
 10
2843.359722366493
 20
-140.1880374417146
 10
2843.729655026583
 20
-140.0500227810037
 10
2847.884611064657
 20
-138.7936113778308
  0
LINE
  5
1CCDA
330
18
100
AcDbEntity
  8
姿図
100
AcDbLine
 10
2845.229763136444
 20
-137.78169602755
 30
0.0
 11
2843.745242354054
 21
-138.5796437996828
 31
0.0
  0
LWPOLYLINE
  5
1CCDB
330
18
100
AcDbEntity
  8
姿図
100
AcDbPolyline
 90
        4
 70
     0
 43
0.0
 10
2842.5599965467
 20
-140.1615895145394
 10
2843.009326369116
 20
-139.8839727483562
 10
2843.379259029207
 20
-139.7459580876452
 10
2847.53421506728
 20
-138.4895466844723
  0
ARC
  5
1CCDC
330
18
100
AcDbEntity
  8
姿図
100
AcDbCircle
 10
2845.229617837519
 20
-147.4022785440261
 30
0.0
 40
9.620582517572863
100
AcDbArc
 50
89.9991346662252
 51
118.3230229954102
  0
LWPOLYLINE
  5
1CCDD
330
18
100
AcDbEntity
  8
姿図
100
AcDbPolyline
 90
        3
 70
     0
 43
0.0
 10
2858.055408808128
 20
-144.1014734893338
 10
2858.621576146537
 20
-144.3461640663038
 10
2859.824185054973
 20
-145.147763506538
  0
SPLINE
  5
1CCDE
330
18
100
AcDbEntity
  8
姿図
100
AcDbSpline
210
0.0
220
0.0
230
1.0
 70
     8
 71
     3
 72
     8
 73
     4
 74
     0
 42
0.000000001
 43
0.0000000001
 40
-5.558709854342928
 40
-5.558709854342928
 40
-5.558709854342928
 40
-5.558709854342928
 40
-5.251204385375416
 40
-5.251204385375416
 40
-5.251204385375416
 40
-5.251204385375416
 10
2851.247589845668
 20
-145.2951773691743
 30
-0.0000000000000046
 10
2851.260683356283
 20
-145.2781544629518
 30
-0.0000000000000046
 10
2851.274011500042
 20
-145.261500515918
 30
-0.0000000000000127
 10
2851.287569228448
 20
-145.2452477494055
 30
-0.0000000000000127
  0
SPLINE
  5
1CCDF
330
18
100
AcDbEntity
  8
姿図
100
AcDbSpline
210
6.675042154986655E-6
220
-1.643522378896765E-5
230
-0.9999999998426636
 70
     8
 71
     3
 72
     8
 73
     4
 74
     0
 42
0.000000001
 43
0.0000000001
 40
110.2937215201613
 40
110.2937215201613
 40
110.2937215201613
 40
110.2937215201613
 40
110.302956437032
 40
110.302956437032
 40
110.302956437032
 40
110.302956437032
 10
2851.2878295767
 20
-145.2451420114196
 30
-0.0000000000000046
 10
2851.287742791453
 20
-145.245177258756
 30
-0.0000000000000127
 10
2851.287656008769
 20
-145.2452125047253
 30
-0.0000000000000046
 10
2851.287569228448
 20
-145.2452477494055
 30
-0.0000000000000127
  0
SPLINE
  5
1CCE0
330
18
100
AcDbEntity
  8
姿図
100
AcDbSpline
210
0.0
220
0.0
230
1.0
 70
     8
 71
     3
 72
     8
 73
     4
 74
     0
 42
0.000000001
 43
0.0000000001
 40
-5.558709854342928
 40
-5.558709854342928
 40
-5.558709854342928
 40
-5.558709854342928
 40
-5.251204385375416
 40
-5.251204385375416
 40
-5.251204385375416
 40
-5.251204385375416
 10
2851.247622775718
 20
-145.2951884983049
 30
-0.0000000000000046
 10
2851.260716178093
 20
-145.2781657328062
 30
-0.0000000000000046
 10
2851.274044211671
 20
-145.2615119234463
 30
-0.0000000000000127
 10
2851.287601828
 20
-145.2452592912907
 30
-0.0000000000000127
  0
SPLINE
  5
1CCE1
330
18
100
AcDbEntity
  8
姿図
100
AcDbSpline
210
6.678070287520410E-6
220
-1.644267965014538E-5
230
-0.9999999998425209
 70
     8
 71
     3
 72
     8
 73
     4
 74
     0
 42
0.000000001
 43
0.0000000001
 40
110.2937215201613
 40
110.2937215201613
 40
110.2937215201613
 40
110.2937215201613
 40
110.302956437032
 40
110.302956437032
 40
110.302956437032
 40
110.302956437032
 10
2851.287862174099
 20
-145.2451535541791
 30
-0.0000000000000046
 10
2851.287775389569
 20
-145.245188801224
 30
-0.0000000000000127
 10
2851.287688607604
 20
-145.2452240469017
 30
-0.0000000000000046
 10
2851.287601828
 20
-145.2452592912907
 30
-0.0000000000000127
  0
SPLINE
  5
1CCE2
330
18
100
AcDbEntity
  8
姿図
100
AcDbSpline
210
0.0
220
0.0
230
1.0
 70
     8
 71
     3
 72
    14
 73
    10
 74
     0
 42
0.000000001
 43
0.0000000001
 40
-12.4176878319165
 40
-12.4176878319165
 40
-12.4176878319165
 40
-12.4176878319165
 40
-9.929941621284126
 40
-9.929941621284126
 40
-7.882361304732088
 40
-7.882361304732088
 40
-6.55536423551068
 40
-6.55536423551068
 40
-6.54232051596743
 40
-6.54232051596743
 40
-6.54232051596743
 40
-6.54232051596743
 10
2851.2878295767
 20
-145.2451420114196
 30
-0.0000000000000046
 10
2851.48334658597
 20
-145.1657338836342
 30
-0.0000000000000046
 10
2851.718191914741
 20
-145.0693480041868
 30
-0.0000000000000046
 10
2852.131038527337
 20
-144.9117125085459
 30
-0.0000000000000046
 10
2852.32165634289
 20
-144.8424211534764
 30
-0.0000000000000127
 10
2852.632507612164
 20
-144.7477654403867
 30
-0.0000000000000046
 10
2852.773436742074
 20
-144.7099386077116
 30
-0.0000000000000127
 10
2852.907432722392
 20
-144.6864129880075
 30
-0.0000000000000046
 10
2852.908734992824
 20
-144.6861855756908
 30
-0.0000000000000127
 10
2852.91003526942
 20
-144.6859598237527
 30
-0.0000000000000046
  0
SPLINE
  5
1CCE3
330
18
100
AcDbEntity
  8
姿図
100
AcDbSpline
210
0.0
220
0.0
230
1.0
 70
     8
 71
     3
 72
    14
 73
    10
 74
     0
 42
0.000000001
 43
0.0000000001
 40
-12.4176878319165
 40
-12.4176878319165
 40
-12.4176878319165
 40
-12.4176878319165
 40
-9.929941621284126
 40
-9.929941621284126
 40
-7.882361304732088
 40
-7.882361304732088
 40
-6.55536423551068
 40
-6.55536423551068
 40
-6.54232051596743
 40
-6.54232051596743
 40
-6.54232051596743
 40
-6.54232051596743
 10
2851.287862174099
 20
-145.2451535541791
 30
-0.0000000000000046
 10
2851.483377567085
 20
-145.1657460828383
 30
-0.0000000000000046
 10
2851.718220954454
 20
-145.0693610001863
 30
-0.0000000000000046
 10
2852.131064154162
 20
-144.9117268076748
 30
-0.0000000000000046
 10
2852.32168039393
 20
-144.8424360254171
 30
-0.0000000000000127
 10
2852.632529093482
 20
-144.7477810948205
 30
-0.0000000000000046
 10
2852.773457058372
 20
-144.7099545748492
 30
-0.0000000000000127
 10
2852.907451930981
 20
-144.6864291496249
 30
-0.0000000000000046
 10
2852.908754190647
 20
-144.6862017391877
 30
-0.0000000000000127
 10
2852.910054456495
 20
-144.6859759891158
 30
-0.0000000000000046
  0
ARC
  5
1CCE4
330
18
100
AcDbEntity
  8
姿図
100
AcDbCircle
 10
2831.126397961426
 20
-156.3420630989892
 30
0.0
 40
20.05365414378541
100
AcDbArc
 50
39.63303634460521
 51
47.92697906334807
  0
LINE
  5
1CCE5
330
18
100
AcDbEntity
  8
姿図
100
AcDbLine
 10
2850.51325495779
 20
-142.494798396674
 30
0.0
 11
2848.605133888349
 21
-145.1089462498305
 31
0.0
  0
LWPOLYLINE
  5
1CCE6
330
18
100
AcDbEntity
  8
姿図
100
AcDbPolyline
 90
        4
 70
     0
 43
0.0
 10
2846.643291561608
 20
-144.2382145782915
 10
2847.946387285097
 20
-143.2634849582596
 10
2848.264597656833
 20
-143.14280345527
 10
2850.601223131262
 20
-142.1249472779371
  0
LWPOLYLINE
  5
1CCE7
330
18
100
AcDbEntity
  8
姿図
100
AcDbPolyline
 90
        4
 70
     0
 43
0.0
 10
2846.224604795201
 20
-143.8093070819459
 10
2847.527700518691
 20
-142.834577461914
 10
2847.845910890426
 20
-142.7138959589245
 10
2850.352125257354
 20
-141.653297488157
  0
LINE
  5
1CCE8
330
18
100
AcDbEntity
  8
姿図
100
AcDbLine
 10
2847.884611064657
 20
-138.7936113778308
 30
0.0
 11
2845.080565185002
 21
-141.4492082151578
 31
0.0
  0
ARC
  5
1CCE9
330
18
100
AcDbEntity
  8
姿図
100
AcDbCircle
 10
2844.752126540757
 20
-147.1506475589183
 30
0.0
 40
9.620582517572863
100
AcDbArc
 50
89.9991346662252
 51
118.3230229954102
  0
LINE
  5
1CD05
330
18
100
AcDbEntity
  8
姿図
  6
Continuous
100
AcDbLine
 10
2839.591081495453
 20
-102.4254848226983
 30
0.0
 11
2837.925124313891
 21
-102.9117746440545
 31
0.0
  0
LINE
  5
1CD06
330
18
100
AcDbEntity
  8
姿図
100
AcDbLine
 10
2839.012802258356
 20
-116.8629870786626
 30
0.0
 11
2839.875201925788
 21
-115.8680239168336
 31
0.0
  0
LINE
  5
1CD07
330
18
100
AcDbEntity
  8
姿図
100
AcDbLine
 10
2838.818402330668
 20
-116.7437436001171
 30
0.0
 11
2839.542477377892
 21
-115.9083675841077
 31
0.0
  0
LINE
  5
1CD08
330
18
100
AcDbEntity
  8
姿図
100
AcDbLine
 10
2838.688434586161
 20
-116.5501637655618
 30
0.0
 11
2839.190804922811
 21
-115.9705717301763
 31
0.0
  0
ELLIPSE
  5
1CD09
330
18
100
AcDbEntity
  8
姿図
  6
Continuous
100
AcDbEllipse
 10
2839.941530011217
 20
-104.6262374153844
 30
0.0
 11
-4.508162165673221
 21
-0.08978676445671782
 31
0.0
210
0.0
220
0.0
230
1.0
 40
0.2772698421531005
 41
3.141592653589793
 42
6.284457527303843
  0
ELLIPSE
  5
1CD0A
330
18
100
AcDbEntity
  8
姿図
100
AcDbEllipse
 10
2840.049396376004
 20
-116.3452768009179
 30
0.0
 11
-1.368581469670259
 21
-0.164959621253248
 31
0.0
210
0.0
220
0.0
230
1.0
 40
0.4628655777425251
 41
5.477092832877411
 42
9.981255930046515
  0
ELLIPSE
  5
1CD0B
330
18
100
AcDbEntity
  8
姿図
  6
Continuous
100
AcDbEllipse
 10
2840.106632526843
 20
-112.0593715372661
 30
0.0
 11
4.513803190665794
 21
0.08936166360625336
 31
0.0
210
0.0
220
0.0
230
1.0
 40
0.2768241080109854
 41
-0.7603777596257293
 42
3.940404045631552
  0
ELLIPSE
  5
1CD0C
330
18
100
AcDbEntity
  8
姿図
100
AcDbEllipse
 10
2840.238345072781
 20
-117.1040991871678
 30
0.0
 11
-2.918677587539621
 21
-0.1486649413191063
 31
0.0
210
0.0
220
0.0
230
1.0
 40
0.4310041458033451
 41
3.612298197460502
 42
5.991115740086309
  0
ELLIPSE
  5
1CD0D
330
18
100
AcDbEntity
  8
姿図
100
AcDbEllipse
 10
2840.152773524575
 20
-116.8284550827009
 30
0.0
 11
-2.971800284693409
 21
-0.1926051474123313
 31
0.0
210
0.0
220
0.0
230
1.0
 40
0.423425259805966
 41
3.551025708286839
 42
6.045724500716436
  0
ELLIPSE
  5
1CD0E
330
18
100
AcDbEntity
  8
姿図
100
AcDbEllipse
 10
2840.198707419837
 20
-112.851774056996
 30
0.0
 11
-3.397752869830125
 21
-0.07377642021911683
 31
0.0
210
0.0
220
0.0
230
1.0
 40
0.421073713534917
 41
3.493959631008393
 42
6.014590545856733
  0
ELLIPSE
  5
1CD0F
330
18
100
AcDbEntity
  8
姿図
100
AcDbEllipse
 10
2839.942228163382
 20
-114.0941779285531
 30
0.0
 11
-2.977196164755572
 21
-0.07068713799741955
 31
0.0
210
0.0
220
0.0
230
1.0
 40
0.423425259805966
 41
3.562126164169125
 42
6.045724500716436
  0
ELLIPSE
  5
1CD10
330
18
100
AcDbEntity
  8
姿図
100
AcDbEllipse
 10
2840.136408227975
 20
-116.5991589727023
 30
0.0
 11
2.901719977023499
 21
0.2148090239093373
 31
0.0
210
0.0
220
0.0
230
1.0
 40
0.4346217930958619
 41
3.572038920501568
 42
5.869050530619732
  0
ELLIPSE
  5
1CD11
330
18
100
AcDbEntity
  8
姿図
100
AcDbEllipse
 10
2840.152773524575
 20
-116.8284550827009
 30
0.0
 11
-2.971800284693409
 21
-0.1926051474123313
 31
0.0
210
0.0
220
0.0
230
1.0
 40
0.423425259805966
 41
0.3786499284263661
 42
2.848220962939281
  0
ELLIPSE
  5
1CD1E
330
18
100
AcDbEntity
  8
姿図
  6
Continuous
100
AcDbEllipse
 10
2840.051535233028
 20
-109.5788183298737
 30
0.0
 11
-4.508162165673221
 21
-0.08978676445671782
 31
0.0
210
0.0
220
0.0
230
1.0
 40
0.2772698421531005
 41
5.023298979783986
 42
6.284457527303843
  0
ELLIPSE
  5
1CD1F
330
18
100
AcDbEntity
  8
姿図
  6
Continuous
100
AcDbEllipse
 10
2840.051535233028
 20
-109.5788183298737
 30
0.0
 11
-4.057345949105897
 21
-0.080808088011046
 31
0.0
210
0.0
220
0.0
230
1.0
 40
0.2772698421531006
 41
5.059138046656052
 42
6.284457527303843
  0
LINE
  5
1CD20
330
18
100
AcDbEntity
  8
姿図
  6
Continuous
100
AcDbLine
 10
2835.543489391578
 20
-109.6738421651091
 30
0.0
 11
2835.433367845543
 21
-104.7160241798408
 31
0.0
  0
LINE
  5
1CD21
330
18
100
AcDbEntity
  8
姿図
  6
Continuous
100
AcDbLine
 10
2838.684555612937
 20
-110.031696652354
 30
0.0
 11
2838.538668323421
 21
-103.4636574826566
 31
0.0
  0
ELLIPSE
  5
1CD22
330
18
100
AcDbEntity
  8
姿図
  6
Continuous
100
AcDbEllipse
 10
2840.051535233028
 20
-109.5788183298737
 30
0.0
 11
-4.508162165674486
 21
-0.08978676439310256
 31
0.0
210
0.0
220
0.0
230
-1.0
 40
0.2772698421531006
 41
5.831521967583216
 42
6.284457527303843
  0
ELLIPSE
  5
1CD23
330
18
100
AcDbEntity
  8
姿図
  6
Continuous
100
AcDbEllipse
 10
2840.087417300733
 20
-111.1942765850822
 30
0.0
 11
-4.508162165673221
 21
-0.08978676445671782
 31
0.0
210
0.0
220
0.0
230
1.0
 40
0.2772698421531005
 41
5.023298979783986
 42
6.284457527303843
  0
LINE
  5
1CD24
330
18
100
AcDbEntity
  8
姿図
100
AcDbLine
 10
2836.914537759936
 20
-112.5432293807623
 30
0.0
 11
2837.041536073144
 21
-113.8663389494191
 31
0.0
  0
LINE
  5
1CD25
330
18
100
AcDbEntity
  8
姿図
  6
Continuous
100
AcDbLine
 10
2835.59847036117
 20
-112.149158301723
 30
0.0
 11
2835.579290455506
 21
-111.2856535228666
 31
0.0
  0
LINE
  5
1CD26
330
18
100
AcDbEntity
  8
姿図
  6
Continuous
100
AcDbLine
 10
2835.994221072324
 20
-109.6610575738796
 30
0.0
 11
2836.017985692211
 21
-110.730972264837
 31
0.0
  0
LWPOLYLINE
  5
1CD27
330
18
100
AcDbEntity
  8
姿図
100
AcDbPolyline
 90
        3
 70
     0
 43
0.0
 10
2836.179354348384
 20
-117.5688184377514
 10
2836.098277046342
 20
-117.6128565515805
 10
2836.086303230932
 20
-117.6596117751187
  0
LWPOLYLINE
  5
1CD28
330
18
100
AcDbEntity
  8
姿図
100
AcDbPolyline
 90
        3
 70
     0
 43
0.0
 10
2836.303679748446
 20
-117.4122428321107
 10
2836.222602446405
 20
-117.4562809459401
 10
2836.210628630995
 20
-117.5030361694783
  0
ELLIPSE
  5
1CD29
330
18
100
AcDbEntity
  8
姿図
  6
Continuous
100
AcDbEllipse
 10
2839.957275317573
 20
-105.3351119803065
 30
0.0
 11
-4.508162165673221
 21
-0.08978676445671782
 31
0.0
210
0.0
220
0.0
230
1.0
 40
0.2772698421531005
 41
5.023298979783986
 42
6.284457527303843
  0
LINE
  5
1CD2A
330
18
100
AcDbEntity
  8
姿図
  6
Continuous
100
AcDbLine
 10
2837.937364578256
 20
-103.4628475721026
 30
0.0
 11
2836.912874691052
 21
-103.7618942761501
 31
0.0
  0
LINE
  5
1CD2B
330
18
100
AcDbEntity
  8
姿図
  6
Continuous
100
AcDbLine
 10
2837.937364578256
 20
-103.4628475721026
 30
0.0
 11
2837.925124313891
 21
-102.9117746440545
 31
0.0
  0
ARC
  5
1CD2C
330
18
100
AcDbEntity
  8
姿図
  6
Continuous
100
AcDbCircle
 10
2838.788001269743
 20
-103.8135270014118
 30
0.0
 40
0.428308076877285
100
AcDbArc
 50
125.5950079263279
 51
236.9498464954923
  0
ARC
  5
1CD2D
330
18
100
AcDbEntity
  8
姿図
  6
Continuous
100
AcDbCircle
 10
2838.803711255652
 20
-104.5208113930055
 30
0.0
 40
0.428308076877285
100
AcDbArc
 50
125.5950079263279
 51
236.9498464954923
  0
ARC
  5
1CD2E
330
18
100
AcDbEntity
  8
姿図
  6
Continuous
100
AcDbCircle
 10
2838.819421241561
 20
-105.2280957846001
 30
0.0
 40
0.428308076877285
100
AcDbArc
 50
125.5950079263279
 51
236.9498464954923
  0
ELLIPSE
  5
1CD2F
330
18
100
AcDbEntity
  8
姿図
  6
Continuous
100
AcDbEllipse
 10
2840.0044052753
 20
-107.4569651550903
 30
0.0
 11
-4.508162165673221
 21
-0.08978676445671782
 31
0.0
210
0.0
220
0.0
230
1.0
 40
0.2772698421531005
 41
5.023298979783986
 42
6.284457527303843
  0
ELLIPSE
  5
1CD30
330
18
100
AcDbEntity
  8
姿図
  6
Continuous
100
AcDbEllipse
 10
2840.035825247118
 20
-108.8715339382793
 30
0.0
 11
-4.508162165673221
 21
-0.08978676445671782
 31
0.0
210
0.0
220
0.0
230
1.0
 40
0.2772698421531005
 41
5.023298979783986
 42
6.284457527303843
  0
ELLIPSE
  5
1CD31
330
18
100
AcDbEntity
  8
姿図
  6
Continuous
100
AcDbEllipse
 10
2840.020115261209
 20
-108.1642495466847
 30
0.0
 11
-4.508162165673221
 21
-0.08978676445671782
 31
0.0
210
0.0
220
0.0
230
1.0
 40
0.2772698421531005
 41
5.023298979783986
 42
6.284457527303843
  0
ARC
  5
1CD32
330
18
100
AcDbEntity
  8
姿図
  6
Continuous
100
AcDbCircle
 10
2838.866551199289
 20
-107.3499489593837
 30
0.0
 40
0.428308076877285
100
AcDbArc
 50
125.5950079263279
 51
236.9498464954923
  0
ARC
  5
1CD33
330
18
100
AcDbEntity
  8
姿図
  6
Continuous
100
AcDbCircle
 10
2838.85084121338
 20
-106.6426645677893
 30
0.0
 40
0.428308076877285
100
AcDbArc
 50
125.5950079263279
 51
236.9498464954923
  0
ARC
  5
1CD34
330
18
100
AcDbEntity
  8
姿図
  6
Continuous
100
AcDbCircle
 10
2838.882261185197
 20
-108.0572333509783
 30
0.0
 40
0.428308076877285
100
AcDbArc
 50
125.5950079263279
 51
236.9498464954923
  0
ELLIPSE
  5
1CD35
330
18
100
AcDbEntity
  8
姿図
  6
Continuous
100
AcDbEllipse
 10
2839.98869528939
 20
-106.7496807634957
 30
0.0
 11
-4.508162165673221
 21
-0.08978676445671782
 31
0.0
210
0.0
220
0.0
230
1.0
 40
0.2772698421531005
 41
5.023298979783986
 42
6.284457527303843
  0
ELLIPSE
  5
1CD36
330
18
100
AcDbEntity
  8
姿図
  6
Continuous
100
AcDbEllipse
 10
2839.972985303481
 20
-106.0423963719011
 30
0.0
 11
-4.508162165673221
 21
-0.08978676445671782
 31
0.0
210
0.0
220
0.0
230
1.0
 40
0.2772698421531005
 41
5.023298979783986
 42
6.284457527303843
  0
ARC
  5
1CD37
330
18
100
AcDbEntity
  8
姿図
  6
Continuous
100
AcDbCircle
 10
2838.835131227471
 20
-105.9353801761949
 30
0.0
 40
0.428308076877285
100
AcDbArc
 50
125.5950079263279
 51
236.9498464954923
  0
TEXT
  5
1CD63
330
18
100
AcDbEntity
  8
文字
100
AcDbText
 10
2804.917842228177
 20
-188.3151769145525
 30
0.0
 40
6.5
  1
SX-514P
100
AcDbText
  0
LINE
  5
1CD66
330
18
100
AcDbEntity
  8
姿図
100
AcDbLine
 10
2842.922289710385
 20
-103.6333138056004
 30
0.0
 11
2843.087068093547
 21
-111.051855054207
 31
0.0
  0
LINE
  5
1CD67
330
18
100
AcDbEntity
  8
姿図
  6
Continuous
100
AcDbLine
 10
2845.565704828235
 20
-105.5352602443288
 30
0.0
 11
2845.678028150771
 21
-110.5922051264483
 31
0.0
  0
LINE
  5
1CD68
330
18
100
AcDbEntity
  8
姿図
  6
Continuous
100
AcDbLine
 10
2844.614794692517
 20
-111.9695847728094
 30
0.0
 11
2844.570706931949
 21
-109.9846953470553
 31
0.0
  0
LINE
  5
1CD69
330
18
100
AcDbEntity
  8
姿図
  6
Continuous
100
AcDbLine
 10
2845.678028150771
 20
-110.5922051264483
 30
0.0
 11
2844.59124695797
 21
-110.9094345474377
 31
0.0
  0
LINE
  5
1CD6A
330
18
100
AcDbEntity
  8
姿図
  6
Continuous
100
AcDbLine
 10
2845.678028150771
 20
-110.5922051264483
 30
0.0
 11
2844.578233318955
 21
-110.323543267453
 31
0.0
  0
LINE
  5
1CD6B
330
18
100
AcDbEntity
  8
姿図
100
AcDbLine
 10
2843.37697581937
 20
-112.2887654092526
 30
0.0
 11
2843.409022702471
 21
-113.3471763863249
 31
0.0
  0
LINE
  5
1CD6C
330
18
100
AcDbEntity
  8
姿図
100
AcDbLine
 10
2840.869558521347
 20
-116.7819732899336
 30
0.0
 11
2841.413647110621
 21
-116.1542502938078
 31
0.0
  0
LINE
  5
1CD6D
330
18
100
AcDbEntity
  8
姿図
100
AcDbLine
 10
2840.451513980899
 20
-116.9207518856556
 30
0.0
 11
2841.289074303127
 21
-115.9544462411893
 31
0.0
  0
LINE
  5
1CD6E
330
18
100
AcDbEntity
  8
姿図
100
AcDbLine
 10
2839.243452854435
 20
-116.9404076286944
 30
0.0
 11
2840.192721546419
 21
-115.8452223974502
 31
0.0
  0
LINE
  5
1CD6F
330
18
100
AcDbEntity
  8
姿図
100
AcDbLine
 10
2840.10099536163
 20
-116.9816248344027
 30
0.0
 11
2841.072193516276
 21
-115.8611392600219
 31
0.0
  0
LINE
  5
1CD70
330
18
100
AcDbEntity
  8
姿図
100
AcDbLine
 10
2839.787436045452
 20
-116.9998572923771
 30
0.0
 11
2840.79013302054
 21
-115.8430310662493
 31
0.0
  0
LINE
  5
1CD71
330
18
100
AcDbEntity
  8
姿図
100
AcDbLine
 10
2839.502315248528
 20
-116.9852798130278
 30
0.0
 11
2840.497246545999
 21
-115.8374129632177
 31
0.0
  0
LINE
  5
1CD75
330
18
100
AcDbEntity
  8
姿図
  6
Continuous
100
AcDbLine
 10
2842.838355876606
 20
-103.016030762235
 30
0.0
 11
2842.851720344829
 21
-103.6177168382194
 31
0.0
  0
LINE
  5
1CD76
330
18
100
AcDbEntity
  8
姿図
  6
Continuous
100
AcDbLine
 10
2844.465909996419
 20
-105.2665983853333
 30
0.0
 11
2845.565704828235
 21
-105.5352602443288
 31
0.0
  0
LINE
  5
1CD77
330
18
100
AcDbEntity
  8
姿図
  6
Continuous
100
AcDbLine
 10
2844.471266660964
 20
-105.5077625242186
 30
0.0
 11
2844.449656856443
 21
-104.5348604776002
 31
0.0
  0
LINE
  5
1CD78
330
18
100
AcDbEntity
  8
姿図
  6
Continuous
100
AcDbLine
 10
2841.018990636987
 20
-103.2616420977008
 30
0.0
 11
2840.621757896166
 21
-103.3775936003617
 31
0.0
  0
LINE
  5
1CD79
330
18
100
AcDbEntity
  8
姿図
  6
Continuous
100
AcDbLine
 10
2841.003579783016
 20
-102.5678250225051
 30
0.0
 11
2841.018990636987
 21
-103.2616420977008
 31
0.0
  0
LINE
  5
1CD7A
330
18
100
AcDbEntity
  8
姿図
  6
Continuous
100
AcDbLine
 10
2841.018990636987
 20
-103.2616420977008
 30
0.0
 11
2841.802784958732
 21
-103.4531102092601
 31
0.0
  0
LINE
  5
1CD7B
330
18
100
AcDbEntity
  8
姿図
  6
Continuous
100
AcDbLine
 10
2841.003579783016
 20
-102.5678250225051
 30
0.0
 11
2842.838355876606
 21
-103.016030762235
 31
0.0
  0
LINE
  5
1CD7C
330
18
100
AcDbEntity
  8
姿図
  6
Continuous
100
AcDbLine
 10
2839.603321759819
 20
-102.9765577507462
 30
0.0
 11
2839.591081495453
 21
-102.4254848226983
 31
0.0
  0
LINE
  5
1CD7D
330
18
100
AcDbEntity
  8
姿図
  6
Continuous
100
AcDbLine
 10
2841.003579783016
 20
-102.5678250225051
 30
0.0
 11
2839.603321759819
 21
-102.9765577507462
 31
0.0
  0
LINE
  5
1CD7E
330
18
100
AcDbEntity
  8
姿図
  6
Continuous
100
AcDbLine
 10
2839.591081495453
 20
-102.4254848226983
 30
0.0
 11
2840.625517710711
 21
-102.6781806424679
 31
0.0
  0
SPLINE
  5
1CD9F
330
18
100
AcDbEntity
  8
姿図
100
AcDbSpline
210
0.0
220
0.0
230
1.0
 70
     8
 71
     3
 72
     8
 73
     4
 74
     0
 42
0.000000001
 43
0.0000000001
 40
6.0
 40
6.0
 40
6.0
 40
6.0
 40
6.981114317255776
 40
6.981114317255776
 40
6.981114317255776
 40
6.981114317255776
 10
2844.477012906515
 20
-116.2623245979044
 30
0.0000000000000033
 10
2844.674689014903
 20
-116.84335279117
 30
0.0000000000000033
 10
2850.88468964581
 20
-144.3158248569953
 30
0.0000000000000033
 10
2851.119214425516
 20
-145.4667411815014
 30
0.0000000000000033
  0
LINE
  5
1CDA0
330
18
100
AcDbEntity
  8
姿図
100
AcDbLine
 10
2836.079975902212
 20
-117.6503089296405
 30
0.0000000000000033
 11
2832.923804395857
 21
-137.0168821278937
 31
0.0000000000000033
  0
SPLINE
  5
1CDA1
330
18
100
AcDbEntity
  8
姿図
100
AcDbSpline
210
0.0
220
0.0
230
1.0
 70
     8
 71
     3
 72
     8
 73
     4
 74
     0
 42
0.000000001
 43
0.0000000001
 40
0.2696514016814274
 40
0.2696514016814274
 40
0.2696514016814274
 40
0.2696514016814274
 40
1.0
 40
1.0
 40
1.0
 40
1.0
 10
2830.991647840598
 20
-137.0893528426957
 30
0.0000000000000033
 10
2832.447440696916
 20
-126.7027719272501
 30
0.0000000000000033
 10
2833.981182932419
 20
-117.2058868333552
 30
0.0000000000000033
 10
2833.981182932419
 20
-117.2058868333552
 30
0.0000000000000033
  0
SPLINE
  5
1CDA2
330
18
100
AcDbEntity
  8
姿図
100
AcDbSpline
210
0.0
220
0.0
230
1.0
 70
     8
 71
     3
 72
     8
 73
     4
 74
     0
 42
0.000000001
 43
0.0000000001
 40
15.0
 40
15.0
 40
15.0
 40
15.0
 40
15.72631331981369
 40
15.72631331981369
 40
15.72631331981369
 40
15.72631331981369
 10
2832.866105632404
 20
-115.7914820314129
 30
0.0000000000000033
 10
2832.866105632404
 20
-115.7914820314129
 30
0.0000000000000033
 10
2831.687159343383
 20
-126.2961088390687
 30
0.0000000000000033
 10
2830.40283825562
 20
-137.3252674294483
 30
0.0000000000000033
  0
SPLINE
  5
1CDA3
330
18
100
AcDbEntity
  8
姿図
100
AcDbSpline
210
0.0
220
0.0
230
1.0
 70
     8
 71
     3
 72
    18
 73
    14
 74
     0
 42
0.000000001
 43
0.0000000001
 40
28.74698734064234
 40
28.74698734064234
 40
28.74698734064234
 40
28.74698734064234
 40
33.44137084920912
 40
33.44137084920912
 40
41.29196149669883
 40
41.29196149669883
 40
50.54402678597219
 40
50.54402678597219
 40
58.56297097631615
 40
58.56297097631615
 40
66.12555618457822
 40
66.12555618457822
 40
66.63663448405963
 40
66.63663448405963
 40
66.63663448405963
 40
66.63663448405963
 10
2843.441339815403
 20
-140.9039283125287
 30
0.000000000000004
 10
2842.982455457989
 20
-140.5121805625013
 30
0.0000000000000045
 10
2842.485577210275
 20
-140.1258731505625
 30
0.0000000000000048
 10
2841.054316955752
 20
-139.1374826234783
 30
0.0000000000000048
 10
2840.112951505805
 20
-138.6065448912968
 30
0.0
 10
2838.031518566087
 20
-137.6820713007983
 30
0.0000000000000048
 10
2836.890982382949
 20
-137.3329127761035
 30
0.0
 10
2834.760956677536
 20
-136.957775459593
 30
0.0000000000000048
 10
2833.896345762263
 20
-136.9151005077376
 30
0.0000000000000048
 10
2832.46262882871
 20
-136.9636634994661
 30
0.0000000000000048
 10
2831.601416013243
 20
-137.0571615875676
 30
0.0000000000000048
 10
2830.649361267516
 20
-137.3072927206292
 30
0.0000000000000048
 10
2830.589275485105
 20
-137.3236792144446
 30
0.0000000000000049
 10
2830.529385608002
 20
-137.3406077931675
 30
0.0000000000000049
  0
ELLIPSE
  5
1CDA4
330
18
100
AcDbEntity
  8
姿図
100
AcDbEllipse
 10
2836.239088465641
 20
-152.1918417557019
 30
0.0000000000000035
 11
-8.813086741624367
 21
13.18110186809307
 31
1.375286606555136E-15
210
-4.820980239590454E-17
220
7.210394440119418E-17
230
-1.0
 40
0.7445887407027083
 41
0.1816174140284772
 42
1.721396946041295
  0
ELLIPSE
  5
1CDA5
330
18
100
AcDbEntity
  8
姿図
100
AcDbEllipse
 10
2831.829010642358
 20
-155.1404876706208
 30
0.0000000000000048
 11
-8.432450251294176
 21
12.61181116429641
 31
4.386293637723247E-16
210
-1.606993413196815E-17
220
2.403464813373136E-17
230
-1.0
 40
0.744588740702728
 41
-0.1600394095497981
 42
3.301632058444354
  0
ELLIPSE
  5
1CDA6
330
18
100
AcDbEntity
  8
姿図
100
AcDbEllipse
 10
2831.71421812922
 20
-155.3014576637195
 30
0.0000000000000048
 11
-8.432450251296261
 21
12.6118111642947
 31
4.386293637723172E-16
210
-1.606993413196816E-17
220
2.403464813373135E-17
230
-1.0
 40
0.7445887407027381
 41
-0.1600394095495612
 42
2.858287793139751
  0
ARC
  5
1CDA7
330
18
100
AcDbEntity
  8
姿図
100
AcDbCircle
 10
2857.333357750786
 20
-195.7912275546246
 30
0.0000000000000048
 40
63.61878588667222
100
AcDbArc
 50
99.1598397417618
 51
112.3175226532983
  0
ELLIPSE
  5
1CDA8
330
18
100
AcDbEntity
  8
姿図
100
AcDbEllipse
 10
2831.825231762036
 20
-155.1430142879253
 30
0.0000000000000048
 11
-8.431804103144335
 21
12.61086029200603
 31
4.385961263331980E-16
210
-1.606993413196819E-17
220
2.403464813373134E-17
230
-1.0
 40
0.7445880967959992
 41
3.329004253198332
 42
3.329225985228932
  0
ELLIPSE
  5
1CDA9
330
18
100
AcDbEntity
  8
姿図
100
AcDbEllipse
 10
2831.763887209875
 20
-155.1840301957545
 30
0.0000000000000048
 11
-8.421366703413689
 21
12.59523429893414
 31
8.761056655235882E-16
210
-3.213986826393632E-17
220
4.806929626746265E-17
230
-1.0
 40
0.7445887406062335
 41
3.327615434097118
 42
3.342055807844291
  0
SPLINE
  5
1CDAA
330
18
100
AcDbEntity
  8
姿図
100
AcDbSpline
210
0.0
220
0.0
230
1.0
 70
    24
 71
     1
 72
     4
 73
     2
 74
     0
 42
0.000000001
 43
0.0000000001
 40
0.0
 40
0.0
 40
0.500003153875532
 40
0.500003153875532
 10
2830.529385608002
 20
-137.3406077931675
 30
0.0000000000000049
 10
2830.419969632047
 20
-137.3882693143642
 30
0.0000000000000049
  0
SPLINE
  5
1CDAB
330
18
100
AcDbEntity
  8
姿図
100
AcDbSpline
210
0.0
220
0.0
230
1.0
 70
    24
 71
     1
 72
     4
 73
     2
 74
     0
 42
0.000000001
 43
0.0000000001
 40
0.500003153875532
 40
0.500003153875532
 40
1.000006307751064
 40
1.000006307751064
 10
2830.419969632047
 20
-137.3882693143642
 30
0.0000000000000049
 10
2830.310018374879
 20
-137.4559207608847
 30
0.0000000000000146
  0
ELLIPSE
  5
1CDAC
330
18
100
AcDbEntity
  8
姿図
100
AcDbEllipse
 10
2852.321549743987
 20
-147.1466350892281
 30
0.0000000000000035
 11
-0.3975404831338719
 21
2.28946247651362
 31
1.343670822496247E-16
210
-9.892509516674647E-18
220
5.697163005509669E-17
230
-1.0
 40
0.6338586263935218
 41
-1.249552989788739
 42
-0.52746452925353
  0
ELLIPSE
  5
1CDAD
330
18
100
AcDbEntity
  8
姿図
100
AcDbEllipse
 10
2852.321573795908
 20
-147.1466309128707
 30
0.0000000000000035
 11
-0.3975371967733172
 21
2.28944355016386
 31
1.343659714742747E-16
210
-9.892509516674666E-18
220
5.697163005509663E-17
230
-1.0
 40
0.6338586263935343
 41
-1.249552989790042
 42
-0.5274645292557247
  0
ELLIPSE
  5
1CDAE
330
18
100
AcDbEntity
  8
姿図
100
AcDbEllipse
 10
2853.779853041961
 20
-146.8934164391831
 30
0.0000000000000035
 11
-0.3975371967761109
 21
2.289443550162184
 31
1.343659714742069E-16
210
-9.892509516674622E-18
220
5.697163005509664E-17
230
-1.0
 40
0.6338586263934506
 41
4.868828357704045
 42
11.15201366488363
  0
ELLIPSE
  5
1CDAF
330
18
100
AcDbEntity
  8
姿図
100
AcDbEllipse
 10
2853.779853041961
 20
-146.8934164391831
 30
0.0000000000000035
 11
-0.3039990328287905
 21
1.750750950124022
 31
1.027504487743934E-16
210
-9.892509516674704E-18
220
5.697163005509659E-17
230
-1.0
 40
0.6338586263934508
 41
4.868828357704053
 42
11.15201366488364
  0
ELLIPSE
  5
1CDB0
330
18
100
AcDbEntity
  8
姿図
100
AcDbEllipse
 10
2853.050713418935
 20
-147.0200236760268
 30
0.0000000000000035
 11
-0.2806144918418402
 21
1.616077800114547
 31
7.113492607458197E-17
210
-7.419382137505987E-18
220
4.272872254132248E-17
230
-1.0
 40
0.6338586263934136
 41
0.2361340123154301
 42
2.425367404911971
  0
SPLINE
  5
1CDB1
330
18
100
AcDbEntity
  8
姿図
100
AcDbSpline
210
0.0
220
0.0
230
1.0
 70
     8
 71
     3
 72
    10
 73
     6
 74
     0
 42
0.000000001
 43
0.0000000001
 40
0.0507684683112425
 40
0.0507684683112425
 40
0.0507684683112425
 40
0.0507684683112425
 40
16.17239265914957
 40
16.17239265914957
 40
28.35901754380262
 40
28.35901754380262
 40
28.35901754380262
 40
28.35901754380262
 10
2848.308819214059
 20
-147.140542213049
 30
0.0000000000000048
 10
2847.981948803263
 20
-146.4055173671309
 30
0.0000000000000097
 10
2847.219182138554
 20
-145.1317630519316
 30
0.0000000000000048
 10
2845.64863082761
 20
-143.0699289613085
 30
0.0000000000000007
 10
2844.729309818612
 20
-142.0202790295405
 30
0.0000000000000026
 10
2843.441339815403
 20
-140.9039283125287
 30
0.000000000000004
  0
ARC
  5
1CDB2
330
18
100
AcDbEntity
  8
姿図
100
AcDbCircle
 10
2842.701568290749
 20
-148.6976757206044
 30
0.0000000000000026
 40
11.86515413592403
100
AcDbArc
 50
308.053258300767
 51
351.0102729434057
  0
ELLIPSE
  5
1CDB3
330
18
100
AcDbEntity
  8
姿図
100
AcDbEllipse
 10
2836.239088465641
 20
-152.1918417557019
 30
0.0000000000000035
 11
-8.813086741627005
 21
13.18110186809148
 31
1.375286606555147E-15
210
-4.820980239590449E-17
220
7.210394440119406E-17
230
-1.0
 40
0.7445887407026734
 41
2.121095593058011
 42
2.942897457598437
  0
ELLIPSE
  5
1CDB4
330
18
100
AcDbEntity
  8
姿図
100
AcDbEllipse
 10
2853.050695394659
 20
-147.0200268057483
 30
0.0000000000000035
 11
-0.1870778744200541
 21
1.077394106593954
 31
4.742367608810386E-17
210
-7.419382137505989E-18
220
4.272872254132251E-17
230
-1.0
 40
0.6338586263859887
 41
-0.2366574283554155
 42
0.0000000000066163
  0
ELLIPSE
  5
1CDB5
330
18
100
AcDbEntity
  8
姿図
100
AcDbEllipse
 10
2853.050713418935
 20
-147.0200236760268
 30
0.0000000000000035
 11
-0.1870763278903052
 21
1.077385200077164
 31
4.742328404972386E-17
210
-7.419382137506024E-18
220
4.272872254132246E-17
230
-1.0
 40
0.6338586264024266
 41
-0.2366574283618756
 42
-0.000000000006624
  0
ELLIPSE
  5
1CDB6
330
18
100
AcDbEntity
  8
姿図
100
AcDbEllipse
 10
2852.842368065895
 20
-147.0562006010289
 30
0.0000000000000035
 11
-0.3040015457909485
 21
1.750765423274438
 31
1.027512981928667E-16
210
-9.892509516674431E-18
220
5.697163005509664E-17
230
-1.0
 40
0.6338586264284999
 41
2.631951070170127
 42
2.705517797047795
  0
ELLIPSE
  5
1CDB7
330
18
100
AcDbEntity
  8
姿図
100
AcDbEllipse
 10
2853.050695394659
 20
-147.0200268057483
 30
0.0000000000000035
 11
-0.280616811627326
 21
1.616091159890881
 31
7.113551413213316E-17
210
-7.419382137505975E-18
220
4.272872254132251E-17
230
-1.0
 40
0.6338586263920021
 41
2.425367404913896
 42
2.905458641278171
  0
ELLIPSE
  5
1CDB8
330
18
100
AcDbEntity
  8
姿図
100
AcDbEllipse
 10
2853.050695394659
 20
-147.0200268057483
 30
0.0000000000000035
 11
-0.1870778744139725
 21
1.07739410659501
 31
4.742367608810381E-17
210
-7.419382137505989E-18
220
4.272872254132248E-17
230
-1.0
 40
0.6338586263915973
 41
3.141592653587503
 42
3.378250081946796
  0
ELLIPSE
  5
1CDB9
330
18
100
AcDbEntity
  8
姿図
100
AcDbEllipse
 10
2852.842387812356
 20
-147.0561971722684
 30
0.0000000000000035
 11
-0.3039990328381846
 21
1.750750950118853
 31
1.027504487741919E-16
210
-9.892509516674604E-18
220
5.697163005509664E-17
230
-1.0
 40
0.6338586263928145
 41
2.631951070262136
 42
2.705517797147201
  0
ELLIPSE
  5
1CDBA
330
18
100
AcDbEntity
  8
姿図
100
AcDbEllipse
 10
2853.050713418935
 20
-147.0200236760268
 30
0.0000000000000035
 11
-0.2806144918469327
 21
1.616077800112755
 31
7.113492607454317E-17
210
-7.419382137505975E-18
220
4.272872254132248E-17
230
-1.0
 40
0.6338586263919846
 41
2.425367404914656
 42
2.90545864127894
  0
ELLIPSE
  5
1CDBB
330
18
100
AcDbEntity
  8
姿図
100
AcDbEllipse
 10
2853.050713418935
 20
-147.0200236760268
 30
0.0000000000000035
 11
-0.1870763278943654
 21
1.077385200076459
 31
4.742328404972388E-17
210
-7.419382137506015E-18
220
4.272872254132248E-17
230
-1.0
 40
0.6338586263915938
 41
3.141592653589115
 42
3.378250081949307
  0
ELLIPSE
  5
1CDBC
330
18
100
AcDbEntity
  8
姿図
100
AcDbEllipse
 10
2852.321549743987
 20
-147.1466350892281
 30
0.0000000000000035
 11
-0.3975404831321024
 21
2.289462476514186
 31
1.343670822496395E-16
210
-9.892509516674658E-18
220
5.697163005509669E-17
230
-1.0
 40
0.633858626393141
 41
3.141592653589124
 42
3.809748048092986
  0
ELLIPSE
  5
1CDBD
330
18
100
AcDbEntity
  8
姿図
100
AcDbEllipse
 10
2852.321573795908
 20
-147.1466309128707
 30
0.0000000000000035
 11
-0.3975371967765779
 21
2.289443550162053
 31
1.343659714742040E-16
210
-9.892509516674621E-18
220
5.697163005509665E-17
230
-1.0
 40
0.6338586263935189
 41
3.141592653589996
 42
5.180284413961087
  0
LINE
  5
1CDBE
330
18
100
AcDbEntity
  8
姿図
100
AcDbLine
 10
2854.177381528463
 20
-149.1828809987837
 30
0.0000000000000035
 11
2852.71909022712
 21
-149.4360975657426
 31
0.0000000000000035
  0
LINE
  5
1CDBF
330
18
100
AcDbEntity
  8
姿図
100
AcDbLine
 10
2854.177390238738
 20
-149.1828599893456
 30
0.0000000000000035
 11
2852.719110992684
 21
-149.4360744630337
 31
0.0000000000000035
  0
LINE
  5
1CDC0
330
18
100
AcDbEntity
  8
姿図
100
AcDbLine
 10
2852.967781184624
 20
-145.9245458015143
 30
0.0000000000000035
 11
2852.863617520243
 21
-145.9426326991543
 31
0.0000000000000035
  0
LINE
  5
1CDC1
330
18
100
AcDbEntity
  8
姿図
100
AcDbLine
 10
2852.96779989433
 20
-145.9245517278307
 30
0.0000000000000035
 11
2852.863637091041
 21
-145.9426384759513
 31
0.0000000000000035
  0
LINE
  5
1CDC2
330
18
100
AcDbEntity
  8
姿図
100
AcDbLine
 10
2853.341936933456
 20
-148.079334014704
 30
0.0000000000000035
 11
2853.237773269074
 21
-148.097420912344
 31
0.0000000000000035
  0
LINE
  5
1CDC3
330
18
100
AcDbEntity
  8
姿図
100
AcDbLine
 10
2853.341952550119
 20
-148.0793221279835
 30
0.0000000000000035
 11
2853.23778974683
 21
-148.0974088761041
 31
0.0000000000000035
  0
ARC
  5
1CDC4
330
18
100
AcDbEntity
  8
姿図
100
AcDbCircle
 10
2852.254842388595
 20
-148.8352007696178
 30
0.0000000000000026
 40
2.763779877119617
100
AcDbArc
 50
321.6058978528187
 51
6.603639829775626
  0
LINE
  5
1CDC5
330
18
100
AcDbEntity
  8
姿図
100
AcDbLine
 10
2850.925726731585
 20
-145.9615565106503
 30
0.0000000000000048
 11
2847.257878786976
 21
-147.6848048277923
 31
0.0000000000000048
  0
LINE
  5
1CDC6
330
18
100
AcDbEntity
  8
姿図
100
AcDbLine
 10
2853.152855475258
 20
-149.3893461536497
 30
0.0000000000000048
 11
2849.213391017503
 21
-153.4914520763932
 31
0.0000000000000048
  0
ELLIPSE
  5
1CDC7
330
18
100
AcDbEntity
  8
姿図
100
AcDbEllipse
 10
2857.000955594595
 20
-135.0362782548643
 30
0.0000000000000048
 11
-0.1202442100759039
 21
0.2304739797081218
 31
3.382133400712687E-17
210
-6.018059520437149E-17
220
1.153490988811291E-16
230
-1.0
 40
0.7445887407020882
 41
0.0194714738088548
 42
1.889738879634891
  0
ELLIPSE
  5
1CDC8
330
18
100
AcDbEntity
  8
姿図
100
AcDbEllipse
 10
2858.565016614277
 20
-136.7880499741718
 30
0.0000000000000048
 11
-0.05701759619174988
 21
0.1092865286371816
 31
3.563878994241696E-18
210
-1.337346560097143E-17
220
2.563313308469538E-17
230
-1.0
 40
0.7445887406997005
 41
0.0194714738012121
 42
1.456954302896388
  0
LINE
  5
1CDC9
330
18
100
AcDbEntity
  8
姿図
100
AcDbLine
 10
2858.509594188738
 20
-136.6779575596665
 30
0.0000000000000048
 11
2856.060173428687
 21
-137.875480989677
 31
0.0000000000000048
  0
LINE
  5
1CDCA
330
18
100
AcDbEntity
  8
姿図
100
AcDbLine
 10
2857.20161338144
 20
-135.0235291393369
 30
0.0000000000000048
 11
2857.702565128571
 21
-137.0725146010748
 31
0.0000000000000048
  0
ELLIPSE
  5
1CDCB
330
18
100
AcDbEntity
  8
姿図
100
AcDbEllipse
 10
2853.760237241912
 20
-134.2231326095946
 30
0.0000000000000048
 11
-0.1202442100759039
 21
0.2304739797081218
 31
0.0
210
0.0
220
0.0
230
-1.0
 40
0.7445887407020882
 41
0.0194714738088548
 42
1.889738879634891
  0
ELLIPSE
  5
1CDCC
330
18
100
AcDbEntity
  8
姿図
100
AcDbEllipse
 10
2854.573560058975
 20
-134.352555725995
 30
0.0000000000000048
 11
-0.1202442100759039
 21
0.2304739797081218
 31
0.0
210
0.0
220
0.0
230
-1.0
 40
0.7445887407020882
 41
0.0194714738088548
 42
1.889738879634891
  0
LINE
  5
1CDCD
330
18
100
AcDbEntity
  8
姿図
100
AcDbLine
 10
2853.643357081675
 20
-133.9909590999839
 30
0.0000000000000048
 11
2852.338433943345
 21
-134.6225951599868
 31
0.0000000000000048
  0
LINE
  5
1CDCE
330
18
100
AcDbEntity
  8
姿図
100
AcDbLine
 10
2854.456679898739
 20
-134.1203822163845
 30
0.0000000000000048
 11
2852.823671850644
 21
-134.9108247636534
 31
0.0000000000000048
  0
LINE
  5
1CDCF
330
18
100
AcDbEntity
  8
姿図
100
AcDbLine
 10
2853.960895028756
 20
-134.2103834940669
 30
0.0000000000000048
 11
2853.993682834162
 21
-134.3444916930823
 31
0.0000000000000048
  0
LINE
  5
1CDD0
330
18
100
AcDbEntity
  8
姿図
100
AcDbLine
 10
2854.774217845818
 20
-134.3398066104673
 30
0.0000000000000048
 11
2855.107967387837
 21
-135.7049040741883
 31
0.0000000000000048
  0
LINE
  5
1CDD1
330
18
100
AcDbEntity
  8
姿図
100
AcDbLine
 10
2847.223012699686
 20
-134.1151971143072
 30
0.0000000000000026
 11
2843.867263319084
 21
-136.0095584196695
 31
0.0000000000000026
  0
ARC
  5
1CDD2
330
18
100
AcDbEntity
  8
姿図
100
AcDbCircle
 10
2846.444158748268
 20
-145.0982430040908
 30
0.0000000000000048
 40
12.02005315416621
100
AcDbArc
 50
32.49829009887419
 51
65.60516287845797
  0
LINE
  5
1CDD3
330
18
100
AcDbEntity
  8
姿図
100
AcDbLine
 10
2856.884075434358
 20
-134.8041047452546
 30
0.0000000000000048
 11
2854.401270029318
 21
-136.0179499502856
 31
0.0000000000000048
  0
SPLINE
  5
1CDD4
330
18
100
AcDbEntity
  8
姿図
100
AcDbSpline
210
0.0
220
0.0
230
1.0
 70
     8
 71
     3
 72
     8
 73
     4
 74
     0
 42
0.000000001
 43
0.0000000001
 40
0.0522524473711178
 40
0.0522524473711178
 40
0.0522524473711178
 40
0.0522524473711178
 40
3.974673657107151
 40
3.974673657107151
 40
3.974673657107151
 40
3.974673657107151
 10
2858.066132873105
 20
-143.2319170644637
 30
0.0000000000000048
 10
2858.084330851196
 20
-143.5289916527734
 30
0.0000000000000048
 10
2858.085954122368
 20
-143.8216653032623
 30
0.0000000000000048
 10
2858.07064799921
 20
-144.108059680739
 30
0.0000000000000048
  0
LINE
  5
1CDD5
330
18
100
AcDbEntity
  8
姿図
100
AcDbLine
 10
2858.039295875381
 20
-143.1688735187026
 30
0.0000000000000048
 11
2860.161940180013
 21
-141.419589885408
 31
0.0000000000000048
  0
LINE
  5
1CDD6
330
18
100
AcDbEntity
  8
姿図
100
AcDbLine
 10
2858.81927438399
 20
-144.4850040722524
 30
0.0000000000000048
 11
2859.725133216122
 21
-143.8192969699935
 31
0.0000000000000048
  0
LINE
  5
1CDD7
330
18
100
AcDbEntity
  8
姿図
100
AcDbLine
 10
2859.725133216122
 20
-143.8192969699935
 30
0.0000000000000048
 11
2858.398422686185
 21
-142.8819883513574
 31
0.0000000000000048
  0
ELLIPSE
  5
1CDD8
330
18
100
AcDbEntity
  8
姿図
100
AcDbEllipse
 10
2852.842368065895
 20
-147.0562006010289
 30
0.0000000000000035
 11
-0.3040015460233217
 21
1.750765423223235
 31
1.027512981922483E-16
210
-9.892509516674638E-18
220
5.697163005509660E-17
230
-1.0
 40
0.633858626415972
 41
0.4360748565125947
 42
0.5096415833923702
  0
ELLIPSE
  5
1CDD9
330
18
100
AcDbEntity
  8
姿図
100
AcDbEllipse
 10
2852.842387812356
 20
-147.0561971722684
 30
0.0000000000000035
 11
-0.3039990327501068
 21
1.750750950118319
 31
1.027504487732901E-16
210
-9.892509516674629E-18
220
5.697163005509660E-17
230
-1.0
 40
0.6338586263759957
 41
0.4360748564000962
 42
0.5096415832883365
  0
LINE
  5
1CDDA
330
18
100
AcDbEntity
  8
姿図
100
AcDbLine
 10
2853.382300562197
 20
-144.6039560457555
 30
0.0000000000000035
 11
2852.91003526942
 21
-144.6859598237531
 31
0.0000000000000035
  0
LINE
  5
1CDDB
330
18
100
AcDbEntity
  8
姿図
100
AcDbLine
 10
2853.382315845186
 20
-144.6039728890212
 30
0.0000000000000035
 11
2852.910054456495
 21
-144.6859759891165
 31
0.0000000000000035
  0
ELLIPSE
  5
1CDDC
330
18
100
AcDbEntity
  8
姿図
100
AcDbEllipse
 10
2853.975623010999
 20
-138.5370320382333
 30
0.0000000000000048
 11
-5.340857563396746
 21
4.867491343621651
 31
2.942922424551468E-16
210
-2.006019840145720E-17
220
3.844969962704308E-17
230
-1.0
 40
0.651049458011923
 41
1.884826547670682
 42
2.693896839940106
  0
ELLIPSE
  5
1CDDD
330
18
100
AcDbEntity
  8
姿図
100
AcDbEllipse
 10
2847.322811971386
 20
-133.2158763436139
 30
0.0000000000000048
 11
-0.3515444554127111
 21
0.1011956774957645
 31
1.459065990103792E-17
210
-2.674693120194279E-17
220
5.126626616939076E-17
230
-1.0
 40
0.5954474281840116
 41
1.067175184772985
 42
2.559533103277177
  0
ARC
  5
1CDDE
330
18
100
AcDbEntity
  8
姿図
100
AcDbCircle
 10
2848.454929476388
 20
-137.9769456911556
 30
0.0000000000000026
 40
4.482634451279683
100
AcDbArc
 50
87.16683646673617
 51
97.65876395038528
  0
LINE
  5
1CDDF
330
18
100
AcDbEntity
  8
姿図
100
AcDbLine
 10
2847.64959422608
 20
-133.1853321892675
 30
0.0000000000000048
 11
2847.857515624841
 21
-133.5342991472833
 31
0.0000000000000026
  0
SPLINE
  5
1CDE0
330
18
100
AcDbEntity
  8
姿図
100
AcDbSpline
210
0.0
220
0.0
230
1.0
 70
    24
 71
     3
 72
     8
 73
     4
 74
     0
 42
0.000000001
 43
0.0000000001
 40
1.0
 40
1.0
 40
1.0
 40
1.0
 40
2.0
 40
2.0
 40
2.0
 40
2.0
 10
2834.269682784776
 20
-117.1028883450288
 30
0.0000000000000033
 10
2834.269682784776
 20
-117.1028883450288
 30
0.0000000000000033
 10
2837.257648614825
 20
-116.7180447202752
 30
0.0000000000000033
 10
2837.257648614825
 20
-116.7180447202752
 30
0.0000000000000033
  0
SPLINE
  5
1CDE1
330
18
100
AcDbEntity
  8
姿図
100
AcDbSpline
210
0.0
220
0.0
230
1.0
 70
     8
 71
     3
 72
     8
 73
     4
 74
     0
 42
0.000000001
 43
0.0000000001
 40
14.0
 40
14.0
 40
14.0
 40
14.0
 40
15.0
 40
15.0
 40
15.0
 40
15.0
 10
2833.32945679
 20
-114.6364405203565
 30
0.0000000000000033
 10
2832.891681645352
 20
-114.774932612683
 30
0.0000000000000033
 10
2832.866105632404
 20
-115.7914820314129
 30
0.0000000000000033
 10
2832.866105632404
 20
-115.7914820314129
 30
0.0000000000000033
  0
SPLINE
  5
1CDE2
330
18
100
AcDbEntity
  8
姿図
100
AcDbSpline
210
0.0
220
0.0
230
1.0
 70
    24
 71
     3
 72
     8
 73
     4
 74
     0
 42
0.000000001
 43
0.0000000001
 40
1.0
 40
1.0
 40
1.0
 40
1.0
 40
2.0
 40
2.0
 40
2.0
 40
2.0
 10
2834.460238514909
 20
-117.2679228027423
 30
0.0000000000000033
 10
2834.460238514909
 20
-117.2679228027423
 30
0.0000000000000033
 10
2837.448204344958
 20
-116.883079177989
 30
0.0000000000000033
 10
2837.448204344958
 20
-116.883079177989
 30
0.0000000000000033
  0
ARC
  5
1CDE3
330
18
100
AcDbEntity
  8
姿図
100
AcDbCircle
 10
2834.400907478631
 20
-117.5572807533435
 30
0.0000000000000033
 40
0.2953780551123366
100
AcDbArc
 50
78.41246877166932
 51
140.8820839421047
  0
ARC
  5
1CDE4
330
18
100
AcDbEntity
  8
姿図
100
AcDbCircle
 10
2834.210351748497
 20
-117.3922462956298
 30
0.0000000000000033
 40
0.2953780551123366
100
AcDbArc
 50
78.41246877166932
 51
140.8820839421047
  0
SPLINE
  5
1CDE5
330
18
100
AcDbEntity
  8
姿図
100
AcDbSpline
210
0.0
220
0.0
230
1.0
 70
     8
 71
     3
 72
     8
 73
     4
 74
     0
 42
0.000000001
 43
0.0000000001
 40
3.357032710531275
 40
3.357032710531275
 40
3.357032710531275
 40
3.357032710531275
 40
4.0
 40
4.0
 40
4.0
 40
4.0
 10
2837.421629754091
 20
-117.4725812023567
 30
0.0000000000000033
 10
2836.87931191446
 20
-117.5141495508578
 30
0.0000000000000033
 10
2836.17173675333
 20
-117.569362119903
 30
0.0000000000000033
 10
2836.17173675333
 20
-117.569362119903
 30
0.0000000000000033
  0
SPLINE
  5
1CDE6
330
18
100
AcDbEntity
  8
姿図
100
AcDbSpline
210
0.0
220
0.0
230
1.0
 70
     8
 71
     3
 72
     8
 73
     4
 74
     0
 42
0.000000001
 43
0.0000000001
 40
3.357032710531275
 40
3.357032710531275
 40
3.357032710531275
 40
3.357032710531275
 40
4.0
 40
4.0
 40
4.0
 40
4.0
 10
2837.545955154153
 20
-117.316005596716
 30
0.0000000000000033
 10
2837.003637314523
 20
-117.3575739452174
 30
0.0000000000000033
 10
2836.296062153393
 20
-117.4127865142623
 30
0.0000000000000033
 10
2836.296062153393
 20
-117.4127865142623
 30
0.0000000000000033
  0
SPLINE
  5
1CDE7
330
18
100
AcDbEntity
  8
姿図
100
AcDbSpline
210
0.0
220
0.0
230
1.0
 70
     8
 71
     3
 72
     8
 73
     4
 74
     0
 42
0.000000001
 43
0.0000000001
 40
9.0
 40
9.0
 40
9.0
 40
9.0
 40
10.0
 40
10.0
 40
10.0
 40
10.0
 10
2847.973376641678
 20
-113.7193651171383
 30
0.0000000000000033
 10
2847.712075629744
 20
-112.704620079264
 30
0.0000000000000033
 10
2846.187638098389
 20
-112.924142914495
 30
0.0000000000000033
 10
2846.187638098389
 20
-112.924142914495
 30
0.0000000000000033
  0
SPLINE
  5
1CDE8
330
18
100
AcDbEntity
  8
姿図
100
AcDbSpline
210
0.0
220
0.0
230
1.0
 70
     8
 71
     3
 72
     8
 73
     4
 74
     0
 42
0.000000001
 43
0.0000000001
 40
4.562871291847087
 40
4.562871291847087
 40
4.562871291847087
 40
4.562871291847087
 40
5.0
 40
5.0
 40
5.0
 40
5.0
 10
2842.849396683888
 20
-116.4018871675635
 30
0.0000000000000033
 10
2843.676097384951
 20
-116.3226787288472
 30
0.0000000000000033
 10
2844.270202054751
 20
-116.3091449983224
 30
0.0000000000000033
 10
2844.270202054751
 20
-116.3091449983224
 30
0.0000000000000033
  0
SPLINE
  5
1CDE9
330
18
100
AcDbEntity
  8
姿図
100
AcDbSpline
210
0.0
220
0.0
230
1.0
 70
     8
 71
     3
 72
     8
 73
     4
 74
     0
 42
0.000000001
 43
0.0000000001
 40
5.0
 40
5.0
 40
5.0
 40
5.0
 40
6.0
 40
6.0
 40
6.0
 40
6.0
 10
2844.270202054751
 20
-116.3091449983224
 30
0.0000000000000033
 10
2844.270202054751
 20
-116.3091449983224
 30
0.0000000000000033
 10
2844.393475540333
 20
-116.3085965254472
 30
0.0000000000000033
 10
2844.494829103259
 20
-116.5119494417722
 30
0.0000000000000033
  0
SPLINE
  5
1CDEA
330
18
100
AcDbEntity
  8
姿図
100
AcDbSpline
210
0.0
220
0.0
230
1.0
 70
     8
 71
     3
 72
     8
 73
     4
 74
     0
 42
0.000000001
 43
0.0000000001
 40
0.0
 40
0.0
 40
0.0
 40
0.0
 40
0.4810436403893932
 40
0.4810436403893932
 40
0.4810436403893932
 40
0.4810436403893932
 10
2844.621975001985
 20
-116.9715722182812
 30
0.0000000000000033
 10
2844.621975001985
 20
-116.9715722182812
 30
0.0000000000000033
 10
2843.781537483484
 20
-116.898031488721
 30
0.0000000000000033
 10
2842.84817438342
 20
-116.8936803325612
 30
0.0000000000000033
  0
SPLINE
  5
1CDEB
330
18
100
AcDbEntity
  8
姿図
100
AcDbSpline
210
0.0
220
0.0
230
1.0
 70
     8
 71
     3
 72
     8
 73
     4
 74
     0
 42
0.000000001
 43
0.0000000001
 40
5.0
 40
5.0
 40
5.0
 40
5.0
 40
6.0
 40
6.0
 40
6.0
 40
6.0
 10
2844.252385858008
 20
-116.0595201544543
 30
0.0000000000000033
 10
2844.252385858008
 20
-116.0595201544543
 30
0.0000000000000033
 10
2844.375659343589
 20
-116.0589716815791
 30
0.0000000000000033
 10
2844.477012906515
 20
-116.2623245979044
 30
0.0000000000000033
  0
SPLINE
  5
1CDEC
330
18
100
AcDbEntity
  8
姿図
100
AcDbSpline
210
0.0
220
0.0
230
1.0
 70
     8
 71
     3
 72
     8
 73
     4
 74
     0
 42
0.000000001
 43
0.0000000001
 40
0.0
 40
0.0
 40
0.0
 40
0.0
 40
0.4810436403893932
 40
0.4810436403893932
 40
0.4810436403893932
 40
0.4810436403893932
 10
2844.66527868892
 20
-117.1166369845148
 30
0.0000000000000033
 10
2844.66527868892
 20
-117.1166369845148
 30
0.0000000000000033
 10
2843.82484117042
 20
-117.0430962549547
 30
0.0000000000000033
 10
2843.021185400788
 20
-117.0079664134375
 30
0.0000000000000033
  0
SPLINE
  5
1CDED
330
18
100
AcDbEntity
  8
姿図
100
AcDbSpline
210
0.0
220
0.0
230
1.0
 70
     8
 71
     3
 72
     8
 73
     4
 74
     0
 42
0.000000001
 43
0.0000000001
 40
4.562871291847087
 40
4.562871291847087
 40
4.562871291847087
 40
4.562871291847087
 40
5.0
 40
5.0
 40
5.0
 40
5.0
 10
2842.831580487144
 20
-116.1522623236951
 30
0.0000000000000033
 10
2843.658281188207
 20
-116.0730538849793
 30
0.0000000000000033
 10
2844.252385858008
 20
-116.0595201544543
 30
0.0000000000000033
 10
2844.252385858008
 20
-116.0595201544543
 30
0.0000000000000033
  0
ENDSEC
  0
SECTION
  2
OBJECTS
  0
DICTIONARY
  5
C
330
0
100
AcDbDictionary
281
     1
  3
ACAD_GROUP
350
D
  3
ACAD_IMAGE_VARS
350
1CE81
  3
ACAD_LAYOUT
350
40CB
  3
ACAD_MLINESTYLE
350
E
  3
ACAD_PLOTSETTINGS
350
40CC
  3
ACAD_PLOTSTYLENAME
350
40C9
  3
ACAD_SCALELIST
350
16694
  3
AcDbVariableDictionary
350
6377
  3
APPDATA
350
1CE80
  3
DWGPROPS
350
1CEA5
  0
DICTIONARY
  5
1993C
330
2
100
AcDbDictionary
280
     1
281
     1
  3
ACAD_LAYERSTATES
360
1993D
  0
DICTIONARY
  5
166BD
330
F
100
AcDbDictionary
280
     1
281
     1
  3
ADSK_XREC_LAYER_RECONCILED
360
166BE
  0
DICTIONARY
  5
166C5
330
4C
100
AcDbDictionary
280
     1
281
     1
  3
ADSK_XREC_LAYER_RECONCILED
360
166C6
  0
DICTIONARY
  5
166C7
330
4D
100
AcDbDictionary
280
     1
281
     1
  3
ADSK_XREC_LAYER_RECONCILED
360
166C8
  0
DICTIONARY
  5
166CB
330
40D4
100
AcDbDictionary
280
     1
281
     1
  3
ADSK_XREC_LAYER_RECONCILED
360
166CC
  0
DICTIONARY
  5
D
102
{ACAD_REACTORS
330
C
102
}
330
C
100
AcDbDictionary
281
     1
  0
RASTERVARIABLES
  5
1CE81
102
{ACAD_REACTORS
330
C
102
}
330
C
100
AcDbRasterVariables
 90
        0
 70
     1
 71
     1
 72
     0
  0
DICTIONARY
  5
40CB
102
{ACAD_REACTORS
330
C
102
}
330
C
100
AcDbDictionary
281
     1
  3
Model
350
40CD
  3
ﾚｲｱｳﾄ1
350
40CE
  0
DICTIONARY
  5
E
102
{ACAD_REACTORS
330
C
102
}
330
C
100
AcDbDictionary
281
     1
  3
STANDARD
350
1B
  0
DICTIONARY
  5
40CC
102
{ACAD_REACTORS
330
C
102
}
330
C
100
AcDbDictionary
281
     1
  0
ACDBDICTIONARYWDFLT
  5
40C9
102
{ACAD_REACTORS
330
C
102
}
330
C
100
AcDbDictionary
281
     1
  3
Normal
350
40CA
100
AcDbDictionaryWithDefault
340
40CA
  0
DICTIONARY
  5
16694
102
{ACAD_REACTORS
330
C
102
}
330
C
100
AcDbDictionary
281
     1
  3
A0
350
16695
  3
A1
350
16696
  3
A2
350
16697
  3
A3
350
16698
  3
A4
350
16699
  3
A5
350
1669A
  3
A6
350
1669B
  3
A7
350
1669C
  3
A8
350
1669D
  3
A9
350
1669E
  3
B0
350
1669F
  3
B1
350
166A0
  3
B2
350
166A1
  3
B3
350
166A2
  3
B4
350
166A3
  3
B5
350
166A4
  3
B6
350
166A5
  3
B7
350
166A6
  3
B8
350
166A7
  3
B9
350
166A8
  3
C0
350
166A9
  3
C1
350
166AA
  3
C2
350
166AB
  3
C3
350
166AC
  3
C4
350
166AD
  3
C5
350
166AE
  3
C6
350
166AF
  3
C7
350
166B0
  3
C8
350
166B1
  3
C9
350
166B2
  3
D0
350
166B3
  3
D1
350
166B4
  3
D2
350
166B5
  0
DICTIONARY
  5
6377
102
{ACAD_REACTORS
330
C
102
}
330
C
100
AcDbDictionary
281
     1
  3
DIMASSOC
350
73F2
  3
INDEXCTL
350
16705
  3
PROJECTNAME
350
12CB7
  3
SORTENTS
350
6378
  0
DICTIONARY
  5
1CE80
102
{ACAD_REACTORS
330
C
102
}
330
C
100
AcDbDictionary
281
     1
  0
XRECORD
  5
1CEA5
102
{ACAD_REACTORS
330
C
102
}
330
C
100
AcDbXrecord
280
     1
  1
DWGPROPS COOKIE
  2

  3

  4

  6

  7

  8
SPAX
  9

300
=
301
=
302
=
303
=
304
=
305
=
306
=
307
=
308
=
309
=
 40
0.0
 41
2449505.547222222
 42
2456821.236044028
  1

 90
        0
  0
DICTIONARY
  5
1993D
102
{ACAD_REACTORS
330
1993C
102
}
330
1993C
100
AcDbDictionary
281
     1
  0
XRECORD
  5
166BE
102
{ACAD_REACTORS
330
166BD
102
}
330
166BD
100
AcDbXrecord
280
     1
290
     1
  0
XRECORD
  5
166C6
102
{ACAD_REACTORS
330
166C5
102
}
330
166C5
100
AcDbXrecord
280
     1
290
     1
  0
XRECORD
  5
166C8
102
{ACAD_REACTORS
330
166C7
102
}
330
166C7
100
AcDbXrecord
280
     1
290
     1
  0
XRECORD
  5
166CC
102
{ACAD_REACTORS
330
166CB
102
}
330
166CB
100
AcDbXrecord
280
     1
290
     1
  0
LAYOUT
  5
40CD
102
{ACAD_REACTORS
330
40CB
102
}
330
40CB
100
AcDbPlotSettings
  1

  2
JUST PDF 2
  4
A4
  6
CUT1
 40
3.174999952316284
 41
3.174999952316284
 42
3.175003051757812
 43
3.17498779296875
 44
209.8886566162109
 45
297.0530090332031
 46
14.27171755861536
 47
9.855173074625782
 48
2790.220718123323
 49
-599.8410846349962
140
3140.211155113135
141
-57.8557343576631
142
1.0
143
2.0
 70
 11956
 72
     1
 73
     0
 74
     4
  7
spax form.ctb
 75
    17
147
0.5
148
-2790.220718123323
149
599.8410846349962
100
AcDbLayout
  1
Model
 70
     1
 71
     0
 10
0.0
 20
0.0
 11
12.0
 21
9.0
 12
0.0
 22
0.0
 32
0.0
 14
2804.917842228177
 24
-188.3151769145525
 34
-0.0000000000000127
 15
2860.185239025976
 25
-102.4254848226983
 35
0.0000000000000146
146
0.0
 13
0.0
 23
0.0
 33
0.0
 16
1.0
 26
0.0
 36
0.0
 17
0.0
 27
1.0
 37
0.0
 76
     0
330
18
331
1C7B5
1001
ACAD_PSEXT
1000
JUST PDF 2
1000
JUST PDF 2
1000
JUST PDF 2 Port:
1000

1070
     0
  0
LAYOUT
  5
40CE
102
{ACAD_REACTORS
330
40CB
102
}
330
40CB
100
AcDbPlotSettings
  1

  2
なし
  4

  6

 40
0.0
 41
0.0
 42
0.0
 43
0.0
 44
0.0
 45
0.0
 46
0.0
 47
0.0
 48
0.0
 49
0.0
140
0.0
141
0.0
142
1.0
143
1.0
 70
   688
 72
     0
 73
     0
 74
     5
  7
Aiba.ctb
 75
    16
147
1.0
148
0.0
149
0.0
100
AcDbLayout
  1
ﾚｲｱｳﾄ1
 70
     0
 71
     1
 10
0.0
 20
0.0
 11
12.0
 21
9.0
 12
0.0
 22
0.0
 32
0.0
 14
1.000000000000000E+20
 24
1.000000000000000E+20
 34
1.000000000000000E+20
 15
-1.000000000000000E+20
 25
-1.000000000000000E+20
 35
-1.000000000000000E+20
146
0.0
 13
0.0
 23
0.0
 33
0.0
 16
1.0
 26
0.0
 36
0.0
 17
0.0
 27
1.0
 37
0.0
 76
     0
330
15
  0
MLINESTYLE
  5
1B
102
{ACAD_REACTORS
330
E
102
}
330
E
100
AcDbMlineStyle
  2
STANDARD
 70
     0
  3

 62
     0
 51
90.0
 52
90.0
 71
     2
 49
0.5
 62
   256
  6
BYLAYER
 49
-0.5
 62
   256
  6
BYLAYER
  0
ACDBPLACEHOLDER
  5
40CA
102
{ACAD_REACTORS
330
40C9
102
}
330
40C9
  0
SCALE
  5
16695
102
{ACAD_REACTORS
330
16694
102
}
330
16694
100
AcDbScale
 70
     0
300
1:1
140
1.0
141
1.0
290
     1
1001
ACAD
1000
AcRTDxfName
1000
SCALE
1000
AcRTDxfName
1000
SCALE
1000
AcRTDxfName
1000
SCALE
  0
SCALE
  5
16696
102
{ACAD_REACTORS
330
16694
102
}
330
16694
100
AcDbScale
 70
     0
300
1:2
140
1.0
141
2.0
290
     0
1001
ACAD
1000
AcRTDxfName
1000
SCALE
1000
AcRTDxfName
1000
SCALE
1000
AcRTDxfName
1000
SCALE
  0
SCALE
  5
16697
102
{ACAD_REACTORS
330
16694
102
}
330
16694
100
AcDbScale
 70
     0
300
1:4
140
1.0
141
4.0
290
     0
1001
ACAD
1000
AcRTDxfName
1000
SCALE
1000
AcRTDxfName
1000
SCALE
1000
AcRTDxfName
1000
SCALE
  0
SCALE
  5
16698
102
{ACAD_REACTORS
330
16694
102
}
330
16694
100
AcDbScale
 70
     0
300
1:5
140
1.0
141
5.0
290
     0
1001
ACAD
1000
AcRTDxfName
1000
SCALE
1000
AcRTDxfName
1000
SCALE
1000
AcRTDxfName
1000
SCALE
  0
SCALE
  5
16699
102
{ACAD_REACTORS
330
16694
102
}
330
16694
100
AcDbScale
 70
     0
300
1:8
140
1.0
141
8.0
290
     0
1001
ACAD
1000
AcRTDxfName
1000
SCALE
1000
AcRTDxfName
1000
SCALE
1000
AcRTDxfName
1000
SCALE
  0
SCALE
  5
1669A
102
{ACAD_REACTORS
330
16694
102
}
330
16694
100
AcDbScale
 70
     0
300
1:10
140
1.0
141
10.0
290
     0
1001
ACAD
1000
AcRTDxfName
1000
SCALE
1000
AcRTDxfName
1000
SCALE
1000
AcRTDxfName
1000
SCALE
  0
SCALE
  5
1669B
102
{ACAD_REACTORS
330
16694
102
}
330
16694
100
AcDbScale
 70
     0
300
1:16
140
1.0
141
16.0
290
     0
1001
ACAD
1000
AcRTDxfName
1000
SCALE
1000
AcRTDxfName
1000
SCALE
1000
AcRTDxfName
1000
SCALE
  0
SCALE
  5
1669C
102
{ACAD_REACTORS
330
16694
102
}
330
16694
100
AcDbScale
 70
     0
300
1:20
140
1.0
141
20.0
290
     0
1001
ACAD
1000
AcRTDxfName
1000
SCALE
1000
AcRTDxfName
1000
SCALE
1000
AcRTDxfName
1000
SCALE
  0
SCALE
  5
1669D
102
{ACAD_REACTORS
330
16694
102
}
330
16694
100
AcDbScale
 70
     0
300
1:30
140
1.0
141
30.0
290
     0
1001
ACAD
1000
AcRTDxfName
1000
SCALE
1000
AcRTDxfName
1000
SCALE
1000
AcRTDxfName
1000
SCALE
  0
SCALE
  5
1669E
102
{ACAD_REACTORS
330
16694
102
}
330
16694
100
AcDbScale
 70
     0
300
1:40
140
1.0
141
40.0
290
     0
1001
ACAD
1000
AcRTDxfName
1000
SCALE
1000
AcRTDxfName
1000
SCALE
1000
AcRTDxfName
1000
SCALE
  0
SCALE
  5
1669F
102
{ACAD_REACTORS
330
16694
102
}
330
16694
100
AcDbScale
 70
     0
300
1:50
140
1.0
141
50.0
290
     0
1001
ACAD
1000
AcRTDxfName
1000
SCALE
1000
AcRTDxfName
1000
SCALE
1000
AcRTDxfName
1000
SCALE
  0
SCALE
  5
166A0
102
{ACAD_REACTORS
330
16694
102
}
330
16694
100
AcDbScale
 70
     0
300
1:100
140
1.0
141
100.0
290
     0
1001
ACAD
1000
AcRTDxfName
1000
SCALE
1000
AcRTDxfName
1000
SCALE
1000
AcRTDxfName
1000
SCALE
  0
SCALE
  5
166A1
102
{ACAD_REACTORS
330
16694
102
}
330
16694
100
AcDbScale
 70
     0
300
2:1
140
2.0
141
1.0
290
     0
1001
ACAD
1000
AcRTDxfName
1000
SCALE
1000
AcRTDxfName
1000
SCALE
1000
AcRTDxfName
1000
SCALE
  0
SCALE
  5
166A2
102
{ACAD_REACTORS
330
16694
102
}
330
16694
100
AcDbScale
 70
     0
300
4:1
140
4.0
141
1.0
290
     0
1001
ACAD
1000
AcRTDxfName
1000
SCALE
1000
AcRTDxfName
1000
SCALE
1000
AcRTDxfName
1000
SCALE
  0
SCALE
  5
166A3
102
{ACAD_REACTORS
330
16694
102
}
330
16694
100
AcDbScale
 70
     0
300
8:1
140
8.0
141
1.0
290
     0
1001
ACAD
1000
AcRTDxfName
1000
SCALE
1000
AcRTDxfName
1000
SCALE
1000
AcRTDxfName
1000
SCALE
  0
SCALE
  5
166A4
102
{ACAD_REACTORS
330
16694
102
}
330
16694
100
AcDbScale
 70
     0
300
10:1
140
10.0
141
1.0
290
     0
1001
ACAD
1000
AcRTDxfName
1000
SCALE
1000
AcRTDxfName
1000
SCALE
1000
AcRTDxfName
1000
SCALE
  0
SCALE
  5
166A5
102
{ACAD_REACTORS
330
16694
102
}
330
16694
100
AcDbScale
 70
     0
300
100:1
140
100.0
141
1.0
290
     0
1001
ACAD
1000
AcRTDxfName
1000
SCALE
1000
AcRTDxfName
1000
SCALE
1000
AcRTDxfName
1000
SCALE
  0
SCALE
  5
166A6
102
{ACAD_REACTORS
330
16694
102
}
330
16694
100
AcDbScale
 70
     0
300
1/128" = 1'-0"
140
0.0078125
141
12.0
290
     0
1001
ACAD
1000
AcRTDxfName
1000
SCALE
1000
AcRTDxfName
1000
SCALE
1000
AcRTDxfName
1000
SCALE
  0
SCALE
  5
166A7
102
{ACAD_REACTORS
330
16694
102
}
330
16694
100
AcDbScale
 70
     0
300
1/64" = 1'-0"
140
0.015625
141
12.0
290
     0
1001
ACAD
1000
AcRTDxfName
1000
SCALE
1000
AcRTDxfName
1000
SCALE
1000
AcRTDxfName
1000
SCALE
  0
SCALE
  5
166A8
102
{ACAD_REACTORS
330
16694
102
}
330
16694
100
AcDbScale
 70
     0
300
1/32" = 1'-0"
140
0.03125
141
12.0
290
     0
1001
ACAD
1000
AcRTDxfName
1000
SCALE
1000
AcRTDxfName
1000
SCALE
1000
AcRTDxfName
1000
SCALE
  0
SCALE
  5
166A9
102
{ACAD_REACTORS
330
16694
102
}
330
16694
100
AcDbScale
 70
     0
300
1/16" = 1'-0"
140
0.0625
141
12.0
290
     0
1001
ACAD
1000
AcRTDxfName
1000
SCALE
1000
AcRTDxfName
1000
SCALE
1000
AcRTDxfName
1000
SCALE
  0
SCALE
  5
166AA
102
{ACAD_REACTORS
330
16694
102
}
330
16694
100
AcDbScale
 70
     0
300
3/32" = 1'-0"
140
0.09375
141
12.0
290
     0
1001
ACAD
1000
AcRTDxfName
1000
SCALE
1000
AcRTDxfName
1000
SCALE
1000
AcRTDxfName
1000
SCALE
  0
SCALE
  5
166AB
102
{ACAD_REACTORS
330
16694
102
}
330
16694
100
AcDbScale
 70
     0
300
1/8" = 1'-0"
140
0.125
141
12.0
290
     0
1001
ACAD
1000
AcRTDxfName
1000
SCALE
1000
AcRTDxfName
1000
SCALE
1000
AcRTDxfName
1000
SCALE
  0
SCALE
  5
166AC
102
{ACAD_REACTORS
330
16694
102
}
330
16694
100
AcDbScale
 70
     0
300
3/16" = 1'-0"
140
0.1875
141
12.0
290
     0
1001
ACAD
1000
AcRTDxfName
1000
SCALE
1000
AcRTDxfName
1000
SCALE
1000
AcRTDxfName
1000
SCALE
  0
SCALE
  5
166AD
102
{ACAD_REACTORS
330
16694
102
}
330
16694
100
AcDbScale
 70
     0
300
1/4" = 1'-0"
140
0.25
141
12.0
290
     0
1001
ACAD
1000
AcRTDxfName
1000
SCALE
1000
AcRTDxfName
1000
SCALE
1000
AcRTDxfName
1000
SCALE
  0
SCALE
  5
166AE
102
{ACAD_REACTORS
330
16694
102
}
330
16694
100
AcDbScale
 70
     0
300
3/8" = 1'-0"
140
0.375
141
12.0
290
     0
1001
ACAD
1000
AcRTDxfName
1000
SCALE
1000
AcRTDxfName
1000
SCALE
1000
AcRTDxfName
1000
SCALE
  0
SCALE
  5
166AF
102
{ACAD_REACTORS
330
16694
102
}
330
16694
100
AcDbScale
 70
     0
300
1/2" = 1'-0"
140
0.5
141
12.0
290
     0
1001
ACAD
1000
AcRTDxfName
1000
SCALE
1000
AcRTDxfName
1000
SCALE
1000
AcRTDxfName
1000
SCALE
  0
SCALE
  5
166B0
102
{ACAD_REACTORS
330
16694
102
}
330
16694
100
AcDbScale
 70
     0
300
3/4" = 1'-0"
140
0.75
141
12.0
290
     0
1001
ACAD
1000
AcRTDxfName
1000
SCALE
1000
AcRTDxfName
1000
SCALE
1000
AcRTDxfName
1000
SCALE
  0
SCALE
  5
166B1
102
{ACAD_REACTORS
330
16694
102
}
330
16694
100
AcDbScale
 70
     0
300
1" = 1'-0"
140
1.0
141
12.0
290
     0
1001
ACAD
1000
AcRTDxfName
1000
SCALE
1000
AcRTDxfName
1000
SCALE
1000
AcRTDxfName
1000
SCALE
  0
SCALE
  5
166B2
102
{ACAD_REACTORS
330
16694
102
}
330
16694
100
AcDbScale
 70
     0
300
1-1/2" = 1'-0"
140
1.5
141
12.0
290
     0
1001
ACAD
1000
AcRTDxfName
1000
SCALE
1000
AcRTDxfName
1000
SCALE
1000
AcRTDxfName
1000
SCALE
  0
SCALE
  5
166B3
102
{ACAD_REACTORS
330
16694
102
}
330
16694
100
AcDbScale
 70
     0
300
3" = 1'-0"
140
3.0
141
12.0
290
     0
1001
ACAD
1000
AcRTDxfName
1000
SCALE
1000
AcRTDxfName
1000
SCALE
1000
AcRTDxfName
1000
SCALE
  0
SCALE
  5
166B4
102
{ACAD_REACTORS
330
16694
102
}
330
16694
100
AcDbScale
 70
     0
300
6" = 1'-0"
140
6.0
141
12.0
290
     0
1001
ACAD
1000
AcRTDxfName
1000
SCALE
1000
AcRTDxfName
1000
SCALE
1000
AcRTDxfName
1000
SCALE
  0
SCALE
  5
166B5
102
{ACAD_REACTORS
330
16694
102
}
330
16694
100
AcDbScale
 70
     0
300
1'-0" = 1'-0"
140
12.0
141
12.0
290
     0
1001
ACAD
1000
AcRTDxfName
1000
SCALE
1000
AcRTDxfName
1000
SCALE
1000
AcRTDxfName
1000
SCALE
  0
DICTIONARYVAR
  5
73F2
102
{ACAD_REACTORS
330
6377
102
}
330
6377
100
DictionaryVariables
280
     0
  1
1
  0
DICTIONARYVAR
  5
16705
102
{ACAD_REACTORS
330
6377
102
}
330
6377
100
DictionaryVariables
280
     0
  1
0
  0
DICTIONARYVAR
  5
12CB7
102
{ACAD_REACTORS
330
6377
102
}
330
6377
100
DictionaryVariables
280
     0
  1

  0
DICTIONARYVAR
  5
6378
102
{ACAD_REACTORS
330
6377
102
}
330
6377
100
DictionaryVariables
280
     0
  1
96
  0
ENDSEC
  0
EOF
