  0
SECTION
  2
HEADER
  9
$ACADVER
  1
AC1015
  9
$ACADMAINTVER
 70
     6
  9
$DWGCODEPAGE
  3
ANSI_932
  9
$INSBASE
 10
0.0
 20
0.0
 30
0.0
  9
$EXTMIN
 10
8765.51253016864
 20
-3321.308340793875
 30
-0.0000000000000015
  9
$EXTMAX
 10
8836.575558815606
 20
-3237.604640162159
 30
0.0000000000000064
  9
$LIMMIN
 10
0.0
 20
0.0
  9
$LIMMAX
 10
420.0
 20
297.0
  9
$ORTHOMODE
 70
     1
  9
$REGENMODE
 70
     1
  9
$FILLMODE
 70
     1
  9
$QTEXTMODE
 70
     0
  9
$MIRRTEXT
 70
     1
  9
$LTSCALE
 40
5.0
  9
$ATTMODE
 70
     0
  9
$TEXTSIZE
 40
53.44730959687513
  9
$TRACEWID
 40
1.0
  9
$TEXTSTYLE
  7
STANDARD
  9
$CLAYER
  8
寸法線
  9
$CELTYPE
  6
BYLAYER
  9
$CECOLOR
 62
   256
  9
$CELTSCALE
 40
1.0
  9
$DISPSILH
 70
     0
  9
$DIMSCALE
 40
1.0
  9
$DIMASZ
 40
2.5
  9
$DIMEXO
 40
1.5
  9
$DIMDLI
 40
0.38
  9
$DIMRND
 40
0.0
  9
$DIMDLE
 40
0.0
  9
$DIMEXE
 40
1.0
  9
$DIMTP
 40
0.0
  9
$DIMTM
 40
0.0
  9
$DIMTXT
 40
2.500000000000003
  9
$DIMCEN
 40
0.0
  9
$DIMTSZ
 40
0.0
  9
$DIMTOL
 70
     0
  9
$DIMLIM
 70
     0
  9
$DIMTIH
 70
     0
  9
$DIMTOH
 70
     0
  9
$DIMSE1
 70
     0
  9
$DIMSE2
 70
     0
  9
$DIMTAD
 70
     3
  9
$DIMZIN
 70
     8
  9
$DIMBLK
  1

  9
$DIMASO
 70
     1
  9
$DIMSHO
 70
     0
  9
$DIMPOST
  1

  9
$DIMAPOST
  1

  9
$DIMALT
 70
     0
  9
$DIMALTD
 70
     0
  9
$DIMALTF
 40
25.4
  9
$DIMLFAC
 40
1.0
  9
$DIMTOFL
 70
     1
  9
$DIMTVP
 40
0.0
  9
$DIMTIX
 70
     0
  9
$DIMSOXD
 70
     0
  9
$DIMSAH
 70
     1
  9
$DIMBLK1
  1
OPEN
  9
$DIMBLK2
  1
OPEN
  9
$DIMSTYLE
  2
STANDARD
  9
$DIMCLRD
 70
     8
  9
$DIMCLRE
 70
     8
  9
$DIMCLRT
 70
   256
  9
$DIMTFAC
 40
1.0
  9
$DIMGAP
 40
1.0
  9
$DIMJUST
 70
     0
  9
$DIMSD1
 70
     0
  9
$DIMSD2
 70
     0
  9
$DIMTOLJ
 70
     1
  9
$DIMTZIN
 70
     0
  9
$DIMALTZ
 70
     0
  9
$DIMALTTZ
 70
     0
  9
$DIMUPT
 70
     0
  9
$DIMDEC
 70
     2
  9
$DIMTDEC
 70
     2
  9
$DIMALTU
 70
     2
  9
$DIMALTTD
 70
     0
  9
$DIMTXSTY
  7
STANDARD
  9
$DIMAUNIT
 70
     0
  9
$DIMADEC
 70
     2
  9
$DIMALTRND
 40
0.0
  9
$DIMAZIN
 70
     2
  9
$DIMDSEP
 70
    46
  9
$DIMATFIT
 70
     1
  9
$DIMFRAC
 70
     0
  9
$DIMLDRBLK
  1
OPEN
  9
$DIMLUNIT
 70
     2
  9
$DIMLWD
 70
    -2
  9
$DIMLWE
 70
    -2
  9
$DIMTMOVE
 70
     0
  9
$LUNITS
 70
     2
  9
$LUPREC
 70
     2
  9
$SKETCHINC
 40
0.1
  9
$FILLETRAD
 40
15.5
  9
$AUNITS
 70
     0
  9
$AUPREC
 70
     1
  9
$MENU
  1
FM
  9
$ELEVATION
 40
0.0
  9
$PELEVATION
 40
0.0
  9
$THICKNESS
 40
0.0
  9
$LIMCHECK
 70
     0
  9
$CHAMFERA
 40
0.0
  9
$CHAMFERB
 40
0.0
  9
$CHAMFERC
 40
0.0
  9
$CHAMFERD
 40
0.0
  9
$SKPOLY
 70
     0
  9
$TDCREATE
 40
2448636.619629629
  9
$TDUCREATE
 40
2448636.244629629
  9
$TDUPDATE
 40
2456821.611556574
  9
$TDUUPDATE
 40
2456821.236556574
  9
$TDINDWG
 40
49.0052715625
  9
$TDUSRTIMER
 40
2456821.236427488
  9
$USRTIMER
 70
     1
  9
$ANGBASE
 50
0.0
  9
$ANGDIR
 70
     0
  9
$PDMODE
 70
     3
  9
$PDSIZE
 40
0.0
  9
$PLINEWID
 40
0.0
  9
$SPLFRAME
 70
     0
  9
$SPLINETYPE
 70
     6
  9
$SPLINESEGS
 70
     8
  9
$HANDSEED
  5
129E54
  9
$SURFTAB1
 70
     6
  9
$SURFTAB2
 70
     6
  9
$SURFTYPE
 70
     6
  9
$SURFU
 70
     6
  9
$SURFV
 70
     6
  9
$UCSBASE
  2

  9
$UCSNAME
  2

  9
$UCSORG
 10
0.0
 20
0.0
 30
0.0
  9
$UCSXDIR
 10
1.0
 20
0.0
 30
0.0
  9
$UCSYDIR
 10
0.0
 20
1.0
 30
0.0
  9
$UCSORTHOREF
  2

  9
$UCSORTHOVIEW
 70
     0
  9
$UCSORGTOP
 10
0.0
 20
0.0
 30
0.0
  9
$UCSORGBOTTOM
 10
0.0
 20
0.0
 30
0.0
  9
$UCSORGLEFT
 10
0.0
 20
0.0
 30
0.0
  9
$UCSORGRIGHT
 10
0.0
 20
0.0
 30
0.0
  9
$UCSORGFRONT
 10
0.0
 20
0.0
 30
0.0
  9
$UCSORGBACK
 10
0.0
 20
0.0
 30
0.0
  9
$PUCSBASE
  2

  9
$PUCSNAME
  2

  9
$PUCSORG
 10
0.0
 20
0.0
 30
0.0
  9
$PUCSXDIR
 10
1.0
 20
0.0
 30
0.0
  9
$PUCSYDIR
 10
0.0
 20
1.0
 30
0.0
  9
$PUCSORTHOREF
  2

  9
$PUCSORTHOVIEW
 70
     0
  9
$PUCSORGTOP
 10
0.0
 20
0.0
 30
0.0
  9
$PUCSORGBOTTOM
 10
0.0
 20
0.0
 30
0.0
  9
$PUCSORGLEFT
 10
0.0
 20
0.0
 30
0.0
  9
$PUCSORGRIGHT
 10
0.0
 20
0.0
 30
0.0
  9
$PUCSORGFRONT
 10
0.0
 20
0.0
 30
0.0
  9
$PUCSORGBACK
 10
0.0
 20
0.0
 30
0.0
  9
$USERI1
 70
     0
  9
$USERI2
 70
     0
  9
$USERI3
 70
     0
  9
$USERI4
 70
     0
  9
$USERI5
 70
     0
  9
$USERR1
 40
0.0
  9
$USERR2
 40
0.0
  9
$USERR3
 40
0.0
  9
$USERR4
 40
0.0
  9
$USERR5
 40
0.0
  9
$WORLDVIEW
 70
     0
  9
$SHADEDGE
 70
     3
  9
$SHADEDIF
 70
    70
  9
$TILEMODE
 70
     1
  9
$MAXACTVP
 70
    16
  9
$PINSBASE
 10
0.0
 20
0.0
 30
0.0
  9
$PLIMCHECK
 70
     0
  9
$PEXTMIN
 10
1.000000000000000E+20
 20
1.000000000000000E+20
 30
1.000000000000000E+20
  9
$PEXTMAX
 10
-1.000000000000000E+20
 20
-1.000000000000000E+20
 30
-1.000000000000000E+20
  9
$PLIMMIN
 10
0.0
 20
0.0
  9
$PLIMMAX
 10
0.0
 20
0.0
  9
$UNITMODE
 70
     0
  9
$VISRETAIN
 70
     0
  9
$PLINEGEN
 70
     0
  9
$PSLTSCALE
 70
     0
  9
$TREEDEPTH
 70
  3020
  9
$CMLSTYLE
  2
STANDARD
  9
$CMLJUST
 70
     0
  9
$CMLSCALE
 40
1.0
  9
$PROXYGRAPHICS
 70
     1
  9
$MEASUREMENT
 70
     0
  9
$CELWEIGHT
370
    -1
  9
$ENDCAPS
280
     0
  9
$JOINSTYLE
280
     0
  9
$LWDISPLAY
290
     0
  9
$INSUNITS
 70
     0
  9
$HYPERLINKBASE
  1

  9
$STYLESHEET
  1
spax form.ctb
  9
$XEDIT
290
     1
  9
$CEPSNTYPE
380
     0
  9
$PSTYLEMODE
290
     1
  9
$FINGERPRINTGUID
  2
{BBAEEBA6-8B94-11D3-9160-00E0294F7E09}
  9
$VERSIONGUID
  2
{CD824FE5-F579-4672-B732-013D84DC4D6E}
  9
$EXTNAMES
290
     1
  9
$PSVPSCALE
 40
0.0
  9
$OLESTARTUP
290
     0
  0
ENDSEC
  0
SECTION
  2
CLASSES
  0
CLASS
  1
LWPOLYLINE
  2
AcDbPolyline
  3
ObjectDBX Classes
 90
        0
280
     0
281
     1
  0
CLASS
  1
ACDBDICTIONARYWDFLT
  2
AcDbDictionaryWithDefault
  3
ObjectDBX Classes
 90
        0
280
     0
281
     0
  0
CLASS
  1
ACDBPLACEHOLDER
  2
AcDbPlaceHolder
  3
ObjectDBX Classes
 90
        0
280
     0
281
     0
  0
CLASS
  1
LAYOUT
  2
AcDbLayout
  3
ObjectDBX Classes
 90
        0
280
     0
281
     0
  0
CLASS
  1
DICTIONARYVAR
  2
AcDbDictionaryVar
  3
ObjectDBX Classes
 90
        0
280
     0
281
     0
  0
CLASS
  1
MATERIAL
  2
AcDbMaterial
  3
ObjectDBX Classes
 90
     1153
280
     0
281
     0
  0
CLASS
  1
VISUALSTYLE
  2
AcDbVisualStyle
  3
ObjectDBX Classes
 90
     4095
280
     0
281
     0
  0
CLASS
  1
TABLESTYLE
  2
AcDbTableStyle
  3
ObjectDBX Classes
 90
     4095
280
     0
281
     0
  0
CLASS
  1
SCALE
  2
AcDbScale
  3
ObjectDBX Classes
 90
     1153
280
     0
281
     0
  0
CLASS
  1
MLEADERSTYLE
  2
AcDbMLeaderStyle
  3
ACDB_MLEADERSTYLE_CLASS
 90
     4095
280
     0
281
     0
  0
CLASS
  1
CELLSTYLEMAP
  2
AcDbCellStyleMap
  3
ObjectDBX Classes
 90
     1152
280
     0
281
     0
  0
CLASS
  1
SORTENTSTABLE
  2
AcDbSortentsTable
  3
ObjectDBX Classes
 90
        0
280
     0
281
     0
  0
CLASS
  1
MULTILEADER
  2
AcDbMLeader
  3
ACDB_MLEADER_CLASS
 90
     1025
280
     0
281
     1
  0
CLASS
  1
DIMASSOC
  2
AcDbDimAssoc
  3
"AcDbDimAssoc|Product Desc:     AcDim ARX App For Dimension|Company:          Autodesk, Inc.|WEB Address:      www.autodesk.com"
 90
        0
280
     0
281
     0
  0
CLASS
  1
RASTERVARIABLES
  2
AcDbRasterVariables
  3
ISM
 90
        0
280
     0
281
     0
  0
CLASS
  1
SUN
  2
AcDbSun
  3
SCENEOE
 90
     1153
280
     0
281
     0
  0
ENDSEC
  0
SECTION
  2
TABLES
  0
TABLE
  2
VPORT
  5
8
330
0
100
AcDbSymbolTable
 70
     1
  0
VPORT
  5
128F44
330
8
100
AcDbSymbolTableRecord
100
AcDbViewportTableRecord
  2
*Active
 70
     0
 10
0.0
 20
0.0
 11
1.0
 21
1.0
 12
8801.044044492122
 22
-3279.456490478017
 13
0.0
 23
0.0
 14
1.0
 24
1.0
 15
20.0
 25
20.0
 16
0.0
 26
0.0
 36
1.0
 17
0.0
 27
0.0
 37
0.0
 40
85.37777464435027
 41
1.731829573934837
 42
50.0
 43
0.0
 44
0.0
 50
0.0
 51
0.0
 71
    16
 72
   100
 73
     1
 74
     0
 75
     0
 76
     0
 77
     0
 78
     0
281
     0
 65
     1
110
0.0
120
0.0
130
0.0
111
1.0
121
0.0
131
0.0
112
0.0
122
1.0
132
0.0
 79
     0
146
0.0
  0
ENDTAB
  0
TABLE
  2
LTYPE
  5
5
330
0
100
AcDbSymbolTable
 70
     3
  0
LTYPE
  5
12
330
5
100
AcDbSymbolTableRecord
100
AcDbLinetypeTableRecord
  2
BYBLOCK
 70
     0
  3

 72
    65
 73
     0
 40
0.0
  0
LTYPE
  5
13
330
5
100
AcDbSymbolTableRecord
100
AcDbLinetypeTableRecord
  2
BYLAYER
 70
     0
  3

 72
    65
 73
     0
 40
0.0
  0
LTYPE
  5
14
330
5
100
AcDbSymbolTableRecord
100
AcDbLinetypeTableRecord
  2
CONTINUOUS
 70
     0
  3
Solid line
 72
    65
 73
     0
 40
0.0
  0
LTYPE
  5
27
330
5
100
AcDbSymbolTableRecord
100
AcDbLinetypeTableRecord
  2
HIDDEN
 70
     0
  3
_ _ _ _ _ _ _ _ _ _ _ _ _ _ _ _ _ _ _ _ _ _ _
 72
    65
 73
     2
 40
0.375
 49
0.25
 74
     0
 49
-0.125
 74
     0
  0
LTYPE
  5
514
330
5
100
AcDbSymbolTableRecord
100
AcDbLinetypeTableRecord
  2
CENTER
 70
     0
  3
Center ____ _ ____ _ ____ _ ____ _ ____ _ ____
 72
    65
 73
     4
 40
2.0
 49
1.25
 74
     0
 49
-0.25
 74
     0
 49
0.25
 74
     0
 49
-0.25
 74
     0
  0
ENDTAB
  0
TABLE
  2
LAYER
  5
2
102
{ACAD_XDICTIONARY
360
8BF
102
}
330
0
100
AcDbSymbolTable
 70
    13
  0
LAYER
  5
F
102
{ACAD_XDICTIONARY
360
A60
102
}
330
2
100
AcDbSymbolTableRecord
100
AcDbLayerTableRecord
  2
0
 70
     0
 62
     7
  6
CONTINUOUS
370
    -3
390
616
  0
LAYER
  5
34
102
{ACAD_XDICTIONARY
360
A66
102
}
330
2
100
AcDbSymbolTableRecord
100
AcDbLayerTableRecord
  2
寸法線
 70
     0
 62
     7
  6
CONTINUOUS
370
    -3
390
616
  0
LAYER
  5
2F4
102
{ACAD_XDICTIONARY
360
A6E
102
}
330
2
100
AcDbSymbolTableRecord
100
AcDbLayerTableRecord
  2
文字
 70
     0
 62
     7
  6
CONTINUOUS
370
    -3
390
616
  0
LAYER
  5
305
102
{ACAD_XDICTIONARY
360
A72
102
}
330
2
100
AcDbSymbolTableRecord
100
AcDbLayerTableRecord
  2
姿図
 70
     0
 62
     8
  6
CONTINUOUS
370
    -3
390
616
  0
ENDTAB
  0
TABLE
  2
STYLE
  5
3
330
0
100
AcDbSymbolTable
 70
     1
  0
STYLE
  5
10
330
3
100
AcDbSymbolTableRecord
100
AcDbTextStyleTableRecord
  2
STANDARD
 70
     0
 40
0.0
 41
1.0
 50
0.0
 71
     0
 42
53.44730959687513
  3
MONOTXT
  4
BIGFONT
  0
ENDTAB
  0
TABLE
  2
VIEW
  5
6
330
0
100
AcDbSymbolTable
 70
     0
  0
ENDTAB
  0
TABLE
  2
UCS
  5
7
330
0
100
AcDbSymbolTable
 70
     0
  0
ENDTAB
  0
TABLE
  2
APPID
  5
9
330
0
100
AcDbSymbolTable
 70
    15
  0
APPID
  5
11
330
9
100
AcDbSymbolTableRecord
100
AcDbRegAppTableRecord
  2
ACAD
 70
     0
  0
APPID
  5
8BB
330
9
100
AcDbSymbolTableRecord
100
AcDbRegAppTableRecord
  2
ACAD_PSEXT
 70
     0
  0
APPID
  5
A5A
330
9
100
AcDbSymbolTableRecord
100
AcDbRegAppTableRecord
  2
ACAD_MLEADERVER
 70
     0
  0
APPID
  5
A5E
330
9
100
AcDbSymbolTableRecord
100
AcDbRegAppTableRecord
  2
ACAD_DSTYLE_DIMJAG
 70
     0
  0
APPID
  5
A5F
330
9
100
AcDbSymbolTableRecord
100
AcDbRegAppTableRecord
  2
ACAD_DSTYLE_DIMTALN
 70
     0
  0
APPID
  5
12C0
330
9
100
AcDbSymbolTableRecord
100
AcDbRegAppTableRecord
  2
ACAD_EXEMPT_FROM_CAD_STANDARDS
 70
     0
  0
APPID
  5
1C50
330
9
100
AcDbSymbolTableRecord
100
AcDbRegAppTableRecord
  2
AcAecLayerStandard
 70
     0
  0
APPID
  5
5088
330
9
100
AcDbSymbolTableRecord
100
AcDbRegAppTableRecord
  2
ACAD_DSTYLE_DIMRADIAL_EXTENSION
 70
     0
  0
APPID
  5
14AF3
330
9
100
AcDbSymbolTableRecord
100
AcDbRegAppTableRecord
  2
WACOM_STRING
 70
     0
  0
APPID
  5
14AF4
330
9
100
AcDbSymbolTableRecord
100
AcDbRegAppTableRecord
  2
WACOM_DRSYM_ARROW
 70
     0
  0
APPID
  5
1E1A8
330
9
100
AcDbSymbolTableRecord
100
AcDbRegAppTableRecord
  2
GENIUS_GENODEF_13
 70
     0
  0
APPID
  5
1E1A9
330
9
100
AcDbSymbolTableRecord
100
AcDbRegAppTableRecord
  2
GENIUS_GENREC_14
 70
     0
  0
APPID
  5
1E1AA
330
9
100
AcDbSymbolTableRecord
100
AcDbRegAppTableRecord
  2
GENIUS_GENOBJ-N-REC_13
 70
     0
  0
APPID
  5
27C72
330
9
100
AcDbSymbolTableRecord
100
AcDbRegAppTableRecord
  2
ASK_MEN_XD
 70
     0
  0
APPID
  5
29316
330
9
100
AcDbSymbolTableRecord
100
AcDbRegAppTableRecord
  2
ACAD_DSTYLE_DIMBREAK
 70
     0
  0
ENDTAB
  0
TABLE
  2
DIMSTYLE
  5
A
330
0
100
AcDbSymbolTable
 70
     2
100
AcDbDimStyleTable
  0
DIMSTYLE
105
1CC
330
A
100
AcDbSymbolTableRecord
100
AcDbDimStyleTableRecord
  2
STANDARD
 70
     0
 41
2.5
 42
1.5
 44
1.0
 73
     0
 74
     0
 77
     3
 78
     8
 79
     2
140
2.500000000000003
141
0.0
147
1.0
171
     0
172
     1
173
     1
176
     8
177
     8
271
     2
178
   256
179
     2
271
     2
272
     2
274
     0
289
     1
340
10
341
608
343
608
344
608
1001
ACAD_DSTYLE_DIMJAG
1070
   388
1040
1.5
1001
ACAD_DSTYLE_DIMTALN
1070
   392
1070
     0
  0
ENDTAB
  0
TABLE
  2
BLOCK_RECORD
  5
1
330
0
100
AcDbSymbolTable
 70
    52
  0
BLOCK_RECORD
  5
18
102
{ACAD_XDICTIONARY
360
143F
102
}
330
1
100
AcDbSymbolTableRecord
100
AcDbBlockTableRecord
  2
*MODEL_SPACE
340
619
  0
BLOCK_RECORD
  5
15
330
1
100
AcDbSymbolTableRecord
100
AcDbBlockTableRecord
  2
*PAPER_SPACE
340
61A
  0
BLOCK_RECORD
  5
608
330
1
100
AcDbSymbolTableRecord
100
AcDbBlockTableRecord
  2
_OPEN
340
0
102
{BLKREFS
331
FA242
331
FA243
331
FA25D
331
FA25E
331
FA266
331
FA267
331
FA26F
331
FA270
331
FA278
331
FA279
331
FA281
331
FA282
331
FA32A
331
FA32B
331
FA36C
331
FA36D
331
FA6CA
331
FA6CB
331
FEA5E
331
FEA5F
331
1270C0
331
1270C1
331
1270C9
331
1270CA
331
1270D2
331
1270D3
331
1270DB
331
1270DC
331
1270E4
331
1270E5
331
1270ED
331
1270EE
331
1270F6
331
1270F7
331
1270FF
331
127100
331
127108
331
127109
331
127113
331
127114
331
127FA7
331
127FA8
331
127FB0
331
127FB1
331
127FB9
331
127FBA
331
127FC2
331
127FC3
331
127FCB
331
127FCC
331
127FD4
331
127FD5
331
127FDD
331
127FDE
331
127FE6
331
127FE7
331
127FF1
331
127FF2
331
127FFA
331
127FFB
331
128E7C
331
128E7D
331
128E85
331
128E86
331
128E8E
331
128E8F
331
128E97
331
128E98
331
128EA0
331
128EA1
331
128EA9
331
128EAA
331
128EB2
331
128EB3
331
128EBB
331
128EBC
331
128EC6
331
128EC7
331
128ECF
331
128ED0
331
129DC1
331
129DC2
331
129DCA
331
129DCB
331
129DD3
331
129DD4
331
129DDC
331
129DDD
331
129DE5
331
129DE6
331
129DF0
331
129DF1
331
129DF9
331
129DFA
331
129E02
331
129E03
331
129E0B
331
129E0C
331
129E14
331
129E15
102
}
  0
BLOCK_RECORD
  5
89D
330
1
100
AcDbSymbolTableRecord
100
AcDbBlockTableRecord
  2
SUN
340
0
  0
ENDTAB
  0
ENDSEC
  0
SECTION
  2
BLOCKS
  0
BLOCK
  5
39
330
18
100
AcDbEntity
  8
0
100
AcDbBlockBegin
  2
*MODEL_SPACE
 70
     0
 10
0.0
 20
0.0
 30
0.0
  3
*MODEL_SPACE
  1
*MODEL_SPACE
  0
ENDBLK
  5
3A
330
18
100
AcDbEntity
  8
0
100
AcDbBlockEnd
  0
BLOCK
  5
37
330
15
100
AcDbEntity
 67
     1
  8
0
100
AcDbBlockBegin
  2
*PAPER_SPACE
 70
     0
 10
0.0
 20
0.0
 30
0.0
  3
*PAPER_SPACE
  1
*PAPER_SPACE
  0
ENDBLK
  5
38
330
15
100
AcDbEntity
 67
     1
  8
0
100
AcDbBlockEnd
  0
BLOCK
  5
609
330
608
100
AcDbEntity
  8
0
100
AcDbBlockBegin
  2
_OPEN
 70
     0
 10
0.0
 20
0.0
 30
0.0
  3
_OPEN
  1
_OPEN
  0
LINE
  5
60A
330
608
100
AcDbEntity
  8
0
  6
ByBlock
 62
     0
100
AcDbLine
 10
-1.0
 20
0.1666666666666667
 30
0.0
 11
0.0
 21
0.0
 31
0.0
  0
LINE
  5
60B
330
608
100
AcDbEntity
  8
0
  6
ByBlock
 62
     0
100
AcDbLine
 10
0.0
 20
0.0
 30
0.0
 11
-1.0
 21
-0.1666666666666667
 31
0.0
  0
LINE
  5
60C
330
608
100
AcDbEntity
  8
0
  6
ByBlock
 62
     0
100
AcDbLine
 10
0.0
 20
0.0
 30
0.0
 11
-1.0
 21
0.0
 31
0.0
  0
ENDBLK
  5
60D
330
608
100
AcDbEntity
  8
0
100
AcDbBlockEnd
  0
BLOCK
  5
89E
330
89D
100
AcDbEntity
  8
0
100
AcDbBlockBegin
  2
SUN
 70
     0
 10
0.0
 20
0.0
 30
0.0
  3
SUN
  1
SUN
  0
LINE
  5
89F
330
89D
100
AcDbEntity
  8
0
100
AcDbLine
 10
-0.0000000000000568
 20
0.0
 30
0.0
 11
-1.500000000000057
 21
0.0
 31
0.0
  0
LINE
  5
8A0
330
89D
100
AcDbEntity
  8
0
100
AcDbLine
 10
-0.0000000000000568
 20
0.0000000000000284
 30
0.0
 11
-1.500000000000057
 21
0.401923788646684
 31
0.0
  0
LINE
  5
8A1
330
89D
100
AcDbEntity
  8
0
100
AcDbLine
 10
-0.0000000000000568
 20
0.0000000000000284
 30
0.0
 11
-1.500000000000057
 21
-0.4019237886466556
 31
0.0
  0
ENDBLK
  5
8A2
330
89D
100
AcDbEntity
  8
0
100
AcDbBlockEnd
  0
ENDSEC
  0
SECTION
  2
ENTITIES
  0
MTEXT
  5
D0CC6
330
18
100
AcDbEntity
  8
寸法線
100
AcDbMText
 10
2610.774875364868
 20
-2740.315466585338
 30
0.0
 40
2.500000000000003
 41
0.0
 71
     9
 72
     1
  1
\A1;
 73
     1
 44
1.0
  0
MTEXT
  5
F6D77
330
18
100
AcDbEntity
  8
文字
100
AcDbMText
 10
5821.057140836062
 20
-2842.341718131323
 30
0.0
 40
2.5
 41
64.39156592258223
 71
     1
 72
     5
  1
   
 73
     1
 44
1.0
  0
MTEXT
  5
F6D78
330
18
100
AcDbEntity
  8
寸法線
100
AcDbMText
 10
6222.662262480188
 20
-2968.738290481128
 30
0.0
 40
3.000000000000001
 41
0.0
 71
     7
 72
     1
  1
\A1;
 73
     1
 44
1.0
  0
TEXT
  5
128F88
330
18
100
AcDbEntity
  8
文字
100
AcDbText
 10
8765.51253016864
 20
-3321.308340793875
 30
0.0
 40
6.5
  1
SX-535CBP
100
AcDbText
  0
LINE
  5
129C6F
330
18
100
AcDbEntity
  8
姿図
100
AcDbLine
 10
8792.937056816336
 20
-3257.297987787441
 30
0.0000000000000015
 11
8791.872797649808
 21
-3255.216585094567
 31
0.0000000000000015
  0
LINE
  5
129C70
330
18
100
AcDbEntity
  8
姿図
100
AcDbLine
 10
8799.92914764571
 20
-3257.817922734422
 30
0.0000000000000015
 11
8801.333063897286
 21
-3257.817922734422
 31
0.0000000000000015
  0
LINE
  5
129C71
330
18
100
AcDbEntity
  8
姿図
100
AcDbLine
 10
8801.333063897286
 20
-3257.817922734422
 30
0.0000000000000015
 11
8801.096377093063
 21
-3257.297987787441
 31
0.0000000000000015
  0
LINE
  5
129C72
330
18
100
AcDbEntity
  8
姿図
100
AcDbLine
 10
8801.096377093063
 20
-3257.297987787441
 30
0.0000000000000015
 11
8792.937056816336
 21
-3257.297987787441
 31
0.0000000000000015
  0
LINE
  5
129C73
330
18
100
AcDbEntity
  8
姿図
100
AcDbLine
 10
8792.937056816336
 20
-3257.297987787441
 30
0.0000000000000015
 11
8793.480826734236
 21
-3257.817922734422
 31
0.0000000000000015
  0
LINE
  5
129C74
330
18
100
AcDbEntity
  8
姿図
100
AcDbLine
 10
8793.480826734236
 20
-3257.817922734422
 30
0.0000000000000015
 11
8794.405893335492
 21
-3257.817922734422
 31
0.0000000000000015
  0
SPLINE
  5
129C75
330
18
100
AcDbEntity
  8
姿図
100
AcDbSpline
210
0.0
220
0.0
230
1.0
 70
    24
 71
     3
 72
     8
 73
     4
 74
     0
 42
0.000000001
 43
0.0000000001
 40
0.0
 40
0.0
 40
0.0
 40
0.0
 40
1.0
 40
1.0
 40
1.0
 40
1.0
 10
8794.426489358644
 20
-3258.715672175506
 30
0.0000000000000015
 10
8794.426489358644
 20
-3258.715672175506
 30
0.0000000000000015
 10
8794.40318467856
 20
-3257.699856483136
 30
0.0000000000000015
 10
8794.40318467856
 20
-3257.699856483136
 30
0.0000000000000015
  0
SPLINE
  5
129C76
330
18
100
AcDbEntity
  8
姿図
100
AcDbSpline
210
0.0
220
0.0
230
1.0
 70
     8
 71
     3
 72
    11
 73
     7
 74
     0
 42
0.000000001
 43
0.0000000001
 40
1.0
 40
1.0
 40
1.0
 40
1.0
 40
2.0
 40
2.0
 40
2.0
 40
3.0
 40
3.0
 40
3.0
 40
3.0
 10
8794.40318467856
 20
-3257.699856483136
 30
0.0000000000000015
 10
8794.40318467856
 20
-3257.699856483136
 30
0.0000000000000015
 10
8794.474580284439
 20
-3257.297987787441
 30
0.0000000000000015
 10
8796.770604391102
 20
-3257.297987787441
 30
0.0000000000000015
 10
8799.79889824231
 20
-3257.297987787441
 30
0.0000000000000015
 10
8799.915272481794
 20
-3257.65655111597
 30
0.0000000000000015
 10
8799.915272481794
 20
-3257.65655111597
 30
0.0000000000000015
  0
SPLINE
  5
129C77
330
18
100
AcDbEntity
  8
姿図
100
AcDbSpline
210
0.0
220
0.0
230
1.0
 70
    24
 71
     3
 72
     8
 73
     4
 74
     0
 42
0.000000001
 43
0.0000000001
 40
3.0
 40
3.0
 40
3.0
 40
3.0
 40
4.0
 40
4.0
 40
4.0
 40
4.0
 10
8799.915272481794
 20
-3257.65655111597
 30
0.0000000000000015
 10
8799.915272481794
 20
-3257.65655111597
 30
0.0000000000000015
 10
8799.966788047084
 20
-3258.255689994365
 30
0.0000000000000015
 10
8799.966788047084
 20
-3258.255689994365
 30
0.0000000000000015
  0
LINE
  5
129C78
330
18
100
AcDbEntity
  8
姿図
100
AcDbLine
 10
8794.14321720507
 20
-3259.142703676092
 30
0.0000000000000015
 11
8794.190332845255
 21
-3260.939749622909
 31
0.0000000000000015
  0
LINE
  5
129C79
330
18
100
AcDbEntity
  8
姿図
100
AcDbLine
 10
8798.163567066966
 20
-3258.36224695397
 30
0.0000000000000015
 11
8798.2112370088
 21
-3260.466930316112
 31
0.0000000000000015
  0
SPLINE
  5
129C7A
330
18
100
AcDbEntity
  8
姿図
100
AcDbSpline
210
0.0
220
0.0
230
1.0
 70
    24
 71
     3
 72
     8
 73
     4
 74
     0
 42
0.000000001
 43
0.0000000001
 40
0.0
 40
0.0
 40
0.0
 40
0.0
 40
1.0
 40
1.0
 40
1.0
 40
1.0
 10
8788.84575634334
 20
-3277.187439565257
 30
0.0000000000000015
 10
8788.84575634334
 20
-3277.187439565257
 30
0.0000000000000015
 10
8792.132765123299
 20
-3259.68647359399
 30
0.0000000000000015
 10
8792.132765123299
 20
-3259.68647359399
 30
0.0000000000000015
  0
SPLINE
  5
129C7B
330
18
100
AcDbEntity
  8
姿図
100
AcDbSpline
210
0.0
220
0.0
230
1.0
 70
     8
 71
     3
 72
    11
 73
     7
 74
     0
 42
0.000000001
 43
0.0000000001
 40
1.0
 40
1.0
 40
1.0
 40
1.0
 40
2.0
 40
2.0
 40
2.0
 40
3.0
 40
3.0
 40
3.0
 40
3.0
 10
8792.132765123299
 20
-3259.68647359399
 30
0.0000000000000015
 10
8792.132765123299
 20
-3259.68647359399
 30
0.0000000000000015
 10
8792.29850131642
 20
-3259.261324229028
 30
0.0000000000000015
 10
8793.00800742744
 20
-3259.213654287194
 30
0.0000000000000015
 10
8793.717513538459
 20
-3259.165984345359
 30
0.0000000000000015
 10
8794.14321720507
 20
-3259.142703676092
 30
0.0000000000000015
 10
8794.14321720507
 20
-3259.142703676092
 30
0.0000000000000015
  0
SPLINE
  5
129C7C
330
18
100
AcDbEntity
  8
姿図
100
AcDbSpline
210
0.0
220
0.0
230
1.0
 70
     8
 71
     3
 72
     8
 73
     4
 74
     0
 42
0.000000001
 43
0.0000000001
 40
3.0
 40
3.0
 40
3.0
 40
3.0
 40
4.0
 40
4.0
 40
4.0
 40
4.0
 10
8794.14321720507
 20
-3259.142703676092
 30
0.0000000000000015
 10
8794.14321720507
 20
-3259.142703676092
 30
0.0000000000000015
 10
8794.827225440225
 20
-3257.254197957152
 30
0.0000000000000015
 10
8798.2112370088
 20
-3258.385527623238
 30
0.0000000000000015
  0
SPLINE
  5
129C7D
330
18
100
AcDbEntity
  8
姿図
100
AcDbSpline
210
0.0
220
0.0
230
1.0
 70
    24
 71
     3
 72
     8
 73
     4
 74
     0
 42
0.000000001
 43
0.0000000001
 40
4.0
 40
4.0
 40
4.0
 40
4.0
 40
5.0
 40
5.0
 40
5.0
 40
5.0
 10
8798.2112370088
 20
-3258.385527623238
 30
0.0000000000000015
 10
8798.2112370088
 20
-3258.385527623238
 30
0.0000000000000015
 10
8801.404014508387
 20
-3258.149395120664
 30
0.0000000000000015
 10
8801.404014508387
 20
-3258.149395120664
 30
0.0000000000000015
  0
SPLINE
  5
129C7E
330
18
100
AcDbEntity
  8
姿図
100
AcDbSpline
210
0.0
220
0.0
230
1.0
 70
     8
 71
     3
 72
     8
 73
     4
 74
     0
 42
0.000000001
 43
0.0000000001
 40
5.0
 40
5.0
 40
5.0
 40
5.0
 40
6.0
 40
6.0
 40
6.0
 40
6.0
 10
8801.404014508387
 20
-3258.149395120664
 30
0.0000000000000015
 10
8801.404014508387
 20
-3258.149395120664
 30
0.0000000000000015
 10
8802.514835013453
 20
-3257.912708316441
 30
0.0000000000000015
 10
8802.70440617749
 20
-3259.402671149582
 30
0.0000000000000015
  0
SPLINE
  5
129C7F
330
18
100
AcDbEntity
  8
姿図
100
AcDbSpline
210
0.0
220
0.0
230
1.0
 70
    24
 71
     3
 72
     8
 73
     4
 74
     0
 42
0.000000001
 43
0.0000000001
 40
6.0
 40
6.0
 40
6.0
 40
6.0
 40
7.0
 40
7.0
 40
7.0
 40
7.0
 10
8802.70440617749
 20
-3259.402671149582
 30
0.0000000000000015
 10
8802.70440617749
 20
-3259.402671149582
 30
0.0000000000000015
 10
8805.282463148078
 20
-3282.320272837165
 30
0.0000000000000015
 10
8805.282463148078
 20
-3282.320272837165
 30
0.0000000000000015
  0
SPLINE
  5
129C80
330
18
100
AcDbEntity
  8
姿図
100
AcDbSpline
210
0.0
220
0.0
230
1.0
 70
     8
 71
     3
 72
     8
 73
     4
 74
     0
 42
0.000000001
 43
0.0000000001
 40
7.0
 40
7.0
 40
7.0
 40
7.0
 40
8.0
 40
8.0
 40
8.0
 40
8.0
 10
8805.282463148078
 20
-3282.320272837165
 30
0.0000000000000015
 10
8805.282463148078
 20
-3282.320272837165
 30
0.0000000000000015
 10
8805.495314981385
 20
-3282.533124670471
 30
0.0000000000000015
 10
8805.637216203586
 20
-3282.604075281573
 30
0.0000000000000015
  0
SPLINE
  5
129C81
330
18
100
AcDbEntity
  8
姿図
100
AcDbSpline
210
0.0
220
0.0
230
1.0
 70
    24
 71
     3
 72
     8
 73
     4
 74
     0
 42
0.000000001
 43
0.0000000001
 40
0.0
 40
0.0
 40
0.0
 40
0.0
 40
1.0
 40
1.0
 40
1.0
 40
1.0
 10
8791.0452252875
 20
-3276.832686509747
 30
0.0000000000000015
 10
8791.0452252875
 20
-3276.832686509747
 30
0.0000000000000015
 10
8794.269769337843
 20
-3261.423597120335
 30
0.0000000000000015
 10
8794.269769337843
 20
-3261.423597120335
 30
0.0000000000000015
  0
SPLINE
  5
129C82
330
18
100
AcDbEntity
  8
姿図
100
AcDbSpline
210
0.0
220
0.0
230
1.0
 70
    24
 71
     3
 72
     8
 73
     4
 74
     0
 42
0.000000001
 43
0.0000000001
 40
1.0
 40
1.0
 40
1.0
 40
1.0
 40
2.0
 40
2.0
 40
2.0
 40
2.0
 10
8794.269769337843
 20
-3261.423597120335
 30
0.0000000000000015
 10
8794.269769337843
 20
-3261.423597120335
 30
0.0000000000000015
 10
8794.800820651722
 20
-3261.386839410581
 30
0.0000000000000015
 10
8794.800820651722
 20
-3261.386839410581
 30
0.0000000000000015
  0
SPLINE
  5
129C83
330
18
100
AcDbEntity
  8
姿図
100
AcDbSpline
210
0.0
220
0.0
230
1.0
 70
     8
 71
     3
 72
     8
 73
     4
 74
     0
 42
0.000000001
 43
0.0000000001
 40
2.0
 40
2.0
 40
2.0
 40
2.0
 40
3.0
 40
3.0
 40
3.0
 40
3.0
 10
8794.800820651722
 20
-3261.386839410581
 30
0.0000000000000015
 10
8794.800820651722
 20
-3261.386839410581
 30
0.0000000000000015
 10
8797.802365725878
 20
-3261.93658257236
 30
0.0000000000000015
 10
8798.347687269723
 20
-3261.165652188944
 30
0.0000000000000015
  0
SPLINE
  5
129C84
330
18
100
AcDbEntity
  8
姿図
100
AcDbSpline
210
0.0
220
0.0
230
1.0
 70
    24
 71
     3
 72
     8
 73
     4
 74
     0
 42
0.000000001
 43
0.0000000001
 40
3.0
 40
3.0
 40
3.0
 40
3.0
 40
4.0
 40
4.0
 40
4.0
 40
4.0
 10
8798.347687269723
 20
-3261.165652188944
 30
0.0000000000000015
 10
8798.347687269723
 20
-3261.165652188944
 30
0.0000000000000015
 10
8800.180302103807
 20
-3261.029838164129
 30
0.0000000000000015
 10
8800.180302103807
 20
-3261.029838164129
 30
0.0000000000000015
  0
SPLINE
  5
129C85
330
18
100
AcDbEntity
  8
姿図
100
AcDbSpline
210
0.0
220
0.0
230
1.0
 70
     8
 71
     3
 72
     8
 73
     4
 74
     0
 42
0.000000001
 43
0.0000000001
 40
0.0
 40
0.0
 40
0.0
 40
0.0
 40
1.0
 40
1.0
 40
1.0
 40
1.0
 10
8803.461582230344
 20
-3282.958828337082
 30
0.0000000000000015
 10
8803.461582230344
 20
-3282.958828337082
 30
0.0000000000000015
 10
8803.768665344018
 20
-3282.91004979195
 30
0.0000000000000015
 10
8803.626764121815
 20
-3281.870179897987
 30
0.0000000000000015
  0
SPLINE
  5
129C86
330
18
100
AcDbEntity
  8
姿図
100
AcDbSpline
210
0.0
220
0.0
230
1.0
 70
    24
 71
     3
 72
     8
 73
     4
 74
     0
 42
0.000000001
 43
0.0000000001
 40
1.0
 40
1.0
 40
1.0
 40
1.0
 40
2.0
 40
2.0
 40
2.0
 40
2.0
 10
8803.626764121815
 20
-3281.870179897987
 30
0.0000000000000015
 10
8803.626764121815
 20
-3281.870179897987
 30
0.0000000000000015
 10
8800.05595289745
 20
-3260.277913453723
 30
0.0000000000000015
 10
8800.05595289745
 20
-3260.277913453723
 30
0.0000000000000015
  0
SPLINE
  5
129C87
330
18
100
AcDbEntity
  8
姿図
100
AcDbSpline
210
0.0
220
0.0
230
1.0
 70
    24
 71
     3
 72
     8
 73
     4
 74
     0
 42
0.000000001
 43
0.0000000001
 40
2.0
 40
2.0
 40
2.0
 40
2.0
 40
3.0
 40
3.0
 40
3.0
 40
3.0
 10
8800.05595289745
 20
-3260.277913453723
 30
0.0000000000000015
 10
8800.05595289745
 20
-3260.277913453723
 30
0.0000000000000015
 10
8798.163567066966
 20
-3260.466930316112
 30
0.0000000000000015
 10
8798.163567066966
 20
-3260.466930316112
 30
0.0000000000000015
  0
SPLINE
  5
129C88
330
18
100
AcDbEntity
  8
姿図
100
AcDbSpline
210
0.0
220
0.0
230
1.0
 70
     8
 71
     3
 72
     8
 73
     4
 74
     0
 42
0.000000001
 43
0.0000000001
 40
3.0
 40
3.0
 40
3.0
 40
3.0
 40
4.0
 40
4.0
 40
4.0
 40
4.0
 10
8798.163567066966
 20
-3260.466930316112
 30
0.0000000000000015
 10
8798.163567066966
 20
-3260.466930316112
 30
0.0000000000000015
 10
8795.166458049556
 20
-3259.605545553202
 30
0.0000000000000015
 10
8794.49797026058
 20
-3260.6559471785
 30
0.0000000000000015
  0
SPLINE
  5
129C89
330
18
100
AcDbEntity
  8
姿図
100
AcDbSpline
210
0.0
220
0.0
230
1.0
 70
    24
 71
     3
 72
     8
 73
     4
 74
     0
 42
0.000000001
 43
0.0000000001
 40
4.0
 40
4.0
 40
4.0
 40
4.0
 40
5.0
 40
5.0
 40
5.0
 40
5.0
 10
8794.49797026058
 20
-3260.6559471785
 30
0.0000000000000015
 10
8794.332234067459
 20
-3260.916468953641
 30
0.0000000000000015
 10
8794.332234067459
 20
-3260.916468953641
 30
0.0000000000000015
 10
8794.332234067459
 20
-3260.916468953641
 30
0.0000000000000015
  0
SPLINE
  5
129C8A
330
18
100
AcDbEntity
  8
姿図
100
AcDbSpline
210
0.0
220
0.0
230
1.0
 70
    24
 71
     3
 72
     8
 73
     4
 74
     0
 42
0.000000001
 43
0.0000000001
 40
5.0
 40
5.0
 40
5.0
 40
5.0
 40
6.0
 40
6.0
 40
6.0
 40
6.0
 10
8794.332234067459
 20
-3260.916468953641
 30
0.0000000000000015
 10
8794.332234067459
 20
-3260.916468953641
 30
0.0000000000000015
 10
8792.677089342846
 20
-3261.058370175844
 30
0.0000000000000015
 10
8792.677089342846
 20
-3261.058370175844
 30
0.0000000000000015
  0
SPLINE
  5
129C8B
330
18
100
AcDbEntity
  8
姿図
100
AcDbSpline
210
0.0
220
0.0
230
1.0
 70
    24
 71
     3
 72
     8
 73
     4
 74
     0
 42
0.000000001
 43
0.0000000001
 40
6.0
 40
6.0
 40
6.0
 40
6.0
 40
7.0
 40
7.0
 40
7.0
 40
7.0
 10
8792.677089342846
 20
-3261.058370175844
 30
0.0000000000000015
 10
8792.677089342846
 20
-3261.058370175844
 30
0.0000000000000015
 10
8789.531427483442
 20
-3276.997868401219
 30
0.0000000000000015
 10
8789.531427483442
 20
-3276.997868401219
 30
0.0000000000000015
  0
ELLIPSE
  5
129C8C
330
18
100
AcDbEntity
  8
姿図
100
AcDbEllipse
 10
8805.196823543272
 20
-3284.40777284818
 30
0.0000000000000015
 11
0.3467156815959057
 21
-1.242744297582767
 31
0.0
210
0.0
220
0.0
230
1.0
 40
0.6435311717170279
 41
0.1727975711782461
 42
3.069675997577924
  0
ELLIPSE
  5
129C8D
330
18
100
AcDbEntity
  8
姿図
100
AcDbEllipse
 10
8805.577074474646
 20
-3284.268643134223
 30
0.0000000000000015
 11
0.3661162393190978
 21
-1.314249210333961
 31
0.0
210
0.0
220
0.0
230
1.0
 40
0.6435771184023124
 41
0.0
 42
6.283185307179586
  0
LINE
  5
129C8E
330
18
100
AcDbEntity
  8
姿図
100
AcDbLine
 10
8805.385574099442
 20
-3286.412037726814
 30
0.0000000000000015
 11
8806.16850616707
 21
-3285.986886365134
 31
0.0000000000000015
  0
LINE
  5
129C8F
330
18
100
AcDbEntity
  8
姿図
100
AcDbLine
 10
8804.096257618716
 20
-3282.616269917856
 30
0.0000000000000015
 11
8805.09344628569
 21
-3282.462174059369
 31
0.0000000000000015
  0
ELLIPSE
  5
129C90
330
18
100
AcDbEntity
  8
姿図
100
AcDbEllipse
 10
8805.449862246147
 20
-3284.290260898542
 30
0.0000000000000015
 11
0.4994257859598902
 21
-1.795937343518361
 31
0.0
210
0.0
220
0.0
230
1.0
 40
0.6439476357599927
 41
0.0
 42
6.283185307179586
  0
ELLIPSE
  5
129C91
330
18
100
AcDbEntity
  8
姿図
100
AcDbEllipse
 10
8804.632544464352
 20
-3284.552999880279
 30
0.0000000000000015
 11
0.5385040522308912
 21
-1.937838565722283
 31
0.0
210
0.0
220
0.0
230
1.0
 40
0.8372735138002815
 41
2.937168574284825
 42
6.528588851372925
  0
SPLINE
  5
129C92
330
18
100
AcDbEntity
  8
姿図
100
AcDbSpline
210
0.0
220
0.0
230
1.0
 70
     8
 71
     3
 72
     8
 73
     4
 74
     0
 42
0.000000001
 43
0.0000000001
 40
0.0
 40
0.0
 40
0.0
 40
0.0
 40
1.0
 40
1.0
 40
1.0
 40
1.0
 10
8802.553262914973
 20
-3290.523819011493
 30
0.0000000000000015
 10
8802.941092981713
 20
-3289.95854956361
 30
0.0000000000000015
 10
8805.859668087405
 20
-3286.154593035402
 30
0.0000000000000015
 10
8805.859668087405
 20
-3286.154593035402
 30
0.0000000000000015
  0
LINE
  5
129C93
330
18
100
AcDbEntity
  8
姿図
100
AcDbLine
 10
8800.81680289827
 20
-3283.790581405111
 30
0.0000000000000015
 11
8803.484862899611
 21
-3282.769257173044
 31
0.0000000000000015
  0
LINE
  5
129C94
330
18
100
AcDbEntity
  8
姿図
100
AcDbLine
 10
8800.7243634247
 20
-3284.492891439029
 30
0.0000000000000033
 11
8803.461582230344
 21
-3282.958828337082
 31
0.0000000000000015
  0
SPLINE
  5
129C95
330
18
100
AcDbEntity
  8
姿図
100
AcDbSpline
210
0.0
220
0.0
230
1.0
 70
    24
 71
     3
 72
     8
 73
     4
 74
     0
 42
0.000000001
 43
0.0000000001
 40
0.0
 40
0.0
 40
0.0
 40
0.0
 40
1.0
 40
1.0
 40
1.0
 40
1.0
 10
8807.236312111094
 20
-3280.779272586612
 30
0.0000000000000015
 10
8807.236312111094
 20
-3280.779272586612
 30
0.0000000000000015
 10
8808.522356287851
 20
-3279.45785912052
 30
0.0000000000000015
 10
8808.522356287851
 20
-3279.45785912052
 30
0.0000000000000015
  0
SPLINE
  5
129C96
330
18
100
AcDbEntity
  8
姿図
100
AcDbSpline
210
0.0
220
0.0
230
1.0
 70
     8
 71
     3
 72
     8
 73
     4
 74
     0
 42
0.000000001
 43
0.0000000001
 40
1.0
 40
1.0
 40
1.0
 40
1.0
 40
2.0
 40
2.0
 40
2.0
 40
2.0
 10
8808.522356287851
 20
-3279.45785912052
 30
0.0000000000000015
 10
8808.522356287851
 20
-3279.45785912052
 30
0.0000000000000015
 10
8808.571134832984
 20
-3279.36362784015
 30
0.0000000000000015
 10
8808.546745560418
 20
-3279.292677229048
 30
0.0000000000000015
  0
SPLINE
  5
129C97
330
18
100
AcDbEntity
  8
姿図
100
AcDbSpline
210
0.0
220
0.0
230
1.0
 70
    24
 71
     3
 72
     8
 73
     4
 74
     0
 42
0.000000001
 43
0.0000000001
 40
1.493921098087365
 40
1.493921098087365
 40
1.493921098087365
 40
1.493921098087365
 40
1.793215549939622
 40
1.793215549939622
 40
1.793215549939622
 40
1.793215549939622
 10
8799.62157723439
 20
-3274.29757572567
 30
0.0000000000000015
 10
8800.541602291325
 20
-3273.611019571222
 30
0.0000000000000015
 10
8801.468323844781
 20
-3272.919466247548
 30
0.0000000000000015
 10
8802.072040201125
 20
-3272.468951148132
 30
0.0000000000000015
  0
SPLINE
  5
129C98
330
18
100
AcDbEntity
  8
姿図
100
AcDbSpline
210
0.0
220
0.0
230
1.0
 70
     8
 71
     3
 72
     8
 73
     4
 74
     0
 42
0.000000001
 43
0.0000000001
 40
0.0
 40
0.0
 40
0.0
 40
0.0
 40
1.0
 40
1.0
 40
1.0
 40
1.0
 10
8810.55664334054
 20
-3282.036470392757
 30
0.0000000000000015
 10
8810.55664334054
 20
-3282.036470392757
 30
0.0000000000000015
 10
8810.768386570548
 20
-3282.320272837165
 30
0.0000000000000015
 10
8810.65087462091
 20
-3282.462174059369
 30
0.0000000000000015
  0
SPLINE
  5
129C99
330
18
100
AcDbEntity
  8
姿図
100
AcDbSpline
210
0.0
220
0.0
230
1.0
 70
    24
 71
     3
 72
     8
 73
     4
 74
     0
 42
0.000000001
 43
0.0000000001
 40
1.0
 40
1.0
 40
1.0
 40
1.0
 40
1.888883729132651
 40
1.888883729132651
 40
1.888883729132651
 40
1.888883729132651
 10
8810.65087462091
 20
-3282.462174059369
 30
0.0000000000000015
 10
8810.65087462091
 20
-3282.462174059369
 30
0.0000000000000015
 10
8806.54016656783
 20
-3285.731995743185
 30
0.0000000000000015
 10
8805.626633468864
 20
-3286.458656526999
 30
0.0000000000000015
  0
SPLINE
  5
129C9A
330
18
100
AcDbEntity
  8
姿図
100
AcDbSpline
210
0.0
220
0.0
230
1.0
 70
     8
 71
     3
 72
    11
 73
     7
 74
     0
 42
0.000000001
 43
0.0000000001
 40
0.0
 40
0.0
 40
0.0
 40
0.0
 40
1.0
 40
1.0
 40
1.0
 40
1.814174646936442
 40
1.814174646936442
 40
1.814174646936442
 40
1.814174646936442
 10
8811.242868782292
 20
-3280.759359392921
 30
0.0000000000000015
 10
8811.242868782292
 20
-3280.759359392921
 30
0.0000000000000015
 10
8811.479001284866
 20
-3280.925649887692
 30
0.0000000000000015
 10
8811.124248229355
 20
-3281.232733001368
 30
0.0000000000000015
 10
8810.835417285636
 20
-3281.482752287025
 30
0.0000000000000015
 10
8807.818743895044
 20
-3283.912399993324
 30
0.0000000000000015
 10
8806.707568738455
 20
-3284.806746847596
 30
0.0000000000000015
  0
SPLINE
  5
129C9B
330
18
100
AcDbEntity
  8
姿図
100
AcDbSpline
210
0.0
220
0.0
230
1.0
 70
    24
 71
     3
 72
     8
 73
     4
 74
     0
 42
0.000000001
 43
0.0000000001
 40
0.0
 40
0.0
 40
0.0
 40
0.0
 40
1.0
 40
1.0
 40
1.0
 40
1.0
 10
8810.320510837966
 20
-3280.168473834838
 30
0.0000000000000015
 10
8810.320510837966
 20
-3280.168473834838
 30
0.0000000000000015
 10
8811.384770004495
 20
-3280.830310004024
 30
0.0000000000000015
 10
8811.384770004495
 20
-3280.830310004024
 30
0.0000000000000015
  0
SPLINE
  5
129C9C
330
18
100
AcDbEntity
  8
姿図
100
AcDbSpline
210
0.0
220
0.0
230
1.0
 70
     8
 71
     3
 72
     8
 73
     4
 74
     0
 42
0.000000001
 43
0.0000000001
 40
1.0
 40
1.0
 40
1.0
 40
1.0
 40
2.0
 40
2.0
 40
2.0
 40
2.0
 10
8811.384770004495
 20
-3280.830310004024
 30
0.0000000000000015
 10
8811.384770004495
 20
-3280.830310004024
 30
0.0000000000000015
 10
8811.644183176339
 20
-3281.019881168062
 30
0.0000000000000015
 10
8811.43133134303
 20
-3281.232733001368
 30
0.0000000000000015
  0
SPLINE
  5
129C9D
330
18
100
AcDbEntity
  8
姿図
100
AcDbSpline
210
0.0
220
0.0
230
1.0
 70
    24
 71
     3
 72
     8
 73
     4
 74
     0
 42
0.000000001
 43
0.0000000001
 40
2.0
 40
2.0
 40
2.0
 40
2.0
 40
2.760018265937639
 40
2.760018265937639
 40
2.760018265937639
 40
2.760018265937639
 10
8811.43133134303
 20
-3281.232733001368
 30
0.0000000000000015
 10
8811.43133134303
 20
-3281.232733001368
 30
0.0000000000000015
 10
8808.166455653209
 20
-3284.046475039435
 30
0.0000000000000015
 10
8806.599434594124
 20
-3285.396968426434
 30
0.0000000000000015
  0
SPLINE
  5
129C9E
330
18
100
AcDbEntity
  8
姿図
100
AcDbSpline
210
0.0
220
0.0
230
1.0
 70
     8
 71
     3
 72
    11
 73
     7
 74
     0
 42
0.000000001
 43
0.0000000001
 40
0.0
 40
0.0
 40
0.0
 40
0.0
 40
1.0
 40
1.0
 40
1.0
 40
1.887883960454416
 40
1.887883960454416
 40
1.887883960454416
 40
1.887883960454416
 10
8811.337100062661
 20
-3278.891362835003
 30
0.0000000000000015
 10
8811.337100062661
 20
-3278.891362835003
 30
0.0000000000000015
 10
8811.644183176339
 20
-3278.866973562436
 30
0.0000000000000015
 10
8811.00562767642
 20
-3279.340347170882
 30
0.0000000000000015
 10
8810.438664490184
 20
-3279.760648005124
 30
0.0000000000000015
 10
8806.963619280976
 20
-3282.492557239292
 30
0.0000000000000015
 10
8806.191529399615
 20
-3283.099855742614
 30
0.0000000000000015
  0
SPLINE
  5
129C9F
330
18
100
AcDbEntity
  8
姿図
100
AcDbSpline
210
0.0
220
0.0
230
1.0
 70
     8
 71
     3
 72
    11
 73
     7
 74
     0
 42
0.000000001
 43
0.0000000001
 40
0.0
 40
0.0
 40
0.0
 40
0.0
 40
1.0
 40
1.0
 40
1.0
 40
1.675127286579802
 40
1.675127286579802
 40
1.675127286579802
 40
1.675127286579802
 10
8810.508973398704
 20
-3276.951307062684
 30
0.0000000000000015
 10
8810.508973398704
 20
-3276.951307062684
 30
0.0000000000000015
 10
8810.864835057515
 20
-3276.97569633525
 30
0.0000000000000015
 10
8810.604313282374
 20
-3277.211828837824
 30
0.0000000000000015
 10
8810.428427923229
 20
-3277.371248333559
 30
0.0000000000000015
 10
8807.245262143415
 20
-3279.913147403093
 30
0.0000000000000015
 10
8805.195578076913
 20
-3281.547909201968
 30
0.0000000000000015
  0
SPLINE
  5
129CA0
330
18
100
AcDbEntity
  8
姿図
100
AcDbSpline
210
0.0
220
0.0
230
1.0
 70
    24
 71
     3
 72
     8
 73
     4
 74
     0
 42
0.000000001
 43
0.0000000001
 40
0.0
 40
0.0
 40
0.0
 40
0.0
 40
1.0
 40
1.0
 40
1.0
 40
1.0
 10
8809.515664843279
 20
-3278.465659168392
 30
0.0000000000000015
 10
8809.515664843279
 20
-3278.465659168392
 30
0.0000000000000015
 10
8811.337100062661
 20
-3278.891362835003
 30
0.0000000000000015
 10
8811.337100062661
 20
-3278.891362835003
 30
0.0000000000000015
  0
SPLINE
  5
129CA1
330
18
100
AcDbEntity
  8
姿図
100
AcDbSpline
210
0.0
220
0.0
230
1.0
 70
     8
 71
     3
 72
    11
 73
     7
 74
     0
 42
0.000000001
 43
0.0000000001
 40
1.0
 40
1.0
 40
1.0
 40
1.0
 40
2.0
 40
2.0
 40
2.0
 40
2.903771721635469
 40
2.903771721635469
 40
2.903771721635469
 40
2.903771721635469
 10
8811.337100062661
 20
-3278.891362835003
 30
0.0000000000000015
 10
8811.337100062661
 20
-3278.891362835003
 30
0.0000000000000015
 10
8811.78608439854
 20
-3278.984485512074
 30
0.0000000000000015
 10
8811.479001284866
 20
-3279.221726617946
 30
0.0000000000000015
 10
8811.201468250534
 20
-3279.436138420643
 30
0.0000000000000015
 10
8807.128033690646
 20
-3282.711176930491
 30
0.0000000000000015
 10
8806.346644424215
 20
-3283.339494137354
 30
0.0000000000000015
  0
SPLINE
  5
129CA2
330
18
100
AcDbEntity
  8
姿図
100
AcDbSpline
210
0.0
220
0.0
230
1.0
 70
    24
 71
     3
 72
     8
 73
     4
 74
     0
 42
0.000000001
 43
0.0000000001
 40
0.0
 40
0.0
 40
0.0
 40
0.0
 40
1.0
 40
1.0
 40
1.0
 40
1.0
 10
8806.535739176996
 20
-3278.962313446105
 30
0.0000000000000015
 10
8806.535739176996
 20
-3278.962313446105
 30
0.0000000000000015
 10
8808.050091282705
 20
-3277.543301224066
 30
0.0000000000000015
 10
8808.050091282705
 20
-3277.543301224066
 30
0.0000000000000015
  0
SPLINE
  5
129CA3
330
18
100
AcDbEntity
  8
姿図
100
AcDbSpline
210
0.0
220
0.0
230
1.0
 70
     8
 71
     3
 72
     8
 73
     4
 74
     0
 42
0.000000001
 43
0.0000000001
 40
1.0
 40
1.0
 40
1.0
 40
1.0
 40
1.201957035102942
 40
1.201957035102942
 40
1.201957035102942
 40
1.201957035102942
 10
8808.050091282705
 20
-3277.543301224066
 30
0.0000000000000015
 10
8807.9878497973
 20
-3277.304410343039
 30
0.0000000000000015
 10
8807.8938213176
 20
-3277.099295969465
 30
0.0000000000000015
 10
8807.78338367916
 20
-3276.924058854067
 30
0.0000000000000015
  0
SPLINE
  5
129CA4
330
18
100
AcDbEntity
  8
姿図
100
AcDbSpline
210
0.0
220
0.0
230
1.0
 70
     8
 71
     3
 72
     8
 73
     4
 74
     0
 42
0.000000001
 43
0.0000000001
 40
1.371408514633379
 40
1.371408514633379
 40
1.371408514633379
 40
1.371408514633379
 40
2.0
 40
2.0
 40
2.0
 40
2.0
 10
8807.479823886391
 20
-3276.543759773407
 30
0.0000000000000015
 10
8807.08407636047
 20
-3276.145841050286
 30
0.0000000000000015
 10
8806.654359729933
 20
-3276.00566844909
 30
0.0000000000000015
 10
8806.654359729933
 20
-3276.00566844909
 30
0.0000000000000015
  0
SPLINE
  5
129CA5
330
18
100
AcDbEntity
  8
姿図
100
AcDbSpline
210
0.0
220
0.0
230
1.0
 70
    24
 71
     3
 72
     8
 73
     4
 74
     0
 42
0.000000001
 43
0.0000000001
 40
2.0
 40
2.0
 40
2.0
 40
2.0
 40
3.0
 40
3.0
 40
3.0
 40
3.0
 10
8806.654359729933
 20
-3276.00566844909
 30
0.0000000000000015
 10
8806.654359729933
 20
-3276.00566844909
 30
0.0000000000000015
 10
8805.140561925875
 20
-3277.164158895989
 30
0.0000000000000015
 10
8805.140561925875
 20
-3277.164158895989
 30
0.0000000000000015
  0
SPLINE
  5
129CA6
330
18
100
AcDbEntity
  8
姿図
100
AcDbSpline
210
0.0
220
0.0
230
1.0
 70
    24
 71
     3
 72
     8
 73
     4
 74
     0
 42
0.000000001
 43
0.0000000001
 40
0.1253663450285614
 40
0.1253663450285614
 40
0.1253663450285614
 40
0.1253663450285614
 40
1.0
 40
1.0
 40
1.0
 40
1.0
 10
8807.93959928242
 20
-3277.220834664512
 30
0.0000000000000015
 10
8808.50223763848
 20
-3277.157468742325
 30
0.0000000000000015
 10
8810.74621450458
 20
-3276.904745724148
 30
0.0000000000000015
 10
8810.74621450458
 20
-3276.904745724148
 30
0.0000000000000015
  0
SPLINE
  5
129CA7
330
18
100
AcDbEntity
  8
姿図
100
AcDbSpline
210
0.0
220
0.0
230
1.0
 70
     8
 71
     3
 72
    11
 73
     7
 74
     0
 42
0.000000001
 43
0.0000000001
 40
1.0
 40
1.0
 40
1.0
 40
1.0
 40
2.0
 40
2.0
 40
2.0
 40
2.79498799956431
 40
2.79498799956431
 40
2.79498799956431
 40
2.79498799956431
 10
8810.74621450458
 20
-3276.904745724148
 30
0.0000000000000015
 10
8810.74621450458
 20
-3276.904745724148
 30
0.0000000000000015
 10
8811.43243994633
 20
-3276.880356451582
 30
0.0000000000000015
 10
8810.888115726782
 20
-3277.353730060027
 30
0.0000000000000015
 10
8810.455384504368
 20
-3277.730056398053
 30
0.0000000000000015
 10
8806.749595550908
 20
-3280.781440943752
 30
0.0000000000000015
 10
8805.248320796622
 20
-3282.016764877374
 30
0.0000000000000015
  0
SPLINE
  5
129CA8
330
18
100
AcDbEntity
  8
姿図
100
AcDbSpline
210
0.0
220
0.0
230
1.0
 70
    24
 71
     3
 72
     8
 73
     4
 74
     0
 42
0.000000001
 43
0.0000000001
 40
1.434336468963312
 40
1.434336468963312
 40
1.434336468963312
 40
1.434336468963312
 40
2.0
 40
2.0
 40
2.0
 40
2.0
 10
8805.736220815239
 20
-3277.85470588541
 30
0.0000000000000015
 10
8807.537456256765
 20
-3276.500428276051
 30
0.0000000000000015
 10
8809.611004726947
 20
-3274.941409282561
 30
0.0000000000000015
 10
8809.611004726947
 20
-3274.941409282561
 30
0.0000000000000015
  0
SPLINE
  5
129CA9
330
18
100
AcDbEntity
  8
姿図
100
AcDbSpline
210
0.0
220
0.0
230
1.0
 70
     8
 71
     3
 72
     8
 73
     4
 74
     0
 42
0.000000001
 43
0.0000000001
 40
2.0
 40
2.0
 40
2.0
 40
2.0
 40
3.0
 40
3.0
 40
3.0
 40
3.0
 10
8809.611004726947
 20
-3274.941409282561
 30
0.0000000000000015
 10
8809.611004726947
 20
-3274.941409282561
 30
0.0000000000000015
 10
8809.894807171355
 20
-3274.884870514339
 30
0.0000000000000015
 10
8809.84713722952
 20
-3275.177541785135
 30
0.0000000000000015
  0
SPLINE
  5
129CAA
330
18
100
AcDbEntity
  8
姿図
100
AcDbSpline
210
0.0
220
0.0
230
1.0
 70
     8
 71
     3
 72
     8
 73
     4
 74
     0
 42
0.000000001
 43
0.0000000001
 40
3.0
 40
3.0
 40
3.0
 40
3.0
 40
3.381238534568473
 40
3.381238534568473
 40
3.381238534568473
 40
3.381238534568473
 10
8809.84713722952
 20
-3275.177541785135
 30
0.0000000000000015
 10
8809.838261741286
 20
-3275.231639999141
 30
0.0000000000000015
 10
8808.918371198844
 20
-3275.997277385304
 30
0.0000000000000015
 10
8807.78338367916
 20
-3276.924058854067
 30
0.0000000000000015
  0
SPLINE
  5
129CAB
330
18
100
AcDbEntity
  8
姿図
100
AcDbSpline
210
0.0
220
0.0
230
1.0
 70
    24
 71
     3
 72
     8
 73
     4
 74
     0
 42
0.000000001
 43
0.0000000001
 40
1.47114458461932
 40
1.47114458461932
 40
1.47114458461932
 40
1.47114458461932
 40
2.0
 40
2.0
 40
2.0
 40
2.0
 10
8804.563657469398
 20
-3275.930459724926
 30
0.0000000000000015
 10
8806.277667473305
 20
-3274.658939817485
 30
0.0000000000000015
 10
8808.09665262124
 20
-3273.309545227215
 30
0.0000000000000015
 10
8808.09665262124
 20
-3273.309545227215
 30
0.0000000000000015
  0
SPLINE
  5
129CAC
330
18
100
AcDbEntity
  8
姿図
100
AcDbSpline
210
0.0
220
0.0
230
1.0
 70
     8
 71
     3
 72
     8
 73
     4
 74
     0
 42
0.000000001
 43
0.0000000001
 40
2.0
 40
2.0
 40
2.0
 40
2.0
 40
3.0
 40
3.0
 40
3.0
 40
3.0
 10
8808.09665262124
 20
-3273.309545227215
 30
0.0000000000000015
 10
8808.09665262124
 20
-3273.309545227215
 30
0.0000000000000015
 10
8808.571134832984
 20
-3273.121082666476
 30
0.0000000000000015
 10
8808.546745560418
 20
-3273.475281420337
 30
0.0000000000000015
  0
SPLINE
  5
129CAD
330
18
100
AcDbEntity
  8
姿図
100
AcDbSpline
210
0.0
220
0.0
230
1.0
 70
    24
 71
     3
 72
     8
 73
     4
 74
     0
 42
0.000000001
 43
0.0000000001
 40
3.0
 40
3.0
 40
3.0
 40
3.0
 40
4.0
 40
4.0
 40
4.0
 40
4.0
 10
8808.546745560418
 20
-3273.475281420337
 30
0.0000000000000015
 10
8808.546745560418
 20
-3273.475281420337
 30
0.0000000000000015
 10
8806.961442843609
 20
-3276.124289002026
 30
0.0000000000000015
 10
8806.961442843609
 20
-3276.124289002026
 30
0.0000000000000015
  0
SPLINE
  5
129CAE
330
18
100
AcDbEntity
  8
姿図
100
AcDbSpline
210
0.0
220
0.0
230
1.0
 70
    24
 71
     3
 72
     8
 73
     4
 74
     0
 42
0.000000001
 43
0.0000000001
 40
1.351338064298595
 40
1.351338064298595
 40
1.351338064298595
 40
1.351338064298595
 40
1.428242292534494
 40
1.428242292534494
 40
1.428242292534494
 40
1.428242292534494
 10
8801.812210715823
 20
-3275.749277856331
 30
0.0000000000000015
 10
8802.041016921694
 20
-3275.58014079603
 30
0.0000000000000015
 10
8802.281301338018
 20
-3275.402518866336
 30
0.0000000000000015
 10
8802.527126177742
 20
-3275.220801370598
 30
0.0000000000000015
  0
SPLINE
  5
129CAF
330
18
100
AcDbEntity
  8
姿図
100
AcDbSpline
210
0.0
220
0.0
230
1.0
 70
    24
 71
     3
 72
     8
 73
     4
 74
     0
 42
0.000000001
 43
0.0000000001
 40
1.615278216396081
 40
1.615278216396081
 40
1.615278216396081
 40
1.615278216396081
 40
2.0
 40
2.0
 40
2.0
 40
2.0
 10
8804.333606350261
 20
-3273.88542349171
 30
0.0000000000000015
 10
8805.522489188059
 20
-3273.006583044781
 30
0.0000000000000015
 10
8806.488623536812
 20
-3272.292401700871
 30
0.0000000000000015
 10
8806.488623536812
 20
-3272.292401700871
 30
0.0000000000000015
  0
SPLINE
  5
129CB0
330
18
100
AcDbEntity
  8
姿図
100
AcDbSpline
210
0.0
220
0.0
230
1.0
 70
     8
 71
     3
 72
     8
 73
     4
 74
     0
 42
0.000000001
 43
0.0000000001
 40
2.0
 40
2.0
 40
2.0
 40
2.0
 40
3.0
 40
3.0
 40
3.0
 40
3.0
 10
8806.488623536812
 20
-3272.292401700871
 30
0.0000000000000015
 10
8806.488623536812
 20
-3272.292401700871
 30
0.0000000000000015
 10
8806.700921068468
 20
-3272.127219809399
 30
0.0000000000000015
 10
8806.677640399199
 20
-3272.812890949502
 30
0.0000000000000015
  0
SPLINE
  5
129CB1
330
18
100
AcDbEntity
  8
姿図
100
AcDbSpline
210
0.0
220
0.0
230
1.0
 70
    24
 71
     3
 72
     8
 73
     4
 74
     0
 42
0.000000001
 43
0.0000000001
 40
1.350370274518835
 40
1.350370274518835
 40
1.350370274518835
 40
1.350370274518835
 40
1.445359962748388
 40
1.445359962748388
 40
1.445359962748388
 40
1.445359962748388
 10
8801.566555563913
 20
-3275.597142751244
 30
0.0000000000000015
 10
8801.855978477028
 20
-3275.382382560642
 30
0.0000000000000015
 10
8802.163474550814
 20
-3275.154211560963
 30
0.0000000000000015
 10
8802.477570370535
 20
-3274.921143358502
 30
0.0000000000000015
  0
SPLINE
  5
129CB2
330
18
100
AcDbEntity
  8
姿図
100
AcDbSpline
210
0.0
220
0.0
230
1.0
 70
    24
 71
     3
 72
     8
 73
     4
 74
     0
 42
0.000000001
 43
0.0000000001
 40
1.629831745831646
 40
1.629831745831646
 40
1.629831745831646
 40
1.629831745831646
 40
2.0
 40
2.0
 40
2.0
 40
2.0
 10
8804.298148519989
 20
-3273.570221601227
 30
0.0000000000000015
 10
8805.453425697931
 20
-3272.712972448899
 30
0.0000000000000015
 10
8806.370557285525
 20
-3272.032434227381
 30
0.0000000000000015
 10
8806.370557285525
 20
-3272.032434227381
 30
0.0000000000000015
  0
SPLINE
  5
129CB3
330
18
100
AcDbEntity
  8
姿図
100
AcDbSpline
210
0.0
220
0.0
230
1.0
 70
     8
 71
     3
 72
    11
 73
     7
 74
     0
 42
0.000000001
 43
0.0000000001
 40
2.0
 40
2.0
 40
2.0
 40
2.0
 40
3.0
 40
3.0
 40
3.0
 40
4.0
 40
4.0
 40
4.0
 40
4.0
 10
8806.370557285525
 20
-3272.032434227381
 30
0.0000000000000015
 10
8806.370557285525
 20
-3272.032434227381
 30
0.0000000000000015
 10
8806.677640399199
 20
-3271.984764285546
 30
0.0000000000000015
 10
8806.677640399199
 20
-3272.292401700871
 30
0.0000000000000015
 10
8806.677640399199
 20
-3272.600039116196
 30
0.0000000000000015
 10
8806.654359729933
 20
-3274.302853782643
 30
0.0000000000000015
 10
8806.654359729933
 20
-3274.302853782643
 30
0.0000000000000015
  0
SPLINE
  5
129CB4
330
18
100
AcDbEntity
  8
姿図
100
AcDbSpline
210
0.0
220
0.0
230
1.0
 70
    24
 71
     3
 72
     8
 73
     4
 74
     0
 42
0.000000001
 43
0.0000000001
 40
1.393915750535534
 40
1.393915750535534
 40
1.393915750535534
 40
1.393915750535534
 40
1.573101002211188
 40
1.573101002211188
 40
1.573101002211188
 40
1.573101002211188
 10
8800.515339280118
 20
-3274.916276740309
 30
0.0000000000000015
 10
8801.077904257227
 20
-3274.497459398138
 30
0.0000000000000015
 10
8801.685260106211
 20
-3274.045296229837
 30
0.0000000000000015
 10
8802.261751263777
 20
-3273.616111150384
 30
0.0000000000000015
  0
SPLINE
  5
129CB5
330
18
100
AcDbEntity
  8
姿図
100
AcDbSpline
210
0.0
220
0.0
230
1.0
 70
    24
 71
     3
 72
     8
 73
     4
 74
     0
 42
0.000000001
 43
0.0000000001
 40
1.799348189808347
 40
1.799348189808347
 40
1.799348189808347
 40
1.799348189808347
 40
2.0
 40
2.0
 40
2.0
 40
2.0
 10
8804.145546361719
 20
-3272.213666831558
 30
0.0000000000000015
 10
8804.568756678485
 20
-3271.898595991279
 30
0.0000000000000015
 10
8804.8334788122
 20
-3271.701516142788
 30
0.0000000000000015
 10
8804.8334788122
 20
-3271.701516142788
 30
0.0000000000000015
  0
SPLINE
  5
129CB6
330
18
100
AcDbEntity
  8
姿図
100
AcDbSpline
210
0.0
220
0.0
230
1.0
 70
     8
 71
     3
 72
     8
 73
     4
 74
     0
 42
0.000000001
 43
0.0000000001
 40
2.0
 40
2.0
 40
2.0
 40
2.0
 40
3.0
 40
3.0
 40
3.0
 40
3.0
 10
8804.8334788122
 20
-3271.701516142788
 30
0.0000000000000015
 10
8804.8334788122
 20
-3271.701516142788
 30
0.0000000000000015
 10
8804.999215005319
 20
-3271.724796812056
 30
0.0000000000000015
 10
8804.975380034402
 20
-3272.079549867565
 30
0.0000000000000015
  0
SPLINE
  5
129CB7
330
18
100
AcDbEntity
  8
姿図
100
AcDbSpline
210
0.0
220
0.0
230
1.0
 70
    24
 71
     3
 72
     8
 73
     4
 74
     0
 42
0.000000001
 43
0.0000000001
 40
1.392044447518863
 40
1.392044447518863
 40
1.392044447518863
 40
1.392044447518863
 40
1.583667207078013
 40
1.583667207078013
 40
1.583667207078013
 40
1.583667207078013
 10
8800.34840485884
 20
-3274.803568874104
 30
0.0000000000000015
 10
8800.953262126957
 20
-3274.354204379332
 30
0.0000000000000015
 10
8801.610616800695
 20
-3273.865838170607
 30
0.0000000000000015
 10
8802.227285180803
 20
-3273.407698887712
 30
0.0000000000000015
  0
SPLINE
  5
129CB8
330
18
100
AcDbEntity
  8
姿図
100
AcDbSpline
210
0.0
220
0.0
230
1.0
 70
    24
 71
     3
 72
     8
 73
     4
 74
     0
 42
0.000000001
 43
0.0000000001
 40
1.815455566821609
 40
1.815455566821609
 40
1.815455566821609
 40
1.815455566821609
 40
2.0
 40
2.0
 40
2.0
 40
2.0
 10
8804.121554966954
 20
-3272.000395660517
 30
0.0000000000000015
 10
8804.48934578006
 20
-3271.727154118049
 30
0.0000000000000015
 10
8804.714858259262
 20
-3271.559614920584
 30
0.0000000000000015
 10
8804.714858259262
 20
-3271.559614920584
 30
0.0000000000000015
  0
SPLINE
  5
129CB9
330
18
100
AcDbEntity
  8
姿図
100
AcDbSpline
210
0.0
220
0.0
230
1.0
 70
     8
 71
     3
 72
     8
 73
     4
 74
     0
 42
0.000000001
 43
0.0000000001
 40
2.0
 40
2.0
 40
2.0
 40
2.0
 40
3.0
 40
3.0
 40
3.0
 40
3.0
 10
8804.714858259262
 20
-3271.559614920584
 30
0.0000000000000015
 10
8804.714858259262
 20
-3271.559614920584
 30
0.0000000000000015
 10
8804.952099365135
 20
-3271.464275036916
 30
0.0000000000000015
 10
8804.975380034402
 20
-3271.724796812056
 30
0.0000000000000015
  0
SPLINE
  5
129CBA
330
18
100
AcDbEntity
  8
姿図
100
AcDbSpline
210
0.0
220
0.0
230
1.0
 70
    24
 71
     3
 72
     8
 73
     4
 74
     0
 42
0.000000001
 43
0.0000000001
 40
3.0
 40
3.0
 40
3.0
 40
3.0
 40
4.0
 40
4.0
 40
4.0
 40
4.0
 10
8804.975380034402
 20
-3271.724796812056
 30
0.0000000000000015
 10
8804.975380034402
 20
-3271.724796812056
 30
0.0000000000000015
 10
8804.935871988808
 20
-3273.097012302625
 30
0.0000000000000015
 10
8804.935871988808
 20
-3273.097012302625
 30
0.0000000000000015
  0
SPLINE
  5
129CBB
330
18
100
AcDbEntity
  8
姿図
100
AcDbSpline
210
0.0
220
0.0
230
1.0
 70
    24
 71
     3
 72
     8
 73
     4
 74
     0
 42
0.000000001
 43
0.0000000001
 40
1.498570996403043
 40
1.498570996403043
 40
1.498570996403043
 40
1.498570996403043
 40
1.810497930033095
 40
1.810497930033095
 40
1.810497930033095
 40
1.810497930033095
 10
8799.51048994717
 20
-3274.218003471964
 30
0.0000000000000015
 10
8800.480632977538
 20
-3273.495107729677
 30
0.0000000000000015
 10
8801.452505766532
 20
-3272.77092306905
 30
0.0000000000000015
 10
8802.048531725251
 20
-3272.32679821904
 30
0.0000000000000015
  0
SPLINE
  5
129CBC
330
18
100
AcDbEntity
  8
姿図
100
AcDbSpline
210
0.0
220
0.0
230
1.0
 70
     8
 71
     3
 72
     8
 73
     4
 74
     0
 42
0.000000001
 43
0.0000000001
 40
0.3537168008125633
 40
0.3537168008125633
 40
0.3537168008125633
 40
0.3537168008125633
 40
1.0
 40
1.0
 40
1.0
 40
1.0
 10
8801.021611044702
 20
-3295.111183179773
 30
0.0000000000000015
 10
8800.188363147114
 20
-3295.907592373963
 30
0.0000000000000015
 10
8798.607776217905
 20
-3297.234559821809
 30
0.0000000000000015
 10
8796.17750425776
 20
-3298.472622895845
 30
0.0000000000000015
  0
SPLINE
  5
129CBD
330
18
100
AcDbEntity
  8
姿図
100
AcDbSpline
210
0.0
220
0.0
230
1.0
 70
     8
 71
     3
 72
     8
 73
     4
 74
     0
 42
0.000000001
 43
0.0000000001
 40
1.0
 40
1.0
 40
1.0
 40
1.000000000000004
 40
2.0
 40
2.0
 40
2.0
 40
2.0
 10
8787.672832598286
 20
-3277.81902499171
 30
0.0000000000000015
 10
8790.80133256184
 20
-3275.547815286823
 30
0.0000000000000015
 10
8796.165863923125
 20
-3277.558821670244
 30
0.0000000000000015
 10
8799.8031913454
 20
-3282.314729820672
 30
0.0000000000000015
  0
SPLINE
  5
129CBE
330
18
100
AcDbEntity
  8
姿図
100
AcDbSpline
210
0.0
220
0.0
230
1.0
 70
     8
 71
     3
 72
     8
 73
     4
 74
     0
 42
0.000000001
 43
0.0000000001
 40
2.0
 40
2.0
 40
2.0
 40
2.0
 40
2.101688335254661
 40
2.101688335254661
 40
2.101688335254661
 40
2.101688335254661
 10
8799.8031913454
 20
-3282.314729820672
 30
0.0000000000000015
 10
8800.173290579794
 20
-3282.798350203114
 30
0.0000000000000015
 10
8800.511297656809
 20
-3283.291817759404
 30
0.0000000000000015
 10
8800.81680289827
 20
-3283.790581405111
 30
0.0000000000000015
  0
SPLINE
  5
129CBF
330
18
100
AcDbEntity
  8
姿図
100
AcDbSpline
210
0.0
220
0.0
230
1.0
 70
     8
 71
     3
 72
     8
 73
     4
 74
     0
 42
0.000000001
 43
0.0000000001
 40
2.529370585629382
 40
2.529370585629382
 40
2.529370585629382
 40
2.529370585629382
 40
2.999999999999997
 40
3.0
 40
3.0
 40
3.0
 10
8802.916256754925
 20
-3290.026165723717
 30
0.0000000000000015
 10
8803.03133643656
 20
-3292.168116871545
 30
0.0000000000000015
 10
8802.413325581125
 20
-3294.01351215954
 30
0.0000000000000015
 10
8801.021611044584
 20
-3295.111183179886
 30
0.0000000000000015
  0
SPLINE
  5
129CC0
330
18
100
AcDbEntity
  8
姿図
100
AcDbSpline
210
0.0
220
0.0
230
1.0
 70
     8
 71
     3
 72
     8
 73
     4
 74
     0
 42
0.000000001
 43
0.0000000001
 40
0.0
 40
0.0
 40
0.0
 40
0.0
 40
1.0
 40
1.0
 40
1.0
 40
1.0
 10
8783.432460463611
 20
-3281.321913196429
 30
0.0000000000000015
 10
8786.258830546365
 20
-3279.504852052074
 30
0.0000000000000015
 10
8791.53134783388
 20
-3281.134067307804
 30
0.0000000000000015
 10
8795.10714777309
 20
-3285.809047417444
 30
0.0000000000000015
  0
SPLINE
  5
129CC1
330
18
100
AcDbEntity
  8
姿図
100
AcDbSpline
210
0.0
220
0.0
230
1.0
 70
     8
 71
     3
 72
     8
 73
     4
 74
     0
 42
0.000000001
 43
0.0000000001
 40
1.0
 40
1.0
 40
1.0
 40
1.0
 40
2.0
 40
2.0
 40
2.0
 40
2.0
 10
8795.10714777309
 20
-3285.809047417444
 30
0.0000000000000015
 10
8798.683502013946
 20
-3290.485136130383
 30
0.0000000000000015
 10
8799.210642882368
 20
-3296.091343010736
 30
0.0000000000000015
 10
8796.282267269466
 20
-3298.330721673641
 30
0.0000000000000015
  0
SPLINE
  5
129CC2
330
18
100
AcDbEntity
  8
姿図
100
AcDbSpline
210
0.0
220
0.0
230
1.0
 70
    24
 71
     3
 72
     8
 73
     4
 74
     0
 42
0.000000001
 43
0.0000000001
 40
2.0
 40
2.0
 40
2.0
 40
2.0
 40
3.0
 40
3.0
 40
3.0
 40
3.0
 10
8796.282267269466
 20
-3298.330721673641
 30
0.0000000000000015
 10
8796.269518331534
 20
-3298.340699103328
 30
0.0000000000000015
 10
8796.2567693936
 20
-3298.350676533014
 30
0.0000000000000015
 10
8796.244020455668
 20
-3298.3606539627
 30
0.0000000000000015
  0
ELLIPSE
  5
129CC3
330
18
100
AcDbEntity
  8
姿図
100
AcDbEllipse
 10
8802.615690605653
 20
-3279.52803868424
 30
0.0000000000000015
 11
4.056139701300308
 21
-4.231712484806653
 31
0.0
210
0.0
220
0.0
230
1.0
 40
0.5896757540129041
 41
2.589251650966877
 42
2.665542556623123
  0
ELLIPSE
  5
129CC4
330
18
100
AcDbEntity
  8
姿図
100
AcDbEllipse
 10
8802.615690605653
 20
-3279.52803868424
 30
0.0000000000000015
 11
4.056139701300308
 21
-4.231712484806653
 31
0.0
210
0.0
220
0.0
230
1.0
 40
0.5896757540129041
 41
6.96598111917236
 42
7.147828363455014
  0
ELLIPSE
  5
129CC5
330
18
100
AcDbEntity
  8
姿図
100
AcDbEllipse
 10
8802.615690605653
 20
-3279.52803868424
 30
0.0000000000000015
 11
4.056139701300308
 21
-4.231712484806653
 31
0.0
210
0.0
220
0.0
230
1.0
 40
0.5896757540129041
 41
7.339249712863026
 42
7.522358245514032
  0
ELLIPSE
  5
129CC6
330
18
100
AcDbEntity
  8
姿図
100
AcDbEllipse
 10
8802.615690605653
 20
-3279.52803868424
 30
0.0000000000000015
 11
4.056139701300308
 21
-4.231712484806653
 31
0.0
210
0.0
220
0.0
230
1.0
 40
0.5896757540129041
 41
7.690618598159064
 42
7.896541804765815
  0
ELLIPSE
  5
129CC7
330
18
100
AcDbEntity
  8
姿図
100
AcDbEllipse
 10
8802.615690605653
 20
-3279.52803868424
 30
0.0000000000000015
 11
4.056139701300308
 21
-4.231712484806653
 31
0.0
210
0.0
220
0.0
230
1.0
 40
0.5896757540129041
 41
8.489247713282603
 42
8.60769396429671
  0
ARC
  5
129CC8
330
18
100
AcDbEntity
  8
姿図
100
AcDbCircle
 10
8801.770691074094
 20
-3274.565767179316
 30
0.0000000000000015
 40
0.340991697398475
100
AcDbArc
 50
158.3286271790615
 51
250.9430020259657
  0
ARC
  5
129CC9
330
18
100
AcDbEntity
  8
姿図
100
AcDbCircle
 10
8805.227231325262
 20
-3276.672737620919
 30
0.0000000000000015
 40
0.4077723833697776
100
AcDbArc
 50
160.4247343164951
 51
224.4606610653996
  0
ARC
  5
129CCA
330
18
100
AcDbEntity
  8
姿図
100
AcDbCircle
 10
8807.32253940715
 20
-3279.218140218859
 30
0.0000000000000015
 40
0.6215671434247647
100
AcDbArc
 50
210.0537915452813
 51
255.6920591719458
  0
ARC
  5
129CCB
330
18
100
AcDbEntity
  8
姿図
100
AcDbCircle
 10
8807.677186597411
 20
-3281.155800329453
 30
0.0000000000000015
 40
0.370270215395196
100
AcDbArc
 50
203.2404029724888
 51
273.6673327535127
  0
SPLINE
  5
129CCC
330
18
100
AcDbEntity
  8
姿図
100
AcDbSpline
210
0.0
220
0.0
230
1.0
 70
     8
 71
     3
 72
     8
 73
     4
 74
     0
 42
0.000000001
 43
0.0000000001
 40
0.0
 40
0.0
 40
0.0
 40
0.0
 40
0.5686588660320964
 40
0.5686588660320964
 40
0.5686588660320964
 40
0.5686588660320964
 10
8791.63993717723
 20
-3300.194444279423
 30
0.0000000000000015
 10
8793.688765565175
 20
-3299.73772088439
 30
0.0000000000000015
 10
8794.843497430447
 20
-3299.266381626612
 30
0.0000000000000015
 10
8796.221952046182
 20
-3298.411340185753
 30
0.0000000000000015
  0
SPLINE
  5
129CCD
330
18
100
AcDbEntity
  8
姿図
100
AcDbSpline
210
0.0
220
0.0
230
1.0
 70
     8
 71
     3
 72
     8
 73
     4
 74
     0
 42
0.000000001
 43
0.0000000001
 40
0.0345848742755237
 40
0.0345848742755237
 40
0.0345848742755237
 40
0.0345848742755237
 40
1.0
 40
1.0
 40
1.0
 40
1.0
 10
8789.059947189395
 20
-3298.92311399795
 30
0.0000000000000015
 10
8787.385450477575
 20
-3298.768936552141
 30
0.0000000000000015
 10
8785.162493597225
 20
-3297.16702421977
 30
0.0000000000000015
 10
8783.431365770692
 20
-3294.693124384665
 30
0.0000000000000015
  0
SPLINE
  5
129CCE
330
18
100
AcDbEntity
  8
姿図
100
AcDbSpline
210
0.0
220
0.0
230
1.0
 70
     8
 71
     3
 72
     8
 73
     4
 74
     0
 42
0.000000001
 43
0.0000000001
 40
1.0
 40
1.0
 40
1.0
 40
1.0
 40
1.97362383066519
 40
1.97362383066519
 40
1.97362383066519
 40
1.97362383066519
 10
8783.431365770692
 20
-3294.693124384665
 30
0.0000000000000015
 10
8781.483903086575
 20
-3291.909994304399
 30
0.0000000000000015
 10
8780.786882285398
 20
-3288.920341184272
 30
0.0000000000000015
 10
8781.60205821656
 20
-3287.39777406883
 30
0.0000000000000015
  0
SPLINE
  5
129CCF
330
18
100
AcDbEntity
  8
姿図
100
AcDbSpline
210
0.0
220
0.0
230
1.0
 70
     8
 71
     3
 72
     8
 73
     4
 74
     0
 42
0.000000001
 43
0.0000000001
 40
0.0486180101854806
 40
0.0486180101854806
 40
0.0486180101854806
 40
0.0486180101854806
 40
1.0
 40
1.0
 40
1.0
 40
1.0
 10
8788.94341313513
 20
-3299.109696297006
 30
0.0000000000000015
 10
8787.248148481423
 20
-3299.082857664963
 30
0.0000000000000015
 10
8784.90475305009
 20
-3297.449847174991
 30
0.0000000000000015
 10
8783.09769337253
 20
-3294.867844501566
 30
0.0000000000000015
  0
SPLINE
  5
129CD0
330
18
100
AcDbEntity
  8
姿図
100
AcDbSpline
210
0.0
220
0.0
230
1.0
 70
     8
 71
     3
 72
     8
 73
     4
 74
     0
 42
0.000000001
 43
0.0000000001
 40
1.0
 40
1.0
 40
1.0
 40
1.0
 40
1.97067420936857
 40
1.97067420936857
 40
1.97067420936857
 40
1.97067420936857
 10
8783.09769337253
 20
-3294.867844501566
 30
0.0000000000000015
 10
8781.054211626346
 20
-3291.947518409206
 30
0.0000000000000015
 10
8780.387339258732
 20
-3288.799274947337
 30
0.0000000000000015
 10
8781.40048456042
 20
-3287.357549712605
 30
0.0000000000000015
  0
SPLINE
  5
129CD1
330
18
100
AcDbEntity
  8
姿図
100
AcDbSpline
210
0.0
220
0.0
230
1.0
 70
     8
 71
     3
 72
     8
 73
     4
 74
     0
 42
0.000000001
 43
0.0000000001
 40
0.0353979527042438
 40
0.0353979527042438
 40
0.0353979527042438
 40
0.0353979527042438
 40
1.0
 40
1.0
 40
1.0
 40
1.0
 10
8789.213847763936
 20
-3298.465441591999
 30
0.0000000000000015
 10
8787.514476919225
 20
-3298.409880312327
 30
0.0000000000000015
 10
8785.204215239253
 20
-3296.671447013952
 30
0.0000000000000015
 10
8783.483659145259
 20
-3293.982562033189
 30
0.0000000000000015
  0
SPLINE
  5
129CD2
330
18
100
AcDbEntity
  8
姿図
100
AcDbSpline
210
0.0
220
0.0
230
1.0
 70
     8
 71
     3
 72
     8
 73
     4
 74
     0
 42
0.000000001
 43
0.0000000001
 40
1.0
 40
1.0
 40
1.0
 40
1.0
 40
1.963858018535161
 40
1.963858018535161
 40
1.963858018535161
 40
1.963858018535161
 10
8783.483659145259
 20
-3293.982562033189
 30
0.0000000000000015
 10
8781.93653993227
 20
-3291.564520013523
 30
0.0000000000000015
 10
8781.287911096006
 20
-3289.035500462679
 30
0.0000000000000015
 10
8781.654398609779
 20
-3287.412315055274
 30
0.0000000000000015
  0
SPLINE
  5
129CD3
330
18
100
AcDbEntity
  8
姿図
100
AcDbSpline
210
0.0
220
0.0
230
1.0
 70
     8
 71
     3
 72
     8
 73
     4
 74
     0
 42
0.000000001
 43
0.0000000001
 40
0.0533072557788984
 40
0.0533072557788984
 40
0.0533072557788984
 40
0.0533072557788984
 40
1.0
 40
1.0
 40
1.0
 40
1.0
 10
8788.875093745395
 20
-3299.201175004313
 30
0.0000000000000015
 10
8787.165994084617
 20
-3299.346276983016
 30
0.0000000000000015
 10
8784.675041913264
 20
-3297.681434558047
 30
0.0000000000000015
 10
8782.776106443445
 20
-3294.968210620734
 30
0.0000000000000015
  0
SPLINE
  5
129CD4
330
18
100
AcDbEntity
  8
姿図
100
AcDbSpline
210
0.0
220
0.0
230
1.0
 70
     8
 71
     3
 72
     8
 73
     4
 74
     0
 42
0.000000001
 43
0.0000000001
 40
1.0
 40
1.0
 40
1.0
 40
1.0
 40
1.951403248137341
 40
1.951403248137341
 40
1.951403248137341
 40
1.951403248137341
 10
8782.776106443445
 20
-3294.968210620734
 30
0.0000000000000015
 10
8780.688019539331
 20
-3291.984238205679
 30
0.0000000000000015
 10
8780.037248313087
 20
-3288.762193127118
 30
0.0000000000000015
 10
8781.147621645256
 20
-3287.365962681073
 30
0.0000000000000015
  0
SPLINE
  5
129CD5
330
18
100
AcDbEntity
  8
姿図
100
AcDbSpline
210
0.0
220
0.0
230
1.0
 70
     8
 71
     3
 72
     8
 73
     4
 74
     0
 42
0.000000001
 43
0.0000000001
 40
0.0651965595715052
 40
0.0651965595715052
 40
0.0651965595715052
 40
0.0651965595715052
 40
1.0
 40
1.0
 40
1.0
 40
1.0
 10
8788.728190478354
 20
-3299.365234935965
 30
0.0000000000000015
 10
8787.017315706722
 20
-3299.624759672435
 30
0.0000000000000015
 10
8784.434660537707
 20
-3297.943117402369
 30
0.0000000000000015
 10
8782.479611044151
 20
-3295.148973472173
 30
0.0000000000000015
  0
SPLINE
  5
129CD6
330
18
100
AcDbEntity
  8
姿図
100
AcDbSpline
210
0.0
220
0.0
230
1.0
 70
     8
 71
     3
 72
     8
 73
     4
 74
     0
 42
0.000000001
 43
0.0000000001
 40
1.0
 40
1.0
 40
1.0
 40
1.0
 40
1.971095784903659
 40
1.971095784903659
 40
1.971095784903659
 40
1.971095784903659
 10
8782.479611044151
 20
-3295.148973472173
 30
0.0000000000000015
 10
8780.30597037483
 20
-3292.043088347771
 30
0.0000000000000015
 10
8779.689848552114
 20
-3288.679260268208
 30
0.0000000000000015
 10
8780.996243590087
 20
-3287.383873912551
 30
0.0000000000000015
  0
SPLINE
  5
129CD7
330
18
100
AcDbEntity
  8
姿図
100
AcDbSpline
210
0.0
220
0.0
230
1.0
 70
     8
 71
     3
 72
     8
 73
     4
 74
     0
 42
0.000000001
 43
0.0000000001
 40
0.0830380048434791
 40
0.0830380048434791
 40
0.0830380048434791
 40
0.0830380048434791
 40
1.0
 40
1.0
 40
1.0
 40
1.0
 10
8788.632272275454
 20
-3299.453486223669
 30
0.0000000000000015
 10
8786.930182784212
 20
-3299.915930167222
 30
0.0000000000000015
 10
8784.197581420165
 20
-3298.209399547235
 30
0.0000000000000015
 10
8782.15198138053
 20
-3295.286516590207
 30
0.0000000000000015
  0
SPLINE
  5
129CD8
330
18
100
AcDbEntity
  8
姿図
100
AcDbSpline
210
0.0
220
0.0
230
1.0
 70
     8
 71
     3
 72
     8
 73
     4
 74
     0
 42
0.000000001
 43
0.0000000001
 40
1.0
 40
1.0
 40
1.0
 40
1.0
 40
1.971016508087028
 40
1.971016508087028
 40
1.971016508087028
 40
1.971016508087028
 10
8782.15198138053
 20
-3295.286516590207
 30
0.0000000000000015
 10
8779.92616943212
 20
-3292.105796316165
 30
0.0000000000000015
 10
8779.333562445692
 20
-3288.654782778724
 30
0.0000000000000015
 10
8780.766072944294
 20
-3287.432357750001
 30
0.0000000000000015
  0
SPLINE
  5
129CD9
330
18
100
AcDbEntity
  8
姿図
100
AcDbSpline
210
0.0
220
0.0
230
1.0
 70
     8
 71
     3
 72
    11
 73
     7
 74
     0
 42
0.000000001
 43
0.0000000001
 40
1.005060628197603
 40
1.005060628197603
 40
1.005060628197603
 40
1.005060628197603
 40
2.0
 40
2.0
 40
2.0
 40
2.924554902239563
 40
2.924554902239563
 40
2.924554902239563
 40
2.924554902239563
 10
8788.823221743383
 20
-3299.26368665087
 30
0.0000000000000015
 10
8787.214924097074
 20
-3300.349268652722
 30
0.0000000000000015
 10
8784.079909304053
 20
-3298.602746426127
 30
0.0000000000000015
 10
8781.799260187116
 20
-3295.343662975971
 30
0.0000000000000015
 10
8779.679949823978
 20
-3292.315135141967
 30
0.0000000000000015
 10
8779.04129104432
 20
-3289.041561427151
 30
0.0000000000000015
 10
8780.221588070355
 20
-3287.680010576775
 30
0.0000000000000015
  0
SPLINE
  5
129CDA
330
18
100
AcDbEntity
  8
姿図
100
AcDbSpline
210
0.0
220
0.0
230
1.0
 70
    24
 71
     3
 72
     8
 73
     4
 74
     0
 42
0.000000001
 43
0.0000000001
 40
0.0
 40
0.0
 40
0.0
 40
0.0
 40
1.0
 40
1.0
 40
1.0
 40
1.0
 10
8779.32252058088
 20
-3287.882242180608
 30
0.0000000000000015
 10
8779.32252058088
 20
-3287.882242180608
 30
0.0000000000000015
 10
8780.641442337876
 20
-3286.34129679978
 30
0.0000000000000015
 10
8780.641442337876
 20
-3286.34129679978
 30
0.0000000000000015
  0
SPLINE
  5
129CDB
330
18
100
AcDbEntity
  8
姿図
100
AcDbSpline
210
0.0
220
0.0
230
1.0
 70
     8
 71
     3
 72
    11
 73
     7
 74
     0
 42
0.000000001
 43
0.0000000001
 40
1.0
 40
1.0
 40
1.0
 40
1.0
 40
2.0
 40
2.0
 40
2.0
 40
3.0
 40
3.0
 40
3.0
 40
3.0
 10
8780.641442337876
 20
-3286.34129679978
 30
0.0000000000000015
 10
8780.641442337876
 20
-3286.34129679978
 30
0.0000000000000015
 10
8781.182408893595
 20
-3285.360768176882
 30
0.0000000000000015
 10
8782.601177585075
 20
-3285.553215090439
 30
0.0000000000000015
 10
8784.019946276554
 20
-3285.745662003997
 30
0.0000000000000015
 10
8787.623392601134
 20
-3287.074872551405
 30
0.0000000000000015
 10
8790.375136344053
 20
-3292.426191071108
 30
0.0000000000000015
  0
SPLINE
  5
129CDC
330
18
100
AcDbEntity
  8
姿図
100
AcDbSpline
210
0.0
220
0.0
230
1.0
 70
     8
 71
     3
 72
     8
 73
     4
 74
     0
 42
0.000000001
 43
0.0000000001
 40
3.0
 40
3.0
 40
3.0
 40
3.0
 40
4.0
 40
4.0
 40
4.0
 40
4.0
 10
8790.375136344053
 20
-3292.426191071108
 30
0.0000000000000015
 10
8791.766854544729
 20
-3295.132747255256
 30
0.0000000000000015
 10
8791.987787388427
 20
-3298.034173704
 30
0.0000000000000015
 10
8791.224849619639
 20
-3298.936886608755
 30
0.0000000000000015
  0
SPLINE
  5
129CDD
330
18
100
AcDbEntity
  8
姿図
100
AcDbSpline
210
0.0
220
0.0
230
1.0
 70
     8
 71
     3
 72
     8
 73
     4
 74
     0
 42
0.000000001
 43
0.0000000001
 40
4.0
 40
4.0
 40
4.0
 40
4.0
 40
5.0
 40
5.0
 40
5.0
 40
5.0
 10
8791.224849619639
 20
-3298.936886608755
 30
0.0000000000000015
 10
8790.799615611773
 20
-3299.440156980921
 30
0.0000000000000015
 10
8788.276182647034
 20
-3300.174774671067
 30
0.0000000000000015
 10
8788.276182647034
 20
-3300.174774671067
 30
0.0000000000000015
  0
SPLINE
  5
129CDE
330
18
100
AcDbEntity
  8
姿図
100
AcDbSpline
210
0.0
220
0.0
230
1.0
 70
     8
 71
     3
 72
     8
 73
     4
 74
     0
 42
0.000000001
 43
0.0000000001
 40
0.0
 40
0.0
 40
0.0
 40
0.0
 40
1.0
 40
1.0
 40
1.0
 40
1.0
 10
8779.92063352236
 20
-3287.254434751124
 30
0.0000000000000015
 10
8779.841676566417
 20
-3286.096825643355
 30
0.0000000000000015
 10
8780.324051532989
 20
-3284.957714260241
 30
0.0000000000000015
 10
8780.9961874656
 20
-3284.452242385132
 30
0.0000000000000015
  0
SPLINE
  5
129CDF
330
18
100
AcDbEntity
  8
姿図
100
AcDbSpline
210
0.0
220
0.0
230
1.0
 70
     8
 71
     3
 72
     8
 73
     4
 74
     0
 42
0.000000001
 43
0.0000000001
 40
1.0
 40
1.0
 40
1.0
 40
1.0
 40
2.0
 40
2.0
 40
2.0
 40
2.0
 10
8780.9961874656
 20
-3284.452242385132
 30
0.0000000000000015
 10
8783.07259609534
 20
-3282.891321683396
 30
0.0000000000000015
 10
8787.333066821717
 20
-3285.058907791927
 30
0.0000000000000015
 10
8790.515608533236
 20
-3289.293139722452
 30
0.0000000000000015
  0
SPLINE
  5
129CE0
330
18
100
AcDbEntity
  8
姿図
100
AcDbSpline
210
0.0
220
0.0
230
1.0
 70
     8
 71
     3
 72
     8
 73
     4
 74
     0
 42
0.000000001
 43
0.0000000001
 40
2.0
 40
2.0
 40
2.0
 40
2.0
 40
2.235305163792243
 40
2.235305163792243
 40
2.235305163792243
 40
2.235305163792243
 10
8790.515608533236
 20
-3289.293139722452
 30
0.0000000000000015
 10
8791.263882467058
 20
-3290.288818529267
 30
0.0000000000000015
 10
8792.645827195007
 20
-3292.664060250818
 30
0.0000000000000015
 10
8793.176232457987
 20
-3294.315364299864
 30
0.0000000000000015
  0
SPLINE
  5
129CE1
330
18
100
AcDbEntity
  8
姿図
100
AcDbSpline
210
0.0
220
0.0
230
1.0
 70
     8
 71
     3
 72
     8
 73
     4
 74
     0
 42
0.000000001
 43
0.0000000001
 40
2.396066187168036
 40
2.396066187168036
 40
2.396066187168036
 40
2.396066187168036
 40
3.0
 40
3.0
 40
3.0
 40
3.0
 10
8793.176232457987
 20
-3294.315364299864
 30
0.0000000000000015
 10
8793.938662511353
 20
-3296.751689775143
 30
0.0000000000000015
 10
8793.76847277052
 20
-3298.837482708262
 30
0.0000000000000015
 10
8792.514169935906
 20
-3299.780848627119
 30
0.0000000000000015
  0
SPLINE
  5
129CE2
330
18
100
AcDbEntity
  8
姿図
100
AcDbSpline
210
0.0
220
0.0
230
1.0
 70
     8
 71
     3
 72
     8
 73
     4
 74
     0
 42
0.000000001
 43
0.0000000001
 40
3.0
 40
3.0
 40
3.0
 40
3.0
 40
4.0
 40
4.0
 40
4.0
 40
4.0
 10
8792.514169935906
 20
-3299.780848627119
 30
0.0000000000000015
 10
8792.254691468515
 20
-3299.975975517052
 30
0.0000000000000015
 10
8791.961211164507
 20
-3300.112510648854
 30
0.0000000000000015
 10
8791.63993717723
 20
-3300.194444279423
 30
0.0000000000000015
  0
SPLINE
  5
129CE3
330
18
100
AcDbEntity
  8
姿図
100
AcDbSpline
210
0.0
220
0.0
230
1.0
 70
     8
 71
     3
 72
     8
 73
     4
 74
     0
 42
0.000000001
 43
0.0000000001
 40
4.0
 40
4.0
 40
4.0
 40
4.0
 40
4.957822154171585
 40
4.957822154171585
 40
4.957822154171585
 40
4.957822154171585
 10
8791.63993717723
 20
-3300.194444279423
 30
0.0000000000000015
 10
8791.63993717723
 20
-3300.194444279423
 30
0.0000000000000015
 10
8790.633635590593
 20
-3300.304381377618
 30
0.0000000000000015
 10
8789.175863107066
 20
-3299.889317652061
 30
0.0000000000000015
  0
ELLIPSE
  5
129CE4
330
18
100
AcDbEntity
  8
姿図
100
AcDbEllipse
 10
8784.007943696093
 20
-3293.834650278814
 30
0.0000000000000015
 11
4.365353892900681
 21
-6.237854445173572
 31
0.0
210
0.0
220
0.0
230
1.0
 40
0.4645252947541932
 41
0.0
 42
6.283185307179586
  0
SPLINE
  5
129CE5
330
18
100
AcDbEntity
  8
姿図
100
AcDbSpline
210
0.0
220
0.0
230
1.0
 70
     8
 71
     3
 72
    11
 73
     7
 74
     0
 42
0.000000001
 43
0.0000000001
 40
1.0
 40
1.0
 40
1.0
 40
1.0
 40
2.0
 40
2.0
 40
2.0
 40
3.0
 40
3.0
 40
3.0
 40
3.0
 10
8788.498166159876
 20
-3299.557379781809
 30
0.0000000000000015
 10
8786.89735992147
 20
-3300.677474555949
 30
0.0000000000000015
 10
8783.74203156621
 20
-3298.929801449186
 30
0.0000000000000015
 10
8781.449782227632
 20
-3295.6541410999
 30
0.0000000000000015
 10
8779.157532889056
 20
-3292.378480750614
 30
0.0000000000000015
 10
8778.597441391275
 20
-3288.816150567224
 30
0.0000000000000015
 10
8780.197572321349
 20
-3287.696542265965
 30
0.0000000000000015
  0
SPLINE
  5
129CE6
330
18
100
AcDbEntity
  8
姿図
100
AcDbSpline
210
0.0
220
0.0
230
1.0
 70
     8
 71
     3
 72
     8
 73
     4
 74
     0
 42
0.000000001
 43
0.0000000001
 40
3.0
 40
3.0
 40
3.0
 40
3.0
 40
3.728979391355297
 40
3.728979391355297
 40
3.728979391355297
 40
3.728979391355297
 10
8780.197572321349
 20
-3287.696542265965
 30
0.0000000000000015
 10
8780.547544952793
 20
-3287.451348645308
 30
0.0000000000000015
 10
8780.97184955909
 20
-3287.343391476366
 30
0.0000000000000015
 10
8781.44516785383
 20
-3287.358623613079
 30
0.0000000000000015
  0
ARC
  5
129CE7
330
18
100
AcDbEntity
  8
姿図
100
AcDbCircle
 10
8802.16618508156
 20
-3299.483776956409
 30
0.0000000000000015
 40
26.06566216109594
100
AcDbArc
 50
123.7818528605645
 51
146.498665548175
  0
LINE
  5
129CE8
330
18
100
AcDbEntity
  8
姿図
100
AcDbLine
 10
8791.905000761375
 20
-3243.020837016275
 30
0.0000000000000015
 11
8836.575558815606
 21
-3243.020837016275
 31
0.0000000000000015
  0
LINE
  5
129CE9
330
18
100
AcDbEntity
  8
姿図
100
AcDbLine
 10
8836.575558815606
 20
-3243.020837016275
 30
0.0000000000000015
 11
8836.52129838014
 21
-3255.283695432628
 31
0.0000000000000015
  0
LINE
  5
129CEA
330
18
100
AcDbEntity
  8
姿図
100
AcDbLine
 10
8836.52129838014
 20
-3255.283695432628
 30
0.0000000000000015
 11
8835.59722986749
 21
-3256.044693031277
 31
0.0000000000000015
  0
LINE
  5
129CEB
330
18
100
AcDbEntity
  8
姿図
100
AcDbLine
 10
8805.23710964017
 20
-3256.130103545804
 30
0.0000000000000015
 11
8835.59722986749
 21
-3256.044693031277
 31
0.0000000000000015
  0
LINE
  5
129CEC
330
18
100
AcDbEntity
  8
姿図
100
AcDbLine
 10
8801.333063897286
 20
-3257.817922734422
 30
0.0000000000000015
 11
8805.23710964017
 21
-3256.130103545804
 31
0.0000000000000015
  0
LINE
  5
129CED
330
18
100
AcDbEntity
  8
姿図
100
AcDbLine
 10
8804.914932995662
 20
-3255.236188487689
 30
0.0000000000000015
 11
8801.096377093063
 21
-3257.297987787441
 31
0.0000000000000015
  0
LINE
  5
129CEE
330
18
100
AcDbEntity
  8
姿図
100
AcDbLine
 10
8805.23710964017
 20
-3256.130103545804
 30
0.0000000000000015
 11
8804.914932995662
 21
-3255.236188487689
 31
0.0000000000000015
  0
LINE
  5
129CEF
330
18
100
AcDbEntity
  8
姿図
100
AcDbLine
 10
8791.872797649808
 20
-3255.216585094567
 30
0.0000000000000015
 11
8836.52129838014
 21
-3255.283695432628
 31
0.0000000000000015
  0
LINE
  5
129CF0
330
18
100
AcDbEntity
  8
姿図
100
AcDbLine
 10
8791.905000761375
 20
-3243.020837016275
 30
0.0000000000000015
 11
8791.872797649808
 21
-3255.216585094567
 31
0.0000000000000015
  0
LINE
  5
129CF1
330
18
100
AcDbEntity
  8
姿図
100
AcDbLine
 10
8791.905000114326
 20
-3243.020836840002
 30
-0.0000000000000015
 11
8836.575558815606
 21
-3243.020836840002
 31
-0.0000000000000015
  0
LINE
  5
129CF2
330
18
100
AcDbEntity
  8
姿図
100
AcDbLine
 10
8796.573362323275
 20
-3257.299014173313
 30
0.0000000000000015
 11
8796.54210530281
 21
-3256.418483776022
 31
0.0000000000000015
  0
LINE
  5
129CF3
330
18
100
AcDbEntity
  8
姿図
100
AcDbLine
 10
8796.54210530281
 20
-3256.418483776022
 30
0.0000000000000015
 11
8797.605697059978
 21
-3256.418399042881
 31
0.0000000000000015
  0
LINE
  5
129CF4
330
18
100
AcDbEntity
  8
姿図
100
AcDbLine
 10
8797.605697059978
 20
-3256.418399042881
 30
0.0000000000000015
 11
8797.57311969907
 21
-3257.297987787441
 31
0.0000000000000015
  0
SPLINE
  5
129CF5
330
18
100
AcDbEntity
  8
姿図
100
AcDbSpline
210
0.0
220
0.0
230
1.0
 70
     8
 71
     3
 72
     8
 73
     4
 74
     0
 42
0.000000001
 43
0.0000000001
 40
49.0
 40
49.0
 40
49.0
 40
49.0
 40
49.66101424066932
 40
49.66101424066932
 40
49.66101424066932
 40
49.66101424066932
 10
8802.160041951385
 20
-3242.838793284896
 30
-0.0000000000000015
 10
8802.160041951385
 20
-3242.838793284896
 30
-0.0000000000000015
 10
8802.917728502769
 20
-3242.900015533724
 30
-0.0000000000000015
 10
8803.5892466401
 20
-3243.033143788839
 30
-0.0000000000000015
  0
SPLINE
  5
129CF6
330
18
100
AcDbEntity
  8
姿図
100
AcDbSpline
210
0.0
220
0.0
230
1.0
 70
     8
 71
     3
 72
    14
 73
    10
 74
     0
 42
0.000000001
 43
0.0000000001
 40
46.0
 40
46.0
 40
46.0
 40
46.0
 40
47.0
 40
47.0
 40
47.0
 40
48.0
 40
48.0
 40
48.0
 40
49.0
 40
49.0
 40
49.0
 40
49.0
 10
8797.142769198028
 20
-3238.691920954469
 30
-0.0000000000000015
 10
8797.142769198028
 20
-3238.691920954469
 30
-0.0000000000000015
 10
8797.187045845429
 20
-3237.592290800073
 30
-0.0000000000000015
 10
8799.511289601924
 20
-3237.592290800073
 30
-0.0000000000000015
 10
8801.835533358424
 20
-3237.592290800073
 30
-0.0000000000000015
 10
8802.160041951385
 20
-3238.418414575603
 30
-0.0000000000000015
 10
8802.160041951385
 20
-3238.639797812591
 30
-0.0000000000000015
 10
8802.160041951385
 20
-3238.868467080171
 30
-0.0000000000000015
 10
8802.160041951385
 20
-3242.838793284896
 30
-0.0000000000000015
 10
8802.160041951385
 20
-3242.838793284896
 30
-0.0000000000000015
  0
SPLINE
  5
129CF7
330
18
100
AcDbEntity
  8
姿図
100
AcDbSpline
210
0.0
220
0.0
230
1.0
 70
     8
 71
     3
 72
     8
 73
     4
 74
     0
 42
0.000000001
 43
0.0000000001
 40
41.0
 40
41.0
 40
41.0
 40
41.0
 40
42.0
 40
42.0
 40
42.0
 40
42.0
 10
8797.187045845429
 20
-3242.883069932313
 30
-0.0000000000000015
 10
8797.185862656692
 20
-3242.521010258643
 30
-0.0000000000000015
 10
8797.187045845429
 20
-3242.159511048858
 30
-0.0000000000000015
 10
8797.187045845429
 20
-3242.159511048858
 30
-0.0000000000000015
  0
SPLINE
  5
129CF8
330
18
100
AcDbEntity
  8
姿図
100
AcDbSpline
210
0.0
220
0.0
230
1.0
 70
    24
 71
     3
 72
     8
 73
     4
 74
     0
 42
0.000000001
 43
0.0000000001
 40
42.0
 40
42.0
 40
42.0
 40
42.0
 40
43.0
 40
43.0
 40
43.0
 40
43.0
 10
8797.187045845429
 20
-3242.159511048858
 30
-0.0000000000000015
 10
8797.187045845429
 20
-3242.159511048858
 30
-0.0000000000000015
 10
8796.862537252468
 20
-3242.063671723479
 30
-0.0000000000000015
 10
8796.862537252468
 20
-3242.063671723479
 30
-0.0000000000000015
  0
SPLINE
  5
129CF9
330
18
100
AcDbEntity
  8
姿図
100
AcDbSpline
210
0.0
220
0.0
230
1.0
 70
    24
 71
     3
 72
     8
 73
     4
 74
     0
 42
0.000000001
 43
0.0000000001
 40
43.0
 40
43.0
 40
43.0
 40
43.0
 40
44.0
 40
44.0
 40
44.0
 40
44.0
 10
8796.862537252468
 20
-3242.063671723479
 30
-0.0000000000000015
 10
8796.862537252468
 20
-3242.063671723479
 30
-0.0000000000000015
 10
8796.862537252468
 20
-3241.156280683751
 30
-0.0000000000000015
 10
8796.862537252468
 20
-3241.156280683751
 30
-0.0000000000000015
  0
SPLINE
  5
129CFA
330
18
100
AcDbEntity
  8
姿図
100
AcDbSpline
210
0.0
220
0.0
230
1.0
 70
    24
 71
     3
 72
     8
 73
     4
 74
     0
 42
0.000000001
 43
0.0000000001
 40
44.0
 40
44.0
 40
44.0
 40
44.0
 40
45.0
 40
45.0
 40
45.0
 40
45.0
 10
8796.862537252468
 20
-3241.156280683751
 30
-0.0000000000000015
 10
8796.862537252468
 20
-3241.156280683751
 30
-0.0000000000000015
 10
8797.23132249283
 20
-3241.104718005764
 30
-0.0000000000000015
 10
8797.23132249283
 20
-3241.104718005764
 30
-0.0000000000000015
  0
SPLINE
  5
129CFB
330
18
100
AcDbEntity
  8
姿図
100
AcDbSpline
210
0.0
220
0.0
230
1.0
 70
    24
 71
     3
 72
     8
 73
     4
 74
     0
 42
0.000000001
 43
0.0000000001
 40
45.0
 40
45.0
 40
45.0
 40
45.0
 40
46.0
 40
46.0
 40
46.0
 40
46.0
 10
8797.23132249283
 20
-3241.104718005764
 30
-0.0000000000000015
 10
8797.23132249283
 20
-3241.104718005764
 30
-0.0000000000000015
 10
8797.142769198028
 20
-3238.691920954469
 30
-0.0000000000000015
 10
8797.142769198028
 20
-3238.691920954469
 30
-0.0000000000000015
  0
ARC
  5
129CFC
330
18
100
AcDbEntity
  8
姿図
100
AcDbCircle
 10
8799.55702590285
 20
-3253.183330611416
 30
-0.0000000000000015
 40
12.32518555842188
100
AcDbArc
 50
81.4654747494792
 51
102.6277850518623
  0
ARC
  5
129CFD
330
18
100
AcDbEntity
  8
姿図
100
AcDbCircle
 10
8799.55702590285
 20
-3254.09072165088
 30
-0.0000000000000015
 40
12.32518555842188
100
AcDbArc
 50
81.4654747494792
 51
102.6277850518623
  0
LINE
  5
129CFE
330
18
100
AcDbEntity
  8
姿図
100
AcDbLine
 10
8797.57330147013
 20
-3242.263007931747
 30
-0.0000000000000015
 11
8801.715877866545
 21
-3242.263007931747
 31
-0.0000000000000015
  0
LINE
  5
129CFF
330
18
100
AcDbEntity
  8
姿図
100
AcDbLine
 10
8797.187045845429
 20
-3242.159511049028
 30
-0.0000000000000015
 11
8797.57330147013
 21
-3242.263007931747
 31
-0.0000000000000015
  0
LINE
  5
129D00
330
18
100
AcDbEntity
  8
姿図
100
AcDbLine
 10
8801.386149314678
 20
-3240.994626554212
 30
-0.0000000000000015
 11
8801.386149314678
 21
-3241.902017593691
 31
-0.0000000000000015
  0
LINE
  5
129D01
330
18
100
AcDbEntity
  8
姿図
100
AcDbLine
 10
8798.248458384265
 20
-3239.656949653795
 30
-0.0000000000000015
 11
8798.248458384265
 21
-3240.140194222299
 31
-0.0000000000000015
  0
LINE
  5
129D02
330
18
100
AcDbEntity
  8
姿図
100
AcDbLine
 10
8798.248458384265
 20
-3240.140194222299
 30
-0.0000000000000015
 11
8800.361017277864
 21
-3240.140194222299
 31
-0.0000000000000015
  0
LINE
  5
129D03
330
18
100
AcDbEntity
  8
姿図
100
AcDbLine
 10
8800.361017277864
 20
-3240.140194222299
 30
-0.0000000000000015
 11
8800.361017277864
 21
-3239.625433758047
 31
-0.0000000000000015
  0
LINE
  5
129D04
330
18
100
AcDbEntity
  8
姿図
100
AcDbLine
 10
8800.361017277864
 20
-3239.625433758047
 30
-0.0000000000000015
 11
8798.248458384265
 21
-3239.625433758047
 31
-0.0000000000000015
  0
LINE
  5
129D05
330
18
100
AcDbEntity
  8
姿図
100
AcDbLine
 10
8798.248458384265
 20
-3239.625433758047
 30
-0.0000000000000015
 11
8798.66538279143
 21
-3239.384722339339
 31
-0.0000000000000015
  0
LINE
  5
129D06
330
18
100
AcDbEntity
  8
姿図
100
AcDbLine
 10
8798.66538279143
 20
-3239.384722339339
 30
-0.0000000000000015
 11
8800.701383688447
 21
-3239.384722339339
 31
-0.0000000000000015
  0
LINE
  5
129D07
330
18
100
AcDbEntity
  8
姿図
100
AcDbLine
 10
8800.701383688447
 20
-3239.384722339339
 30
-0.0000000000000015
 11
8800.701383688447
 21
-3240.320245567773
 31
-0.0000000000000015
  0
LINE
  5
129D08
330
18
100
AcDbEntity
  8
姿図
100
AcDbLine
 10
8800.701383688447
 20
-3240.320245567773
 30
-0.0000000000000015
 11
8798.67243038561
 21
-3240.320245567773
 31
-0.0000000000000015
  0
LINE
  5
129D09
330
18
100
AcDbEntity
  8
姿図
100
AcDbLine
 10
8798.67243038561
 20
-3240.320245567773
 30
-0.0000000000000015
 11
8798.248458384265
 21
-3240.140194222299
 31
-0.0000000000000015
  0
LINE
  5
129D0A
330
18
100
AcDbEntity
  8
姿図
100
AcDbLine
 10
8800.361017277864
 20
-3239.625433758047
 30
-0.0000000000000015
 11
8800.701383688447
 21
-3239.384722339339
 31
-0.0000000000000015
  0
LINE
  5
129D0B
330
18
100
AcDbEntity
  8
姿図
100
AcDbLine
 10
8800.361017277864
 20
-3240.140194222299
 30
-0.0000000000000015
 11
8800.701383688447
 21
-3240.320245567773
 31
-0.0000000000000015
  0
LINE
  5
129D0C
330
18
100
AcDbEntity
  8
姿図
100
AcDbLine
 10
8801.715877866545
 20
-3242.263007931747
 30
-0.0000000000000015
 11
8801.386149314678
 21
-3241.902017593691
 31
-0.0000000000000015
  0
LINE
  5
129D0D
330
18
100
AcDbEntity
  8
姿図
100
AcDbLine
 10
8801.386149314678
 20
-3240.994626554212
 30
-0.0000000000000015
 11
8801.720957842314
 21
-3241.18792834778
 31
-0.0000000000000015
  0
LINE
  5
129D0E
330
18
100
AcDbEntity
  8
姿図
100
AcDbLine
 10
8801.720957842314
 20
-3241.18792834778
 30
-0.0000000000000015
 11
8801.715877866545
 21
-3242.263007931747
 31
-0.0000000000000015
  0
SPLINE
  5
129D0F
330
18
100
AcDbEntity
  8
姿図
100
AcDbSpline
210
0.0
220
0.0
230
1.0
 70
     8
 71
     3
 72
     8
 73
     4
 74
     0
 42
0.000000001
 43
0.0000000001
 40
0.184123280855877
 40
0.184123280855877
 40
0.184123280855877
 40
0.184123280855877
 40
1.0
 40
1.0
 40
1.0
 40
1.0
 10
8789.247310390208
 20
-3297.870039892598
 30
0.0000000000000035
 10
8787.67476097356
 20
-3297.398843159999
 30
0.0000000000000035
 10
8785.797606486525
 20
-3295.804497847954
 30
0.0000000000000035
 10
8784.342331054539
 20
-3293.530193472992
 30
0.0000000000000035
  0
SPLINE
  5
129D10
330
18
100
AcDbEntity
  8
姿図
100
AcDbSpline
210
0.0
220
0.0
230
1.0
 70
     8
 71
     3
 72
     8
 73
     4
 74
     0
 42
0.000000001
 43
0.0000000001
 40
1.0
 40
1.0
 40
1.0
 40
1.0
 40
1.827384432039179
 40
1.827384432039179
 40
1.827384432039179
 40
1.827384432039179
 10
8784.342331054539
 20
-3293.530193472992
 30
0.0000000000000035
 10
8783.01426994313
 20
-3291.454524355119
 30
0.0000000000000035
 10
8782.348275906535
 20
-3289.297079659744
 30
0.0000000000000035
 10
8782.418118662561
 20
-3287.701025811673
 30
0.0000000000000035
  0
LINE
  5
129D11
330
18
100
AcDbEntity
  8
姿図
100
AcDbLine
 10
8793.081421972161
 20
-3261.163672148677
 30
0.0000000000000035
 11
8794.522380734377
 21
-3261.025350305551
 31
0.0000000000000031
  0
LINE
  5
129D12
330
18
100
AcDbEntity
  8
姿図
100
AcDbLine
 10
8798.000048076545
 20
-3260.691518853078
 30
0.0000000000000021
 11
8800.091156798735
 21
-3260.49078721508
 31
0.0000000000000015
  0
LINE
  5
129D13
330
18
100
AcDbEntity
  8
姿図
100
AcDbLine
 10
8794.184018837475
 20
-3261.365407916244
 30
0.0000000000000035
 11
8794.94870502165
 21
-3261.307924023835
 31
0.0000000000000032
  0
LINE
  5
129D14
330
18
100
AcDbEntity
  8
姿図
100
AcDbLine
 10
8798.211612629144
 20
-3261.062640881898
 30
0.0000000000000021
 11
8800.161486531562
 21
-3260.916062659435
 31
0.0000000000000015
  0
SPLINE
  5
129D15
330
18
100
AcDbEntity
  8
姿図
100
AcDbSpline
210
0.0
220
0.0
230
1.0
 70
     8
 71
     3
 72
     9
 73
     5
 74
     3
 42
0.000000001
 43
0.0000000001
 44
0.0000000001
 40
0.0
 40
0.0
 40
0.0
 40
0.0
 40
0.2392281052950227
 40
3.586253369621925
 40
3.586253369621925
 40
3.586253369621925
 40
3.586253369621925
 10
8794.522380734377
 20
-3261.025350305551
 30
0.0000000000000031
 10
8794.565664447233
 20
-3260.957050473392
 30
0.0000000000000027
 10
8795.214527844291
 20
-3259.933172016792
 30
-0.000000000000003
 10
8796.655344209317
 20
-3260.325428558114
 30
-0.0000000000000004
 10
8798.000048076545
 20
-3260.691518853078
 30
0.0000000000000021
 11
8794.522380734377
 21
-3261.025350305551
 31
0.0000000000000031
 11
8794.655755921252
 21
-3260.826752355187
 31
0.000000000000002
 11
8798.000048076545
 21
-3260.691518853078
 31
0.0000000000000021
  0
SPLINE
  5
129D16
330
18
100
AcDbEntity
  8
姿図
100
AcDbSpline
210
0.0
220
0.0
230
1.0
 70
     8
 71
     3
 72
    10
 73
     6
 74
     4
 42
0.000000001
 43
0.0000000001
 44
0.0000000001
 40
0.0
 40
0.0
 40
0.0
 40
0.0
 40
1.796269087876893
 40
3.114963301025931
 40
3.348148598385802
 40
3.348148598385802
 40
3.348148598385802
 40
3.348148598385802
 10
8794.94870502165
 20
-3261.307924023835
 30
0.0000000000000032
 10
8795.53647117058
 20
-3261.407409607735
 30
0.0000000000000034
 10
8796.555733816615
 20
-3261.579930498352
 30
0.0000000000000037
 10
8797.72589704184
 20
-3261.409143460394
 30
0.0000000000000044
 10
8798.148162981179
 20
-3261.107904956595
 30
0.0000000000000024
 10
8798.211612629144
 20
-3261.062640881898
 30
0.0000000000000021
 11
8794.94870502165
 21
-3261.307924023835
 31
0.0000000000000032
 11
8796.735082485531
 21
-3261.496174369388
 31
0.0000000000000039
 11
8798.018551855896
 21
-3261.193419017446
 31
0.000000000000003
 11
8798.211612629144
 21
-3261.062640881898
 31
0.0000000000000021
  0
ARC
  5
129D17
330
18
100
AcDbEntity
  8
姿図
100
AcDbCircle
 10
8793.119161275496
 20
-3261.396191233692
 30
0.0000000000000035
 40
0.2355618388288893
100
AcDbArc
 50
91.74730622665457
 51
180.3462281535116
  0
ARC
  5
129D18
330
18
100
AcDbEntity
  8
姿図
100
AcDbCircle
 10
8794.200006082523
 20
-3261.501180807805
 30
0.0000000000000035
 40
0.1367108996637489
100
AcDbArc
 50
91.8823914723609
 51
176.8294030758967
  0
LINE
  5
129D19
330
18
100
AcDbEntity
  8
姿図
100
AcDbLine
 10
8800.81680289827
 20
-3283.790581405111
 30
0.0000000000000015
 11
8800.7243634247
 21
-3284.492891439029
 31
0.0000000000000033
  0
SPLINE
  5
129D1A
330
18
100
AcDbEntity
  8
姿図
100
AcDbSpline
210
0.0
220
0.0
230
1.0
 70
     8
 71
     3
 72
     8
 73
     4
 74
     0
 42
0.000000001
 43
0.0000000001
 40
1.0
 40
1.0
 40
1.0
 40
1.000000000000004
 40
2.0
 40
2.0
 40
2.0
 40
2.0
 10
8787.311263809339
 20
-3278.065325614343
 30
0.0000000000000015
 10
8790.43976377289
 20
-3275.794115909456
 30
0.0000000000000015
 10
8795.804295134178
 20
-3277.805122292878
 30
0.0000000000000015
 10
8799.441622556451
 20
-3282.561030443306
 30
0.0000000000000015
  0
SPLINE
  5
129D1B
330
18
100
AcDbEntity
  8
姿図
100
AcDbSpline
210
0.0
220
0.0
230
1.0
 70
     8
 71
     3
 72
     8
 73
     4
 74
     0
 42
0.000000001
 43
0.0000000001
 40
2.0
 40
2.0
 40
2.0
 40
2.0
 40
2.132564484647539
 40
2.132564484647539
 40
2.132564484647539
 40
2.132564484647539
 10
8799.441622556451
 20
-3282.561030443306
 30
0.0000000000000015
 10
8799.92409691453
 20
-3283.191494956298
 30
0.0000000000000015
 10
8800.352031789971
 20
-3283.838694391807
 30
0.0000000000000015
 10
8800.7243634247
 20
-3284.492891439029
 30
0.0000000000000015
  0
SPLINE
  5
129D1C
330
18
100
AcDbEntity
  8
姿図
100
AcDbSpline
210
0.0
220
0.0
230
1.0
 70
     8
 71
     3
 72
     8
 73
     4
 74
     0
 42
0.000000001
 43
0.0000000001
 40
2.546094283791052
 40
2.546094283791052
 40
2.546094283791052
 40
2.546094283791052
 40
2.999999999999997
 40
3.0
 40
3.0
 40
3.0
 10
8802.553262914973
 20
-3290.523819011491
 30
0.0000000000000015
 10
8802.604883120348
 20
-3292.588857335717
 30
0.0000000000000015
 10
8801.965704789774
 20
-3294.379816511647
 30
0.0000000000000015
 10
8800.593024935359
 20
-3295.505806660987
 30
0.0000000000000015
  0
LINE
  5
129D1D
330
18
100
AcDbEntity
  8
姿図
100
AcDbLine
 10
8801.50702312759
 20
-3274.781995187866
 30
0.0000000000000015
 11
8800.943904360825
 21
-3275.199799073084
 31
0.0000000000000015
  0
LINE
  5
129D1E
330
18
100
AcDbEntity
  8
姿図
100
AcDbLine
 10
8802.661186564605
 20
-3276.031448422725
 30
0.0000000000000015
 11
8802.486178759804
 21
-3276.153608496763
 31
0.0000000000000015
  0
LINE
  5
129D1F
330
18
100
AcDbEntity
  8
姿図
100
AcDbLine
 10
8804.93619132184
 20
-3276.958349303184
 30
0.0000000000000015
 11
8804.699474128065
 21
-3277.137800028649
 31
0.0000000000000015
  0
LINE
  5
129D20
330
18
100
AcDbEntity
  8
姿図
100
AcDbLine
 10
8806.876104482631
 20
-3279.650623249687
 30
0.0000000000000015
 11
8805.12942684295
 21
-3280.959858725034
 31
0.0000000000000015
  0
LINE
  5
129D21
330
18
100
AcDbEntity
  8
姿図
100
AcDbLine
 10
8807.383954258125
 20
-3281.381886214916
 30
0.0000000000000015
 11
8805.789925906152
 21
-3282.692445040293
 31
0.0000000000000015
  0
ARC
  5
129D22
330
18
100
AcDbEntity
  8
姿図
100
AcDbCircle
 10
8808.243863289683
 20
-3304.065963474011
 30
0.0000000000000064
 40
31.4649624131975
100
AcDbArc
 50
106.8206178016346
 51
120.7691310972362
  0
ARC
  5
129D23
330
18
100
AcDbEntity
  8
姿図
100
AcDbCircle
 10
8829.05582720157
 20
-3312.216663272559
 30
0.0000000000000015
 40
40.56018356058101
100
AcDbArc
 50
123.5328987203322
 51
126.4219900180207
  0
ARC
  5
129D24
330
18
100
AcDbEntity
  8
姿図
100
AcDbCircle
 10
8829.05582720157
 20
-3312.216663272559
 30
0.0000000000000015
 40
40.56018356058101
100
AcDbArc
 50
129.1571831233599
 51
134.5035428112317
  0
ARC
  5
129D25
330
18
100
AcDbEntity
  8
姿図
100
AcDbCircle
 10
8821.719129341669
 20
-3243.33083710115
 30
0.0000000000000064
 40
38.04261702582006
100
AcDbArc
 50
233.5901345256822
 51
240.0075474564048
  0
ARC
  5
129D26
330
18
100
AcDbEntity
  8
姿図
100
AcDbCircle
 10
8821.719129341669
 20
-3243.33083710115
 30
0.0000000000000064
 40
38.04261702582006
100
AcDbArc
 50
243.4674153811046
 51
246.6642495118394
  0
ARC
  5
129D27
330
18
100
AcDbEntity
  8
姿図
100
AcDbCircle
 10
8806.592990208279
 20
-3278.334253076909
 30
0.0000000000000064
 40
0.0922363223659767
100
AcDbArc
 50
307.9750042488748
 51
52.02499575112518
  0
ENDSEC
  0
SECTION
  2
OBJECTS
  0
DICTIONARY
  5
C
330
0
100
AcDbDictionary
281
     1
  3
ACAD_GROUP
350
D
  3
ACAD_IMAGE_VARS
350
129E2F
  3
ACAD_LAYOUT
350
617
  3
ACAD_MLINESTYLE
350
E
  3
ACAD_PLOTSETTINGS
350
618
  3
ACAD_PLOTSTYLENAME
350
615
  3
ACAD_SCALELIST
350
A36
  3
AcadDim
350
AB4
  3
AcDbVariableDictionary
350
6DE
  3
APPDATA
350
129E2E
  3
DWGPROPS
350
129E53
  0
DICTIONARY
  5
8BF
330
2
100
AcDbDictionary
280
     1
281
     1
  3
ACAD_LAYERSTATES
360
8C0
  0
DICTIONARY
  5
A60
330
F
100
AcDbDictionary
280
     1
281
     1
  3
ADSK_XREC_LAYER_RECONCILED
360
A61
  0
DICTIONARY
  5
A66
330
34
100
AcDbDictionary
280
     1
281
     1
  3
ADSK_XREC_LAYER_RECONCILED
360
A67
  0
DICTIONARY
  5
A6E
330
2F4
100
AcDbDictionary
280
     1
281
     1
  3
ADSK_XREC_LAYER_RECONCILED
360
A6F
  0
DICTIONARY
  5
A72
330
305
100
AcDbDictionary
280
     1
281
     1
  3
ADSK_XREC_LAYER_RECONCILED
360
A73
  0
DICTIONARY
  5
143F
330
18
100
AcDbDictionary
280
     1
281
     1
  3
ACAD_SORTENTS
360
1440
  0
DICTIONARY
  5
D
102
{ACAD_REACTORS
330
C
102
}
330
C
100
AcDbDictionary
281
     1
  0
RASTERVARIABLES
  5
129E2F
102
{ACAD_REACTORS
330
C
102
}
330
C
100
AcDbRasterVariables
 90
        0
 70
     1
 71
     1
 72
     0
  0
DICTIONARY
  5
617
102
{ACAD_REACTORS
330
C
102
}
330
C
100
AcDbDictionary
281
     1
  3
Model
350
619
  3
ﾚｲｱｳﾄ1
350
61A
  0
DICTIONARY
  5
E
102
{ACAD_REACTORS
330
C
102
}
330
C
100
AcDbDictionary
281
     1
  3
STANDARD
350
1B
  0
DICTIONARY
  5
618
102
{ACAD_REACTORS
330
C
102
}
330
C
100
AcDbDictionary
281
     1
  0
ACDBDICTIONARYWDFLT
  5
615
102
{ACAD_REACTORS
330
C
102
}
330
C
100
AcDbDictionary
281
     1
  3
Normal
350
616
100
AcDbDictionaryWithDefault
340
616
  0
DICTIONARY
  5
A36
102
{ACAD_REACTORS
330
C
102
}
330
C
100
AcDbDictionary
281
     1
  3
A0
350
A37
  3
A1
350
A38
  3
A2
350
A39
  3
A3
350
A3A
  3
A4
350
A3B
  3
A5
350
A3C
  3
A6
350
A3D
  3
A7
350
A3E
  3
A8
350
A3F
  3
A9
350
A40
  3
B0
350
A41
  3
B1
350
A42
  3
B2
350
A43
  3
B3
350
A44
  3
B4
350
A45
  3
B5
350
A46
  3
B6
350
A47
  3
B7
350
A48
  3
B8
350
A49
  3
B9
350
A4A
  3
C0
350
A4B
  3
C1
350
A4C
  3
C2
350
A4D
  3
C3
350
A4E
  3
C4
350
A4F
  3
C5
350
A50
  3
C6
350
A51
  3
C7
350
A52
  3
C8
350
A53
  3
C9
350
A54
  3
D0
350
A55
  3
D1
350
A56
  3
D2
350
A57
  0
XRECORD
  5
AB4
102
{ACAD_REACTORS
330
C
102
}
330
C
100
AcDbXrecord
280
     1
 90
   990106
  3
OPEN
 60
     0
 61
     0
 62
     1
 63
     3
 64
     1
 65
     0
 66
     0
 67
     3
 68
     1
 69
     0
 70
     0
 71
     0
 72
     0
 40
0.0
170
     2
  0
DICTIONARY
  5
6DE
102
{ACAD_REACTORS
330
C
102
}
330
C
100
AcDbDictionary
281
     1
  3
DIMASSOC
350
6DF
  3
INDEXCTL
350
A93
  3
PROJECTNAME
350
6E0
  3
SORTENTS
350
A92
  0
DICTIONARY
  5
129E2E
102
{ACAD_REACTORS
330
C
102
}
330
C
100
AcDbDictionary
281
     1
  0
XRECORD
  5
129E53
102
{ACAD_REACTORS
330
C
102
}
330
C
100
AcDbXrecord
280
     1
  1
DWGPROPS COOKIE
  2

  3

  4

  6

  7

  8
SPAX
  9

300
=
301
=
302
=
303
=
304
=
305
=
306
=
307
=
308
=
309
=
 40
0.0
 41
2448636.244629629
 42
2456821.236556574
  1

 90
        0
  0
DICTIONARY
  5
8C0
102
{ACAD_REACTORS
330
8BF
102
}
330
8BF
100
AcDbDictionary
281
     1
  0
XRECORD
  5
A61
102
{ACAD_REACTORS
330
A60
102
}
330
A60
100
AcDbXrecord
280
     1
290
     1
  0
XRECORD
  5
A67
102
{ACAD_REACTORS
330
A66
102
}
330
A66
100
AcDbXrecord
280
     1
290
     1
  0
XRECORD
  5
A6F
102
{ACAD_REACTORS
330
A6E
102
}
330
A6E
100
AcDbXrecord
280
     1
290
     1
  0
XRECORD
  5
A73
102
{ACAD_REACTORS
330
A72
102
}
330
A72
100
AcDbXrecord
280
     1
290
     1
  0
SORTENTSTABLE
  5
1440
102
{ACAD_REACTORS
330
143F
102
}
330
143F
100
AcDbSortentsTable
330
18
331
0
  5
F9C44
331
D0CC6
  5
D0CC6
331
F6D77
  5
F6D77
331
F6D78
  5
F6D78
  0
LAYOUT
  5
619
102
{ACAD_REACTORS
330
617
102
}
330
617
100
AcDbPlotSettings
  1

  2
JUST PDF 2
  4
A4
  6

 40
3.174999952316284
 41
3.174999952316284
 42
3.175003051757812
 43
3.17498779296875
 44
209.8886566162109
 45
297.0530090332031
 46
14.27171755861491
 47
9.855173074625782
 48
8751.876770467932
 49
-3730.408039105734
140
9101.867207457746
141
-3188.422688828401
142
1.0
143
2.0
 70
  3748
 72
     1
 73
     0
 74
     4
  7
spax form.ctb
 75
     0
147
2.049951397771953
148
-8751.876770467932
149
3730.408039105734
100
AcDbLayout
  1
Model
 70
     1
 71
     0
 10
0.0
 20
0.0
 11
12.0
 21
9.0
 12
0.0
 22
0.0
 32
0.0
 14
8765.51253016864
 24
-3321.308340793875
 34
-0.0000000000000015
 15
8836.575558815606
 25
-3237.604640162159
 35
0.0000000000000064
146
0.0
 13
0.0
 23
0.0
 33
0.0
 16
1.0
 26
0.0
 36
0.0
 17
0.0
 27
1.0
 37
0.0
 76
     0
330
18
331
128F44
1001
ACAD_PSEXT
1000
JUST PDF 2
1000
JUST PDF 2
1000
JUST PDF 2 Port:
1000

1070
     0
  0
LAYOUT
  5
61A
102
{ACAD_REACTORS
330
617
102
}
330
617
100
AcDbPlotSettings
  1

  2
Canon LASER SHOT LBP-750
  4

  6

 40
0.0
 41
0.0
 42
0.0
 43
0.0
 44
0.0
 45
0.0
 46
0.0
 47
0.0
 48
0.0
 49
0.0
140
0.0
141
0.0
142
1.0
143
1.0
 70
   688
 72
     0
 73
     0
 74
     5
  7
spax form.ctb
 75
    16
147
1.0
148
0.0
149
0.0
100
AcDbLayout
  1
ﾚｲｱｳﾄ1
 70
     0
 71
     1
 10
0.0
 20
0.0
 11
12.0
 21
9.0
 12
0.0
 22
0.0
 32
0.0
 14
1.000000000000000E+20
 24
1.000000000000000E+20
 34
1.000000000000000E+20
 15
-1.000000000000000E+20
 25
-1.000000000000000E+20
 35
-1.000000000000000E+20
146
0.0
 13
0.0
 23
0.0
 33
0.0
 16
1.0
 26
0.0
 36
0.0
 17
0.0
 27
1.0
 37
0.0
 76
     0
330
15
  0
MLINESTYLE
  5
1B
102
{ACAD_REACTORS
330
E
102
}
330
E
100
AcDbMlineStyle
  2
STANDARD
 70
     0
  3

 62
     0
 51
90.0
 52
90.0
 71
     2
 49
0.5
 62
   256
  6
BYLAYER
 49
-0.5
 62
   256
  6
BYLAYER
  0
ACDBPLACEHOLDER
  5
616
102
{ACAD_REACTORS
330
615
102
}
330
615
  0
SCALE
  5
A37
102
{ACAD_REACTORS
330
A36
102
}
330
A36
100
AcDbScale
 70
     0
300
1:1
140
1.0
141
1.0
290
     1
  0
SCALE
  5
A38
102
{ACAD_REACTORS
330
A36
102
}
330
A36
100
AcDbScale
 70
     0
300
1:2
140
1.0
141
2.0
290
     0
  0
SCALE
  5
A39
102
{ACAD_REACTORS
330
A36
102
}
330
A36
100
AcDbScale
 70
     0
300
1:4
140
1.0
141
4.0
290
     0
  0
SCALE
  5
A3A
102
{ACAD_REACTORS
330
A36
102
}
330
A36
100
AcDbScale
 70
     0
300
1:5
140
1.0
141
5.0
290
     0
  0
SCALE
  5
A3B
102
{ACAD_REACTORS
330
A36
102
}
330
A36
100
AcDbScale
 70
     0
300
1:8
140
1.0
141
8.0
290
     0
  0
SCALE
  5
A3C
102
{ACAD_REACTORS
330
A36
102
}
330
A36
100
AcDbScale
 70
     0
300
1:10
140
1.0
141
10.0
290
     0
  0
SCALE
  5
A3D
102
{ACAD_REACTORS
330
A36
102
}
330
A36
100
AcDbScale
 70
     0
300
1:16
140
1.0
141
16.0
290
     0
  0
SCALE
  5
A3E
102
{ACAD_REACTORS
330
A36
102
}
330
A36
100
AcDbScale
 70
     0
300
1:20
140
1.0
141
20.0
290
     0
  0
SCALE
  5
A3F
102
{ACAD_REACTORS
330
A36
102
}
330
A36
100
AcDbScale
 70
     0
300
1:30
140
1.0
141
30.0
290
     0
  0
SCALE
  5
A40
102
{ACAD_REACTORS
330
A36
102
}
330
A36
100
AcDbScale
 70
     0
300
1:40
140
1.0
141
40.0
290
     0
  0
SCALE
  5
A41
102
{ACAD_REACTORS
330
A36
102
}
330
A36
100
AcDbScale
 70
     0
300
1:50
140
1.0
141
50.0
290
     0
  0
SCALE
  5
A42
102
{ACAD_REACTORS
330
A36
102
}
330
A36
100
AcDbScale
 70
     0
300
1:100
140
1.0
141
100.0
290
     0
  0
SCALE
  5
A43
102
{ACAD_REACTORS
330
A36
102
}
330
A36
100
AcDbScale
 70
     0
300
2:1
140
2.0
141
1.0
290
     0
  0
SCALE
  5
A44
102
{ACAD_REACTORS
330
A36
102
}
330
A36
100
AcDbScale
 70
     0
300
4:1
140
4.0
141
1.0
290
     0
  0
SCALE
  5
A45
102
{ACAD_REACTORS
330
A36
102
}
330
A36
100
AcDbScale
 70
     0
300
8:1
140
8.0
141
1.0
290
     0
  0
SCALE
  5
A46
102
{ACAD_REACTORS
330
A36
102
}
330
A36
100
AcDbScale
 70
     0
300
10:1
140
10.0
141
1.0
290
     0
  0
SCALE
  5
A47
102
{ACAD_REACTORS
330
A36
102
}
330
A36
100
AcDbScale
 70
     0
300
100:1
140
100.0
141
1.0
290
     0
  0
SCALE
  5
A48
102
{ACAD_REACTORS
330
A36
102
}
330
A36
100
AcDbScale
 70
     0
300
1/128" = 1'-0"
140
0.0078125
141
12.0
290
     0
  0
SCALE
  5
A49
102
{ACAD_REACTORS
330
A36
102
}
330
A36
100
AcDbScale
 70
     0
300
1/64" = 1'-0"
140
0.015625
141
12.0
290
     0
  0
SCALE
  5
A4A
102
{ACAD_REACTORS
330
A36
102
}
330
A36
100
AcDbScale
 70
     0
300
1/32" = 1'-0"
140
0.03125
141
12.0
290
     0
  0
SCALE
  5
A4B
102
{ACAD_REACTORS
330
A36
102
}
330
A36
100
AcDbScale
 70
     0
300
1/16" = 1'-0"
140
0.0625
141
12.0
290
     0
  0
SCALE
  5
A4C
102
{ACAD_REACTORS
330
A36
102
}
330
A36
100
AcDbScale
 70
     0
300
3/32" = 1'-0"
140
0.09375
141
12.0
290
     0
  0
SCALE
  5
A4D
102
{ACAD_REACTORS
330
A36
102
}
330
A36
100
AcDbScale
 70
     0
300
1/8" = 1'-0"
140
0.125
141
12.0
290
     0
  0
SCALE
  5
A4E
102
{ACAD_REACTORS
330
A36
102
}
330
A36
100
AcDbScale
 70
     0
300
3/16" = 1'-0"
140
0.1875
141
12.0
290
     0
  0
SCALE
  5
A4F
102
{ACAD_REACTORS
330
A36
102
}
330
A36
100
AcDbScale
 70
     0
300
1/4" = 1'-0"
140
0.25
141
12.0
290
     0
  0
SCALE
  5
A50
102
{ACAD_REACTORS
330
A36
102
}
330
A36
100
AcDbScale
 70
     0
300
3/8" = 1'-0"
140
0.375
141
12.0
290
     0
  0
SCALE
  5
A51
102
{ACAD_REACTORS
330
A36
102
}
330
A36
100
AcDbScale
 70
     0
300
1/2" = 1'-0"
140
0.5
141
12.0
290
     0
  0
SCALE
  5
A52
102
{ACAD_REACTORS
330
A36
102
}
330
A36
100
AcDbScale
 70
     0
300
3/4" = 1'-0"
140
0.75
141
12.0
290
     0
  0
SCALE
  5
A53
102
{ACAD_REACTORS
330
A36
102
}
330
A36
100
AcDbScale
 70
     0
300
1" = 1'-0"
140
1.0
141
12.0
290
     0
  0
SCALE
  5
A54
102
{ACAD_REACTORS
330
A36
102
}
330
A36
100
AcDbScale
 70
     0
300
1-1/2" = 1'-0"
140
1.5
141
12.0
290
     0
  0
SCALE
  5
A55
102
{ACAD_REACTORS
330
A36
102
}
330
A36
100
AcDbScale
 70
     0
300
3" = 1'-0"
140
3.0
141
12.0
290
     0
  0
SCALE
  5
A56
102
{ACAD_REACTORS
330
A36
102
}
330
A36
100
AcDbScale
 70
     0
300
6" = 1'-0"
140
6.0
141
12.0
290
     0
  0
SCALE
  5
A57
102
{ACAD_REACTORS
330
A36
102
}
330
A36
100
AcDbScale
 70
     0
300
1'-0" = 1'-0"
140
12.0
141
12.0
290
     0
  0
DICTIONARYVAR
  5
6DF
102
{ACAD_REACTORS
330
6DE
102
}
330
6DE
100
DictionaryVariables
280
     0
  1
1
  0
DICTIONARYVAR
  5
A93
102
{ACAD_REACTORS
330
6DE
102
}
330
6DE
100
DictionaryVariables
280
     0
  1
0
  0
DICTIONARYVAR
  5
6E0
102
{ACAD_REACTORS
330
6DE
102
}
330
6DE
100
DictionaryVariables
280
     0
  1

  0
DICTIONARYVAR
  5
A92
102
{ACAD_REACTORS
330
6DE
102
}
330
6DE
100
DictionaryVariables
280
     0
  1
127
  0
ENDSEC
  0
EOF
