  0
SECTION
  2
HEADER
  9
$ACADVER
  1
AC1015
  9
$ACADMAINTVER
 70
     6
  9
$DWGCODEPAGE
  3
ANSI_932
  9
$INSBASE
 10
0.0
 20
0.0
 30
0.0
  9
$EXTMIN
 10
21.8215574572389
 20
618.8019538722299
 30
0.0
  9
$EXTMAX
 10
98.26483364682258
 20
726.3031744221139
 30
0.0
  9
$LIMMIN
 10
0.0
 20
0.0
  9
$LIMMAX
 10
420.0
 20
297.0
  9
$ORTHOMODE
 70
     0
  9
$REGENMODE
 70
     1
  9
$FILLMODE
 70
     1
  9
$QTEXTMODE
 70
     0
  9
$MIRRTEXT
 70
     1
  9
$LTSCALE
 40
5.0
  9
$ATTMODE
 70
     0
  9
$TEXTSIZE
 40
3.5
  9
$TRACEWID
 40
1.0
  9
$TEXTSTYLE
  7
STANDARD
  9
$CLAYER
  8
0
  9
$CELTYPE
  6
BYLAYER
  9
$CECOLOR
 62
   256
  9
$CELTSCALE
 40
0.3
  9
$DISPSILH
 70
     0
  9
$DIMSCALE
 40
1.0
  9
$DIMASZ
 40
2.5
  9
$DIMEXO
 40
1.5
  9
$DIMDLI
 40
0.38
  9
$DIMRND
 40
0.0
  9
$DIMDLE
 40
0.0
  9
$DIMEXE
 40
1.0
  9
$DIMTP
 40
0.0
  9
$DIMTM
 40
0.0
  9
$DIMTXT
 40
2.500000000000003
  9
$DIMCEN
 40
0.0
  9
$DIMTSZ
 40
0.0
  9
$DIMTOL
 70
     0
  9
$DIMLIM
 70
     0
  9
$DIMTIH
 70
     0
  9
$DIMTOH
 70
     0
  9
$DIMSE1
 70
     0
  9
$DIMSE2
 70
     0
  9
$DIMTAD
 70
     3
  9
$DIMZIN
 70
     8
  9
$DIMBLK
  1

  9
$DIMASO
 70
     1
  9
$DIMSHO
 70
     0
  9
$DIMPOST
  1

  9
$DIMAPOST
  1

  9
$DIMALT
 70
     0
  9
$DIMALTD
 70
     0
  9
$DIMALTF
 40
25.4
  9
$DIMLFAC
 40
1.0
  9
$DIMTOFL
 70
     1
  9
$DIMTVP
 40
0.0
  9
$DIMTIX
 70
     0
  9
$DIMSOXD
 70
     0
  9
$DIMSAH
 70
     1
  9
$DIMBLK1
  1
OPEN
  9
$DIMBLK2
  1
OPEN
  9
$DIMSTYLE
  2
STANDARD
  9
$DIMCLRD
 70
     8
  9
$DIMCLRE
 70
     8
  9
$DIMCLRT
 70
     7
  9
$DIMTFAC
 40
1.0
  9
$DIMGAP
 40
1.0
  9
$DIMJUST
 70
     0
  9
$DIMSD1
 70
     0
  9
$DIMSD2
 70
     0
  9
$DIMTOLJ
 70
     1
  9
$DIMTZIN
 70
     0
  9
$DIMALTZ
 70
     0
  9
$DIMALTTZ
 70
     0
  9
$DIMUPT
 70
     0
  9
$DIMDEC
 70
     2
  9
$DIMTDEC
 70
     2
  9
$DIMALTU
 70
     2
  9
$DIMALTTD
 70
     0
  9
$DIMTXSTY
  7
STANDARD
  9
$DIMAUNIT
 70
     0
  9
$DIMADEC
 70
     2
  9
$DIMALTRND
 40
0.0
  9
$DIMAZIN
 70
     2
  9
$DIMDSEP
 70
    46
  9
$DIMATFIT
 70
     1
  9
$DIMFRAC
 70
     0
  9
$DIMLDRBLK
  1
OPEN
  9
$DIMLUNIT
 70
     2
  9
$DIMLWD
 70
    -2
  9
$DIMLWE
 70
    -2
  9
$DIMTMOVE
 70
     0
  9
$LUNITS
 70
     2
  9
$LUPREC
 70
     2
  9
$SKETCHINC
 40
0.1
  9
$FILLETRAD
 40
0.5
  9
$AUNITS
 70
     0
  9
$AUPREC
 70
     1
  9
$MENU
  1
FM
  9
$ELEVATION
 40
0.0
  9
$PELEVATION
 40
0.0
  9
$THICKNESS
 40
0.0
  9
$LIMCHECK
 70
     0
  9
$CHAMFERA
 40
0.0
  9
$CHAMFERB
 40
0.0
  9
$CHAMFERC
 40
0.0
  9
$CHAMFERD
 40
0.0
  9
$SKPOLY
 70
     0
  9
$TDCREATE
 40
2448636.619629629
  9
$TDUCREATE
 40
2448636.244629629
  9
$TDUPDATE
 40
2456822.485873947
  9
$TDUUPDATE
 40
2456822.110873947
  9
$TDINDWG
 40
72.8630668403
  9
$TDUSRTIMER
 40
2456822.110752326
  9
$USRTIMER
 70
     1
  9
$ANGBASE
 50
0.0
  9
$ANGDIR
 70
     0
  9
$PDMODE
 70
     3
  9
$PDSIZE
 40
0.0
  9
$PLINEWID
 40
0.0
  9
$SPLFRAME
 70
     0
  9
$SPLINETYPE
 70
     6
  9
$SPLINESEGS
 70
     8
  9
$HANDSEED
  5
2551A1
  9
$SURFTAB1
 70
     6
  9
$SURFTAB2
 70
     6
  9
$SURFTYPE
 70
     6
  9
$SURFU
 70
     6
  9
$SURFV
 70
     6
  9
$UCSBASE
  2

  9
$UCSNAME
  2

  9
$UCSORG
 10
0.0
 20
0.0
 30
0.0
  9
$UCSXDIR
 10
1.0
 20
0.0
 30
0.0
  9
$UCSYDIR
 10
0.0
 20
1.0
 30
0.0
  9
$UCSORTHOREF
  2

  9
$UCSORTHOVIEW
 70
     0
  9
$UCSORGTOP
 10
0.0
 20
0.0
 30
0.0
  9
$UCSORGBOTTOM
 10
0.0
 20
0.0
 30
0.0
  9
$UCSORGLEFT
 10
0.0
 20
0.0
 30
0.0
  9
$UCSORGRIGHT
 10
0.0
 20
0.0
 30
0.0
  9
$UCSORGFRONT
 10
0.0
 20
0.0
 30
0.0
  9
$UCSORGBACK
 10
0.0
 20
0.0
 30
0.0
  9
$PUCSBASE
  2

  9
$PUCSNAME
  2

  9
$PUCSORG
 10
0.0
 20
0.0
 30
0.0
  9
$PUCSXDIR
 10
1.0
 20
0.0
 30
0.0
  9
$PUCSYDIR
 10
0.0
 20
1.0
 30
0.0
  9
$PUCSORTHOREF
  2

  9
$PUCSORTHOVIEW
 70
     0
  9
$PUCSORGTOP
 10
0.0
 20
0.0
 30
0.0
  9
$PUCSORGBOTTOM
 10
0.0
 20
0.0
 30
0.0
  9
$PUCSORGLEFT
 10
0.0
 20
0.0
 30
0.0
  9
$PUCSORGRIGHT
 10
0.0
 20
0.0
 30
0.0
  9
$PUCSORGFRONT
 10
0.0
 20
0.0
 30
0.0
  9
$PUCSORGBACK
 10
0.0
 20
0.0
 30
0.0
  9
$USERI1
 70
     0
  9
$USERI2
 70
     0
  9
$USERI3
 70
     0
  9
$USERI4
 70
     0
  9
$USERI5
 70
     0
  9
$USERR1
 40
0.0
  9
$USERR2
 40
0.0
  9
$USERR3
 40
0.0
  9
$USERR4
 40
0.0
  9
$USERR5
 40
0.0
  9
$WORLDVIEW
 70
     0
  9
$SHADEDGE
 70
     3
  9
$SHADEDIF
 70
    70
  9
$TILEMODE
 70
     1
  9
$MAXACTVP
 70
    16
  9
$PINSBASE
 10
0.0
 20
0.0
 30
0.0
  9
$PLIMCHECK
 70
     0
  9
$PEXTMIN
 10
1.000000000000000E+20
 20
1.000000000000000E+20
 30
1.000000000000000E+20
  9
$PEXTMAX
 10
-1.000000000000000E+20
 20
-1.000000000000000E+20
 30
-1.000000000000000E+20
  9
$PLIMMIN
 10
0.0
 20
0.0
  9
$PLIMMAX
 10
0.0
 20
0.0
  9
$UNITMODE
 70
     0
  9
$VISRETAIN
 70
     0
  9
$PLINEGEN
 70
     0
  9
$PSLTSCALE
 70
     0
  9
$TREEDEPTH
 70
  3020
  9
$CMLSTYLE
  2
STANDARD
  9
$CMLJUST
 70
     0
  9
$CMLSCALE
 40
1.0
  9
$PROXYGRAPHICS
 70
     1
  9
$MEASUREMENT
 70
     0
  9
$CELWEIGHT
370
    -1
  9
$ENDCAPS
280
     0
  9
$JOINSTYLE
280
     0
  9
$LWDISPLAY
290
     0
  9
$INSUNITS
 70
     0
  9
$HYPERLINKBASE
  1

  9
$STYLESHEET
  1
spax form.ctb
  9
$XEDIT
290
     1
  9
$CEPSNTYPE
380
     0
  9
$PSTYLEMODE
290
     1
  9
$FINGERPRINTGUID
  2
{BBAEEBA6-8B94-11D3-9160-00E0294F7E09}
  9
$VERSIONGUID
  2
{8A90CA03-86C9-4F98-B0D5-5BA3798E588E}
  9
$EXTNAMES
290
     1
  9
$PSVPSCALE
 40
0.0
  9
$OLESTARTUP
290
     0
  0
ENDSEC
  0
SECTION
  2
CLASSES
  0
CLASS
  1
LWPOLYLINE
  2
AcDbPolyline
  3
ObjectDBX Classes
 90
        0
280
     0
281
     1
  0
CLASS
  1
ACDBDICTIONARYWDFLT
  2
AcDbDictionaryWithDefault
  3
ObjectDBX Classes
 90
        0
280
     0
281
     0
  0
CLASS
  1
ACDBPLACEHOLDER
  2
AcDbPlaceHolder
  3
ObjectDBX Classes
 90
        0
280
     0
281
     0
  0
CLASS
  1
LAYOUT
  2
AcDbLayout
  3
ObjectDBX Classes
 90
        0
280
     0
281
     0
  0
CLASS
  1
DICTIONARYVAR
  2
AcDbDictionaryVar
  3
ObjectDBX Classes
 90
        0
280
     0
281
     0
  0
CLASS
  1
MATERIAL
  2
AcDbMaterial
  3
ObjectDBX Classes
 90
     1153
280
     0
281
     0
  0
CLASS
  1
VISUALSTYLE
  2
AcDbVisualStyle
  3
ObjectDBX Classes
 90
     4095
280
     0
281
     0
  0
CLASS
  1
TABLESTYLE
  2
AcDbTableStyle
  3
ObjectDBX Classes
 90
     4095
280
     0
281
     0
  0
CLASS
  1
SCALE
  2
AcDbScale
  3
ObjectDBX Classes
 90
     1153
280
     0
281
     0
  0
CLASS
  1
MLEADERSTYLE
  2
AcDbMLeaderStyle
  3
ACDB_MLEADERSTYLE_CLASS
 90
     4095
280
     0
281
     0
  0
CLASS
  1
CELLSTYLEMAP
  2
AcDbCellStyleMap
  3
ObjectDBX Classes
 90
     1152
280
     0
281
     0
  0
CLASS
  1
SORTENTSTABLE
  2
AcDbSortentsTable
  3
ObjectDBX Classes
 90
        0
280
     0
281
     0
  0
CLASS
  1
DIMASSOC
  2
AcDbDimAssoc
  3
"AcDbDimAssoc|Product Desc:     AcDim ARX App For Dimension|Company:          Autodesk, Inc.|WEB Address:      www.autodesk.com"
 90
        0
280
     0
281
     0
  0
CLASS
  1
ACDB_RADIMOBJECTCONTEXTDATA_CLASS
  2
AcDbRadialDimensionObjectContextData
  3
ObjectDBX Classes
 90
     1153
280
     0
281
     0
  0
CLASS
  1
ACDB_DMDIMOBJECTCONTEXTDATA_CLASS
  2
AcDbDiametricDimensionObjectContextData
  3
ObjectDBX Classes
 90
     1153
280
     0
281
     0
  0
CLASS
  1
MULTILEADER
  2
AcDbMLeader
  3
ACDB_MLEADER_CLASS
 90
     1025
280
     0
281
     1
  0
CLASS
  1
RASTERVARIABLES
  2
AcDbRasterVariables
  3
ISM
 90
        0
280
     0
281
     0
  0
CLASS
  1
SUN
  2
AcDbSun
  3
SCENEOE
 90
     1153
280
     0
281
     0
  0
ENDSEC
  0
SECTION
  2
TABLES
  0
TABLE
  2
VPORT
  5
8
330
0
100
AcDbSymbolTable
 70
     1
  0
VPORT
  5
2305E2
330
8
100
AcDbSymbolTableRecord
100
AcDbViewportTableRecord
  2
*Active
 70
     0
 10
0.0
 20
0.0
 11
1.0
 21
1.0
 12
60.04319555203074
 22
672.5525641471719
 13
0.0
 23
0.0
 14
1.0
 24
1.0
 15
20.0
 25
20.0
 16
0.0
 26
0.0
 36
1.0
 17
0.0
 27
0.0
 37
0.0
 40
109.6512449608817
 41
2.027568922305764
 42
50.0
 43
0.0
 44
0.0
 50
0.0
 51
0.0
 71
    16
 72
   100
 73
     1
 74
     0
 75
     0
 76
     0
 77
     0
 78
     0
281
     0
 65
     1
110
0.0
120
0.0
130
0.0
111
1.0
121
0.0
131
0.0
112
0.0
122
1.0
132
0.0
 79
     0
146
0.0
  0
ENDTAB
  0
TABLE
  2
LTYPE
  5
5
330
0
100
AcDbSymbolTable
 70
     5
  0
LTYPE
  5
12
330
5
100
AcDbSymbolTableRecord
100
AcDbLinetypeTableRecord
  2
BYBLOCK
 70
     0
  3

 72
    65
 73
     0
 40
0.0
  0
LTYPE
  5
13
330
5
100
AcDbSymbolTableRecord
100
AcDbLinetypeTableRecord
  2
BYLAYER
 70
     0
  3

 72
    65
 73
     0
 40
0.0
  0
LTYPE
  5
14
330
5
100
AcDbSymbolTableRecord
100
AcDbLinetypeTableRecord
  2
CONTINUOUS
 70
     0
  3
Solid line
 72
    65
 73
     0
 40
0.0
  0
LTYPE
  5
26
330
5
100
AcDbSymbolTableRecord
100
AcDbLinetypeTableRecord
  2
PHANTOM
 70
     0
  3
_____ _ _ _____ _ _ _____ _ _ _____ _ _ ____
 72
    65
 73
     6
 40
2.5
 49
1.25
 74
     0
 49
-0.25
 74
     0
 49
0.25
 74
     0
 49
-0.25
 74
     0
 49
0.25
 74
     0
 49
-0.25
 74
     0
  0
LTYPE
  5
514
330
5
100
AcDbSymbolTableRecord
100
AcDbLinetypeTableRecord
  2
CENTER
 70
     0
  3
Center ____ _ ____ _ ____ _ ____ _ ____ _ ____
 72
    65
 73
     4
 40
2.0
 49
1.25
 74
     0
 49
-0.25
 74
     0
 49
0.25
 74
     0
 49
-0.25
 74
     0
  0
LTYPE
  5
660DF
330
5
100
AcDbSymbolTableRecord
100
AcDbLinetypeTableRecord
  2
HIDDEN
 70
     0
  3
_ _ _ _ _ _ _ _ _ _ _ _ _ _ _ _ _ _ _ _ _ _ _
 72
    65
 73
     2
 40
0.375
 49
0.25
 74
     0
 49
-0.125
 74
     0
  0
ENDTAB
  0
TABLE
  2
LAYER
  5
2
102
{ACAD_XDICTIONARY
360
67DE7
102
}
330
0
100
AcDbSymbolTable
 70
    20
  0
LAYER
  5
F
102
{ACAD_XDICTIONARY
360
66C5B
102
}
330
2
100
AcDbSymbolTableRecord
100
AcDbLayerTableRecord
  2
0
 70
     0
 62
     7
  6
CONTINUOUS
370
    -3
390
616
  0
LAYER
  5
2F4
102
{ACAD_XDICTIONARY
360
66C67
102
}
330
2
100
AcDbSymbolTableRecord
100
AcDbLayerTableRecord
  2
文字
 70
     0
 62
     7
  6
CONTINUOUS
370
    -3
390
616
  0
LAYER
  5
305
102
{ACAD_XDICTIONARY
360
66C6B
102
}
330
2
100
AcDbSymbolTableRecord
100
AcDbLayerTableRecord
  2
姿図
 70
     0
 62
     8
  6
CONTINUOUS
370
    -3
390
616
  0
ENDTAB
  0
TABLE
  2
STYLE
  5
3
330
0
100
AcDbSymbolTable
 70
     2
  0
STYLE
  5
10
330
3
100
AcDbSymbolTableRecord
100
AcDbTextStyleTableRecord
  2
STANDARD
 70
     0
 40
0.0
 41
1.0
 50
0.0
 71
     0
 42
3.5
  3
MONOTXT
  4
BIGFONT
  0
STYLE
  5
113DD
330
3
100
AcDbSymbolTableRecord
100
AcDbTextStyleTableRecord
  2
EXTFONT
 70
     0
 40
2.5
 41
1.0
 50
0.0
 71
     0
 42
2.5
  3
txt.shx
  4
extfont
  0
ENDTAB
  0
TABLE
  2
VIEW
  5
6
330
0
100
AcDbSymbolTable
 70
     0
  0
ENDTAB
  0
TABLE
  2
UCS
  5
7
330
0
100
AcDbSymbolTable
 70
     0
  0
ENDTAB
  0
TABLE
  2
APPID
  5
9
330
0
100
AcDbSymbolTable
 70
    12
  0
APPID
  5
11
330
9
100
AcDbSymbolTableRecord
100
AcDbRegAppTableRecord
  2
ACAD
 70
     0
  0
APPID
  5
66C55
330
9
100
AcDbSymbolTableRecord
100
AcDbRegAppTableRecord
  2
ACAD_MLEADERVER
 70
     0
  0
APPID
  5
66CC8
330
9
100
AcDbSymbolTableRecord
100
AcDbRegAppTableRecord
  2
ACAD_PSEXT
 70
     0
  0
APPID
  5
67DE4
330
9
100
AcDbSymbolTableRecord
100
AcDbRegAppTableRecord
  2
ACAD_DSTYLE_DIMJAG
 70
     0
  0
APPID
  5
67DE5
330
9
100
AcDbSymbolTableRecord
100
AcDbRegAppTableRecord
  2
ACAD_DSTYLE_DIMBREAK
 70
     0
  0
APPID
  5
67DE6
330
9
100
AcDbSymbolTableRecord
100
AcDbRegAppTableRecord
  2
ACAD_DSTYLE_DIMTALN
 70
     0
  0
APPID
  5
68101
330
9
100
AcDbSymbolTableRecord
100
AcDbRegAppTableRecord
  2
ACAD_EXEMPT_FROM_CAD_STANDARDS
 70
     0
  0
APPID
  5
74C21
330
9
100
AcDbSymbolTableRecord
100
AcDbRegAppTableRecord
  2
ACAD_DSTYLE_DIMRADIAL_EXTENSION
 70
     0
  0
APPID
  5
86ADD
330
9
100
AcDbSymbolTableRecord
100
AcDbRegAppTableRecord
  2
AcAecLayerStandard
 70
     0
  0
APPID
  5
86ADE
330
9
100
AcDbSymbolTableRecord
100
AcDbRegAppTableRecord
  2
AcadAnnotative
 70
     0
  0
APPID
  5
86ADF
330
9
100
AcDbSymbolTableRecord
100
AcDbRegAppTableRecord
  2
AcadAnnotativeDecomposition
 70
     0
  0
APPID
  5
1514BF
330
9
100
AcDbSymbolTableRecord
100
AcDbRegAppTableRecord
  2
ASK_MEN_XD
 70
     0
  0
ENDTAB
  0
TABLE
  2
DIMSTYLE
  5
A
330
0
100
AcDbSymbolTable
 70
     4
100
AcDbDimStyleTable
  0
DIMSTYLE
105
1CC
330
A
100
AcDbSymbolTableRecord
100
AcDbDimStyleTableRecord
  2
STANDARD
 70
     0
 41
2.5
 42
1.5
 44
1.0
 73
     0
 74
     0
 77
     3
 78
     8
 79
     2
140
2.500000000000003
141
0.0
147
1.0
171
     0
172
     1
173
     1
176
     8
177
     8
271
     2
178
     7
179
     2
271
     2
272
     2
274
     0
289
     1
340
10
341
608
343
608
344
608
1001
ACAD_DSTYLE_DIMJAG
1070
   388
1040
1.5
1001
ACAD_DSTYLE_DIMTALN
1070
   392
1070
     0
  0
DIMSTYLE
105
254B6F
330
A
100
AcDbSymbolTableRecord
100
AcDbDimStyleTableRecord
  2
ISO-25
 70
     0
 41
2.5
 42
0.625
 43
3.75
 44
1.25
 73
     0
 74
     0
 77
     1
 78
     8
140
2.5
141
2.5
143
0.03937007874016
147
0.625
171
     3
172
     1
178
     0
271
     2
272
     2
274
     3
278
    44
283
     0
284
     8
340
10
  0
ENDTAB
  0
TABLE
  2
BLOCK_RECORD
  5
1
330
0
100
AcDbSymbolTable
 70
    10
  0
BLOCK_RECORD
  5
18
102
{ACAD_XDICTIONARY
360
845D5
102
}
330
1
100
AcDbSymbolTableRecord
100
AcDbBlockTableRecord
  2
*MODEL_SPACE
340
619
  0
BLOCK_RECORD
  5
15
330
1
100
AcDbSymbolTableRecord
100
AcDbBlockTableRecord
  2
*PAPER_SPACE
340
61A
  0
BLOCK_RECORD
  5
608
330
1
100
AcDbSymbolTableRecord
100
AcDbBlockTableRecord
  2
_OPEN
340
0
102
{BLKREFS
331
254A91
331
254A92
331
254A9A
331
254A9B
331
254AA3
331
254AA4
331
254AAC
331
254AAD
331
254AB5
331
254AB6
331
254ABE
331
254ABF
331
254AC7
331
254AC8
102
}
  0
BLOCK_RECORD
  5
A48
330
1
100
AcDbSymbolTableRecord
100
AcDbBlockTableRecord
  2
SUN
340
0
  0
BLOCK_RECORD
  5
689D5
330
1
100
AcDbSymbolTableRecord
100
AcDbBlockTableRecord
  2
_OPEN30
340
0
  0
ENDTAB
  0
ENDSEC
  0
SECTION
  2
BLOCKS
  0
BLOCK
  5
39
330
18
100
AcDbEntity
  8
0
100
AcDbBlockBegin
  2
*MODEL_SPACE
 70
     0
 10
0.0
 20
0.0
 30
0.0
  3
*MODEL_SPACE
  1
*MODEL_SPACE
  0
ENDBLK
  5
3A
330
18
100
AcDbEntity
  8
0
100
AcDbBlockEnd
  0
BLOCK
  5
37
330
15
100
AcDbEntity
 67
     1
  8
0
100
AcDbBlockBegin
  2
*PAPER_SPACE
 70
     0
 10
0.0
 20
0.0
 30
0.0
  3
*PAPER_SPACE
  1
*PAPER_SPACE
  0
ENDBLK
  5
38
330
15
100
AcDbEntity
 67
     1
  8
0
100
AcDbBlockEnd
  0
BLOCK
  5
609
330
608
100
AcDbEntity
  8
0
100
AcDbBlockBegin
  2
_OPEN
 70
     0
 10
0.0
 20
0.0
 30
0.0
  3
_OPEN
  1
_OPEN
  0
LINE
  5
60A
330
608
100
AcDbEntity
  8
0
  6
ByBlock
 62
     0
100
AcDbLine
 10
-1.0
 20
0.1666666666666667
 30
0.0
 11
0.0
 21
0.0
 31
0.0
  0
LINE
  5
60B
330
608
100
AcDbEntity
  8
0
  6
ByBlock
 62
     0
100
AcDbLine
 10
0.0
 20
0.0
 30
0.0
 11
-1.0
 21
-0.1666666666666667
 31
0.0
  0
LINE
  5
60C
330
608
100
AcDbEntity
  8
0
  6
ByBlock
 62
     0
100
AcDbLine
 10
0.0
 20
0.0
 30
0.0
 11
-1.0
 21
0.0
 31
0.0
  0
ENDBLK
  5
60D
330
608
100
AcDbEntity
  8
0
100
AcDbBlockEnd
  0
BLOCK
  5
A49
330
A48
100
AcDbEntity
  8
0
100
AcDbBlockBegin
  2
SUN
 70
     0
 10
0.0
 20
0.0
 30
0.0
  3
SUN
  1
SUN
  0
LINE
  5
A4A
330
A48
100
AcDbEntity
  8
0
100
AcDbLine
 10
-0.0000000000000568
 20
0.0
 30
0.0
 11
-1.500000000000057
 21
0.0
 31
0.0
  0
LINE
  5
A4B
330
A48
100
AcDbEntity
  8
0
100
AcDbLine
 10
-0.0000000000000568
 20
0.0000000000000284
 30
0.0
 11
-1.500000000000057
 21
0.401923788646684
 31
0.0
  0
LINE
  5
A4C
330
A48
100
AcDbEntity
  8
0
100
AcDbLine
 10
-0.0000000000000568
 20
0.0000000000000284
 30
0.0
 11
-1.500000000000057
 21
-0.4019237886466556
 31
0.0
  0
ENDBLK
  5
A4D
330
A48
100
AcDbEntity
  8
0
100
AcDbBlockEnd
  0
BLOCK
  5
689D6
330
689D5
100
AcDbEntity
  8
0
100
AcDbBlockBegin
  2
_OPEN30
 70
     0
 10
0.0
 20
0.0
 30
0.0
  3
_OPEN30
  1
_OPEN30
  0
LINE
  5
689D7
330
689D5
100
AcDbEntity
  8
0
  6
ByBlock
 62
     0
100
AcDbLine
 10
-1.0
 20
0.26794919
 30
0.0
 11
0.0
 21
0.0
 31
0.0
  0
LINE
  5
689D8
330
689D5
100
AcDbEntity
  8
0
  6
ByBlock
 62
     0
100
AcDbLine
 10
0.0
 20
0.0
 30
0.0
 11
-1.0
 21
-0.26794919
 31
0.0
  0
LINE
  5
689D9
330
689D5
100
AcDbEntity
  8
0
  6
ByBlock
 62
     0
100
AcDbLine
 10
0.0
 20
0.0
 30
0.0
 11
-1.0
 21
0.0
 31
0.0
  0
ENDBLK
  5
689DA
330
689D5
100
AcDbEntity
  8
0
100
AcDbBlockEnd
  0
ENDSEC
  0
SECTION
  2
ENTITIES
  0
TEXT
  5
11B04
330
18
100
AcDbEntity
  8
文字
100
AcDbText
 10
-1240.183388714458
 20
-1416.837204555437
 30
0.0
 40
6.75
  1

 41
1.0228
100
AcDbText
  0
MTEXT
  5
12B3E
330
18
100
AcDbEntity
  8
0
100
AcDbMText
 10
-974.1891318600246
 20
-2072.131137572738
 30
0.0
 40
2.500000000000003
 41
0.0
 71
     9
 72
     1
  1
\A1;
 73
     1
 44
1.0
  0
TEXT
  5
246FE7
330
18
100
AcDbEntity
  8
文字
100
AcDbText
 10
21.8215574572389
 20
618.8019538722299
 30
0.0
 40
9.0
  1
SX-910LE
  7
EXTFONT
100
AcDbText
  0
LINE
  5
254E30
330
18
100
AcDbEntity
  8
姿図
100
AcDbLine
 10
35.47776684385053
 20
671.4060578091915
 30
0.0
 11
28.84304512645963
 21
663.5037784512785
 31
0.0
  0
LINE
  5
254E31
330
18
100
AcDbEntity
  8
姿図
100
AcDbLine
 10
50.7475325960026
 20
642.3131699043596
 30
0.0
 11
58.42572677851766
 21
649.2059828276466
 31
0.0
  0
LINE
  5
254E32
330
18
100
AcDbEntity
  8
姿図
100
AcDbLine
 10
37.33141093286815
 20
676.2302635048694
 30
0.0
 11
35.04820765338798
 21
673.5108545893701
 31
0.0
  0
LINE
  5
254E33
330
18
100
AcDbEntity
  8
姿図
100
AcDbLine
 10
60.54359576997558
 20
648.8463764065574
 30
0.0
 11
63.18589000486639
 21
651.218397465472
 31
0.0
  0
LINE
  5
254E34
330
18
100
AcDbEntity
  8
姿図
100
AcDbLine
 10
34.95720986017568
 20
716.5178889421179
 30
0.0
 11
34.93569964239197
 21
714.7507761757481
 31
0.0
  0
ARC
  5
254E35
330
18
100
AcDbEntity
  8
姿図
100
AcDbCircle
 10
40.97489653741121
 20
717.9343649150524
 30
0.0
 40
8.500000000000028
100
AcDbArc
 50
258.0668780858996
 51
280.5383226078562
  0
LINE
  5
254E36
330
18
100
AcDbEntity
  8
姿図
100
AcDbLine
 10
42.46495926163578
 20
717.1089154481823
 30
0.0
 11
42.47177160172143
 21
717.6685645068409
 31
0.0
  0
LINE
  5
254E37
330
18
100
AcDbEntity
  8
姿図
100
AcDbLine
 10
42.56783091935128
 20
725.5600534828736
 30
0.0
 11
42.57450560593077
 21
726.1083939964241
 31
0.0
  0
LINE
  5
254E38
330
18
100
AcDbEntity
  8
姿図
100
AcDbLine
 10
39.57472847515348
 20
726.1449087715488
 30
0.0
 11
39.56805378857399
 21
725.5965682579983
 31
0.0
  0
LINE
  5
254E39
330
18
100
AcDbEntity
  8
姿図
100
AcDbLine
 10
39.4668277589372
 20
717.2806222709098
 30
0.0
 11
39.46518213085849
 21
717.145430223307
 31
0.0
  0
LINE
  5
254E3A
330
18
100
AcDbEntity
  8
姿図
100
AcDbLine
 10
78.99797140569774
 20
698.4948571310766
 30
0.0
 11
77.6945095847855
 21
696.865101813928
 31
0.0
  0
LINE
  5
254E3B
330
18
100
AcDbEntity
  8
姿図
100
AcDbLine
 10
82.92718634001648
 20
691.6875578756698
 30
0.0
 11
84.5148290789898
 21
693.0384073518109
 31
0.0
  0
LWPOLYLINE
  5
254E3C
330
18
100
AcDbEntity
  8
姿図
100
AcDbPolyline
 90
        3
 70
   128
 43
0.0
 10
88.2511391320775
 20
707.7553353974022
 10
83.62726180370558
 20
703.1271816153871
 10
79.00347080987072
 20
698.4991135518994
  0
LWPOLYLINE
  5
254E3D
330
18
100
AcDbEntity
  8
姿図
100
AcDbPolyline
 90
        3
 70
   128
 43
0.0
 10
84.51953401346515
 20
693.0444007898893
 10
88.98947069114419
 20
697.8234538982936
 10
93.45951159117931
 20
702.6026190736486
  0
LINE
  5
254E3E
330
18
100
AcDbEntity
  8
姿図
100
AcDbLine
 10
73.57828260586564
 20
701.8206971402633
 30
0.0
 11
72.32443710957551
 21
700.1771869316535
 31
0.0
  0
LINE
  5
254E3F
330
18
100
AcDbEntity
  8
姿図
100
AcDbLine
 10
86.24047733733715
 20
686.4060157032602
 30
0.0
 11
87.84376344347615
 21
687.7094439941718
 31
0.0
  0
LWPOLYLINE
  5
254E40
330
18
100
AcDbEntity
  8
姿図
100
AcDbPolyline
 90
        3
 70
   128
 43
0.0
 10
82.92201983578332
 20
711.0599318133227
 10
78.25953712446108
 20
706.451440559402
 10
73.59715837337555
 20
701.843052618892
  0
LWPOLYLINE
  5
254E41
330
18
100
AcDbEntity
  8
姿図
100
AcDbPolyline
 90
        3
 70
   128
 43
0.0
 10
87.86536337893847
 20
687.729067426543
 10
92.31487415730817
 20
692.5453187252697
 10
96.76448681194074
 20
697.3616785033822
  0
LINE
  5
254E42
330
18
100
AcDbEntity
  8
姿図
100
AcDbLine
 10
87.70160545720236
 20
681.3357184238941
 30
0.0
 11
89.31638421618231
 21
682.6023113316945
 31
0.0
  0
LWPOLYLINE
  5
254E43
330
18
100
AcDbEntity
  8
姿図
100
AcDbPolyline
 90
        3
 70
   128
 43
0.0
 10
77.76948926497923
 20
712.5613335372241
 10
73.07266431331846
 20
707.9630979496351
 10
68.76203440131158
 20
703.7429487761003
  0
LWPOLYLINE
  5
254E44
330
18
100
AcDbEntity
  8
姿図
100
AcDbPolyline
 90
        3
 70
   128
 43
0.0
 10
89.33675151320145
 20
682.6213137114029
 10
93.7762831214568
 20
687.4710754393077
 10
98.21602404187419
 20
692.3210669848248
  0
SPLINE
  5
254E45
330
18
100
AcDbEntity
  8
姿図
100
AcDbSpline
210
0.0
220
0.0
230
1.0
 70
     8
 71
     3
 72
    11
 73
     7
 74
     0
 42
0.000000001
 43
0.0000000001
 40
0.0
 40
0.0
 40
0.0
 40
0.0
 40
0.2080593027658973
 40
0.4492196225741918
 40
0.7167089517384738
 40
0.9999999999999999
 40
0.9999999999999999
 40
0.9999999999999999
 40
0.9999999999999999
 10
88.69291643306076
 20
707.7023631386699
 30
0.0
 10
88.67026641206263
 20
707.7165543210965
 30
0.0
 10
88.62136288432413
 20
707.7471944199951
 30
0.0
 10
88.52039956624549
 20
707.7796866751136
 30
0.0
 10
88.40465360176876
 20
707.7967523807686
 30
0.0
 10
88.32911802134487
 20
707.7819396466984
 30
0.0
 10
88.29026668488419
 20
707.7743207932783
 30
0.0
  0
SPLINE
  5
254E46
330
18
100
AcDbEntity
  8
姿図
100
AcDbSpline
210
0.0
220
0.0
230
1.0
 70
     8
 71
     3
 72
    11
 73
     7
 74
     0
 42
0.000000001
 43
0.0000000001
 40
0.0
 40
0.0
 40
0.0
 40
0.0
 40
0.2556878358607478
 40
0.514787836424612
 40
0.7664646499752104
 40
1.0
 40
1.0
 40
1.0
 40
1.0
 10
88.81470797508567
 20
707.2960998438535
 30
0.0
 10
88.8199327742505
 20
707.333909755168
 30
0.0
 10
88.8304520977403
 20
707.4100341526209
 30
0.0
 10
88.80562356315153
 20
707.5227282099363
 30
0.0
 10
88.76017925077895
 20
707.6247651158762
 30
0.0
 10
88.71547624433077
 20
707.6765497811757
 30
0.0
 10
88.69396043528528
 20
707.7014740325537
 30
0.0
  0
SPLINE
  5
254E47
330
18
100
AcDbEntity
  8
姿図
100
AcDbSpline
210
0.0
220
0.0
230
1.0
 70
     8
 71
     3
 72
    13
 73
     9
 74
     0
 42
0.000000001
 43
0.0000000001
 40
0.0
 40
0.0
 40
0.0
 40
0.0
 40
0.0976632976996528
 40
0.2049708223648813
 40
0.4458898344993304
 40
0.7137611663269982
 40
0.8551906968365752
 40
1.0
 40
1.0
 40
1.0
 40
1.0
 10
93.42172784106967
 20
703.0132888219508
 30
0.0
 10
93.4137144265643
 20
703.0215878271724
 30
0.0
 10
93.39689627481437
 20
703.0390053623688
 30
0.0
 10
93.3453315777677
 20
703.0775527980118
 30
0.0
 10
93.25726895893786
 20
703.1255004720256
 30
0.0
 10
93.1504621748636
 20
703.1560305560251
 30
0.0
 10
93.0591017375263
 20
703.1641484342267
 30
0.0
 10
93.01437809670298
 20
703.1582271533363
 30
0.0
 10
92.99175223850108
 20
703.15523155505
 30
0.0
  0
SPLINE
  5
254E48
330
18
100
AcDbEntity
  8
姿図
100
AcDbSpline
210
0.0
220
0.0
230
1.0
 70
     8
 71
     3
 72
    11
 73
     7
 74
     0
 42
0.000000001
 43
0.0000000001
 40
0.0
 40
0.0
 40
0.0
 40
0.0
 40
0.2945109342883839
 40
0.5636144516588548
 40
0.7996358445982794
 40
1.0
 40
1.0
 40
1.0
 40
1.0
 10
93.47942659905254
 20
702.6442556526275
 30
0.0
 10
93.48633912928415
 20
702.6813004981253
 30
0.0
 10
93.49956784673549
 20
702.7521943355052
 30
0.0
 10
93.48692643571081
 20
702.8553120955864
 30
0.0
 10
93.46147622251877
 20
702.943111066344
 30
0.0
 10
93.4349963542295
 20
702.9901896370442
 30
0.0
 10
93.4228382603946
 20
703.0118055179819
 30
0.0
  0
LINE
  5
254E49
330
18
100
AcDbEntity
  8
姿図
100
AcDbLine
 10
64.09399302590441
 20
702.7919187767582
 30
0.0
 11
63.32932207243007
 21
701.7262591728496
 31
0.0
  0
LINE
  5
254E4A
330
18
100
AcDbEntity
  8
姿図
100
AcDbLine
 10
87.06467739893537
 20
677.2267840046726
 30
0.0
 11
88.6741043680214
 21
678.4625666964012
 31
0.0
  0
LINE
  5
254E4B
330
18
100
AcDbEntity
  8
姿図
100
AcDbLine
 10
96.45628295776282
 20
697.9416978272842
 30
0.0
 11
89.7424497138822
 21
698.6285057026018
 31
0.0
  0
LWPOLYLINE
  5
254E4C
330
18
100
AcDbEntity
  8
姿図
100
AcDbPolyline
 90
        3
 70
   128
 43
0.0
 10
73.56301237044704
 20
712.0178577405674
 10
68.83798400123891
 20
707.4159691757652
 10
67.30507550260342
 20
705.9230105572353
  0
LINE
  5
254E4D
330
18
100
AcDbEntity
  8
姿図
100
AcDbLine
 10
64.77116920124752
 20
703.4551408077361
 30
0.0
 11
64.11315012465576
 21
702.8142708456155
 31
0.0
  0
SPLINE
  5
254E4E
330
18
100
AcDbEntity
  8
姿図
100
AcDbSpline
210
0.0
220
0.0
230
1.0
 70
     8
 71
     3
 72
    11
 73
     7
 74
     0
 42
0.000000001
 43
0.0000000001
 40
0.0
 40
0.0
 40
0.0
 40
0.0
 40
0.2459181074243816
 40
0.4911770218333666
 40
0.739981851683918
 40
1.0
 40
1.0
 40
1.0
 40
1.0
 10
83.51172004569764
 20
710.7640881120092
 30
0.0
 10
83.50432164567832
 20
710.793947462945
 30
0.0
 10
83.48954467733762
 20
710.8535861256697
 30
0.0
 10
83.44329168773962
 20
710.9362663683889
 30
0.0
 10
83.381888876262
 20
711.0117957842372
 30
0.0
 10
83.33078321990249
 20
711.048445599284
 30
0.0
 10
83.30466726463851
 20
711.067174346714
 30
0.0
  0
LINE
  5
254E4F
330
18
100
AcDbEntity
  8
姿図
100
AcDbLine
 10
84.1517164613631
 20
703.6521209668678
 30
0.0
 11
83.51420287104861
 21
710.7534543757913
 31
0.0
  0
SPLINE
  5
254E50
330
18
100
AcDbEntity
  8
姿図
100
AcDbSpline
210
0.0
220
0.0
230
1.0
 70
     8
 71
     3
 72
    11
 73
     7
 74
     0
 42
0.000000001
 43
0.0000000001
 40
0.0
 40
0.0
 40
0.0
 40
0.0
 40
0.2198884493968012
 40
0.461666685160164
 40
0.7235517584306961
 40
1.0
 40
1.0
 40
1.0
 40
1.0
 10
83.29228678181852
 20
711.0734990556753
 30
0.0
 10
83.27135169290744
 20
711.0808572206719
 30
0.0
 10
83.22739743734007
 20
711.0963060523505
 30
0.0
 10
83.15038164057574
 20
711.1071587493884
 30
0.0
 10
83.06667748570621
 20
711.1085825610875
 30
0.0
 10
83.01089683532274
 20
711.0979063926463
 30
0.0
 10
82.98225201196328
 20
711.0924239008316
 30
0.0
  0
SPLINE
  5
254E51
330
18
100
AcDbEntity
  8
姿図
100
AcDbSpline
210
0.0
220
0.0
230
1.0
 70
     8
 71
     3
 72
    11
 73
     7
 74
     0
 42
0.000000001
 43
0.0000000001
 40
0.0
 40
0.0
 40
0.0
 40
0.0
 40
0.2308657326871704
 40
0.4779844910129821
 40
0.7360051246491686
 40
1.0
 40
1.0
 40
1.0
 40
1.0
 10
96.78060661992964
 20
697.700753256021
 30
0.0
 10
96.7654970188396
 20
697.7252295128941
 30
0.0
 10
96.73421409563406
 20
697.7759051633998
 30
0.0
 10
96.65884715080512
 20
697.8482390478011
 30
0.0
 10
96.56829345921273
 20
697.9091670953184
 30
0.0
 10
96.50590359106732
 20
697.9288225169621
 30
0.0
 10
96.47435164446682
 20
697.9387627016836
 30
0.0
  0
SPLINE
  5
254E52
330
18
100
AcDbEntity
  8
姿図
100
AcDbSpline
210
0.0
220
0.0
230
1.0
 70
     8
 71
     3
 72
    10
 73
     6
 74
     0
 42
0.000000001
 43
0.0000000001
 40
0.0
 40
0.0
 40
0.0
 40
0.0
 40
0.5323285783257705
 40
0.7752015008754457
 40
1.0
 40
1.0
 40
1.0
 40
1.0
 10
96.79371857326083
 20
697.4183971791595
 30
0.0
 10
96.80122568544283
 20
697.4664977006119
 30
0.0
 10
96.8121578894756
 20
697.5365439050447
 30
0.0
 10
96.80235197014093
 20
697.6284995852537
 30
0.0
 10
96.79158120955447
 20
697.6679545141768
 30
0.0
 10
96.78640396180728
 20
697.6869195575682
 30
0.0
  0
LWPOLYLINE
  5
254E53
330
18
100
AcDbEntity
  8
姿図
100
AcDbPolyline
 90
        3
 70
   128
 43
0.0
 10
88.69601863218776
 20
678.4825974575056
 10
93.1398511811538
 20
683.3598013537583
 10
97.58392265870611
 20
688.2372676985235
  0
LINE
  5
254E54
330
18
100
AcDbEntity
  8
姿図
100
AcDbLine
 10
98.03297993322909
 20
692.8659046430756
 30
0.0
 11
94.22798191104621
 21
694.6161100577933
 31
0.0
  0
LINE
  5
254E55
330
18
100
AcDbEntity
  8
姿図
100
AcDbLine
 10
85.72539574328019
 20
701.4825102146084
 30
0.0
 11
86.21353462883744
 21
702.000361773541
 31
0.0
  0
SPLINE
  5
254E56
330
18
100
AcDbEntity
  8
姿図
100
AcDbSpline
210
0.0
220
0.0
230
1.0
 70
     8
 71
     3
 72
    11
 73
     7
 74
     0
 42
0.000000001
 43
0.0000000001
 40
0.0
 40
0.0
 40
0.0
 40
0.0
 40
0.2290635028385311
 40
0.4753514119928943
 40
0.733921249918365
 40
1.0
 40
1.0
 40
1.0
 40
1.0
 10
78.32090529062049
 20
712.3905614148043
 30
0.0
 10
78.30664564536653
 20
712.4124847466724
 30
0.0
 10
78.27705410231411
 20
712.4579799330721
 30
0.0
 10
78.20835152164068
 20
712.5227907115043
 30
0.0
 10
78.1261799732419
 20
712.5783451395698
 30
0.0
 10
78.06896102335253
 20
712.597826270656
 30
0.0
 10
78.03994208188283
 20
712.6077062458014
 30
0.0
  0
LINE
  5
254E57
330
18
100
AcDbEntity
  8
姿図
100
AcDbLine
 10
80.1914094758871
 20
708.3609428372046
 30
0.0
 11
78.32517831691496
 21
712.3857284961091
 31
0.0
  0
LINE
  5
254E58
330
18
100
AcDbEntity
  8
姿図
100
AcDbLine
 10
87.50114211742772
 20
700.7124142526523
 30
0.0
 11
86.99198566482269
 21
700.1995793184444
 31
0.0
  0
SPLINE
  5
254E59
330
18
100
AcDbEntity
  8
姿図
100
AcDbSpline
210
0.0
220
0.0
230
1.0
 70
     8
 71
     3
 72
     9
 73
     5
 74
     0
 42
0.000000001
 43
0.0000000001
 40
0.0
 40
0.0
 40
0.0
 40
0.0
 40
0.4171398016220911
 40
1.0
 40
1.0
 40
1.0
 40
1.0
 10
77.98158334855901
 20
712.6127094174717
 30
0.0
 10
77.95826870625027
 20
712.6126851653187
 30
0.0
 10
77.90237703104191
 20
712.6126270261698
 30
0.0
 10
77.84892287702098
 20
712.5979716801496
 30
0.0
 10
77.81776657820424
 20
712.5894296622611
 30
0.0
  0
SPLINE
  5
254E5A
330
18
100
AcDbEntity
  8
姿図
100
AcDbSpline
210
0.0
220
0.0
230
1.0
 70
     8
 71
     3
 72
    11
 73
     7
 74
     0
 42
0.000000001
 43
0.0000000001
 40
0.0
 40
0.0
 40
0.0
 40
0.0
 40
0.2732838169174464
 40
0.5346091549649209
 40
0.7788002899775047
 40
1.0
 40
1.0
 40
1.0
 40
1.0
 10
98.26357666101046
 20
692.5281286486204
 30
0.0
 10
98.25553015450089
 20
692.5631846606702
 30
0.0
 10
98.23978924421195
 20
692.6317626876819
 30
0.0
 10
98.18071745726817
 20
692.7313388144187
 30
0.0
 10
98.11064211256834
 20
692.8126557399454
 30
0.0
 10
98.06274495139576
 20
692.8462322459601
 30
0.0
 10
98.03997948818284
 20
692.8621911189659
 30
0.0
  0
LINE
  5
254E5B
330
18
100
AcDbEntity
  8
姿図
100
AcDbLine
 10
98.2384772442112
 20
692.3581319426504
 30
0.0
 11
98.26483364682258
 21
692.5058240844332
 31
0.0
  0
LINE
  5
254E5C
330
18
100
AcDbEntity
  8
姿図
100
AcDbLine
 10
84.43121191816064
 20
674.7082881303689
 30
0.0
 11
86.02138127673646
 21
675.9256230911064
 31
0.0
  0
LINE
  5
254E5D
330
18
100
AcDbEntity
  8
姿図
100
AcDbLine
 10
70.94554295699197
 20
709.5147392333153
 30
0.0
 11
67.2863023504591
 21
705.9511008535771
 31
0.0
  0
LINE
  5
254E5E
330
18
100
AcDbEntity
  8
姿図
100
AcDbLine
 10
64.75238014535455
 20
703.4833812490841
 30
0.0
 11
63.33389516903884
 21
702.1019573374654
 31
0.0
  0
LINE
  5
254E5F
330
18
100
AcDbEntity
  8
姿図
100
AcDbLine
 10
86.04345737918408
 20
675.9460042027188
 30
0.0
 11
87.55243984921876
 21
677.6013077765328
 31
0.0
  0
LINE
  5
254E60
330
18
100
AcDbEntity
  8
姿図
100
AcDbLine
 10
97.48280409008248
 20
688.7324032307594
 30
0.0
 11
96.00596203656244
 21
689.9067862853867
 31
0.0
  0
LINE
  5
254E61
330
18
100
AcDbEntity
  8
姿図
100
AcDbLine
 10
75.41745484319978
 20
710.2586690553915
 30
0.0
 11
74.06734333989863
 21
711.9258875281532
 31
0.0
  0
SPLINE
  5
254E62
330
18
100
AcDbEntity
  8
姿図
100
AcDbSpline
210
0.0
220
0.0
230
1.0
 70
     8
 71
     3
 72
    11
 73
     7
 74
     0
 42
0.000000001
 43
0.0000000001
 40
0.0
 40
0.0
 40
0.0
 40
0.0
 40
0.2497792675011357
 40
0.5243572632663007
 40
0.8166506138138476
 40
1.0
 40
1.0
 40
1.0
 40
1.0
 10
74.06559824876416
 20
711.9254620514449
 30
0.0
 10
74.04175523861267
 20
711.9478061429954
 30
0.0
 10
73.99170202292291
 20
711.9947127049882
 30
0.0
 10
73.8909330954047
 20
712.0445158962485
 30
0.0
 10
73.79237530634245
 20
712.0726541396413
 30
0.0
 10
73.73090437573148
 20
712.0661792409021
 30
0.0
 10
73.70720873922662
 20
712.063683315667
 30
0.0
  0
LINE
  5
254E63
330
18
100
AcDbEntity
  8
姿図
100
AcDbLine
 10
73.68273408345433
 20
712.062353124498
 30
0.0
 11
73.6617080160629
 21
712.0612095289165
 31
0.0
  0
LINE
  5
254E64
330
18
100
AcDbEntity
  8
姿図
100
AcDbLine
 10
73.65875691807514
 20
712.0606733907521
 30
0.0
 11
73.56831643260216
 21
712.0223737245037
 31
0.0
  0
SPLINE
  5
254E65
330
18
100
AcDbEntity
  8
姿図
100
AcDbSpline
210
0.0
220
0.0
230
1.0
 70
     8
 71
     3
 72
    13
 73
     9
 74
     0
 42
0.000000001
 43
0.0000000001
 40
0.0
 40
0.0
 40
0.0
 40
0.0
 40
0.1438707787719399
 40
0.2844501855211392
 40
0.5512515600312289
 40
0.7923513343307871
 40
0.9005917523615311
 40
1.0
 40
1.0
 40
1.0
 40
1.0
 10
97.61606927145607
 20
688.3113362597364
 30
0.0
 10
97.61888670718218
 20
688.3329546590755
 30
0.0
 10
97.62445712336972
 20
688.3756968875889
 30
0.0
 10
97.617120577903
 20
688.4631991556328
 30
0.0
 10
97.58884547262548
 20
688.566455243126
 30
0.0
 10
97.54425177304142
 20
688.6535321100446
 30
0.0
 10
97.50799516001015
 20
688.7058511603863
 30
0.0
 10
97.49126275675167
 20
688.7235121500521
 30
0.0
 10
97.48325240483658
 20
688.7319670468298
 30
0.0
  0
LINE
  5
254E66
330
18
100
AcDbEntity
  8
姿図
100
AcDbLine
 10
71.02700171189502
 20
709.5479391848611
 30
0.0
 11
70.99399490574754
 21
709.5428444539673
 31
0.0
  0
SPLINE
  5
254E67
330
18
100
AcDbEntity
  8
姿図
100
AcDbSpline
210
0.0
220
0.0
230
1.0
 70
     8
 71
     3
 72
    11
 73
     7
 74
     0
 42
0.000000001
 43
0.0000000001
 40
0.0
 40
0.0
 40
0.0
 40
0.0
 40
0.2035143669097612
 40
0.4569438321528043
 40
0.7370244643815059
 40
1.0
 40
1.0
 40
1.0
 40
1.0
 10
58.91142344424713
 20
686.5397615463633
 30
0.0
 10
58.34592696789775
 20
686.2920774910126
 30
0.0
 10
57.07623711309469
 20
685.7359609714097
 30
0.0
 10
55.07028306204631
 20
684.7713260248565
 30
0.0
 10
52.92740734681126
 20
683.6893719887239
 30
0.0
 10
51.49185421812649
 20
682.9139849946908
 30
0.0
 10
50.79668606559218
 20
682.5385030056439
 30
0.0
  0
SPLINE
  5
254E68
330
18
100
AcDbEntity
  8
姿図
100
AcDbSpline
210
0.0
220
0.0
230
1.0
 70
     8
 71
     3
 72
    11
 73
     7
 74
     0
 42
0.000000001
 43
0.0000000001
 40
0.0
 40
0.0
 40
0.0
 40
0.0
 40
0.2645106806592422
 40
0.554664594667297
 40
0.8139918138277672
 40
0.9999999999999999
 40
0.9999999999999999
 40
0.9999999999999999
 40
0.9999999999999999
 10
69.05302560588433
 20
664.9038816763991
 30
0.0
 10
69.40704347660954
 20
665.6140834732455
 30
0.0
 10
70.14939980899419
 20
667.1033382390568
 30
0.0
 10
71.17842029482892
 20
669.3267937124849
 30
0.0
 10
72.0713081576647
 20
671.3575042341233
 30
0.0
 10
72.56788827629293
 20
672.61213153636
 30
0.0
 10
72.7753004111674
 20
673.1361656598918
 30
0.0
  0
LINE
  5
254E69
330
18
100
AcDbEntity
  8
姿図
100
AcDbLine
 10
60.12543950010323
 20
702.1397154025362
 30
0.0
 11
47.46206268943666
 21
713.6411168685719
 31
0.0
  0
LWPOLYLINE
  5
254E6A
330
18
100
AcDbEntity
  8
姿図
100
AcDbPolyline
 90
        3
 70
   128
 43
0.0
 10
47.39580860689213
 20
721.1149222341429
 10
47.20944302720056
 20
721.1206491991849
 10
46.40268523701695
 20
721.1454371492161
  0
SPLINE
  5
254E6B
330
18
100
AcDbEntity
  8
姿図
100
AcDbSpline
210
0.0
220
0.0
230
1.0
 70
     8
 71
     3
 72
     9
 73
     5
 74
     0
 42
0.000000001
 43
0.0000000001
 40
0.0
 40
0.0
 40
0.0
 40
0.0
 40
0.3746331732325789
 40
0.7904971192909431
 40
0.7904971192909431
 40
0.7904971192909431
 40
0.7904971192909431
 10
47.46206268943666
 20
713.6411168685719
 30
0.0
 10
47.44272359438864
 20
713.659873330096
 30
0.0
 10
47.40191701339833
 20
713.6994505214991
 30
0.0
 10
47.373850124608
 20
713.7505456162758
 30
0.0
 10
47.36026590330201
 20
713.7784935733218
 30
0.0
  0
SPLINE
  5
254E6C
330
18
100
AcDbEntity
  8
姿図
100
AcDbSpline
210
0.0
220
0.0
230
1.0
 70
     8
 71
     3
 72
    10
 73
     6
 74
     0
 42
0.000000001
 43
0.0000000001
 40
0.0
 40
0.0
 40
0.0
 40
0.0
 40
0.1287898738771099
 40
0.5988966193069335
 40
1.0
 40
1.0
 40
1.0
 40
1.0
 10
47.37524484108582
 20
714.2412927131176
 30
0.0
 10
47.38239931494718
 20
714.2547803205866
 30
0.0
 10
47.41566893529463
 20
714.3175001779218
 30
0.0
 10
47.50992483985715
 20
714.3865542663809
 30
0.0
 10
47.60312605250044
 20
714.4062959264702
 30
0.0
 10
47.64603570237131
 20
714.4153849468624
 30
0.0
  0
LINE
  5
254E6D
330
18
100
AcDbEntity
  8
姿図
100
AcDbLine
 10
59.22384759355458
 20
720.4128375781204
 30
0.0
 11
58.32869868338105
 21
720.4875818688805
 31
0.0
  0
SPLINE
  5
254E6E
330
18
100
AcDbEntity
  8
姿図
100
AcDbSpline
210
0.0
220
0.0
230
1.0
 70
     8
 71
     3
 72
    10
 73
     6
 74
     0
 42
0.000000001
 43
0.0000000001
 40
0.0
 40
0.0
 40
0.0
 40
0.0
 40
0.1577587983618355
 40
0.5988410517039858
 40
1.0
 40
1.0
 40
1.0
 40
1.0
 10
60.57052227787852
 20
701.993055891674
 30
0.0
 10
60.54667458451252
 20
701.9887047652956
 30
0.0
 10
60.4561504557519
 20
701.9721882025194
 30
0.0
 10
60.29427384352533
 20
702.0162584859729
 30
0.0
 10
60.17991062723559
 20
702.0998844222914
 30
0.0
 10
60.12543950010323
 20
702.1397154025362
 30
0.0
  0
LINE
  5
254E6F
330
18
100
AcDbEntity
  8
姿図
100
AcDbLine
 10
67.93289259989024
 20
693.5137193191026
 30
0.0
 11
63.46969712496553
 21
698.8269528263936
 31
0.0
  0
SPLINE
  5
254E70
330
18
100
AcDbEntity
  8
姿図
100
AcDbSpline
210
0.0
220
0.0
230
1.0
 70
     8
 71
     3
 72
    11
 73
     7
 74
     0
 42
0.000000001
 43
0.0000000001
 40
0.0
 40
0.0
 40
0.0
 40
0.0
 40
0.1761526600883009
 40
0.5444047659027204
 40
0.8943844119910912
 40
1.0
 40
1.0
 40
1.0
 40
1.0
 10
63.46969712496553
 20
698.8269528263936
 30
0.0
 10
63.4521395240387
 20
698.8497545722282
 30
0.0
 10
63.39787726301137
 20
698.9202240110496
 30
0.0
 10
63.33034877170451
 20
699.0726234606401
 30
0.0
 10
63.30125740836411
 20
699.2295741924434
 30
0.0
 10
63.30041404377033
 20
699.3154446716701
 30
0.0
 10
63.30021853591421
 20
699.3353510720831
 30
0.0
  0
LINE
  5
254E71
330
18
100
AcDbEntity
  8
姿図
100
AcDbLine
 10
63.30021853591421
 20
699.3353510720831
 30
0.0
 11
63.36939294628144
 21
705.0181844536415
 31
0.0
  0
SPLINE
  5
254E72
330
18
100
AcDbEntity
  8
姿図
100
AcDbSpline
210
0.0
220
0.0
230
1.0
 70
     8
 71
     3
 72
    12
 73
     8
 74
     0
 42
0.000000001
 43
0.0000000001
 40
0.0
 40
0.0
 40
0.0
 40
0.0
 40
0.1182996075179611
 40
0.3593711741405752
 40
0.5997085994558927
 40
0.8428729957765898
 40
1.0
 40
1.0
 40
1.0
 40
1.0
 10
63.36939294628144
 20
705.0181844536415
 30
0.0
 10
63.37101967422984
 20
705.0514367405079
 30
0.0
 10
63.37596135700534
 20
705.1524507136289
 30
0.0
 10
63.42041063191897
 20
705.3078224248618
 30
0.0
 10
63.50955782379214
 20
705.4455208130223
 30
0.0
 10
63.60093845219561
 20
705.518936580398
 30
0.0
 10
63.65807945298658
 20
705.5272346211217
 30
0.0
 10
63.68050909864075
 20
705.5304918639156
 30
0.0
  0
LINE
  5
254E73
330
18
100
AcDbEntity
  8
姿図
100
AcDbLine
 10
47.26412349331781
 20
721.118969246774
 30
0.0
 11
47.2739910477946
 21
721.9296110386962
 31
0.0
  0
LINE
  5
254E74
330
18
100
AcDbEntity
  8
姿図
100
AcDbLine
 10
34.77491604311541
 20
722.0817562325942
 30
0.0
 11
34.7452164773803
 21
719.6418701145731
 31
0.0
  0
SPLINE
  5
254E75
330
18
100
AcDbEntity
  8
姿図
100
AcDbSpline
210
0.0
220
0.0
230
1.0
 70
     8
 71
     3
 72
     9
 73
     5
 74
     0
 42
0.000000001
 43
0.0000000001
 40
0.0
 40
0.0
 40
0.0
 40
0.0
 40
0.6652673853680559
 40
1.0
 40
1.0
 40
1.0
 40
1.0
 10
47.26305010829427
 20
721.9507210623217
 30
0.0
 10
47.26237151190105
 20
721.9775566552385
 30
0.0
 10
47.26135147633619
 20
722.0178947110444
 30
0.0
 10
47.23507719139923
 20
722.0439999252163
 30
0.0
 10
47.22628233130473
 20
722.0527381918116
 30
0.0
  0
SPLINE
  5
254E76
330
18
100
AcDbEntity
  8
姿図
100
AcDbSpline
210
0.0
220
0.0
230
1.0
 70
     8
 71
     3
 72
    15
 73
    11
 74
     0
 42
0.000000001
 43
0.0000000001
 40
0.0
 40
0.0
 40
0.0
 40
0.0
 40
0.083365193235944
 40
0.2427388577439479
 40
0.402630428713474
 40
0.5636586764041016
 40
0.7272674107764304
 40
0.8671775308436291
 40
0.9764674245500425
 40
1.0
 40
1.0
 40
1.0
 40
1.0
 10
36.285556762905
 20
722.6238089940482
 30
0.0
 10
36.2098519161317
 20
722.6136421345043
 30
0.0
 10
35.98941809575524
 20
722.5840387499654
 30
0.0
 10
35.66993309171662
 20
722.5300410921079
 30
0.0
 10
35.35141765846106
 20
722.4600054325776
 30
0.0
 10
35.10046123028229
 20
722.3837181423479
 30
0.0
 10
34.92366961428905
 20
722.3023576462659
 30
0.0
 10
34.82277357729504
 20
722.21889705276
 30
0.0
 10
34.7663737919124
 20
722.1269595791069
 30
0.0
 10
34.77906040720126
 20
722.0820483485784
 30
0.0
 10
34.7813081348138
 20
722.0740912843281
 30
0.0
  0
SPLINE
  5
254E77
330
18
100
AcDbEntity
  8
姿図
100
AcDbSpline
210
0.0
220
0.0
230
1.0
 70
     8
 71
     3
 72
    10
 73
     6
 74
     0
 42
0.000000001
 43
0.0000000001
 40
0.0
 40
0.0
 40
0.0
 40
0.0
 40
0.2409332795995305
 40
0.6352660498244044
 40
1.0
 40
1.0
 40
1.0
 40
1.0
 10
68.22784526313154
 20
693.371465385228
 30
0.0
 10
68.20654760387731
 20
693.3683797609863
 30
0.0
 10
68.15039230691116
 20
693.3602439304916
 30
0.0
 10
68.04641503830373
 20
693.4014568409141
 30
0.0
 10
67.96973675604733
 20
693.4772840880173
 30
0.0
 10
67.93289259989024
 20
693.5137193191026
 30
0.0
  0
LINE
  5
254E78
330
18
100
AcDbEntity
  8
姿図
100
AcDbLine
 10
74.67619743027984
 20
685.4861199189893
 30
0.0
 11
70.10247777103484
 21
690.9309270084946
 31
0.0
  0
SPLINE
  5
254E79
330
18
100
AcDbEntity
  8
姿図
100
AcDbSpline
210
0.0
220
0.0
230
1.0
 70
     8
 71
     3
 72
    13
 73
     9
 74
     0
 42
0.000000001
 43
0.0000000001
 40
0.0
 40
0.0
 40
0.0
 40
0.0
 40
0.0955384171478645
 40
0.2952662259241451
 40
0.4953961524566731
 40
0.6944617172046789
 40
0.8916160243324976
 40
1.0
 40
1.0
 40
1.0
 40
1.0
 10
70.10247777103484
 20
690.9309270084946
 30
0.0
 10
70.08492777014868
 20
690.9537269732392
 30
0.0
 10
70.03068862027249
 20
691.0241913973143
 30
0.0
 10
69.96140538740056
 20
691.1798938468175
 30
0.0
 10
69.9249319275487
 20
691.3905931329168
 30
0.0
 10
69.94188931157424
 20
691.5976811543035
 30
0.0
 10
69.99624973163333
 20
691.7496951773073
 30
0.0
 10
70.04304945244388
 20
691.8154199107867
 30
0.0
 10
70.05965077570579
 20
691.8387345273675
 30
0.0
  0
LINE
  5
254E7A
330
18
100
AcDbEntity
  8
姿図
100
AcDbLine
 10
70.05965077570579
 20
691.8387345273675
 30
0.0
 11
71.42569357343507
 21
693.5523834941257
 31
0.0
  0
SPLINE
  5
254E7B
330
18
100
AcDbEntity
  8
姿図
100
AcDbSpline
210
0.0
220
0.0
230
1.0
 70
     8
 71
     3
 72
    10
 73
     6
 74
     0
 42
0.000000001
 43
0.0000000001
 40
0.0
 40
0.0
 40
0.0
 40
0.0
 40
0.2574907312243692
 40
0.8172424803726418
 40
1.0
 40
1.0
 40
1.0
 40
1.0
 10
71.42569357343507
 20
693.5523834941257
 30
0.0
 10
71.44106868005935
 20
693.5694945265894
 30
0.0
 10
71.4898672920088
 20
693.6238027439997
 30
0.0
 10
71.55330982396106
 20
693.665289995932
 30
0.0
 10
71.60178280108829
 20
693.6660217718616
 30
0.0
 10
71.61371369736298
 20
693.6662018875306
 30
0.0
  0
LINE
  5
254E7C
330
18
100
AcDbEntity
  8
姿図
100
AcDbLine
 10
77.91356792710084
 20
677.4151951341939
 30
0.0
 11
80.94027904944548
 21
677.8059473113381
 31
0.0
  0
LINE
  5
254E7D
330
18
100
AcDbEntity
  8
姿図
100
AcDbLine
 10
79.91596967656434
 20
685.7401006902861
 30
0.0
 11
78.63642732775253
 21
685.5749101880983
 31
0.0
  0
SPLINE
  5
254E7E
330
18
100
AcDbEntity
  8
姿図
100
AcDbSpline
210
0.0
220
0.0
230
1.0
 70
     8
 71
     3
 72
    10
 73
     6
 74
     0
 42
0.000000001
 43
0.0000000001
 40
0.0
 40
0.0
 40
0.0
 40
0.0
 40
0.2409332679722501
 40
0.6352662477332709
 40
1.0
 40
1.0
 40
1.0
 40
1.0
 10
74.97114985639689
 20
685.3438655519053
 30
0.0
 10
74.94985221028236
 20
685.3407799168514
 30
0.0
 10
74.89369692775702
 20
685.332644054921
 30
0.0
 10
74.7897192678239
 20
685.3738569805931
 30
0.0
 10
74.71304137753768
 20
685.4496845522726
 30
0.0
 10
74.67619743027984
 20
685.4861199189893
 30
0.0
  0
LINE
  5
254E7F
330
18
100
AcDbEntity
  8
姿図
100
AcDbLine
 10
28.45780313318704
 20
711.9463927354038
 30
0.0
 11
32.40796263825553
 21
711.1400535686957
 31
0.0
  0
LINE
  5
254E80
330
18
100
AcDbEntity
  8
姿図
100
AcDbLine
 10
35.4345325370183
 20
705.7164597239218
 30
0.0
 11
35.35623522721022
 21
699.2841596363389
 31
0.0
  0
SPLINE
  5
254E81
330
18
100
AcDbEntity
  8
姿図
100
AcDbSpline
210
0.0
220
0.0
230
1.0
 70
     8
 71
     3
 72
    10
 73
     6
 74
     0
 42
0.000000001
 43
0.0000000001
 40
0.0
 40
0.0
 40
0.0
 40
0.0
 40
0.2048008640730119
 40
0.5959182927299952
 40
0.9999999999999999
 40
0.9999999999999999
 40
0.9999999999999999
 40
0.9999999999999999
 10
35.3362387693889
 20
706.2153688102326
 30
0.0
 10
35.34807288982773
 20
706.1875285121682
 30
0.0
 10
35.38250716274837
 20
706.1065203437374
 30
0.0
 10
35.42617755865348
 20
705.9353973239106
 30
0.0
 10
35.43171743833562
 20
705.7902278322769
 30
0.0
 10
35.4345325370183
 20
705.7164597239218
 30
0.0
  0
LINE
  5
254E82
330
18
100
AcDbEntity
  8
姿図
100
AcDbLine
 10
37.88891094242913
 20
701.9783128810217
 30
0.0
 11
43.89020801667476
 21
692.9985147577656
 31
0.0
  0
LINE
  5
254E83
330
18
100
AcDbEntity
  8
姿図
100
AcDbLine
 10
37.79356231173915
 20
702.0900550764796
 30
0.0
 11
37.88891094242913
 21
701.9783128810217
 31
0.0
  0
LINE
  5
254E84
330
18
100
AcDbEntity
  8
姿図
100
AcDbLine
 10
43.89203637977039
 20
692.1003657573342
 30
0.0
 11
42.35193842476781
 21
690.1683694471177
 31
0.0
  0
SPLINE
  5
254E85
330
18
100
AcDbEntity
  8
姿図
100
AcDbSpline
210
0.0
220
0.0
230
1.0
 70
     8
 71
     3
 72
    13
 73
     9
 74
     0
 42
0.000000001
 43
0.0000000001
 40
0.0
 40
0.0
 40
0.0
 40
0.0
 40
0.1017947891313344
 40
0.3125471096909144
 40
0.5237222837928384
 40
0.7336218881792367
 40
0.9416128477633374
 40
1.0
 40
1.0
 40
1.0
 40
1.0
 10
43.89020801667476
 20
692.9985147577656
 30
0.0
 10
43.9066571544729
 20
692.9716487120367
 30
0.0
 10
43.95716200368554
 20
692.8891601582209
 30
0.0
 10
44.01459737436582
 20
692.7192261805346
 30
0.0
 10
44.03417193524194
 20
692.5010146439208
 30
0.0
 10
44.0006450297887
 20
692.2950716804867
 30
0.0
 10
43.94159737020561
 20
692.1662852301558
 30
0.0
 10
43.90094658481325
 20
692.1122169333096
 30
0.0
 10
43.89203637977039
 20
692.1003657573342
 30
0.0
  0
SPLINE
  5
254E86
330
18
100
AcDbEntity
  8
姿図
100
AcDbSpline
210
0.0
220
0.0
230
1.0
 70
     8
 71
     3
 72
     9
 73
     5
 74
     0
 42
0.000000001
 43
0.0000000001
 40
0.0
 40
0.0
 40
0.0
 40
0.0
 40
0.3695726573130677
 40
1.0
 40
1.0
 40
1.0
 40
1.0
 10
45.73346373186791
 20
690.2088806375025
 30
0.0
 10
45.7448161293471
 20
690.2001197159603
 30
0.0
 10
45.77553376295597
 20
690.1764141701934
 30
0.0
 10
45.80192392164582
 20
690.1375834253056
 30
0.0
 10
45.81856099926182
 20
690.1131034619914
 30
0.0
  0
LINE
  5
254E87
330
18
100
AcDbEntity
  8
姿図
100
AcDbLine
 10
45.81856099926182
 20
690.1131034619914
 30
0.0
 11
48.65375952516914
 21
685.8707688363199
 31
0.0
  0
LINE
  5
254E88
330
18
100
AcDbEntity
  8
姿図
100
AcDbLine
 10
47.29759000105892
 20
723.8683181222586
 30
0.0
 11
47.30880482177869
 21
724.7896408659751
 31
0.0
  0
LINE
  5
254E89
330
18
100
AcDbEntity
  8
姿図
100
AcDbLine
 10
34.80972981709948
 20
724.9417860598733
 30
0.0
 11
34.79851499637971
 21
724.0204633161568
 31
0.0
  0
LINE
  5
254E8A
330
18
100
AcDbEntity
  8
姿図
100
AcDbLine
 10
44.28433903709941
 20
722.7979271994684
 30
0.0
 11
44.2971798983038
 21
723.8528328258803
 31
0.0
  0
LINE
  5
254E8B
330
18
100
AcDbEntity
  8
姿図
100
AcDbLine
 10
37.79766100995863
 20
723.931948467176
 30
0.0
 11
37.78482014875425
 21
722.8770428407641
 31
0.0
  0
SPLINE
  5
254E8C
330
18
100
AcDbEntity
  8
姿図
100
AcDbSpline
210
0.0
220
0.0
230
1.0
 70
     8
 71
     3
 72
     9
 73
     5
 74
     0
 42
0.000000001
 43
0.0000000001
 40
0.0
 40
0.0
 40
0.0
 40
0.0
 40
0.3802147430706547
 40
1.0
 40
1.0
 40
1.0
 40
1.0
 10
42.15685520336984
 20
680.9964794499555
 30
0.0
 10
41.60143149200778
 20
680.4630091516603
 30
0.0
 10
40.14061567283034
 20
679.0599328427654
 30
0.0
 10
38.70579681622405
 20
677.629386662432
 30
0.0
 10
37.81651724253527
 20
676.7427552305048
 30
0.0
  0
SPLINE
  5
254E8D
330
18
100
AcDbEntity
  8
姿図
100
AcDbSpline
210
0.0
220
0.0
230
1.0
 70
     8
 71
     3
 72
     9
 73
     5
 74
     0
 42
0.000000001
 43
0.0000000001
 40
0.0
 40
0.0
 40
0.0
 40
0.0
 40
0.092661387920207
 40
1.0
 40
1.0
 40
1.0
 40
1.0
 10
63.68633029376588
 20
651.7162095732849
 30
0.0
 10
63.81485061170582
 20
651.8530661936237
 30
0.0
 10
65.20183952720305
 20
653.3300203318092
 30
0.0
 10
66.56078856934442
 20
654.8323219719036
 30
0.0
 10
67.79381550712816
 20
656.1954182569523
 30
0.0
  0
LINE
  5
254E8E
330
18
100
AcDbEntity
  8
姿図
100
AcDbLine
 10
69.2516167943287
 20
659.3001086165048
 30
0.0
 11
69.40719351692138
 21
660.1783308802203
 31
0.0
  0
SPLINE
  5
254E8F
330
18
100
AcDbEntity
  8
姿図
100
AcDbSpline
210
0.0
220
0.0
230
1.0
 70
     8
 71
     3
 72
    13
 73
     9
 74
     0
 42
0.000000001
 43
0.0000000001
 40
0.0
 40
0.0
 40
0.0
 40
0.0
 40
0.033213983397433
 40
0.2504420561345711
 40
0.4675057794209741
 40
0.6843675543288769
 40
0.9009921289497593
 40
1.0
 40
1.0
 40
1.0
 40
1.0
 10
73.09885588132852
 20
663.4305014829401
 30
0.0
 10
73.2332637934415
 20
663.567729737686
 30
0.0
 10
74.24673433889046
 20
664.6024663986602
 30
0.0
 10
76.08567777248368
 20
666.5850565094192
 30
0.0
 10
78.61057878752854
 20
669.3777388008389
 30
0.0
 10
81.06625464318819
 20
672.2244149825374
 30
0.0
 10
83.03930568390291
 20
674.5843122436369
 30
0.0
 10
84.16992593641399
 20
676.0116353495782
 30
0.0
 10
84.52457991987689
 20
676.4593593524753
 30
0.0
  0
SPLINE
  5
254E90
330
18
100
AcDbEntity
  8
姿図
100
AcDbSpline
210
0.0
220
0.0
230
1.0
 70
     8
 71
     3
 72
    13
 73
     9
 74
     0
 42
0.000000001
 43
0.0000000001
 40
0.0
 40
0.0
 40
0.0
 40
0.0
 40
0.2374351189079543
 40
0.4332495809923795
 40
0.5873518675825088
 40
0.7149628773909337
 40
0.8658670558149147
 40
1.0
 40
1.0
 40
1.0
 40
1.0
 10
49.63580382101429
 20
686.4445124883558
 30
0.0
 10
49.33479619027605
 20
686.1484094739072
 30
0.0
 10
48.78554538655055
 20
685.6081081590451
 30
0.0
 10
48.04001073276265
 20
684.8718603228108
 30
0.0
 10
47.43167286968202
 20
684.2701268807482
 30
0.0
 10
46.87728678597313
 20
683.7208724685561
 30
0.0
 10
46.35641117337727
 20
683.2040665962003
 30
0.0
 10
45.99998259773798
 20
682.8498736353906
 30
0.0
 10
45.83225421974785
 20
682.6831972943999
 30
0.0
  0
LINE
  5
254E91
330
18
100
AcDbEntity
  8
姿図
100
AcDbLine
 10
45.84406531874112
 20
682.6949317277167
 30
0.0
 11
45.20778531535581
 21
682.560338784203
 31
0.0
  0
SPLINE
  5
254E92
330
18
100
AcDbEntity
  8
姿図
100
AcDbSpline
210
0.0
220
0.0
230
1.0
 70
     8
 71
     3
 72
    12
 73
     8
 74
     0
 42
0.000000001
 43
0.0000000001
 40
0.0
 40
0.0
 40
0.0
 40
0.0
 40
0.1564108433769692
 40
0.3879392668858321
 40
0.6194542820049643
 40
0.8509165605229891
 40
1.0
 40
1.0
 40
1.0
 40
1.0
 10
61.05528558926704
 20
697.710687392326
 30
0.0
 10
60.4135056770856
 20
697.1563650888822
 30
0.0
 10
58.82172582820596
 20
695.7815026856525
 30
0.0
 10
56.33469522212533
 20
693.5184434489533
 30
0.0
 10
53.59210051078202
 20
690.9300032986001
 30
0.0
 10
51.21525062419471
 20
688.6045551403699
 30
0.0
 10
49.77535749519274
 20
687.1209023722116
 30
0.0
 10
49.21126175058174
 20
686.5396632537372
 30
0.0
  0
LWPOLYLINE
  5
254E93
330
18
100
AcDbEntity
  8
姿図
100
AcDbPolyline
 90
       46
 70
   128
 43
0.0
 10
58.42572677851766
 20
649.2059828276466
 10
58.47955731854728
 20
649.255039960868
 10
58.92142083214881
 20
649.7218101282799
 10
59.30068780662407
 20
650.2463644344355
 10
59.61533516896526
 20
650.8259012012688
 10
59.86368327223659
 20
651.457327244033
 10
60.04440841102183
 20
652.1372721390583
 10
60.15654501640856
 20
652.8621139320238
 10
60.19949475056154
 20
653.627981762924
 10
60.17302935762291
 20
654.4307875618554
 10
60.07729039302995
 20
655.2662494713572
 10
59.91278705302489
 20
656.129911571875
 10
59.68039790574608
 20
657.017165232209
 10
59.38136398182382
 20
657.9232746096282
 10
59.01727875400081
 20
658.8434088933784
 10
58.59008545771985
 20
659.7726539730928
 10
58.10206425415328
 20
660.7060560034414
 10
57.55581715570708
 20
661.6386335276823
 10
56.95426048112301
 20
662.5654095902967
 10
56.3006037187256
 20
663.4814395442111
 10
55.59833342047915
 20
664.3818396947145
 10
54.85119438311517
 20
665.2618020285031
 10
54.0631782917107
 20
666.1166320997893
 10
53.23848532366577
 20
666.9417695528206
 10
52.38151802951023
 20
667.7328132735488
 10
51.49684701778762
 20
668.4855409004051
 10
50.5891908578682
 20
669.1959371615958
 10
49.66339725858853
 20
669.8602106377452
 10
48.72440100769927
 20
670.4748179883491
 10
47.77721460516807
 20
671.0364814075367
 10
46.82689132519155
 20
671.5422016184332
 10
45.87849955322804
 20
671.9892828759009
 10
44.937102302531
 20
672.3753372691904
 10
44.00772055824211
 20
672.6983067444543
 10
43.09531314419883
 20
672.9564678923582
 10
42.20474920583814
 20
673.1484428611411
 10
41.34077918715303
 20
673.2732074153732
 10
40.50801181441193
 20
673.3300961206555
 10
39.71089597599746
 20
673.318805984147
 10
38.95367607052043
 20
673.2393961637675
 10
38.24039527395439
 20
673.0922908304934
 10
37.57486368899856
 20
672.8782748145916
 10
36.96062629260177
 20
672.5984900389693
 10
36.40096510580295
 20
672.2544298857454
 10
35.89886119142892
 20
671.8479290356624
 10
35.47776684385053
 20
671.4060578091915
  0
LWPOLYLINE
  5
254E94
330
18
100
AcDbEntity
  8
姿図
100
AcDbPolyline
 90
       85
 70
   128
 43
0.0
 10
38.55657075297449
 20
643.6706687438179
 10
39.48226985729315
 20
643.122420065408
 10
40.4109864153728
 20
642.6302081537791
 10
41.33752759444633
 20
642.1967895669718
 10
42.25671312117939
 20
641.8245836730434
 10
43.16340006202228
 20
641.5156741565919
 10
44.05251694630306
 20
641.2717878782895
 10
44.91909553662259
 20
641.0942894133832
 10
45.75828737696725
 20
640.9841723496353
 10
46.56539762711719
 20
640.9420497943554
 10
47.33591616031055
 20
640.9681573010162
 10
48.06553049185521
 20
641.0623515703586
 10
48.75016260533607
 20
641.2241056416051
 10
49.38598276398375
 20
641.4525126099825
 10
49.96943589684673
 20
641.7462949692003
 10
50.49725907999357
 20
642.1038121334598
 10
50.96649888793161
 20
642.5230643701968
 10
51.37453394574078
 20
643.0017060664175
 10
51.71907926261434
 20
643.5370609955235
 10
51.9982092376739
 20
644.126133641455
 10
52.21036550895445
 20
644.7656335815386
 10
52.35435659475587
 20
645.4519807599486
 10
52.42938045638414
 20
646.1813337708836
 10
52.4350182671771
 20
646.9496231958126
 10
52.37123679060073
 20
647.7525444573497
 10
52.23839254088944
 20
648.5856122404941
 10
52.03722856238187
 20
649.4441646711782
 10
51.76887116043639
 20
650.3234027300755
 10
51.43481990526186
 20
651.2184048784789
 10
51.03694389933571
 20
652.12417083111
 10
50.57746718891951
 20
653.0356311702844
 10
50.05895895861272
 20
653.9476917855507
 10
49.4843207730413
 20
654.8552523863086
 10
48.85676574679178
 20
655.7532344363769
 10
48.17980131696373
 20
656.6366189198159
 10
47.45721555995635
 20
657.5004628211259
 10
46.69304950356292
 20
658.3399384423005
 10
45.89157518691198
 20
659.1503485752476
 10
45.05727534665084
 20
659.9271621102005
 10
44.19481665812606
 20
660.6660338843494
 10
43.30902075816073
 20
661.3628338734782
 10
42.40484300554451
 20
662.0136633343067
 10
41.48733861750696
 20
662.6148831234923
 10
40.56163959794264
 20
663.1631316919404
 10
39.63292293259423
 20
663.6553418639163
 10
38.70638183827498
 20
664.0887603407618
 10
37.78719631154195
 20
664.4609662346902
 10
36.88050928594475
 20
664.7698758611035
 10
35.99139043961566
 20
665.0137604021057
 10
35.12481210355907
 20
665.1912585371267
 10
34.28562382577923
 20
665.3013776657072
 10
33.47851172084984
 20
665.34350022334
 10
32.70799501992144
 20
665.3173908647116
 10
31.97837689406353
 20
665.2231967100366
 10
31.29374682738523
 20
665.0614442661285
 10
30.65792649922895
 20
664.8330375176746
 10
30.07447334385148
 20
664.539253308842
 10
29.54665218499275
 20
664.181735922306
 10
29.07740869001023
 20
663.7624855398898
 10
28.66937531747186
 20
663.2838440612397
 10
28.32483017010696
 20
662.7484889122102
 10
28.04569817075929
 20
662.1594164885552
 10
27.83354377677273
 20
661.5199183957334
 10
27.68955083619181
 20
660.8335712196764
 10
27.61452878431407
 20
660.1042145071588
 10
27.6088891412561
 20
659.3359269341975
 10
27.67267430487692
 20
658.5330038183397
 10
27.80551486754382
 20
657.6999378895159
 10
28.00668070083083
 20
656.841385456479
 10
28.27503812529073
 20
655.9621492471965
 10
28.60908944270517
 20
655.0671451392166
 10
29.00696361636631
 20
654.1613810385531
 10
29.46644038902235
 20
653.2499187398021
 10
29.9849483650662
 20
652.3378584544212
 10
30.55958857492573
 20
651.4302976313868
 10
31.18714360117525
 20
650.5323155813185
 10
31.86410805351773
 20
649.6489329474944
 10
32.58669361850204
 20
648.785087416493
 10
33.35085969740993
 20
647.9456136449332
 10
34.15233584632585
 20
647.1352016600185
 10
34.98663391656183
 20
646.3583880174567
 10
35.84909258257215
 20
645.619514393693
 10
36.73488858980625
 20
644.9227161442172
 10
37.6390661503994
 20
644.2718850536975
 10
38.55657075297449
 20
643.6706687438179
  0
LWPOLYLINE
  5
254E95
330
18
100
AcDbEntity
  8
姿図
100
AcDbPolyline
 90
       84
 70
   128
 43
0.0
 10
38.58059307207247
 20
643.8259485014715
 10
39.50211597272971
 20
643.2805197085972
 10
40.42661546267038
 20
642.7915827694791
 10
41.34879536173031
 20
642.3619377402567
 10
42.26337841603032
 20
641.9940426811806
 10
43.16512230765363
 20
641.6900070067077
 10
44.04886228884726
 20
641.451571322928
 10
44.9095356180535
 20
641.2801018655132
 10
45.7422133700299
 20
641.1765812290265
 10
46.54212608835118
 20
641.1415998730217
 10
47.30469164231445
 20
641.1753622027852
 10
48.02554428970814
 20
641.2776747013855
 10
48.70055097596548
 20
641.4479450659212
 10
49.32584809683181
 20
641.6852075423781
 10
49.89785355821914
 20
641.9880926926696
 10
50.41329027203608
 20
642.3548719018838
 10
50.86920602981354
 20
642.7834454121362
 10
51.26299081970168
 20
643.2713575729242
 10
51.59238735735482
 20
643.8158075219691
 10
51.8555090121194
 20
644.413686191102
 10
52.05085102995236
 20
645.0615621897626
 10
52.17729101892428
 20
645.7557249133326
 10
52.23410558818171
 20
646.4922006731838
 10
52.22097224854764
 20
647.2667738272037
 10
52.13796206383046
 20
648.0749990212789
 10
51.98555376339596
 20
648.9122547190757
 10
51.76461850025464
 20
649.7737447950935
 10
51.47642235024551
 20
650.654526403879
 10
51.12261630265976
 20
651.5495659572002
 10
50.70522718045822
 20
652.4537300150821
 10
50.22664442986195
 20
653.3618406079163
 10
49.68961050822926
 20
654.2686931217211
 10
49.09720017428597
 20
655.1691018143981
 10
48.452808457061
 20
656.0578996470439
 10
47.76012629219366
 20
656.9300025209836
 10
47.0231187632906
 20
657.7804110630427
 10
46.24601130274783
 20
658.6042567921609
 10
45.4332517592253
 20
659.3968182829115
 10
44.58949634871817
 20
660.1535577367742
 10
43.71957932335692
 20
660.8701411827401
 10
42.82848159566578
 20
661.5424622150354
 10
41.92130997315678
 20
662.1666687933068
 10
41.00325852316365
 20
662.7391891866403
 10
40.07958459579555
 20
663.2567431018377
 10
39.15558265100225
 20
663.7163640043161
 10
38.23654184630556
 20
664.1154195179874
 10
37.32772938672136
 20
664.4516258960864
 10
36.43434829390682
 20
664.7230550338998
 10
35.56151444407419
 20
664.9281550279229
 10
34.71423445763128
 20
665.0657481345576
 10
33.89735233756028
 20
665.1350485473791
 10
33.11555215904127
 20
665.1356570287453
 10
32.37331118934776
 20
665.0675723788115
 10
31.67488434617832
 20
664.9311838012056
 10
31.02426460158344
 20
664.7272712649429
 10
30.42518321613358
 20
664.4570041501195
 10
29.88107388682681
 20
664.1219302875083
 10
29.39505014783407
 20
663.7239697434137
 10
28.96989628783342
 20
663.2653990274792
 10
28.60804479578439
 20
662.7488485767724
 10
28.3115747092873
 20
662.1772737869521
 10
28.08217773965765
 20
661.5539508807806
 10
27.92117167305878
 20
660.8824513997737
 10
27.8294772070854
 20
660.1666179327549
 10
27.8076207423523
 20
659.410552978695
 10
27.85572948479154
 20
658.6185856235863
 10
27.97352270200381
 20
657.7952553084028
 10
28.16032878361725
 20
656.9452751083944
 10
28.41507706840454
 20
656.0735128816998
 10
28.73630694257628
 20
655.1849665354357
 10
29.12218093101433
 20
654.2847201311616
 10
29.57048725711223
 20
653.3779349272197
 10
30.07865963006304
 20
652.4698026552521
 10
30.64378636566721
 20
651.5655226359049
 10
31.26263072057145
 20
650.6702787704535
 10
31.93164661376969
 20
649.7891989206778
 10
32.64700601312444
 20
648.9273229728881
 10
33.40460344744008
 20
648.0895980343703
 10
34.20010844611033
 20
647.2808138311734
 10
35.02895905760158
 20
646.5056090163624
 10
35.88641003659379
 20
645.7684185498949
 10
36.76754797620458
 20
645.0734695407198
 10
37.66732816252323
 20
644.424740178308
 10
38.58059307207247
 20
643.8259485014715
  0
LWPOLYLINE
  5
254E96
330
18
100
AcDbEntity
  8
姿図
100
AcDbPolyline
 90
       47
 70
   128
 43
0.0
 10
51.93277802496675
 20
644.6384440873067
 10
51.67189300925355
 20
644.1910594471647
 10
51.29460462047206
 20
643.6964011766356
 10
50.85456846582076
 20
643.2606966529593
 10
50.35437000590071
 20
642.8865056845057
 10
49.79694102595914
 20
642.5760241240904
 10
49.1855558858137
 20
642.3310702492237
 10
48.52379937522647
 20
642.1530845474219
 10
47.81555681602498
 20
642.0431144564413
 10
47.0649823605508
 20
642.0017971905525
 10
46.27648397973144
 20
642.0293814801298
 10
45.45468792218691
 20
642.125706813365
 10
44.60441373445906
 20
642.2902035420511
 10
43.73065594817683
 20
642.521908984454
 10
42.8385393155983
 20
642.8194578864409
 10
41.93329705208711
 20
643.1811132160148
 10
41.02024650865019
 20
643.6047452809473
 10
40.1047420362703
 20
644.0878717117491
 10
39.19215826298063
 20
644.6276588752319
 10
38.28785195661777
 20
645.2209321419139
 10
37.39712239302605
 20
645.8642157496168
 10
36.5252082000535
 20
646.5537358476312
 10
35.67721360605572
 20
647.2854425662872
 10
34.85812768693904
 20
648.0550391474164
 10
34.07274610789483
 20
648.8580163258973
 10
33.32568605169325
 20
649.6896597092916
 10
32.62132642345739
 20
650.5450842458229
 10
31.96380024882961
 20
651.4192758050084
 10
31.35697098109813
 20
652.3071005836666
 10
30.80439501365754
 20
653.2033507533106
 10
30.30931658526271
 20
654.1027650502767
 10
29.8746440236155
 20
655.000068325377
 10
29.50292633457235
 20
655.889989978057
 10
29.19633981692255
 20
656.7673119900071
 10
28.95669040397087
 20
657.6268838470738
 10
28.78538541226195
 20
658.4636612336592
 10
28.6834238102814
 20
659.2727353455555
 10
28.65140511440222
 20
660.049354560867
 10
28.68951996218138
 20
660.7889646306115
 10
28.79754679503424
 20
661.4872261344563
 10
28.9748461079684
 20
662.1400378001547
 10
29.22038001601356
 20
662.7435700277744
 10
29.53270531209142
 20
663.2942822401762
 10
29.90999370087289
 20
663.7889405107053
 10
30.35002817025335
 20
664.224644816811
 10
30.85023017022377
 20
664.5988360004823
 10
31.12779030629929
 20
664.7653891330573
  0
LWPOLYLINE
  5
254E97
330
18
100
AcDbEntity
  8
姿図
100
AcDbPolyline
 90
       42
 70
   128
 43
0.0
 10
51.3593127490978
 20
643.7717304712746
 10
51.28982846154952
 20
643.7106182820705
 10
50.78962814684996
 20
643.3364273159698
 10
50.23219916690843
 20
643.0259457555545
 10
49.62081402676301
 20
642.7809918806878
 10
48.95905760093009
 20
642.6030060689243
 10
48.2508149569743
 20
642.4930360879055
 10
47.50024058625439
 20
642.4517187120547
 10
46.7117421206807
 20
642.4793031115939
 10
45.88994606313619
 20
642.5756284448291
 10
45.03967381494209
 20
642.7401250612005
 10
44.16591408912609
 20
642.9718306159181
 10
43.27379745654758
 20
643.269379517905
 10
42.36855713257017
 20
643.6310347351641
 10
41.45550650437895
 20
644.0546669100585
 10
40.54000203199905
 20
644.5377933408604
 10
39.62741825870938
 20
645.0775805043431
 10
38.72310824278759
 20
645.6708537757308
 10
37.83238238875478
 20
646.314137378728
 10
36.96046448622332
 20
647.0036574814483
 10
36.11247364150984
 20
647.735360386207
 10
35.29338397310883
 20
648.5049607812334
 10
34.50800610362359
 20
649.3079379550086
 10
33.76094233786304
 20
650.1395813431087
 10
33.05658279438148
 20
650.9950057696781
 10
32.39906024455837
 20
651.8691974341195
 10
31.79222726726795
 20
652.7570222174836
 10
31.2396550093863
 20
653.6532723824218
 10
30.74457658099146
 20
654.552686679388
 10
30.30990410409856
 20
655.4499898445265
 10
29.93818262074217
 20
656.339911611874
 10
29.6315998126513
 20
657.2172336191182
 10
29.39195048445396
 20
658.0768053662232
 10
29.22064169843176
 20
658.9135828674763
 10
29.11868009645121
 20
659.7226569793725
 10
29.08666511013098
 20
660.4992761899782
 10
29.12477995791011
 20
661.2388862597227
 10
29.23280308120405
 20
661.9371477682732
 10
29.41010239413822
 20
662.5899594339718
 10
29.65563630218338
 20
663.1934916615915
 10
29.96796547732879
 20
663.7442036493638
 10
30.28054586833596
 20
664.1635313164938
  0
LWPOLYLINE
  5
254E98
330
18
100
AcDbEntity
  8
姿図
100
AcDbPolyline
 90
       41
 70
   128
 43
0.0
 10
51.5531685181698
 20
644.0196878807242
 10
51.22488645730789
 20
643.7863487275104
 10
50.66745730785772
 20
643.4758673870186
 10
50.05607216771227
 20
643.2309135121519
 10
49.39431574187938
 20
643.0529277003884
 10
48.68607318267789
 20
642.9429576094078
 10
47.93550058198315
 20
642.9016403411658
 10
47.14700026162996
 20
642.9292247430581
 10
46.32520428883979
 20
643.0255499663315
 10
45.47493195589135
 20
643.1900466926646
 10
44.60117223007541
 20
643.4217522473822
 10
43.70905559749684
 20
643.7193011493691
 10
42.80381527351949
 20
644.0809563666282
 10
41.89076279054876
 20
644.5045885438755
 10
40.97525831816884
 20
644.9877149746774
 10
40.06267462963351
 20
645.5275020281983
 10
39.15836832327062
 20
646.1207752948803
 10
38.26764242686068
 20
646.7640589528582
 10
37.39572452432924
 20
647.4535790555785
 10
36.54773363723859
 20
648.1852820153181
 10
35.72864396883759
 20
648.9548824103447
 10
34.9432623897934
 20
649.7578595888256
 10
34.19620233359177
 20
650.5895029722199
 10
33.49184279011024
 20
651.4449273987893
 10
32.83431661548246
 20
652.3191189579748
 10
32.22748734775104
 20
653.2069437366331
 10
31.67491138031042
 20
654.103193906277
 10
31.17983657672022
 20
655.002608308499
 10
30.74516039026838
 20
655.8999114783435
 10
30.37344261647092
 20
656.7898332409852
 10
30.06685989313439
 20
657.6671551382676
 10
29.82721048018271
 20
658.5267269953345
 10
29.65590169416052
 20
659.3635044965874
 10
29.55394009217997
 20
660.1725786084836
 10
29.5219213963008
 20
660.9491978237952
 10
29.56003624407992
 20
661.6888078935398
 10
29.66806307693281
 20
662.3870693973844
 10
29.84536238986698
 20
663.0398810630829
 10
30.09089629791214
 20
663.6434132907026
 10
30.40322176349861
 20
664.1941252831808
 10
30.52194483101442
 20
664.3654940145303
  0
LWPOLYLINE
  5
254E99
330
18
100
AcDbEntity
  8
姿図
100
AcDbPolyline
 90
       40
 70
   128
 43
0.0
 10
51.73105809444036
 20
644.283093531637
 10
51.66014459825715
 20
644.2362703589745
 10
51.10271738834075
 20
643.925788906168
 10
50.49133030866156
 20
643.680835143616
 10
49.82957388282864
 20
643.5028493318525
 10
49.12133132362715
 20
643.3928792408718
 10
48.37075872293241
 20
643.35156197263
 10
47.58226025735871
 20
643.3791463721693
 10
46.76046242978907
 20
643.4754715977956
 10
45.91019009684067
 20
643.6399683241287
 10
45.036430455779
 20
643.8716737688844
 10
44.14431373844616
 20
644.1692227808333
 10
43.23907341446875
 20
644.5308779980924
 10
42.32602287103185
 20
644.9545100630248
 10
41.4105183986519
 20
645.4376364938269
 10
40.49793462536226
 20
645.9774236573096
 10
39.59362460944044
 20
646.5706969286973
 10
38.70289875540766
 20
647.2139805316945
 10
37.83098081049906
 20
647.9035006893955
 10
36.98298992340838
 20
648.6352036491352
 10
36.16390029738454
 20
649.4048039891809
 10
35.37852238552216
 20
650.2077812179368
 10
34.63145857473265
 20
651.0394209068072
 10
33.92709907628006
 20
651.8948490326063
 10
33.26957661121122
 20
652.769040587086
 10
32.66274363392083
 20
653.6568653704501
 10
32.11017137603915
 20
654.5531155353883
 10
31.61509286289004
 20
655.4525299423161
 10
31.18042038599714
 20
656.3498331074547
 10
30.80869890264074
 20
657.2397548748022
 10
30.50211617930421
 20
658.1170767720846
 10
30.26246676635253
 20
658.9766486291514
 10
30.09115806508464
 20
659.8134260204428
 10
29.98919637834979
 20
660.6225002423007
 10
29.95718139202953
 20
661.3991194529065
 10
29.99529623980868
 20
662.1387295226509
 10
30.10331936310263
 20
662.8369910312015
 10
30.2806186760368
 20
663.4898026969
 10
30.52615258408196
 20
664.0933349245197
 10
30.77931354905905
 20
664.5520105359362
  0
LWPOLYLINE
  5
254E9A
330
18
100
AcDbEntity
  8
姿図
100
AcDbPolyline
 90
       39
 70
   128
 43
0.0
 10
51.89279675043895
 20
644.5621256992954
 10
51.53797552929007
 20
644.3757105376321
 10
50.92658853436515
 20
644.1307566651184
 10
50.26483210853223
 20
643.9527708533549
 10
49.55658946457643
 20
643.8428008723359
 10
48.80601686388167
 20
643.8014836040941
 10
48.0175184830623
 20
643.8290678936715
 10
47.19572057073833
 20
643.9253932292597
 10
46.34544832254426
 20
644.0898898456311
 10
45.47168859672826
 20
644.3215954003485
 10
44.57957196414975
 20
644.6191443023356
 10
43.67433155541801
 20
644.9807996295565
 10
42.76128101198111
 20
645.404431694489
 10
41.84577839438066
 20
645.8875581229379
 10
40.93319462109099
 20
646.4273452864206
 10
40.0288846051692
 20
647.0206185578086
 10
39.13815875113642
 20
647.6639021608056
 10
38.26624084860498
 20
648.3534222635258
 10
37.41824996151428
 20
649.0851252232655
 10
36.59916033549047
 20
649.8547255633111
 10
35.81377871406909
 20
650.6577027967729
 10
35.06671861283854
 20
651.4893424809376
 10
34.36235907200881
 20
652.3447706617176
 10
33.70483289738104
 20
653.218962220903
 10
33.09800362964955
 20
654.1067869995612
 10
32.54542766220897
 20
655.0030371692053
 10
32.05035294337307
 20
655.9024514614655
 10
31.61567667216696
 20
656.7997547412717
 10
31.24395898312378
 20
657.6896763939516
 10
30.93737617503294
 20
658.5669984011959
 10
30.69772684683556
 20
659.4265701483009
 10
30.5264180608134
 20
660.2633476495539
 10
30.42445637407849
 20
661.0724218714118
 10
30.39243784770798
 20
661.8490408667999
 10
30.4305525259785
 20
662.588651156468
 10
30.5385793363169
 20
663.2869108106978
 10
30.71587884127416
 20
663.9397241060876
 10
30.96141257981071
 20
664.5432565536308
 10
31.05283523417819
 20
664.722902167935
  0
LWPOLYLINE
  5
254E9B
330
18
100
AcDbEntity
  8
姿図
100
AcDbPolyline
 90
       38
 70
   128
 43
0.0
 10
51.99171196867312
 20
644.8344562112177
 10
51.97323375499366
 20
644.8256320591345
 10
51.36184667531444
 20
644.5806782965824
 10
50.70009024948155
 20
644.402692484819
 10
49.99184760552572
 20
644.2927225038001
 10
49.24127508958529
 20
644.2514051255964
 10
48.45277662401162
 20
644.2789895251357
 10
47.63097871168765
 20
644.3753148607238
 10
46.78070646349352
 20
644.5398114770951
 10
45.90694859245701
 20
644.7715170294598
 10
45.01483010509901
 20
645.0690659337997
 10
44.10958973874446
 20
645.4307212060397
 10
43.1965391529304
 20
645.8543533259531
 10
42.28103468055048
 20
646.337479756755
 10
41.36845094963797
 20
646.8772668652568
 10
40.46414093371618
 20
647.4705401366447
 10
39.57341507968337
 20
648.1138237396417
 10
38.70149713477477
 20
648.8033438973429
 10
37.85350624768409
 20
649.5350468570825
 10
37.03441662166028
 20
650.3046471971281
 10
36.24903875217501
 20
651.1076243709032
 10
35.50197494138553
 20
651.9392640597737
 10
34.79761540055577
 20
652.7946922405537
 10
34.1400928931098
 20
653.6688838500143
 10
33.53326362537831
 20
654.5567086286724
 10
32.98068774269206
 20
655.4529586883547
 10
32.48560922954289
 20
656.3523730952826
 10
32.05093675264999
 20
657.2496762604212
 10
31.67921897885253
 20
658.1395980230627
 10
31.37263246120273
 20
659.0169200350128
 10
31.13298313300538
 20
659.8764917821179
 10
30.96167434698322
 20
660.713269283371
 10
30.85971274500264
 20
661.5223433952672
 10
30.8276977586824
 20
662.2989626058728
 10
30.86581252170726
 20
663.0385727855792
 10
30.97383562248672
 20
663.7368324445148
 10
31.15113512744398
 20
664.3896457399046
 10
31.32174272217947
 20
664.8307838108485
  0
LWPOLYLINE
  5
254E9C
330
18
100
AcDbEntity
  8
姿図
100
AcDbPolyline
 90
       37
 70
   128
 43
0.0
 10
52.06634156968946
 20
645.1277791740815
 10
51.7971048162637
 20
645.0305999280465
 10
51.13534839043081
 20
644.8526141162831
 10
50.42710583122931
 20
644.7426440253024
 10
49.67653323053457
 20
644.7013267570605
 10
48.88803476496088
 20
644.7289111565998
 10
48.06623693739124
 20
644.8252363822262
 10
47.21596460444283
 20
644.9897331085592
 10
46.34220673340627
 20
645.2214386609239
 10
45.4500882460483
 20
645.5189875652638
 10
44.54484792207091
 20
645.880642782523
 10
43.63179733625685
 20
646.3042749024363
 10
42.71629471865634
 20
646.7874013308854
 10
41.80371094536673
 20
647.3271884943681
 10
40.89940092944494
 20
647.9204617657558
 10
40.0086750754121
 20
648.563745368753
 10
39.13675717288066
 20
649.2532654714731
 10
38.28876628579002
 20
649.9849684312128
 10
37.46967665976615
 20
650.7545687712584
 10
36.68429503834483
 20
651.5575460047203
 10
35.93723493711428
 20
652.3891856888849
 10
35.23287543866167
 20
653.2446138146839
 10
34.57534922165678
 20
654.1188054288505
 10
33.96851999630246
 20
655.0066301525277
 10
33.41594402886187
 20
655.9028803221718
 10
32.92086922527164
 20
656.8022947243937
 10
32.48619674837875
 20
657.6995978895324
 10
32.11447526502235
 20
658.5895196568798
 10
31.80789254168582
 20
659.4668415541623
 10
31.56824312873414
 20
660.326413411229
 10
31.39693434271197
 20
661.1631909124822
 10
31.2949727407314
 20
661.9722650243783
 10
31.26295412960653
 20
662.7488841297281
 10
31.30107251743601
 20
663.4884944146904
 10
31.40909561821547
 20
664.1867540736259
 10
31.58639512317274
 20
664.8395673690159
 10
31.61242811942111
 20
664.9150861559026
  0
LWPOLYLINE
  5
254E9D
330
18
100
AcDbEntity
  8
姿図
100
AcDbPolyline
 90
       35
 70
   128
 43
0.0
 10
52.13072169749898
 20
645.44780942697
 10
51.57060838615956
 20
645.3025357453943
 10
50.86236397217857
 20
645.1925656567665
 10
50.11179137148383
 20
645.1512483885247
 10
49.32329290591014
 20
645.1788327880639
 10
48.50149693311999
 20
645.2751580113373
 10
47.65122274539209
 20
645.4396547400233
 10
46.77746495910986
 20
645.6713601824263
 10
45.88534828415419
 20
645.9689091393941
 10
44.98010796017678
 20
646.3305643566532
 10
44.06705547720611
 20
646.7541965339004
 10
43.15155290198283
 20
647.2373229073685
 10
42.23896727391369
 20
647.7771100732042
 10
41.33466096755083
 20
648.3703833398861
 10
40.44393140395908
 20
649.0136669475892
 10
39.57201716860942
 20
649.7031871005843
 10
38.72402257195984
 20
650.4348900650298
 10
37.90493665549491
 20
651.2044904003697
 10
37.11955507645075
 20
652.0074675788505
 10
36.37249499773463
 20
652.83910911263
 10
35.66813172483148
 20
653.694535448501
 10
35.01060925976267
 20
654.5687270029807
 10
34.40377999203122
 20
655.4565517816388
 10
33.8512040245906
 20
656.3528019512829
 10
33.3561255961958
 20
657.2522162482489
 10
32.92145303454856
 20
658.1495195233493
 10
32.54973526075111
 20
659.039441285991
 10
32.24314882785563
 20
659.9167631879793
 10
32.00349941490396
 20
660.7763350450462
 10
31.83219442319501
 20
661.6131124316315
 10
31.73023273646012
 20
662.4221866534895
 10
31.69821412533526
 20
663.1988057588393
 10
31.73632888836011
 20
663.9384159385456
 10
31.8443520738939
 20
664.6366754875195
 10
31.93015063619856
 20
664.990030447532
  0
LWPOLYLINE
  5
254E9E
330
18
100
AcDbEntity
  8
姿図
100
AcDbPolyline
 90
       34
 70
   128
 43
0.0
 10
52.18184824193003
 20
645.7920575116157
 10
52.00586661186315
 20
645.7524572668965
 10
51.29762396790733
 20
645.6424872858777
 10
50.54704951243315
 20
645.6011700199888
 10
49.75855113161376
 20
645.6287543095661
 10
48.93675507406925
 20
645.7250796428015
 10
48.08648282587515
 20
645.8895762591728
 10
47.21272310005918
 20
646.1212818138904
 10
46.32060642510348
 20
646.4188307708582
 10
45.4153661011261
 20
646.7804859881173
 10
44.50231366053254
 20
647.2041181103837
 10
43.58681104293208
 20
647.6872445388326
 10
42.67422726964244
 20
648.2270317023153
 10
41.76991725372062
 20
648.8203049737032
 10
40.87919139968784
 20
649.4635885767002
 10
40.0072734971564
 20
650.1531086794205
 10
39.1592826100657
 20
650.8848116391601
 10
38.34019298404189
 20
651.6544119792057
 10
37.55481507217948
 20
652.4573892079617
 10
36.80775128390445
 20
653.289030746447
 10
36.10339176293741
 20
654.1444570226313
 10
35.4458692554914
 20
655.0186486320919
 10
34.83903627820101
 20
655.9064734154559
 10
34.28646402031933
 20
656.8027235803941
 10
33.79138559192452
 20
657.7021378773602
 10
33.35671303027732
 20
658.5994411524605
 10
32.98499163167523
 20
659.4893628098462
 10
32.67840882358439
 20
660.3666848170906
 10
32.43875949538699
 20
661.2262565641955
 10
32.26745070936482
 20
662.0630340654486
 10
32.16548910738425
 20
662.8721081773447
 10
32.13347041150507
 20
663.6487273926564
 10
32.17158888408886
 20
664.3883375676568
 10
32.27251890229269
 20
665.0525308318088
  0
LWPOLYLINE
  5
254E9F
330
18
100
AcDbEntity
  8
姿図
100
AcDbPolyline
 90
       61
 70
   128
 43
0.0
 10
56.25909903587151
 20
647.2609727277668
 10
56.70656882119636
 20
647.2925893339
 10
57.48513603748285
 20
647.4022071509432
 10
58.21878876772877
 20
647.5787775795739
 10
58.90402843167652
 20
647.8214539012962
 10
59.53758975172292
 20
648.1290858559805
 10
60.11645366827213
 20
648.5001995719151
 10
60.63786202251373
 20
648.9330339716082
 10
61.09932958941442
 20
649.4255244022472
 10
61.49865761061352
 20
649.9753243007393
 10
61.83394327304222
 20
650.5798110780584
 10
62.10358746294298
 20
651.2361043120382
 10
62.30630787459677
 20
651.9410792453973
 10
62.44113613888823
 20
652.6913768244578
 10
62.50743037847809
 20
653.4834141577103
 10
62.50487431963074
 20
654.313426325518
 10
62.43348089659605
 20
655.177453885336
 10
62.29359020390245
 20
656.0713781452673
 10
62.08586797157139
 20
656.9909405770231
 10
61.81130557572408
 20
657.9317578327652
 10
61.47121093538061
 20
658.88934768742
 10
61.0672031409365
 20
659.8591481090768
 10
60.60120995447005
 20
660.836535007492
 10
60.07545074408017
 20
661.8168514463741
 10
59.49243103251587
 20
662.7954256153408
 10
58.85492859733375
 20
663.7675945812322
 10
58.16598333794559
 20
664.7287272835451
 10
57.42887578675351
 20
665.6742397982579
 10
56.6471207409968
 20
666.5996283278057
 10
55.82444271003254
 20
667.500484157109
 10
54.96476222963429
 20
668.3725121673677
 10
54.07217695136558
 20
669.2115576338938
 10
53.15093871779882
 20
670.0136221508817
 10
52.20543844089858
 20
670.7748828061517
 10
51.24018327711394
 20
671.4917130875742
 10
50.25976910046646
 20
672.1606962129358
 10
49.26887318265568
 20
672.7786442130385
 10
48.27221456400576
 20
673.3426129528406
 10
47.27454207515342
 20
673.8499139956131
 10
46.2806131186108
 20
674.2981292532834
 10
45.29516247588157
 20
674.6851246786224
 10
44.32288484426147
 20
675.0090545180776
 10
43.36841582345477
 20
675.2683764447231
 10
42.43630160465563
 20
675.4618528332176
 10
41.53098682272741
 20
675.5885628438834
 10
40.65678677809802
 20
675.6479028156177
 10
39.81786271269368
 20
675.6395893834049
 10
39.01821261340086
 20
675.5636626221194
 10
38.26165031078131
 20
675.420484315373
 10
37.55178341229998
 20
675.2107362718266
 10
36.89198886098995
 20
674.9354183788205
 10
36.28541527480175
 20
674.595842749021
 10
35.73495086035547
 20
674.1936273793483
 10
35.24322221223983
 20
673.7306900824063
 10
34.81256636604849
 20
673.2092350072817
 10
34.4450403138415
 20
672.6317480314723
 10
34.14239355445036
 20
672.000981697108
 10
33.90607336303654
 20
671.3199419093205
 10
33.73719751090516
 20
670.5918726525395
 10
33.63657457657953
 20
669.820245224538
 10
33.60558484006174
 20
669.1761979196215
  0
LWPOLYLINE
  5
254EA0
330
18
100
AcDbEntity
  8
姿図
100
AcDbPolyline
 90
       33
 70
   128
 43
0.0
 10
52.21744461959298
 20
646.1594156367621
 10
51.73288210885661
 20
646.0924089173418
 10
50.98230773813674
 20
646.0510915414911
 10
50.19380927256304
 20
646.0786759410303
 10
49.37201321501851
 20
646.1750012742656
 10
48.52174096682444
 20
646.339497890637
 10
47.6479812833856
 20
646.5712033903735
 10
46.75586460842993
 20
646.8687523473413
 10
45.85062428445252
 20
647.2304075646006
 10
44.93757365626129
 20
647.6540397394948
 10
44.02206922625851
 20
648.1371661153158
 10
43.1094854529689
 20
648.6769532787986
 10
42.20517729182654
 20
649.2702265478334
 10
41.31445143779376
 20
649.9135101508306
 10
40.44253349288516
 20
650.6030303085317
 10
39.59454260579446
 20
651.3347332682713
 10
38.77545297977065
 20
652.1043336083169
 10
37.99007140072644
 20
652.9073107867978
 10
37.24301132201037
 20
653.7389523205773
 10
36.53865175866616
 20
654.5943786517424
 10
35.88112558403839
 20
655.468570210928
 10
35.2742963163069
 20
656.3563949895862
 10
34.72172034886631
 20
657.2526451592303
 10
34.22664558765325
 20
658.1520595064713
 10
33.79196940120144
 20
659.0493626763158
 10
33.42025162740396
 20
659.9392844389574
 10
33.11366510975418
 20
660.8166064509076
 10
32.87401949111575
 20
661.6761781933067
 10
32.70271070509358
 20
662.5129556945598
 10
32.600749103113
 20
663.3220298064559
 10
32.56873040723383
 20
664.0986490217675
 10
32.60684525501301
 20
664.8382590915121
 10
32.63849687889945
 20
665.100277019411
  0
LWPOLYLINE
  5
254EA1
330
18
100
AcDbEntity
  8
姿図
100
AcDbPolyline
 90
       32
 70
   128
 43
0.0
 10
52.23556321095191
 20
646.5496353302167
 10
52.16814033456021
 20
646.5423304388441
 10
51.41756773386547
 20
646.5010131706023
 10
50.6290692682918
 20
646.5285975701415
 10
49.8072714407221
 20
646.6249227957679
 10
48.9569991077737
 20
646.7894195221011
 10
48.08323937930592
 20
647.021121322608
 10
47.19112274937919
 20
647.3186739788055
 10
46.28588242540178
 20
647.6803291960647
 10
45.37283183958772
 20
648.103961315978
 10
44.45732736720782
 20
648.58708774678
 10
43.54474363629532
 20
649.1268748552818
 10
42.64043362037353
 20
649.7201481266695
 10
41.74970772396355
 20
650.3634317846477
 10
40.87778982143209
 20
651.0529518873678
 10
40.02979893434144
 20
651.7846548471075
 10
39.2107093083176
 20
652.5542551871531
 10
38.42533139645519
 20
653.357232415909
 10
37.67826760818019
 20
654.1888739543944
 10
36.97390808721309
 20
655.0443002305785
 10
36.31638557976714
 20
655.9184918400392
 10
35.70955260247672
 20
656.8063166234033
 10
35.15698038697224
 20
657.7025667333605
 10
34.66190191620024
 20
658.6019810853074
 10
34.22722939693017
 20
659.499284305427
 10
33.85550791357377
 20
660.3892060727744
 10
33.54892519023724
 20
661.2665279700569
 10
33.30927577728556
 20
662.1260998271238
 10
33.13796707601767
 20
662.9628772184151
 10
33.03600538928282
 20
663.7719514402729
 10
33.00399048771689
 20
664.5485705409169
 10
33.0279005421861
 20
665.1313090388796
  0
LWPOLYLINE
  5
254EA2
330
18
100
AcDbEntity
  8
姿図
100
AcDbPolyline
 90
       49
 70
   128
 43
0.0
 10
63.18589000486639
 20
651.218397465472
 10
63.28148317145451
 20
651.3062769673681
 10
63.74944963760487
 20
651.8057042593118
 10
64.1544023677578
 20
652.363245675479
 10
64.49441019204096
 20
652.9762446385932
 10
64.76785329075938
 20
653.6417845493265
 10
64.97342811060952
 20
654.3566882665484
 10
65.11015549574466
 20
655.1175515183269
 10
65.17738345522127
 20
655.9207465236078
 10
65.17479149444773
 20
656.762448009461
 10
65.10239275473069
 20
657.6386445616929
 10
64.96053119707966
 20
658.545158662814
 10
64.74988394929142
 20
659.4776734807803
 10
64.47145436342382
 20
660.4317415026518
 10
64.1265689958683
 20
661.402820468506
 10
63.71687199837837
 20
662.3862783960913
 10
63.24431453202993
 20
663.3774315936923
 10
62.71115021051526
 20
664.3715544812768
 10
62.11991886972021
 20
665.3639121535666
 10
61.47343876535217
 20
666.3497745637146
 10
60.77478892872028
 20
667.3244428801129
 10
60.02730049221378
 20
668.283273670494
 10
59.23453435289332
 20
669.2216952653739
 10
58.40026972601157
 20
670.1352382457011
 10
57.52848084744303
 20
671.0195490330524
 10
56.62332367202913
 20
671.8704116628121
 10
55.68911034778972
 20
672.6837731341798
 10
54.73029244241127
 20
673.4557564249415
 10
53.7514418068256
 20
674.1826828851864
 10
52.75722068250457
 20
674.8610882628936
 10
51.75236765422733
 20
675.4877398079597
 10
50.74167052828716
 20
676.0596513694477
 10
49.72994847333854
 20
676.5740975562649
 10
48.72201913098513
 20
677.0286262869722
 10
47.72268868427074
 20
677.4210722812788
 10
46.73671756572759
 20
677.7495643283972
 10
45.76880409147117
 20
678.0125380355994
 10
44.82356298175432
 20
678.2087399584109
 10
43.90549779884202
 20
678.3372348144413
 10
43.01898215444379
 20
678.397410466009
 10
42.16824342744633
 20
678.3889801711055
 10
41.35733361848219
 20
678.3119838108864
 10
40.59011710498118
 20
678.1667887712749
 10
39.8702498925083
 20
677.9540866046738
 10
39.20116276768437
 20
677.6748913166621
 10
38.58604658861623
 20
677.3305325864562
 10
38.02782851596834
 20
676.922652478441
 10
37.52916997067149
 20
676.453193889603
 10
37.33141093286815
 20
676.2302635048694
  0
LWPOLYLINE
  5
254EA3
330
18
100
AcDbEntity
  8
姿図
100
AcDbPolyline
 90
       31
 70
   128
 43
0.0
 10
52.23434811507337
 20
646.963051882502
 10
51.85282587481476
 20
646.9509348020664
 10
51.06432749399539
 20
646.9785190916439
 10
50.24252958167142
 20
647.0748444272319
 10
49.39225729110012
 20
647.2393410985842
 10
48.51849756263238
 20
647.4710428990912
 10
47.62638093270562
 20
647.7685955552888
 10
46.72114060872823
 20
648.1302507725479
 10
45.8080900229142
 20
648.5538828924613
 10
44.89258555053425
 20
649.0370093232632
 10
43.98000177724458
 20
649.5767964867459
 10
43.07569361610228
 20
650.1700697557808
 10
42.18496776206945
 20
650.8133533587779
 10
41.31304981716085
 20
651.502873516479
 10
40.4650589300702
 20
652.2345764762186
 10
39.64596930404633
 20
653.0041768162642
 10
38.86058772500218
 20
653.8071539947451
 10
38.11352764628609
 20
654.6387955285247
 10
37.40916808294185
 20
655.4942218596898
 10
36.75164190831413
 20
656.3684134188753
 10
36.14481264058264
 20
657.2562381975335
 10
35.59223667314205
 20
658.1524883671775
 10
35.09716191192899
 20
659.0519027144187
 10
34.66248568309999
 20
659.949205939244
 10
34.29076799405686
 20
660.8391275919239
 10
33.984185185966
 20
661.7164495991681
 10
33.74453577301432
 20
662.5760214562349
 10
33.57322707174643
 20
663.4127988475262
 10
33.47126538501158
 20
664.2218730693842
 10
33.43924677388671
 20
664.9984921747339
 10
33.44113455595493
 20
665.1437888332749
  0
LWPOLYLINE
  5
254EA4
330
18
100
AcDbEntity
  8
姿図
100
AcDbPolyline
 90
       29
 70
   128
 43
0.0
 10
52.21188746163222
 20
647.4005148047702
 10
51.49958563494465
 20
647.428440723108
 10
50.67778772262068
 20
647.5247660586961
 10
49.82751543204944
 20
647.6892627300483
 10
48.95375755836113
 20
647.9209645282024
 10
48.06163907365493
 20
648.2185171867528
 10
47.15639874967752
 20
648.580172404012
 10
46.24334816386346
 20
649.0038045239254
 10
45.32784369148351
 20
649.4869309547273
 10
44.41525996057103
 20
650.0267180632292
 10
43.51095179942871
 20
650.6199913322639
 10
42.62022406942788
 20
651.2632749651045
 10
41.74830614570783
 20
651.9527950953152
 10
40.90031528113164
 20
652.6844999046696
 10
40.08122563259332
 20
653.4540983951003
 10
39.29584772073093
 20
654.2570756238564
 10
38.54878397483304
 20
655.0887171073608
 10
37.84442441148883
 20
655.944143438526
 10
37.18690190404286
 20
656.8183350479865
 10
36.5800726363114
 20
657.7061598266447
 10
36.02749671124792
 20
658.6024099413078
 10
35.53241824047598
 20
659.5018242932549
 10
35.09774572120591
 20
660.3991275133743
 10
34.72602798978562
 20
661.289049221035
 10
34.41944147213582
 20
662.1663712329852
 10
34.17979214393841
 20
663.0259429800901
 10
34.00848335791625
 20
663.8627204813432
 10
33.90652175593567
 20
664.6717945932394
 10
33.87909885155807
 20
665.1358285714196
  0
LWPOLYLINE
  5
254EA5
330
18
100
AcDbEntity
  8
姿図
100
AcDbPolyline
 90
       28
 70
   128
 43
0.0
 10
52.16606966757155
 20
647.8633286437723
 10
51.93484377589397
 20
647.8783623545721
 10
51.1130459059471
 20
647.9746876351794
 10
50.26277361537586
 20
648.1391843065315
 10
49.38901574168756
 20
648.3708861046856
 10
48.49689725698136
 20
648.668438763236
 10
47.59165693300395
 20
649.0300939804952
 10
46.67860634718988
 20
649.4537261004086
 10
45.76310185362138
 20
649.9368525587009
 10
44.85051810152032
 20
650.4766396946932
 10
43.94620994037797
 20
651.069912963728
 10
43.05548408634519
 20
651.7131965667252
 10
42.18356614011066
 20
652.402714847321
 10
41.33557529804898
 20
653.1344215062904
 10
40.51648564951063
 20
653.9040199967212
 10
39.73110404927786
 20
654.7069972026925
 10
38.9840439705618
 20
655.538638736472
 10
38.27968440721759
 20
656.394065067637
 10
37.62215823258981
 20
657.2682566268227
 10
37.01532896485833
 20
658.1560814054808
 10
36.46275299741774
 20
659.0523315751249
 10
35.9676782362047
 20
659.9517459223661
 10
35.53300571693467
 20
660.8490491424855
 10
35.16128427595544
 20
661.7389708548521
 10
34.85470155261885
 20
662.6162927521345
 10
34.61505213966717
 20
663.4758646092014
 10
34.443743353645
 20
664.3126421104544
 10
34.34317731147081
 20
665.1053645799791
  0
ARC
  5
254EA6
330
18
100
AcDbEntity
  8
姿図
100
AcDbCircle
 10
62.83589115923098
 20
676.7252786708154
 30
0.0
 40
28.29122623005798
100
AcDbArc
 50
205.7273137569477
 51
246.1707462612454
  0
LWPOLYLINE
  5
254EA7
330
18
100
AcDbEntity
  8
姿図
100
AcDbPolyline
 90
       27
 70
   128
 43
0.0
 10
52.09445959554159
 20
648.3533143624345
 10
51.54830590167586
 20
648.4246092642906
 10
50.69803175632512
 20
648.5891059379957
 10
49.82427388263682
 20
648.8208077361497
 10
48.93215725271011
 20
649.1183603923473
 10
48.0269169287327
 20
649.4800156096064
 10
47.11386448813917
 20
649.9036477318728
 10
46.19836187053869
 20
650.3867741603217
 10
45.28577626365819
 20
650.9265612986669
 10
44.38146810251584
 20
651.5198345677018
 10
43.49074224848306
 20
652.1631181706989
 10
42.61882615702802
 20
652.8526364489418
 10
41.77083160540735
 20
653.584343112617
 10
40.95174566642797
 20
654.3539415983419
 10
40.16636406619523
 20
655.1569188043132
 10
39.41930398747911
 20
655.9885603380927
 10
38.71494073576457
 20
656.8439866464732
 10
38.05741820580408
 20
657.718176406319
 10
37.45058900296425
 20
658.6060029796112
 10
36.89801303552366
 20
659.5022531492552
 10
36.40293456475166
 20
660.4016675012022
 10
35.96826204548162
 20
661.2989707213217
 10
35.5965443140613
 20
662.1888924289824
 10
35.28995783878867
 20
663.0662143859515
 10
35.05030842583699
 20
663.9257862430184
 10
34.87900343412809
 20
664.7625636296038
 10
34.83526536318027
 20
665.0500234597076
  0
LWPOLYLINE
  5
254EA8
330
18
100
AcDbEntity
  8
姿図
100
AcDbPolyline
 90
       26
 70
   128
 43
0.0
 10
51.9941382831081
 20
648.8728859840398
 10
51.98356408500229
 20
648.8745308407738
 10
51.1332899396516
 20
649.0390275144789
 10
50.25953206596327
 20
649.270729312633
 10
49.36741543603654
 20
649.5682819688304
 10
48.46217511205913
 20
649.9299371860895
 10
47.54912265027701
 20
650.3535693358464
 10
46.63362005386512
 20
650.8366957368048
 10
45.7210362805755
 20
651.3764829002877
 10
44.81672626465371
 20
651.9697561716755
 10
43.92600041062087
 20
652.6130397746726
 10
43.0540824643864
 20
653.3025580552684
 10
42.20609162232466
 20
654.0342647142377
 10
41.38700197378637
 20
654.8038632046685
 10
40.60162408311254
 20
655.606840405934
 10
39.85456029483751
 20
656.4384819444193
 10
39.15020075268188
 20
657.293908248094
 10
38.49267824391001
 20
658.1680979804493
 10
37.88584528913407
 20
659.0559246134281
 10
37.33327303125242
 20
659.9521747783663
 10
36.83819456048042
 20
660.8515891303134
 10
36.40352204121035
 20
661.7488923504328
 10
36.03180060023112
 20
662.6388140627994
 10
35.72521783451742
 20
663.5161360150628
 10
35.48556842156574
 20
664.3757078721296
 10
35.35787331652867
 20
664.9669664770361
  0
LWPOLYLINE
  5
254EA9
330
18
100
AcDbEntity
  8
姿図
100
AcDbPolyline
 90
       25
 70
   128
 43
0.0
 10
51.86149361425367
 20
649.4252247242582
 10
51.5685499353803
 20
649.48894914359
 10
50.69479020691256
 20
649.7206509440971
 10
49.80267359817441
 20
650.0182035728042
 10
48.897433274197
 20
650.3798587900633
 10
47.98438081241488
 20
650.80349093982
 10
47.06887821600299
 20
651.2866173407785
 10
46.15629444271337
 20
651.8264045042613
 10
45.25198442679158
 20
652.4196777756491
 10
44.36125857275874
 20
653.0629613786462
 10
43.48934062652427
 20
653.752479659242
 10
42.641351639242
 20
654.4841863158584
 10
41.82226199070368
 20
655.2537848062892
 10
41.03688039047091
 20
656.0567620122606
 10
40.28982031175485
 20
656.8884035460401
 10
39.58546076959919
 20
657.7438298497148
 10
38.92793455126838
 20
658.6180195867759
 10
38.32110532723996
 20
659.5058461875585
 10
37.7685293597994
 20
660.4020963572025
 10
37.27345459858634
 20
661.3015107044437
 10
36.83877834724285
 20
662.1988120796541
 10
36.46706063833705
 20
663.0887356369296
 10
36.16047416306441
 20
663.966057593899
 10
35.92082479248987
 20
664.8256293959848
 10
35.9143014422641
 20
664.8526881907173
  0
ARC
  5
254EAA
330
18
100
AcDbEntity
  8
姿図
100
AcDbCircle
 10
63.4436415420567
 20
677.3535073239029
 30
0.0
 40
28.86886156475832
100
AcDbArc
 50
206.8198573172307
 51
245.0782097524856
  0
LWPOLYLINE
  5
254EAB
330
18
100
AcDbEntity
  8
姿図
100
AcDbPolyline
 90
       27
 70
   128
 43
0.0
 10
64.76819607655688
 20
659.4063487089496
 10
64.69741884155519
 20
659.6904701435312
 10
64.42285644570785
 20
660.6312873992733
 10
64.08276087797469
 20
661.5888772551048
 10
63.67875401092027
 20
662.5586776755849
 10
63.21276082445385
 20
663.5360645740002
 10
62.6870006866742
 20
664.5163810140589
 10
62.10398097510992
 20
665.4949551830255
 10
61.46647929780886
 20
666.4671243676639
 10
60.77753328053967
 20
667.4282568512298
 10
60.04042665673728
 20
668.3737693647661
 10
59.2586714414719
 20
669.2991581142375
 10
58.43599341050768
 20
670.2000139435407
 10
57.57631309961806
 20
671.072041733876
 10
56.68372689395963
 20
671.9110872015784
 10
55.76248940701674
 20
672.7131510125059
 10
54.81698931088238
 20
673.4744123726598
 10
53.85173212280961
 20
674.191242876359
 10
52.87131997045026
 20
674.860225779444
 10
51.88042405263951
 20
675.4781737795468
 10
50.88376525322366
 20
676.0421418144649
 10
49.88609293387992
 20
676.5494426373139
 10
48.89216398859458
 20
676.9976588197915
 10
47.90671132157723
 20
677.384654467407
 10
46.93443571424524
 20
677.7085840845857
 10
45.9799648386591
 20
677.9679060135842
 10
45.46246597032123
 20
678.082896809444
  0
ARC
  5
254EAC
330
18
100
AcDbEntity
  8
姿図
100
AcDbCircle
 10
63.33543495816116
 20
677.2416488400526
 30
0.0
 40
28.58460522195177
100
AcDbArc
 50
207.0139681696562
 51
244.8840844699026
  0
LWPOLYLINE
  5
254EAD
330
18
100
AcDbEntity
  8
姿図
100
AcDbPolyline
 90
       23
 70
   128
 43
0.0
 10
51.69191295593254
 20
650.0145492450459
 10
51.13004839023898
 20
650.1705725205802
 10
50.23793176031225
 20
650.4681251767778
 10
49.33269143633487
 20
650.829780394037
 10
48.4196408293322
 20
651.2534125414408
 10
47.50413637814086
 20
651.7365389447523
 10
46.59155260352532
 20
652.2763242311297
 10
45.68724445430317
 20
652.8695993635247
 10
44.79651673489661
 20
653.5128829826199
 10
43.92459878866211
 20
654.2024012632157
 10
43.0766079466004
 20
654.934107922185
 10
42.25751829806205
 20
655.7037064126158
 10
41.47214040738825
 20
656.5066836138813
 10
40.72507661911322
 20
657.3383251523667
 10
40.0207170769576
 20
658.1937514560414
 10
39.36319456818572
 20
659.0679411883966
 10
38.75636161340978
 20
659.9557678213755
 10
38.20378935552813
 20
660.8520179863137
 10
37.70871088475616
 20
661.7514323382607
 10
37.27403838534877
 20
662.6487336537843
 10
36.90231692450686
 20
663.5386572707467
 10
36.59573415879316
 20
664.41597922301
 10
36.50891961473525
 20
664.702720101787
  0
ARC
  5
254EAE
330
18
100
AcDbEntity
  8
姿図
100
AcDbCircle
 10
64.49583420219858
 20
678.4411392687957
 30
0.0
 40
29.20101083750087
100
AcDbArc
 50
210.4652236923524
 51
241.4328284999984
  0
LWPOLYLINE
  5
254EAF
330
18
100
AcDbEntity
  8
姿図
100
AcDbPolyline
 90
       22
 70
   128
 43
0.0
 10
51.63186048819739
 20
650.2027750934747
 10
50.86402272553818
 20
650.4394301932564
 10
49.96701936418822
 20
650.7712643892968
 10
49.05992504088471
 20
651.165136959157
 10
48.14793185152041
 20
651.61878317891
 10
47.23626324818753
 20
652.1296083033965
 10
46.33014348392743
 20
652.6946882187702
 10
45.43476146004576
 20
653.3107832968192
 10
44.55524567960305
 20
653.9743654161417
 10
43.69663510332225
 20
654.6816360973304
 10
42.86384423588908
 20
655.4285392750578
 10
42.06164866649715
 20
656.2108021596246
 10
41.29464215730945
 20
657.0239393751713
 10
40.56721439541144
 20
657.8632961888272
 10
39.8835337369859
 20
658.7240624138644
 10
39.24751705942734
 20
659.6013106354765
 10
38.66280657303008
 20
660.4900143562854
 10
38.13275028000785
 20
661.385083127308
 10
37.66038982746494
 20
662.2813920656841
 10
37.24842554548161
 20
663.1738027298658
 10
36.89921505797474
 20
664.0572081348982
 10
36.69903536737991
 20
664.648935513743
  0
LWPOLYLINE
  5
254EB0
330
18
100
AcDbEntity
  8
姿図
100
AcDbPolyline
 90
        8
 70
   128
 43
0.0
 10
79.34996824791165
 20
681.9753788753926
 10
79.21254406797999
 20
682.3179911983385
 10
79.01993642272879
 20
682.6156394865219
 10
78.78252849347541
 20
682.8522776381454
 10
78.51311942243058
 20
683.0151483267646
 10
78.22623308718858
 20
683.09547134305
 10
77.93733561103926
 20
683.0889161843585
 10
77.73901564293718
 20
683.0313067725756
  0
LWPOLYLINE
  5
254EB1
330
18
100
AcDbEntity
  8
姿図
100
AcDbPolyline
 90
       10
 70
   128
 43
0.0
 10
78.14675093191079
 20
679.8730456258131
 10
78.29679587824859
 20
679.8647390171847
 10
78.580832289836
 20
679.9148955655423
 10
78.84374127875051
 20
680.049639859659
 10
79.071348462878
 20
680.2617075988583
 10
79.2513844259646
 20
680.5396661801774
 10
79.3741429371263
 20
680.86853097635
 10
79.43300563147116
 20
681.230572416504
 10
79.42480022569248
 20
681.6062732664416
 10
79.34996824791165
 20
681.9753788753926
  0
ARC
  5
254EB2
330
18
100
AcDbEntity
  8
姿図
100
AcDbCircle
 10
41.69335249037897
 20
777.3721576462681
 30
0.0
 40
69.38452253213215
100
AcDbArc
 50
266.5635158199216
 51
270.1850089148376
  0
ARC
  5
254EB3
330
18
100
AcDbEntity
  8
姿図
100
AcDbCircle
 10
34.19393701086585
 20
692.8919946497599
 30
0.0
 40
15.58264222326398
100
AcDbArc
 50
77.62174420142267
 51
90.55143155735243
  0
ARC
  5
254EB4
330
18
100
AcDbEntity
  8
姿図
100
AcDbCircle
 10
34.35720453609684
 20
712.516238717885
 30
0.0
 40
4.054441641195647
100
AcDbArc
 50
240.8390547152547
 51
265.5690396861798
  0
LWPOLYLINE
  5
254EB5
330
18
100
AcDbEntity
  8
姿図
100
AcDbPolyline
 90
        9
 70
   128
 43
0.0
 10
32.38161892309353
 20
708.9756796507946
 10
32.72316463669142
 20
709.0270070665445
 10
32.99581723464365
 20
709.0842002128122
 10
33.1942767519148
 20
709.146149034562
 10
33.31470077508374
 20
709.2116506684102
 10
33.3547412702699
 20
709.2794337835544
 10
33.31362643429264
 20
709.3481822064584
 10
33.19215502236307
 20
709.4165615127811
 10
32.9926807336592
 20
709.4832440939563
  0
ARC
  5
254EB6
330
18
100
AcDbEntity
  8
姿図
100
AcDbCircle
 10
36.64082270535647
 20
693.1773772322853
 30
0.0
 40
16.708986622659
100
AcDbArc
 50
93.18172453942734
 51
102.611206956278
  0
ARC
  5
254EB7
330
18
100
AcDbEntity
  8
姿図
100
AcDbCircle
 10
36.85506313225395
 20
735.4624627219487
 30
0.0
 40
25.62729686294762
100
AcDbArc
 50
267.4467537511636
 51
276.6320375224755
  0
ARC
  5
254EB8
330
18
100
AcDbEntity
  8
姿図
100
AcDbCircle
 10
40.03886617591689
 20
640.6223875725206
 30
0.0
 40
69.38462910141702
100
AcDbArc
 50
86.56351860201062
 51
90.18500613274696
  0
ARC
  5
254EB9
330
18
100
AcDbEntity
  8
姿図
100
AcDbCircle
 10
47.53827829861427
 20
725.1026003092638
 30
0.0
 40
15.58258533717172
100
AcDbArc
 50
257.6217223203557
 51
270.5514567251137
  0
LINE
  5
254EBA
330
18
100
AcDbEntity
  8
姿図
100
AcDbLine
 10
47.68825424590156
 20
709.5207367170783
 30
0.0
 11
47.89110629223839
 21
709.4853866586521
 31
0.0
  0
LWPOLYLINE
  5
254EBB
330
18
100
AcDbEntity
  8
姿図
100
AcDbPolyline
 90
        7
 70
   128
 43
0.0
 10
48.58291935976712
 20
708.8652649474386
 10
48.53794114502026
 20
708.8485028785024
 10
48.4175210009189
 20
708.7830010200246
 10
48.37747848144463
 20
708.715218127157
 10
48.41859331742188
 20
708.6464697042529
 10
48.54006658413095
 20
708.5780903955773
 10
48.73953918756393
 20
708.5114075968315
  0
ARC
  5
254EBC
330
18
100
AcDbEntity
  8
姿図
100
AcDbCircle
 10
45.09138981839317
 20
724.8173277933868
 30
0.0
 40
16.70904028591126
100
AcDbArc
 50
273.181739715698
 51
282.6111917800054
  0
ARC
  5
254EBD
330
18
100
AcDbEntity
  8
姿図
100
AcDbCircle
 10
44.87715734901263
 20
682.5321903561937
 30
0.0
 40
25.62729545202171
100
AcDbArc
 50
87.44675486385059
 51
96.63203516582709
  0
LWPOLYLINE
  5
254EBE
330
18
100
AcDbEntity
  8
姿図
100
AcDbPolyline
 90
       51
 70
   128
 43
0.0
 10
45.10501319470279
 20
708.5582750338601
 10
45.4857222725351
 20
708.6191766605358
 10
45.79357503573925
 20
708.6860422017685
 10
46.02372015015595
 20
708.7578166196571
 10
46.17252720030331
 20
708.8333681871543
 10
46.23764765888239
 20
708.9115055479874
 10
46.2180559524196
 20
708.9909965594973
 10
46.11406085043672
 20
709.0705871731228
 10
45.92730234558786
 20
709.1490223106698
 10
45.66072746300262
 20
709.2250652293487
 10
45.31853656266685
 20
709.2975167045363
 10
44.90612998082003
 20
709.3652337726899
 10
44.43000813235807
 20
709.4271487530089
 10
43.89768309074509
 20
709.4822853983248
 10
43.31754683977846
 20
709.5297735629972
 10
42.6987498064878
 20
709.568864956309
 10
42.05105260902411
 20
709.5989427780032
 10
41.38466565882078
 20
709.619532687477
 10
40.71010260356928
 20
709.6303102400826
 10
40.03800107201425
 20
709.6311050692798
 10
39.37895842649326
 20
709.6219048300411
 10
38.74336922037799
 20
709.6028545262157
 10
38.14125608394099
 20
709.5742547476868
 10
37.58211428152825
 20
709.5365565945585
 10
37.07476538293645
 20
709.4903543926946
 10
36.62720858129978
 20
709.4363766545748
 10
36.24649950346753
 20
709.375475027899
 10
35.93864657075477
 20
709.3086097065899
 10
35.70849977106721
 20
709.2368350711307
 10
35.55969272091988
 20
709.1612835036335
 10
35.49457226234074
 20
709.0831461428004
 10
35.51416379929492
 20
709.0036553512141
 10
35.61816075605725
 20
708.9240647352356
 10
35.8049175756353
 20
708.845629380118
 10
36.07149431299996
 20
708.7695864590861
 10
36.41368335855634
 20
708.6971349862515
 10
36.82608994040314
 20
708.6294179180979
 10
37.30221364364456
 20
708.567502935426
 10
37.83453851574893
 20
708.5123665100336
 10
38.41467493622415
 20
708.4648781254376
 10
39.03347011473534
 20
708.4257867344787
 10
39.68116916697852
 20
708.3957089104317
 10
40.34755240762291
 20
708.3751190056638
 10
41.0221152933658
 20
708.3643416729817
 10
41.69422070398838
 20
708.3635466191552
 10
42.35326334950935
 20
708.3727468583938
 10
42.98885255562459
 20
708.3917971622192
 10
43.59096569206162
 20
708.420396940748
 10
44.15010563969491
 20
708.4580950962293
 10
44.65745622355755
 20
708.5042975156639
 10
45.10501319470279
 20
708.5582750338601
  0
LINE
  5
254EBF
330
18
100
AcDbEntity
  8
姿図
100
AcDbLine
 10
39.87526277000731
 20
714.971675948304
 30
0.0
 11
39.81482594633894
 21
710.0066549644641
 31
0.0
  0
LINE
  5
254EC0
330
18
100
AcDbEntity
  8
姿図
100
AcDbLine
 10
44.25835375090384
 20
714.8472746577986
 30
0.0
 11
44.19791692723544
 21
709.8822536739589
 31
0.0
  0
ARC
  5
254EC1
330
18
100
AcDbEntity
  8
姿図
100
AcDbCircle
 10
40.09930299958495
 20
645.5874085563481
 30
0.0
 40
69.38462910142925
100
AcDbArc
 50
86.56351860201062
 51
90.18500613274696
  0
LINE
  5
254EC2
330
18
100
AcDbEntity
  8
姿図
100
AcDbLine
 10
35.77386010072519
 20
714.8256282468052
 30
0.0
 11
35.71342327705685
 21
709.8606072629655
 31
0.0
  0
ARC
  5
254EC3
330
18
100
AcDbEntity
  8
姿図
100
AcDbCircle
 10
36.91549995592248
 20
740.427483705784
 30
0.0
 40
25.62729686294316
100
AcDbArc
 50
267.4467537511603
 51
276.6320375224788
  0
ARC
  5
254EC4
330
18
100
AcDbEntity
  8
姿図
100
AcDbCircle
 10
40.54100849492778
 20
675.8225964774988
 30
0.0
 40
41.33829763096101
100
AcDbArc
 50
84.38642122151792
 51
95.99304854479128
  0
LWPOLYLINE
  5
254EC5
330
18
100
AcDbEntity
  8
姿図
100
AcDbPolyline
 90
        7
 70
   128
 43
0.0
 10
34.95720986017568
 20
716.5178889421179
 10
34.96728053378081
 20
716.5575924379515
 10
35.05284884804155
 20
716.6410783691267
 10
35.22450629390082
 20
716.7217030205836
 10
35.47975353950437
 20
716.7982903872454
 10
35.81487040302864
 20
716.8697242355373
 10
36.22496772761323
 20
716.9349625383422
  0
LINE
  5
254EC6
330
18
100
AcDbEntity
  8
姿図
100
AcDbLine
 10
47.7463325881526
 20
714.2920031483736
 30
0.0
 11
47.73538791863018
 21
713.3928739330759
 31
0.0
  0
LINE
  5
254EC7
330
18
100
AcDbEntity
  8
姿図
100
AcDbLine
 10
47.69001805246472
 20
709.6656373929561
 30
0.0
 11
47.68825424590156
 21
709.5207367170783
 31
0.0
  0
LWPOLYLINE
  5
254EC8
330
18
100
AcDbEntity
  8
姿図
100
AcDbPolyline
 90
        3
 70
   128
 43
0.0
 10
44.25835375090384
 20
714.8472746577986
 10
44.49619329717484
 20
714.7819581105547
 10
44.55795655191292
 20
714.7681104059285
  0
LINE
  5
254EC9
330
18
100
AcDbEntity
  8
姿図
100
AcDbLine
 10
33.0531175573276
 20
714.448265077796
 30
0.0
 11
32.9926807336592
 21
709.4832440939563
 31
0.0
  0
ARC
  5
254ECA
330
18
100
AcDbEntity
  8
姿図
100
AcDbCircle
 10
36.70125952902487
 20
698.142398216125
 30
0.0
 40
16.70898662265909
100
AcDbArc
 50
93.18172453942734
 51
102.611206956278
  0
LINE
  5
254ECB
330
18
100
AcDbEntity
  8
姿図
100
AcDbLine
 10
49.41103950706884
 20
713.9839932414036
 30
0.0
 11
49.38560001790725
 21
711.8940819946018
 31
0.0
  0
ARC
  5
254ECC
330
18
100
AcDbEntity
  8
姿図
100
AcDbCircle
 10
48.52493761778254
 20
712.8011633160206
 30
0.0
 40
1.477925299390461
100
AcDbArc
 50
53.16175401232542
 51
76.43223131236412
  0
LINE
  5
254ECD
330
18
100
AcDbEntity
  8
姿図
100
AcDbLine
 10
32.44205574676189
 20
713.9407006346344
 30
0.0
 11
32.38161892309353
 21
708.9756796507946
 31
0.0
  0
LWPOLYLINE
  5
254ECE
330
18
100
AcDbEntity
  8
姿図
100
AcDbPolyline
 90
        3
 70
   128
 43
0.0
 10
32.44205574676189
 20
713.9407006346344
 10
32.78360146035982
 20
713.9920280503843
 10
33.04823766013129
 20
714.0472071913985
  0
LWPOLYLINE
  5
254ECF
330
18
100
AcDbEntity
  8
姿図
100
AcDbPolyline
 90
       12
 70
   128
 43
0.0
 10
39.89166794201287
 20
726.2491771706049
 10
40.14672013979833
 20
726.2762244663033
 10
40.45569696929408
 20
726.2945791355901
 10
40.80064268865812
 20
726.3031744221139
 10
41.16151162509692
 20
726.3015106519713
 10
41.51733116349965
 20
726.2896849569768
 10
41.84742271948494
 20
726.2683842330516
 10
42.13259889742406
 20
726.2388464907954
 10
42.35629215903987
 20
726.2027884578279
 10
42.5054972843011
 20
726.1623055143676
 10
42.5715447967068
 20
726.1197505315171
 10
42.57450560593077
 20
726.1083939964241
  0
ARC
  5
254ED0
330
18
100
AcDbEntity
  8
姿図
100
AcDbCircle
 10
39.84750626688992
 20
725.8495864513122
 30
0.0
 40
0.4020236267864536
100
AcDbArc
 50
83.69342013750185
 51
132.7274623326744
  0
LINE
  5
254ED1
330
18
100
AcDbEntity
  8
姿図
100
AcDbLine
 10
48.74210957522928
 20
708.7225707242138
 30
0.0
 11
48.73953918756393
 21
708.5114075968315
 31
0.0
  0
SPLINE
  5
254ED2
330
18
100
AcDbEntity
  8
姿図
100
AcDbSpline
210
0.0
220
0.0
230
1.0
 70
     8
 71
     3
 72
    17
 73
    13
 74
     0
 42
0.000000001
 43
0.0000000001
 40
0.0
 40
0.0
 40
0.0
 40
0.0
 40
0.1110378179376025
 40
0.177429456115801
 40
0.2433801420887602
 40
0.3698799283177945
 40
0.5004248913140014
 40
0.6309699035965377
 40
0.7574696878179314
 40
0.8234204171767452
 40
0.8898119516998163
 40
1.0
 40
1.0
 40
1.0
 40
1.0
 10
79.81050814865063
 20
697.7750569126215
 30
0.0
 10
79.81889744811673
 20
697.8120428992172
 30
0.0
 10
79.83230287042335
 20
697.871143515633
 30
0.0
 10
79.81145996503659
 20
697.9726551150534
 30
0.0
 10
79.76888634673446
 20
698.0855780428237
 30
0.0
 10
79.67630762394788
 20
698.2317659491005
 30
0.0
 10
79.52011709520406
 20
698.3867544939552
 30
0.0
 10
79.34210825623393
 20
698.4975204675848
 30
0.0
 10
79.198100965143
 20
698.5394658702157
 30
0.0
 10
79.09949039554851
 20
698.5388112194826
 30
0.0
 10
79.01874164887718
 20
698.518385004175
 30
0.0
 10
78.98275024855502
 20
698.4776091483309
 30
0.0
 10
78.9602911278929
 20
698.4521644627031
 30
0.0
  0
LINE
  5
254ED3
330
18
100
AcDbEntity
  8
姿図
100
AcDbLine
 10
79.81050892904622
 20
697.7750589809834
 30
0.0
 11
79.80315588319957
 21
697.7601549115567
 31
0.0
  0
LINE
  5
254ED4
330
18
100
AcDbEntity
  8
姿図
100
AcDbLine
 10
79.80373701804876
 20
697.7596610425476
 30
0.0
 11
78.24390774446343
 21
696.3638432428635
 31
0.0
  0
SPLINE
  5
254ED5
330
18
100
AcDbEntity
  8
姿図
100
AcDbSpline
210
0.0
220
0.0
230
1.0
 70
     8
 71
     3
 72
    15
 73
    11
 74
     0
 42
0.000000001
 43
0.0000000001
 40
0.0
 40
0.0
 40
0.0
 40
0.0
 40
0.1257707707205633
 40
0.2514210329744025
 40
0.3755697678904588
 40
0.499988161988688
 40
0.6241372279451669
 40
0.7485559427983786
 40
0.8740835293930906
 40
1.0
 40
1.0
 40
1.0
 40
1.0
 10
78.24390774446343
 20
696.3638432428635
 30
0.0
 10
78.25243998855058
 20
696.3923786862521
 30
0.0
 10
78.26949630147357
 20
696.4494222315213
 30
0.0
 10
78.23111465598015
 20
696.5675855377428
 30
0.0
 10
78.15782006557396
 20
696.6866947901431
 30
0.0
 10
78.05027168128072
 20
696.7906643197093
 30
0.0
 10
77.9295810688181
 20
696.8682277042383
 30
0.0
 10
77.81320662694469
 20
696.8999768766191
 30
0.0
 10
77.7125588691305
 20
696.8923680880066
 30
0.0
 10
77.67960983673379
 20
696.8479408031636
 30
0.0
 10
77.66310984100721
 20
696.8256928050668
 30
0.0
  0
SPLINE
  5
254ED6
330
18
100
AcDbEntity
  8
姿図
100
AcDbSpline
210
0.0
220
0.0
230
1.0
 70
     8
 71
     3
 72
    17
 73
    13
 74
     0
 42
0.000000001
 43
0.0000000001
 40
0.0
 40
0.0
 40
0.0
 40
0.0
 40
0.1110379385523782
 40
0.1774293515334661
 40
0.2433802070739744
 40
0.3698797245399317
 40
0.5004248685732797
 40
0.6309699168576518
 40
0.7574696663722433
 40
0.8234205621050891
 40
0.889811816631403
 40
1.0
 40
1.0
 40
1.0
 40
1.0
 10
84.46585778118236
 20
692.997688027441
 30
0.0
 10
84.4926818735753
 20
693.0191801654228
 30
0.0
 10
84.53554453277806
 20
693.05352280682
 30
0.0
 10
84.55802407380406
 20
693.132021794728
 30
0.0
 10
84.56042903459581
 20
693.2279680071515
 30
0.0
 10
84.51986916867997
 20
693.3688419508597
 30
0.0
 10
84.40920527165247
 20
693.5440111492567
 30
0.0
 10
84.25272899337642
 20
693.6987273890767
 30
0.0
 10
84.10417543934926
 20
693.7913836517979
 30
0.0
 10
83.98891549917488
 20
693.8347989545712
 30
0.0
 10
83.8853665848169
 20
693.8567834697167
 30
0.0
 10
83.82461809126085
 20
693.8449843323688
 30
0.0
 10
83.78671013194733
 20
693.8376214959867
 30
0.0
  0
SPLINE
  5
254ED7
330
18
100
AcDbEntity
  8
姿図
100
AcDbSpline
210
0.0
220
0.0
230
1.0
 70
     8
 71
     3
 72
    15
 73
    11
 74
     0
 42
0.000000001
 43
0.0000000001
 40
0.0
 40
0.0
 40
0.0
 40
0.0
 40
0.1257707665052566
 40
0.2514209001905133
 40
0.3755692873481578
 40
0.499987910483676
 40
0.624136728097149
 40
0.7485560190782038
 40
0.8740834492863093
 40
1.0
 40
1.0
 40
1.0
 40
1.0
 10
82.88359808826806
 20
691.6546915949591
 30
0.0
 10
82.90669432064027
 20
691.6703570428504
 30
0.0
 10
82.95286463267217
 20
691.7016729131449
 30
0.0
 10
82.96257240780957
 20
691.7993284335737
 30
0.0
 10
82.93201301463563
 20
691.913157565979
 30
0.0
 10
82.85454704930584
 20
692.0318983188138
 30
0.0
 10
82.74958888844623
 20
692.1384750887057
 30
0.0
 10
82.62855277652596
 20
692.2118901223101
 30
0.0
 10
82.50771233722577
 20
692.2514670719955
 30
0.0
 10
82.44882834570507
 20
692.2358244832017
 30
0.0
 10
82.41934078717472
 20
692.2279910850114
 30
0.0
  0
LINE
  5
254ED8
330
18
100
AcDbEntity
  8
姿図
100
AcDbLine
 10
83.76998767525913
 20
693.8310421307018
 30
0.0
 11
82.41934078717472
 21
692.2279910850114
 31
0.0
  0
LINE
  5
254ED9
330
18
100
AcDbEntity
  8
姿図
100
AcDbLine
 10
83.78666705834678
 20
693.8376827344734
 30
0.0
 11
83.77046744183608
 21
693.8304504671949
 31
0.0
  0
LINE
  5
254EDA
330
18
100
AcDbEntity
  8
姿図
100
AcDbLine
 10
78.24390774446343
 20
696.3638432428635
 30
0.0
 11
77.96669624915211
 21
695.801963499284
 31
0.0
  0
LINE
  5
254EDB
330
18
100
AcDbEntity
  8
姿図
100
AcDbLine
 10
77.96669624915211
 20
695.801963499284
 30
0.0
 11
77.38589833443865
 21
696.26381213668
 31
0.0
  0
LINE
  5
254EDC
330
18
100
AcDbEntity
  8
姿図
100
AcDbLine
 10
77.38589833443865
 20
696.26381213668
 30
0.0
 11
77.66310984100721
 21
696.8256928050668
 31
0.0
  0
LINE
  5
254EDD
330
18
100
AcDbEntity
  8
姿図
100
AcDbLine
 10
82.88359808826806
 20
691.6546915949591
 30
0.0
 11
82.30150366288183
 21
691.3948037912962
 31
0.0
  0
LINE
  5
254EDE
330
18
100
AcDbEntity
  8
姿図
100
AcDbLine
 10
82.30150366288183
 20
691.3948037912962
 30
0.0
 11
81.83724679303756
 21
691.9681023834432
 31
0.0
  0
LINE
  5
254EDF
330
18
100
AcDbEntity
  8
姿図
100
AcDbLine
 10
81.83724679303756
 20
691.9681023834432
 30
0.0
 11
82.41934078717472
 21
692.2279910850114
 31
0.0
  0
LINE
  5
254EE0
330
18
100
AcDbEntity
  8
姿図
100
AcDbLine
 10
79.27450291246029
 20
696.686976303974
 30
0.0
 11
77.96669624915211
 21
695.801963499284
 31
0.0
  0
LINE
  5
254EE1
330
18
100
AcDbEntity
  8
姿図
100
AcDbLine
 10
79.80315588319957
 20
697.7601549115567
 30
0.0
 11
79.27393871173808
 21
696.6874840059473
 31
0.0
  0
LINE
  5
254EE2
330
18
100
AcDbEntity
  8
姿図
100
AcDbLine
 10
82.65919676382089
 20
693.3343004359326
 30
0.0
 11
83.77046744183608
 21
693.8304504671949
 31
0.0
  0
LINE
  5
254EE3
330
18
100
AcDbEntity
  8
姿図
100
AcDbLine
 10
82.65871792463366
 20
693.334892098263
 30
0.0
 11
81.83724679303756
 21
691.9681023834432
 31
0.0
  0
SPLINE
  5
254EE4
330
18
100
AcDbEntity
  8
姿図
100
AcDbSpline
210
0.0
220
0.0
230
1.0
 70
     8
 71
     3
 72
    12
 73
     8
 74
     0
 42
0.000000001
 43
0.0000000001
 40
0.0
 40
0.0
 40
0.0
 40
0.0
 40
0.1066463617315192
 40
0.4037223217200852
 40
0.7007974131472541
 40
0.8503992836954868
 40
1.0
 40
1.0
 40
1.0
 40
1.0
 10
88.25236500831829
 20
707.7539182188576
 30
0.0
 10
88.26058675167201
 20
707.759669749673
 30
0.0
 10
88.29171112630098
 20
707.7814428447558
 30
0.0
 10
88.37232508203897
 20
707.7880864190813
 30
0.0
 10
88.47353031399706
 20
707.7555624655498
 30
0.0
 10
88.55599687179472
 20
707.7095231694552
 30
0.0
 10
88.59542236664629
 20
707.6789657333186
 30
0.0
 10
88.61513503802553
 20
707.6636870741916
 30
0.0
  0
SPLINE
  5
254EE5
330
18
100
AcDbEntity
  8
姿図
100
AcDbSpline
210
0.0
220
0.0
230
1.0
 70
     8
 71
     3
 72
    11
 73
     7
 74
     0
 42
0.000000001
 43
0.0000000001
 40
0.0
 40
0.0
 40
0.0
 40
0.0
 40
0.2484445221213215
 40
0.5033238670306333
 40
0.7482735443726042
 40
1.0
 40
1.0
 40
1.0
 40
1.0
 10
88.8018965888347
 20
707.248985562881
 30
0.0
 10
88.80949868819113
 20
707.2768223130158
 30
0.0
 10
88.82489978463298
 20
707.3332167974015
 30
0.0
 10
88.79082219130635
 20
707.4466717670227
 30
0.0
 10
88.72036534485545
 20
707.564558697509
 30
0.0
 10
88.6505294267763
 20
707.6303450797963
 30
0.0
 10
88.61513503802553
 20
707.6636870741916
 30
0.0
  0
LINE
  5
254EE6
330
18
100
AcDbEntity
  8
姿図
100
AcDbLine
 10
88.74399062518427
 20
707.1880107213193
 30
0.0
 11
88.80172193395401
 21
707.2486312547094
 31
0.0
  0
LINE
  5
254EE7
330
18
100
AcDbEntity
  8
姿図
100
AcDbLine
 10
88.74399062518427
 20
707.1880107213193
 30
0.0
 11
88.01852650240374
 21
706.4241370681113
 31
0.0
  0
SPLINE
  5
254EE8
330
18
100
AcDbEntity
  8
姿図
100
AcDbSpline
210
0.0
220
0.0
230
1.0
 70
     8
 71
     3
 72
    11
 73
     7
 74
     0
 42
0.000000001
 43
0.0000000001
 40
0.0
 40
0.0
 40
0.0
 40
0.0
 40
0.3225979209725131
 40
0.6501460436554182
 40
0.9776941878209531
 40
1.0
 40
1.0
 40
1.0
 40
1.0
 10
88.01852745098208
 20
706.4241370394445
 30
0.0
 10
87.13608572166578
 20
705.494454263947
 30
0.0
 10
85.35766136808687
 20
703.6208229134343
 30
0.0
 10
82.68243025647172
 20
700.8016007741776
 30
0.0
 10
80.8288698095736
 20
698.8482616183578
 30
0.0
 10
79.87154512133424
 20
697.8393816614744
 30
0.0
 10
79.81050849647127
 20
697.7750580017835
 30
0.0
  0
LINE
  5
254EE9
330
18
100
AcDbEntity
  8
姿図
100
AcDbLine
 10
78.95985820393554
 20
698.4514702015967
 30
0.0
 11
78.97696446745809
 21
698.4685914472611
 31
0.0
  0
SPLINE
  5
254EEA
330
18
100
AcDbEntity
  8
姿図
100
AcDbSpline
210
0.0
220
0.0
230
1.0
 70
     8
 71
     3
 72
    13
 73
     9
 74
     0
 42
0.000000001
 43
0.0000000001
 40
0.0
 40
0.0
 40
0.0
 40
0.0
 40
0.1254460558716908
 40
0.2508914028945005
 40
0.4999992034024162
 40
0.7491077645484435
 40
0.874554827304111
 40
1.0
 40
1.0
 40
1.0
 40
1.0
 10
92.94613019393017
 20
703.1438705248197
 30
0.0
 10
92.96057082507019
 20
703.1484817637972
 30
0.0
 10
92.98945200575162
 20
703.1577042156957
 30
0.0
 10
93.06013380565517
 20
703.1558215902894
 30
0.0
 10
93.16126804996301
 20
703.1256993145835
 30
0.0
 10
93.26479756349784
 20
703.0575964601973
 30
0.0
 10
93.3396549243277
 20
702.989640476965
 30
0.0
 10
93.37154028253426
 20
702.9512517339683
 30
0.0
 10
93.3874828415357
 20
702.9320575070681
 30
0.0
  0
SPLINE
  5
254EEB
330
18
100
AcDbEntity
  8
姿図
100
AcDbSpline
210
0.0
220
0.0
230
1.0
 70
     8
 71
     3
 72
    11
 73
     7
 74
     0
 42
0.000000001
 43
0.0000000001
 40
0.0
 40
0.0
 40
0.0
 40
0.0
 40
0.2484454313648022
 40
0.5033239202076453
 40
0.7482726001630905
 40
1.0
 40
1.0
 40
1.0
 40
1.0
 10
93.41410465810972
 20
702.5661753863649
 30
0.0
 10
93.43579501129204
 20
702.5817780783419
 30
0.0
 10
93.4797373512032
 20
702.6133874665627
 30
0.0
 10
93.49229185025882
 20
702.7059169733517
 30
0.0
 10
93.4644785091653
 20
702.817649896587
 30
0.0
 10
93.41338052873073
 20
702.8935762184425
 30
0.0
 10
93.3874828415357
 20
702.9320575070681
 30
0.0
  0
SPLINE
  5
254EEC
330
18
100
AcDbEntity
  8
姿図
100
AcDbSpline
210
0.0
220
0.0
230
1.0
 70
     8
 71
     3
 72
    14
 73
    10
 74
     0
 42
0.000000001
 43
0.0000000001
 40
0.0
 40
0.0
 40
0.0
 40
0.0
 40
0.0760513497405043
 40
0.380256862334515
 40
0.6844623663287402
 40
0.8274181086069176
 40
0.9228492692972499
 40
0.9864097093126702
 40
1.0
 40
1.0
 40
1.0
 40
1.0
 10
83.78589426312814
 20
693.8373309397113
 30
0.0
 10
83.99807619493981
 20
694.0528520601127
 30
0.0
 10
85.05898617102946
 20
695.1304579841408
 30
0.0
 10
86.96854173050863
 20
697.0701149157775
 30
0.0
 10
89.06453176407024
 20
699.199263790972
 30
0.0
 10
90.57781639050361
 20
700.7366694164509
 30
0.0
 10
91.41974794093954
 20
701.5921281596059
 30
0.0
 10
91.90083026712296
 20
702.0810156551892
 30
0.0
 10
92.11582568648686
 20
702.2995369630253
 30
0.0
 10
92.1536976576138
 20
702.338030028066
 30
0.0
  0
LINE
  5
254EED
330
18
100
AcDbEntity
  8
姿図
100
AcDbLine
 10
92.1536976576138
 20
702.338030028066
 30
0.0
 11
92.94613019393017
 21
703.1438705248197
 31
0.0
  0
LINE
  5
254EEE
330
18
100
AcDbEntity
  8
姿図
100
AcDbLine
 10
88.80172501541512
 20
707.2486346205244
 30
0.0
 11
86.21919682306716
 21
702.0141046737335
 31
0.0
  0
LINE
  5
254EEF
330
18
100
AcDbEntity
  8
姿図
100
AcDbLine
 10
79.08385638626928
 20
696.3022063887431
 30
0.0
 11
79.27393553036978
 21
696.6874770878746
 31
0.0
  0
LINE
  5
254EF0
330
18
100
AcDbEntity
  8
姿図
100
AcDbLine
 10
87.46314633724683
 20
700.6622558638666
 30
0.0
 11
87.52304310997934
 21
700.7226185713942
 31
0.0
  0
LINE
  5
254EF1
330
18
100
AcDbEntity
  8
姿図
100
AcDbLine
 10
87.52304302522504
 20
700.7226186813559
 30
0.0
 11
92.94613019393017
 21
703.1438705248197
 31
0.0
  0
LINE
  5
254EF2
330
18
100
AcDbEntity
  8
姿図
100
AcDbLine
 10
82.65919676382089
 20
693.3343004359326
 30
0.0
 11
82.23988253294897
 21
693.1470889387106
 31
0.0
  0
LINE
  5
254EF3
330
18
100
AcDbEntity
  8
姿図
100
AcDbLine
 10
74.61376396350184
 20
699.2734502141473
 30
0.0
 11
74.5694319150798
 21
699.7672712952001
 31
0.0
  0
SPLINE
  5
254EF4
330
18
100
AcDbEntity
  8
姿図
100
AcDbSpline
210
0.0
220
0.0
230
1.0
 70
     8
 71
     3
 72
    16
 73
    12
 74
     0
 42
0.000000001
 43
0.0000000001
 40
0.0
 40
0.0
 40
0.0
 40
0.0
 40
0.1247875789654207
 40
0.1994007898536985
 40
0.2735183490453044
 40
0.4156832119317525
 40
0.5623939353133617
 40
0.7091047356588782
 40
0.851269439122364
 40
0.9253873666690103
 40
1.0
 40
1.0
 40
1.0
 40
1.0
 10
74.43418369252043
 20
701.2738155483049
 30
0.0
 10
74.4228611086626
 20
701.320664196808
 30
0.0
 10
74.404768505351
 20
701.3955246724463
 30
0.0
 10
74.34377614512897
 20
701.5045951243219
 30
0.0
 10
74.26270621967683
 20
701.6173015647714
 30
0.0
 10
74.13218909577915
 20
701.7465598217563
 30
0.0
 10
73.9543157698497
 20
701.8577231756454
 30
0.0
 10
73.78162955520554
 20
701.9078567894476
 30
0.0
 10
73.66484052748058
 20
701.8921568099868
 30
0.0
 10
73.59632491418512
 20
701.8486757470722
 30
0.0
 10
73.57467298573829
 20
701.8137040351244
 30
0.0
 10
73.56381101232421
 20
701.7961600179088
 30
0.0
  0
LINE
  5
254EF5
330
18
100
AcDbEntity
  8
姿図
100
AcDbLine
 10
74.43418350742712
 20
701.2738157133211
 30
0.0
 11
74.4360368937451
 21
701.2531712010195
 31
0.0
  0
LINE
  5
254EF6
330
18
100
AcDbEntity
  8
姿図
100
AcDbLine
 10
74.43664783671275
 20
701.2528650718947
 30
0.0
 11
72.90969825811095
 21
699.7900391512189
 31
0.0
  0
SPLINE
  5
254EF7
330
18
100
AcDbEntity
  8
姿図
100
AcDbSpline
210
0.0
220
0.0
230
1.0
 70
     8
 71
     3
 72
    15
 73
    11
 74
     0
 42
0.000000001
 43
0.0000000001
 40
0.0
 40
0.0
 40
0.0
 40
0.0
 40
0.1257717271773511
 40
0.2514220157964775
 40
0.3755703415470608
 40
0.4999885778496092
 40
0.6241374592492256
 40
0.7485563597357086
 40
0.8740844241277459
 40
1.0
 40
1.0
 40
1.0
 40
1.0
 10
72.90969825811095
 20
699.7900391512189
 30
0.0
 10
72.90236740203409
 20
699.8271007291248
 30
0.0
 10
72.88771276816902
 20
699.9011881002282
 30
0.0
 10
72.80708570901965
 20
700.0218700587667
 30
0.0
 10
72.70221286605559
 20
700.128125177941
 30
0.0
 10
72.58095656345048
 20
700.2014946114572
 30
0.0
 10
72.4629062815977
 20
700.2382346466261
 30
0.0
 10
72.36891133857827
 20
700.2234881396231
 30
0.0
 10
72.30377882904341
 20
700.1698480643608
 30
0.0
 10
72.30178122141123
 20
700.1034019216559
 30
0.0
 10
72.30078087829219
 20
700.070127648684
 30
0.0
  0
LINE
  5
254EF8
330
18
100
AcDbEntity
  8
姿図
100
AcDbLine
 10
72.90969825811095
 20
699.7900391512189
 30
0.0
 11
72.97957198477536
 21
699.0117080158818
 31
0.0
  0
LINE
  5
254EF9
330
18
100
AcDbEntity
  8
姿図
100
AcDbLine
 10
72.97957198477536
 20
699.0117080158818
 30
0.0
 11
72.37065448770699
 21
699.2917946363887
 31
0.0
  0
LINE
  5
254EFA
330
18
100
AcDbEntity
  8
姿図
100
AcDbLine
 10
72.37065448770699
 20
699.2917946363887
 30
0.0
 11
72.30078087829219
 21
700.070127648684
 31
0.0
  0
SPLINE
  5
254EFB
330
18
100
AcDbEntity
  8
姿図
100
AcDbSpline
210
0.0
220
0.0
230
1.0
 70
     8
 71
     3
 72
    16
 73
    12
 74
     0
 42
0.000000001
 43
0.0000000001
 40
0.0
 40
0.0
 40
0.0
 40
0.0
 40
0.0746840927649488
 40
0.1488727401377812
 40
0.2911732894591237
 40
0.4380242813322333
 40
0.5848754166393366
 40
0.7271759033242606
 40
0.8013648259394904
 40
0.8760487892567344
 40
1.0
 40
1.0
 40
1.0
 40
1.0
 10
87.80706523513459
 20
687.6879210464102
 30
0.0
 10
87.82527937811432
 20
687.698182874152
 30
0.0
 10
87.86158683361478
 20
687.7186384538902
 30
0.0
 10
87.90745748825594
 20
687.7845484134757
 30
0.0
 10
87.92563808571083
 20
687.8979220052034
 30
0.0
 10
87.87716976862026
 20
688.0668468355475
 30
0.0
 10
87.76609585234053
 20
688.2418915922256
 30
0.0
 10
87.63560279511341
 20
688.3711720291774
 30
0.0
 10
87.5212403291772
 20
688.4520420220344
 30
0.0
 10
87.41065634326691
 20
688.5130937225636
 30
0.0
 10
87.33439955640597
 20
688.5320665078557
 30
0.0
 10
87.2868142226225
 20
688.5439057992564
 30
0.0
  0
SPLINE
  5
254EFC
330
18
100
AcDbEntity
  8
姿図
100
AcDbSpline
210
0.0
220
0.0
230
1.0
 70
     8
 71
     3
 72
    15
 73
    11
 74
     0
 42
0.000000001
 43
0.0000000001
 40
0.0
 40
0.0
 40
0.0
 40
0.0
 40
0.1257707513933172
 40
0.2514209271164614
 40
0.3755696929288029
 40
0.4999884310292746
 40
0.6241371964659377
 40
0.7485557485948148
 40
0.874083685952225
 40
1.0
 40
1.0
 40
1.0
 40
1.0
 10
86.12241745987046
 20
686.3795093573702
 30
0.0
 10
86.15656165453328
 20
686.3799198933921
 30
0.0
 10
86.2248173100229
 20
686.3807405718571
 30
0.0
 10
86.28113538380254
 20
686.4430213713772
 30
0.0
 10
86.29796709218999
 20
686.5342421351633
 30
0.0
 10
86.26237399486203
 20
686.6496759453443
 30
0.0
 10
86.18912898092722
 20
686.7690422496453
 30
0.0
 10
86.08185725350958
 20
686.8729441692949
 30
0.0
 10
85.95922097761897
 20
686.9536825408879
 30
0.0
 10
85.88336623739542
 20
686.9692054850959
 30
0.0
 10
85.8453802852863
 20
686.9769789454433
 30
0.0
  0
LINE
  5
254EFD
330
18
100
AcDbEntity
  8
姿図
100
AcDbLine
 10
87.26428708967575
 20
688.5468569033974
 30
0.0
 11
85.8453802852863
 21
686.9769789454433
 31
0.0
  0
LINE
  5
254EFE
330
18
100
AcDbEntity
  8
姿図
100
AcDbLine
 10
87.28679251518736
 20
688.5439670192557
 30
0.0
 11
87.26457298885748
 21
688.5462398290265
 31
0.0
  0
LINE
  5
254EFF
330
18
100
AcDbEntity
  8
姿図
100
AcDbLine
 10
74.4360368937451
 20
701.2531712010195
 30
0.0
 11
74.56943103046308
 21
699.7672799582199
 31
0.0
  0
LINE
  5
254F00
330
18
100
AcDbEntity
  8
姿図
100
AcDbLine
 10
74.5700238927999
 20
699.7669590041047
 30
0.0
 11
72.97957198477536
 21
699.0117080158818
 31
0.0
  0
LINE
  5
254F01
330
18
100
AcDbEntity
  8
姿図
100
AcDbLine
 10
85.7404356284951
 20
688.7021553464667
 30
0.0
 11
87.26457298885748
 21
688.5462398290265
 31
0.0
  0
LINE
  5
254F02
330
18
100
AcDbEntity
  8
姿図
100
AcDbLine
 10
85.04702208815866
 20
687.0586486688277
 30
0.0
 11
85.8453802852863
 21
686.9769789454433
 31
0.0
  0
LINE
  5
254F03
330
18
100
AcDbEntity
  8
姿図
100
AcDbLine
 10
85.7401497263333
 20
688.7027719549976
 30
0.0
 11
85.04702208815866
 21
687.0586486688277
 31
0.0
  0
LINE
  5
254F04
330
18
100
AcDbEntity
  8
姿図
100
AcDbLine
 10
86.12241745987046
 20
686.3795093573702
 30
0.0
 11
85.32405926290855
 21
686.4611793153929
 31
0.0
  0
LINE
  5
254F05
330
18
100
AcDbEntity
  8
姿図
100
AcDbLine
 10
85.32405926290855
 20
686.4611793153929
 30
0.0
 11
85.04702208815866
 21
687.0586486688277
 31
0.0
  0
SPLINE
  5
254F06
330
18
100
AcDbEntity
  8
姿図
100
AcDbSpline
210
0.0
220
0.0
230
1.0
 70
     8
 71
     3
 72
    11
 73
     7
 74
     0
 42
0.000000001
 43
0.0000000001
 40
0.0
 40
0.0
 40
0.0
 40
0.0
 40
0.2234110343125414
 40
0.6103200680429652
 40
0.8051602408588072
 40
1.0
 40
1.0
 40
1.0
 40
1.0
 10
82.9273512250787
 20
711.0543712661637
 30
0.0
 10
82.93798364391156
 20
711.0664422586656
 30
0.0
 10
82.96702956192314
 20
711.0994181096023
 30
0.0
 10
83.0418546141592
 20
711.1005747195939
 30
0.0
 10
83.11852807107124
 20
711.0843247703772
 30
0.0
 10
83.15957510772893
 20
711.0661620166564
 30
0.0
 10
83.18009860427054
 20
711.0570806494367
 30
0.0
  0
SPLINE
  5
254F07
330
18
100
AcDbEntity
  8
姿図
100
AcDbSpline
210
0.0
220
0.0
230
1.0
 70
     8
 71
     3
 72
    11
 73
     7
 74
     0
 42
0.000000001
 43
0.0000000001
 40
0.0
 40
0.0
 40
0.0
 40
0.0
 40
0.2484455139579012
 40
0.5033251806963003
 40
0.7482731208261565
 40
1.0
 40
1.0
 40
1.0
 40
1.0
 10
83.4985681978763
 20
710.6566955847802
 30
0.0
 10
83.49092451496304
 20
710.6925290891061
 30
0.0
 10
83.47543919577893
 20
710.765124100996
 30
0.0
 10
83.39991779388293
 20
710.8822309188265
 30
0.0
 10
83.29754309606852
 20
710.988322793198
 30
0.0
 10
83.21960136790216
 20
711.0339537636949
 30
0.0
 10
83.18009860427054
 20
711.0570806494367
 30
0.0
  0
LINE
  5
254F08
330
18
100
AcDbEntity
  8
姿図
100
AcDbLine
 10
83.44013813864103
 20
710.5963420208515
 30
0.0
 11
83.498608527474
 21
710.6562094032777
 31
0.0
  0
LINE
  5
254F09
330
18
100
AcDbEntity
  8
姿図
100
AcDbLine
 10
83.44013813864103
 20
710.5963420208515
 30
0.0
 11
82.70810771379448
 21
709.8402397413681
 31
0.0
  0
SPLINE
  5
254F0A
330
18
100
AcDbEntity
  8
姿図
100
AcDbSpline
210
0.0
220
0.0
230
1.0
 70
     8
 71
     3
 72
    11
 73
     7
 74
     0
 42
0.000000001
 43
0.0000000001
 40
0.0
 40
0.0
 40
0.0
 40
0.0
 40
0.3225979307012464
 40
0.6501460845711877
 40
0.9776941389178516
 40
0.9999999999999999
 40
0.9999999999999999
 40
0.9999999999999999
 40
0.9999999999999999
 10
82.70810821986652
 20
709.8402396857989
 30
0.0
 10
81.81835180619731
 20
708.919587032723
 30
0.0
 10
80.02518578274618
 20
707.0641544316946
 30
0.0
 10
77.3287835383187
 20
704.2716756629378
 30
0.0
 10
75.46056270565228
 20
702.3368676293139
 30
0.0
 10
74.49570065596777
 20
701.3375310321983
 30
0.0
 10
74.43418332574919
 20
701.273815686088
 30
0.0
  0
LINE
  5
254F0B
330
18
100
AcDbEntity
  8
姿図
100
AcDbLine
 10
89.71778507161522
 20
698.6021350980625
 30
0.0
 11
96.35368156156852
 21
697.9233004212479
 31
0.0
  0
LINE
  5
254F0C
330
18
100
AcDbEntity
  8
姿図
100
AcDbLine
 10
95.56973406096853
 20
697.1103874980964
 30
0.0
 11
96.35368156156852
 21
697.9233004212479
 31
0.0
  0
SPLINE
  5
254F0D
330
18
100
AcDbEntity
  8
姿図
100
AcDbSpline
210
0.0
220
0.0
230
1.0
 70
     8
 71
     3
 72
    14
 73
    10
 74
     0
 42
0.000000001
 43
0.0000000001
 40
0.0
 40
0.0
 40
0.0
 40
0.0
 40
0.0760513870749239
 40
0.380256933671269
 40
0.6844624509861694
 40
0.827418114809272
 40
0.9228493252122757
 40
0.9864097647659161
 40
1.0
 40
1.0
 40
1.0
 40
1.0
 10
87.28573636539181
 20
688.5440606608695
 30
0.0
 10
87.49581372720772
 20
688.76121433852
 30
0.0
 10
88.54620053158192
 20
689.8469827219088
 30
0.0
 10
90.43678489168173
 20
691.8013772949349
 30
0.0
 10
92.51186677524478
 20
693.9468349717984
 30
0.0
 10
94.0099398258734
 20
695.4961938420126
 30
0.0
 10
94.84333452774254
 20
696.3584208303206
 30
0.0
 10
95.31948768127177
 20
696.8512538849178
 30
0.0
 10
95.53225478181744
 20
697.0715770982324
 30
0.0
 10
95.5697341033457
 20
697.1103874431155
 30
0.0
  0
LINE
  5
254F0E
330
18
100
AcDbEntity
  8
姿図
100
AcDbLine
 10
85.7404356284951
 20
688.7021553464667
 30
0.0
 11
85.21064014374065
 21
688.7563517058306
 31
0.0
  0
LINE
  5
254F0F
330
18
100
AcDbEntity
  8
姿図
100
AcDbLine
 10
83.49861158642062
 20
710.6562109194776
 30
0.0
 11
84.12940072986797
 21
703.62978406339
 31
0.0
  0
LINE
  5
254F10
330
18
100
AcDbEntity
  8
姿図
100
AcDbLine
 10
80.04667805238563
 20
704.2791881091581
 30
0.0
 11
74.99969629154754
 21
699.0628180347085
 31
0.0
  0
SPLINE
  5
254F11
330
18
100
AcDbEntity
  8
姿図
100
AcDbSpline
210
0.0
220
0.0
230
1.0
 70
     8
 71
     3
 72
    13
 73
     9
 74
     0
 42
0.000000001
 43
0.0000000001
 40
0.0
 40
0.0
 40
0.0
 40
0.0
 40
0.1254451188385175
 40
0.2508909885137547
 40
0.5000000078472384
 40
0.749109076635621
 40
0.874555781462847
 40
1.0
 40
1.0
 40
1.0
 40
1.0
 10
96.35368156156852
 20
697.9233004212479
 30
0.0
 10
96.37264101892288
 20
697.9200220674896
 30
0.0
 10
96.41056004711112
 20
697.913465340351
 30
0.0
 10
96.49209231350892
 20
697.8807446378277
 30
0.0
 10
96.59611199649078
 20
697.8152188143632
 30
0.0
 10
96.68542529991032
 20
697.7227266240986
 30
0.0
 10
96.74137177560053
 20
697.6430856327306
 30
0.0
 10
96.76085473120406
 20
697.6027240504329
 30
0.0
 10
96.77059611246932
 20
697.5825434592726
 30
0.0
  0
SPLINE
  5
254F12
330
18
100
AcDbEntity
  8
姿図
100
AcDbSpline
210
0.0
220
0.0
230
1.0
 70
     8
 71
     3
 72
    10
 73
     6
 74
     0
 42
0.000000001
 43
0.0000000001
 40
0.0
 40
0.0
 40
0.0
 40
0.0
 40
0.1672966922817489
 40
0.5779649242775349
 40
1.0
 40
1.0
 40
1.0
 40
1.0
 10
96.7596319226187
 20
697.3663799024239
 30
0.0
 10
96.76796647090202
 20
697.3729169986774
 30
0.0
 10
96.79676008601643
 20
697.3955009020982
 30
0.0
 10
96.80617845415554
 20
697.4718083114501
 30
0.0
 10
96.78256434143731
 20
697.5452973551339
 30
0.0
 10
96.77059611246932
 20
697.5825434592726
 30
0.0
  0
ARC
  5
254F13
330
18
100
AcDbEntity
  8
姿図
100
AcDbCircle
 10
70.9402531541898
 20
685.8091733870011
 30
0.0
 40
20.59292155725298
100
AcDbArc
 50
54.16782528495137
 51
63.75493679818518
  0
LINE
  5
254F14
330
18
100
AcDbEntity
  8
姿図
100
AcDbLine
 10
94.18240605726612
 20
694.5667768500563
 30
0.0
 11
97.9204188480715
 21
692.8473819868408
 31
0.0
  0
LINE
  5
254F15
330
18
100
AcDbEntity
  8
姿図
100
AcDbLine
 10
97.1431065196609
 20
692.0258709380659
 30
0.0
 11
97.9204188480715
 21
692.8473819868408
 31
0.0
  0
SPLINE
  5
254F16
330
18
100
AcDbEntity
  8
姿図
100
AcDbSpline
210
0.0
220
0.0
230
1.0
 70
     8
 71
     3
 72
    14
 73
    10
 74
     0
 42
0.000000001
 43
0.0000000001
 40
0.0
 40
0.0
 40
0.0
 40
0.0
 40
0.0760514075513584
 40
0.3802569441624638
 40
0.6844624611362399
 40
0.8274181458247993
 40
0.9228493646054665
 40
0.9864098509479083
 40
1.0
 40
1.0
 40
1.0
 40
1.0
 10
88.92656577717912
 20
683.377512649977
 30
0.0
 10
89.13494175296609
 20
683.5967158709909
 30
0.0
 10
90.17682137545853
 20
684.6927317062929
 30
0.0
 10
92.05208129060966
 20
686.665614269927
 30
0.0
 10
94.11030291689187
 20
688.8314927872108
 30
0.0
 10
95.59615439642036
 20
690.3957706315816
 30
0.0
 10
96.42271005341104
 20
691.2664119055013
 30
0.0
 10
96.89494007040116
 20
691.7641259546324
 30
0.0
 10
97.1059388992162
 20
691.9866696752579
 30
0.0
 10
97.1431065196609
 20
692.0258709380659
 30
0.0
  0
LINE
  5
254F17
330
18
100
AcDbEntity
  8
姿図
100
AcDbLine
 10
88.92774514702313
 20
683.3769892838118
 30
0.0
 11
88.90289077143967
 21
683.3884219506658
 31
0.0
  0
LINE
  5
254F18
330
18
100
AcDbEntity
  8
姿図
100
AcDbLine
 10
87.19792197919759
 20
684.1726656438589
 30
0.0
 11
88.90289077143967
 21
683.3884219506658
 31
0.0
  0
LINE
  5
254F19
330
18
100
AcDbEntity
  8
姿図
100
AcDbLine
 10
87.19792197919759
 20
684.1726656438589
 30
0.0
 11
86.72764118179066
 21
684.3889830298751
 31
0.0
  0
LINE
  5
254F1A
330
18
100
AcDbEntity
  8
姿図
100
AcDbLine
 10
88.90284126532009
 20
683.3889698609476
 30
0.0
 11
87.4196444173894
 21
681.8720765334933
 31
0.0
  0
LINE
  5
254F1B
330
18
100
AcDbEntity
  8
姿図
100
AcDbLine
 10
86.52656529836179
 20
682.2828708597951
 30
0.0
 11
87.4196444173894
 21
681.8720765334933
 31
0.0
  0
LINE
  5
254F1C
330
18
100
AcDbEntity
  8
姿図
100
AcDbLine
 10
87.1978724307009
 20
684.1732136091216
 30
0.0
 11
86.52656529836179
 21
682.2828708597951
 31
0.0
  0
LINE
  5
254F1D
330
18
100
AcDbEntity
  8
姿図
100
AcDbLine
 10
75.93149523328918
 20
705.600004550233
 30
0.0
 11
71.01454779416105
 21
700.6124603767531
 31
0.0
  0
ARC
  5
254F1E
330
18
100
AcDbEntity
  8
姿図
100
AcDbCircle
 10
74.40322646111025
 20
694.5928607999795
 30
0.0
 40
11.1127322913297
100
AcDbArc
 50
75.80900951494564
 51
82.09539681384655
  0
SPLINE
  5
254F1F
330
18
100
AcDbEntity
  8
姿図
100
AcDbSpline
210
0.0
220
0.0
230
1.0
 70
     8
 71
     3
 72
    12
 73
     8
 74
     0
 42
0.000000001
 43
0.0000000001
 40
0.0
 40
0.0
 40
0.0
 40
0.0
 40
0.1973313556696417
 40
0.3942015812702981
 40
0.6028537898341182
 40
0.8392206949269156
 40
1.0
 40
1.0
 40
1.0
 40
1.0
 10
86.91195895567506
 20
700.2617616715278
 30
0.0
 10
86.9884533988814
 20
700.1939874319972
 30
0.0
 10
87.14126353069241
 20
700.0585973298938
 30
0.0
 10
87.43812351770956
 20
699.9551074053666
 30
0.0
 10
87.75785917590659
 20
699.9341352880454
 30
0.0
 10
88.04753752672653
 20
699.9977313729387
 30
0.0
 10
88.207272445733
 20
700.0897146917557
 30
0.0
 10
88.27193898066741
 20
700.1269529020149
 30
0.0
  0
LINE
  5
254F20
330
18
100
AcDbEntity
  8
姿図
100
AcDbLine
 10
87.46728582690059
 20
681.341395955446
 30
0.0
 11
86.57420668703622
 21
681.7521903381387
 31
0.0
  0
LINE
  5
254F21
330
18
100
AcDbEntity
  8
姿図
100
AcDbLine
 10
86.57420668703622
 20
681.7521903381387
 30
0.0
 11
86.52656529836179
 21
682.2828708597951
 31
0.0
  0
SPLINE
  5
254F22
330
18
100
AcDbEntity
  8
姿図
100
AcDbSpline
210
0.0
220
0.0
230
1.0
 70
     8
 71
     3
 72
    15
 73
    11
 74
     0
 42
0.000000001
 43
0.0000000001
 40
0.0
 40
0.0
 40
0.0
 40
0.0
 40
0.1257705520986612
 40
0.2514209349761858
 40
0.3755694791842716
 40
0.499988091664644
 40
0.6241367629051279
 40
0.7485555087651039
 40
0.8740834327473731
 40
1.0
 40
1.0
 40
1.0
 40
1.0
 10
87.46728582690059
 20
681.341395955446
 30
0.0
 10
87.50727970949328
 20
681.3264890229482
 30
0.0
 10
87.58722926196788
 20
681.2966894009884
 30
0.0
 10
87.6815845981439
 20
681.3141141463501
 30
0.0
 10
87.74324191819048
 20
681.3688380121987
 30
0.0
 10
87.75494296952263
 20
681.4633916097748
 30
0.0
 10
87.72456178842191
 20
681.5773749861206
 30
0.0
 10
87.64738521385073
 20
681.6959461055512
 30
0.0
 10
87.54162331123189
 20
681.8055543707346
 30
0.0
 10
87.46034592392925
 20
681.8498796422339
 30
0.0
 10
87.4196444173894
 20
681.8720765334933
 30
0.0
  0
SPLINE
  5
254F23
330
18
100
AcDbEntity
  8
姿図
100
AcDbSpline
210
0.0
220
0.0
230
1.0
 70
     8
 71
     3
 72
    14
 73
    10
 74
     0
 42
0.000000001
 43
0.0000000001
 40
0.0
 40
0.0
 40
0.0
 40
0.0
 40
0.1136936992165767
 40
0.2973141036806169
 40
0.4809344258611919
 40
0.658864783875131
 40
0.7516292020306393
 40
0.8450134723734966
 40
1.0
 40
1.0
 40
1.0
 40
1.0
 10
89.30973527529062
 20
682.6088739861457
 30
0.0
 10
89.32969964456183
 20
682.6240279985138
 30
0.0
 10
89.38190736228336
 20
682.6636564179903
 30
0.0
 10
89.39466111265148
 20
682.7905235027528
 30
0.0
 10
89.34769767433318
 20
682.9573959167221
 30
0.0
 10
89.254706495763
 20
683.1040525710223
 30
0.0
 10
89.15871158805174
 20
683.2100103764269
 30
0.0
 10
89.0579127308769
 20
683.3008453968124
 30
0.0
 10
88.9777595804656
 20
683.3476999434222
 30
0.0
 10
88.9277429981534
 20
683.3769377746886
 30
0.0
  0
SPLINE
  5
254F24
330
18
100
AcDbEntity
  8
姿図
100
AcDbSpline
210
0.0
220
0.0
230
1.0
 70
     8
 71
     3
 72
    11
 73
     7
 74
     0
 42
0.000000001
 43
0.0000000001
 40
0.0
 40
0.0
 40
0.0
 40
0.0
 40
0.273757338261312
 40
0.5482571192529079
 40
0.7991405594264498
 40
0.9999999999999999
 40
0.9999999999999999
 40
0.9999999999999999
 40
0.9999999999999999
 10
85.75061049090436
 20
702.6243817477347
 30
0.0
 10
85.69062748230954
 20
702.5116467666045
 30
0.0
 10
85.57049878838961
 20
702.2858710617922
 30
0.0
 10
85.55484806606131
 20
701.8884795106501
 30
0.0
 10
85.66284982404176
 20
701.5267255354768
 30
0.0
 10
85.81918669410612
 20
701.352698602391
 30
0.0
 10
85.88869910393137
 20
701.2753206205476
 30
0.0
  0
ARC
  5
254F25
330
18
100
AcDbEntity
  8
姿図
100
AcDbCircle
 10
73.33380345171213
 20
687.5769541754206
 30
0.0
 40
18.58145979472805
100
AcDbArc
 50
43.05180615489149
 51
47.49396314048625
  0
SPLINE
  5
254F26
330
18
100
AcDbEntity
  8
姿図
100
AcDbSpline
210
0.0
220
0.0
230
1.0
 70
     8
 71
     3
 72
    10
 73
     6
 74
     0
 42
0.000000001
 43
0.0000000001
 40
0.0
 40
0.0
 40
0.0
 40
0.0
 40
0.3653213256841393
 40
0.6826607115579781
 40
0.9999999999999999
 40
0.9999999999999999
 40
0.9999999999999999
 40
0.9999999999999999
 10
77.77471752066381
 20
712.5557728475521
 30
0.0
 10
77.78555618943216
 20
712.5677117758532
 30
0.0
 10
77.80580995731691
 20
712.5900215527981
 30
0.0
 10
77.85578105533403
 20
712.5995319551528
 30
0.0
 10
77.8917993711949
 20
712.5969294285023
 30
0.0
 10
77.90980852636068
 20
712.5956281653769
 30
0.0
  0
SPLINE
  5
254F27
330
18
100
AcDbEntity
  8
姿図
100
AcDbSpline
210
0.0
220
0.0
230
1.0
 70
     8
 71
     3
 72
    11
 73
     7
 74
     0
 42
0.000000001
 43
0.0000000001
 40
0.0
 40
0.0
 40
0.0
 40
0.0
 40
0.2484466887581073
 40
0.5033262760193281
 40
0.7482739221614502
 40
1.0
 40
1.0
 40
1.0
 40
1.0
 10
78.31150267109788
 20
712.270514095763
 30
0.0
 10
78.2897770948284
 20
712.3088891085432
 30
0.0
 10
78.2457634134517
 20
712.3866327579813
 30
0.0
 10
78.14029441989516
 20
712.4895629049929
 30
0.0
 10
78.02158782205464
 20
712.5677086572396
 30
0.0
 10
77.94740576198285
 20
712.5862373714971
 30
0.0
 10
77.90980852636068
 20
712.5956281653769
 30
0.0
  0
LINE
  5
254F28
330
18
100
AcDbEntity
  8
姿図
100
AcDbLine
 10
78.25242923083576
 20
712.2106521818075
 30
0.0
 11
78.31175108030175
 21
712.2699667001689
 31
0.0
  0
LINE
  5
254F29
330
18
100
AcDbEntity
  8
姿図
100
AcDbLine
 10
78.25242923083576
 20
712.2106521818075
 30
0.0
 11
77.51233963658001
 21
711.4606863187438
 31
0.0
  0
SPLINE
  5
254F2A
330
18
100
AcDbEntity
  8
姿図
100
AcDbSpline
210
0.0
220
0.0
230
1.0
 70
     8
 71
     3
 72
    11
 73
     7
 74
     0
 42
0.000000001
 43
0.0000000001
 40
0.0
 40
0.0
 40
0.0
 40
0.0
 40
0.3255907414483736
 40
0.6561774839279468
 40
0.9867643034053699
 40
1.0
 40
1.0
 40
1.0
 40
1.0
 10
77.51233979488086
 20
711.4606862636158
 30
0.0
 10
76.61343376952271
 20
710.5473071135203
 30
0.0
 10
74.80182852736107
 20
708.7065335401816
 30
0.0
 10
72.07866274051719
 20
705.9358182159472
 30
0.0
 10
70.21750610604704
 20
704.0421400033542
 30
0.0
 10
69.26870745519517
 20
703.0766294076502
 30
0.0
 10
69.23218276444618
 20
703.039461378489
 30
0.0
  0
LINE
  5
254F2B
330
18
100
AcDbEntity
  8
姿図
100
AcDbLine
 10
78.31175416176285
 20
712.2699700659838
 30
0.0
 11
80.14539757233464
 21
708.3154625969341
 31
0.0
  0
SPLINE
  5
254F2C
330
18
100
AcDbEntity
  8
姿図
100
AcDbSpline
210
0.0
220
0.0
230
1.0
 70
     8
 71
     3
 72
    12
 73
     8
 74
     0
 42
0.000000001
 43
0.0000000001
 40
0.0
 40
0.0
 40
0.0
 40
0.0
 40
0.1973310290680542
 40
0.3942018085908214
 40
0.6028540750051415
 40
0.8392207658994135
 40
0.9999999999999999
 40
0.9999999999999999
 40
0.9999999999999999
 40
0.9999999999999999
 10
89.23254189779874
 20
697.1460953290224
 30
0.0
 10
89.28840822857256
 20
697.0683544488843
 30
0.0
 10
89.4000105890041
 20
696.9130540093306
 30
0.0
 10
89.66700747357413
 20
696.7482507250616
 30
0.0
 10
89.98349697787356
 20
696.6478554427501
 30
0.0
 10
90.29697619750112
 20
696.6268683118783
 30
0.0
 10
90.48853016091306
 20
696.6631815103301
 30
0.0
 10
90.56607822974115
 20
696.6778824246978
 30
0.0
  0
SPLINE
  5
254F2D
330
18
100
AcDbEntity
  8
姿図
100
AcDbSpline
210
0.0
220
0.0
230
1.0
 70
     8
 71
     3
 72
    13
 73
     9
 74
     0
 42
0.000000001
 43
0.0000000001
 40
0.0
 40
0.0
 40
0.0
 40
0.0
 40
0.1254469533582564
 40
0.2508908638051991
 40
0.4999989592968619
 40
0.7491082643226804
 40
0.8745532134707253
 40
1.0
 40
1.0
 40
1.0
 40
1.0
 10
97.9204188480715
 20
692.8473819868408
 30
0.0
 10
97.94101187837333
 20
692.8367141082347
 30
0.0
 10
97.98219743946095
 20
692.8153786097885
 30
0.0
 10
98.06216388866034
 20
692.7567954708052
 30
0.0
 10
98.15323503120237
 20
692.6658447151923
 30
0.0
 10
98.21473216295121
 20
692.5630415978385
 30
0.0
 10
98.24325502247399
 20
692.4838447663255
 30
0.0
 10
98.24736955897757
 20
692.4476526837825
 30
0.0
 10
98.24942684229555
 20
692.4295565099865
 30
0.0
  0
SPLINE
  5
254F2E
330
18
100
AcDbEntity
  8
姿図
100
AcDbSpline
210
0.0
220
0.0
230
1.0
 70
     8
 71
     3
 72
     9
 73
     5
 74
     0
 42
0.000000001
 43
0.0000000001
 40
0.0
 40
0.0
 40
0.0
 40
0.0
 40
0.2495036650581957
 40
1.0
 40
1.0
 40
1.0
 40
1.0
 10
98.21180802055218
 20
692.3251774937615
 30
0.0
 10
98.21896234211812
 20
692.330554773009
 30
0.0
 10
98.24763655644
 20
692.3521066778526
 30
0.0
 10
98.24865928686211
 20
692.3963511761631
 30
0.0
 10
98.24942684229555
 20
692.4295565099865
 30
0.0
  0
LINE
  5
254F2F
330
18
100
AcDbEntity
  8
姿図
100
AcDbLine
 10
72.54208179044667
 20
700.4624694943716
 30
0.0
 11
72.51623632779066
 21
700.5549062509737
 31
0.0
  0
LINE
  5
254F30
330
18
100
AcDbEntity
  8
姿図
100
AcDbLine
 10
72.51623632779066
 20
700.5549062509737
 30
0.0
 11
72.23867896268086
 21
700.2738955214279
 31
0.0
  0
LINE
  5
254F31
330
18
100
AcDbEntity
  8
姿図
100
AcDbLine
 10
86.79688988026726
 20
683.6119899921181
 30
0.0
 11
86.97025054656069
 21
683.5322483720523
 31
0.0
  0
ARC
  5
254F32
330
18
100
AcDbEntity
  8
姿図
100
AcDbCircle
 10
76.16711754066588
 20
689.6637991535092
 30
0.0
 40
15.05623026159137
100
AcDbArc
 50
29.79886764065202
 51
32.31890202336747
  0
ARC
  5
254F33
330
18
100
AcDbEntity
  8
姿図
100
AcDbCircle
 10
73.66168114220574
 20
702.657133178122
 30
0.0
 40
0.384213322013635
100
AcDbArc
 50
17.25815042731821
 51
75.96389008431109
  0
LINE
  5
254F34
330
18
100
AcDbEntity
  8
姿図
100
AcDbLine
 10
95.95131609724899
 20
689.847091471792
 30
0.0
 11
97.40782328796988
 21
688.6888784324693
 31
0.0
  0
LINE
  5
254F35
330
18
100
AcDbEntity
  8
姿図
100
AcDbLine
 10
96.63428440915789
 20
687.858552624495
 30
0.0
 11
97.40782328796988
 21
688.6888784324693
 31
0.0
  0
SPLINE
  5
254F36
330
18
100
AcDbEntity
  8
姿図
100
AcDbSpline
210
0.0
220
0.0
230
1.0
 70
     8
 71
     3
 72
    14
 73
    10
 74
     0
 42
0.000000001
 43
0.0000000001
 40
0.0
 40
0.0
 40
0.0
 40
0.0
 40
0.0760513765838629
 40
0.3802569400479356
 40
0.684462463765776
 40
0.827418111411832
 40
0.9228493275799602
 40
0.9864097187792363
 40
0.9999999999999999
 40
0.9999999999999999
 40
0.9999999999999999
 40
0.9999999999999999
 10
88.4585815602436
 20
679.1242468132564
 30
0.0
 10
88.66591823619177
 20
679.3456044780396
 30
0.0
 10
89.70260177168083
 20
680.4523929682366
 30
0.0
 10
91.56851728369577
 20
682.44470082988
 30
0.0
 10
93.61649604196484
 20
684.6320022694904
 30
0.0
 10
95.09496805567159
 20
686.2118945454843
 30
0.0
 10
95.91743668625315
 20
687.0913099039583
 30
0.0
 10
96.38733447947249
 20
687.5941040433183
 30
0.0
 10
96.59729869958613
 20
687.818946528596
 30
0.0
 10
96.63428441478646
 20
687.8585530868987
 30
0.0
  0
LINE
  5
254F37
330
18
100
AcDbEntity
  8
姿図
100
AcDbLine
 10
88.43599974066206
 20
679.1422272136327
 30
0.0
 11
88.45970712896906
 21
679.1233754283539
 31
0.0
  0
LINE
  5
254F38
330
18
100
AcDbEntity
  8
姿図
100
AcDbLine
 10
86.80976600880649
 20
680.4354053653421
 30
0.0
 11
88.43599974066206
 21
679.1422272136327
 31
0.0
  0
LINE
  5
254F39
330
18
100
AcDbEntity
  8
姿図
100
AcDbLine
 10
86.80976600880649
 20
680.4354053653421
 30
0.0
 11
86.49529414621423
 21
680.685472850105
 31
0.0
  0
SPLINE
  5
254F3A
330
18
100
AcDbEntity
  8
姿図
100
AcDbSpline
210
0.0
220
0.0
230
1.0
 70
     8
 71
     3
 72
    10
 73
     6
 74
     0
 42
0.000000001
 43
0.0000000001
 40
0.0
 40
0.0
 40
0.0
 40
0.0
 40
0.1459865323274789
 40
0.5720182598440482
 40
1.0
 40
1.0
 40
1.0
 40
1.0
 10
88.68997178757076
 20
707.6989619512719
 30
0.0
 10
88.68930003217068
 20
707.7010960439205
 30
0.0
 10
88.6866678965286
 20
707.7094580478927
 30
0.0
 10
88.66169227564029
 20
707.698941788201
 30
0.0
 10
88.63067772293539
 20
707.6754565205656
 30
0.0
 10
88.61513503802553
 20
707.6636870741916
 30
0.0
  0
SPLINE
  5
254F3B
330
18
100
AcDbEntity
  8
姿図
100
AcDbSpline
210
0.0
220
0.0
230
1.0
 70
     8
 71
     3
 72
    10
 73
     6
 74
     0
 42
0.000000001
 43
0.0000000001
 40
0.0
 40
0.0
 40
0.0
 40
0.0
 40
0.1574634418104597
 40
0.5777698332105307
 40
1.0
 40
1.0
 40
1.0
 40
1.0
 10
93.41811127354714
 20
703.0102296465197
 30
0.0
 10
93.42072622851023
 20
703.0093061790241
 30
0.0
 10
93.43032110383814
 20
703.0059177629271
 30
0.0
 10
93.42134602284881
 20
702.9796560234768
 30
0.0
 10
93.39878773785489
 20
702.9479478124699
 30
0.0
 10
93.3874828415357
 20
702.9320575070681
 30
0.0
  0
LINE
  5
254F3C
330
18
100
AcDbEntity
  8
姿図
100
AcDbLine
 10
64.06907262236692
 20
700.1410259164787
 30
0.0
 11
63.38816205525455
 21
700.9818644742916
 31
0.0
  0
LINE
  5
254F3D
330
18
100
AcDbEntity
  8
姿図
100
AcDbLine
 10
64.79620220266867
 20
702.5584912728425
 30
0.0
 11
63.38816205525455
 21
700.9818644742916
 31
0.0
  0
LINE
  5
254F3E
330
18
100
AcDbEntity
  8
姿図
100
AcDbLine
 10
66.0961387615759
 20
700.9532703236564
 30
0.0
 11
64.79621937999931
 21
702.5585082095259
 31
0.0
  0
LINE
  5
254F3F
330
18
100
AcDbEntity
  8
姿図
100
AcDbLine
 10
66.09612680256686
 20
700.9532657785854
 30
0.0
 11
64.06907262236692
 21
700.1410259164787
 31
0.0
  0
LINE
  5
254F40
330
18
100
AcDbEntity
  8
姿図
100
AcDbLine
 10
63.32107613918097
 20
701.0487822441867
 30
0.0
 11
63.38816205525455
 21
700.9818644742916
 31
0.0
  0
SPLINE
  5
254F41
330
18
100
AcDbEntity
  8
姿図
100
AcDbSpline
210
0.0
220
0.0
230
1.0
 70
     8
 71
     3
 72
    13
 73
     9
 74
     0
 42
0.000000001
 43
0.0000000001
 40
0.0
 40
0.0
 40
0.0
 40
0.0
 40
0.1853160679215046
 40
0.2961198143881757
 40
0.4061904434809329
 40
0.6173124326927959
 40
0.8351866130382228
 40
1.0
 40
1.0
 40
1.0
 40
1.0
 10
64.77774926558985
 20
702.5806288485885
 30
0.0
 10
64.73490716750712
 20
702.6253959000517
 30
0.0
 10
64.66644902313499
 20
702.6969299613917
 30
0.0
 10
64.55775912758884
 20
702.7726368098731
 30
0.0
 10
64.44050639245796
 20
702.8362653654848
 30
0.0
 10
64.29795675161759
 20
702.8768396824873
 30
0.0
 10
64.16290213627724
 20
702.8656055665967
 30
0.0
 10
64.11869520467917
 20
702.8101868756983
 30
0.0
 10
64.09965645153875
 20
702.7863195151455
 30
0.0
  0
LINE
  5
254F42
330
18
100
AcDbEntity
  8
姿図
100
AcDbLine
 10
64.79580875144114
 20
702.5583260170015
 30
0.0
 11
64.77774829582296
 21
702.5806289047458
 31
0.0
  0
LINE
  5
254F43
330
18
100
AcDbEntity
  8
姿図
100
AcDbLine
 10
73.97064528445202
 20
711.7851752464313
 30
0.0
 11
73.22223089402763
 21
711.0387811203843
 31
0.0
  0
LINE
  5
254F44
330
18
100
AcDbEntity
  8
姿図
100
AcDbLine
 10
73.97064528445202
 20
711.7851752464313
 30
0.0
 11
74.03080179244091
 21
711.8442271422458
 31
0.0
  0
LINE
  5
254F45
330
18
100
AcDbEntity
  8
姿図
100
AcDbLine
 10
74.03080487390201
 20
711.8442305080607
 30
0.0
 11
75.3601896633316
 21
710.2026073542004
 31
0.0
  0
LINE
  5
254F46
330
18
100
AcDbEntity
  8
姿図
100
AcDbLine
 10
66.09572397452098
 20
700.9530830818213
 30
0.0
 11
66.30188974600256
 21
701.154535633425
 31
0.0
  0
SPLINE
  5
254F47
330
18
100
AcDbEntity
  8
姿図
100
AcDbSpline
210
0.0
220
0.0
230
1.0
 70
     8
 71
     3
 72
    10
 73
     6
 74
     0
 42
0.000000001
 43
0.0000000001
 40
0.0
 40
0.0
 40
0.0
 40
0.0
 40
0.4871172425909083
 40
0.9817092080075884
 40
1.0
 40
1.0
 40
1.0
 40
1.0
 10
73.22223112587506
 20
711.0387811200902
 30
0.0
 10
72.31373651291534
 20
710.1298076603268
 30
0.0
 10
70.4828066073672
 20
708.2979127133568
 30
0.0
 10
68.61903147350344
 20
706.4302855705087
 30
0.0
 10
67.66317756545101
 20
705.4723482873599
 30
0.0
 10
67.62908921922613
 20
705.4381856423212
 30
0.0
  0
LWPOLYLINE
  5
254F48
330
18
100
AcDbEntity
  8
姿図
100
AcDbPolyline
 90
        3
 70
   128
 43
0.0
 10
65.12288254709398
 20
702.9265317626116
 10
64.96605562313567
 20
702.769363523159
 10
64.77774829582296
 20
702.5806289047458
  0
LINE
  5
254F49
330
18
100
AcDbEntity
  8
姿図
100
AcDbLine
 10
63.6721904115409
 20
699.9638290386314
 30
0.0
 11
64.06907262236692
 21
700.1410259164787
 31
0.0
  0
LINE
  5
254F4A
330
18
100
AcDbEntity
  8
姿図
100
AcDbLine
 10
63.31326452055526
 20
700.4070579680143
 30
0.0
 11
63.6721904115409
 21
699.9638290386314
 31
0.0
  0
LINE
  5
254F4B
330
18
100
AcDbEntity
  8
姿図
100
AcDbLine
 10
88.43619501446975
 20
679.142622771542
 30
0.0
 11
86.90246711514715
 21
677.6904584410509
 31
0.0
  0
LINE
  5
254F4C
330
18
100
AcDbEntity
  8
姿図
100
AcDbLine
 10
86.05062960916683
 20
678.3678376748436
 30
0.0
 11
86.90246711514715
 21
677.6904584410509
 31
0.0
  0
LINE
  5
254F4D
330
18
100
AcDbEntity
  8
姿図
100
AcDbLine
 10
86.80996128261418
 20
680.4358009232515
 30
0.0
 11
86.05062960916683
 21
678.3678376748436
 31
0.0
  0
LINE
  5
254F4E
330
18
100
AcDbEntity
  8
姿図
100
AcDbLine
 10
65.51404526357942
 20
700.6933825188171
 30
0.0
 11
66.0960363150952
 21
700.9532248027216
 31
0.0
  0
LINE
  5
254F4F
330
18
100
AcDbEntity
  8
姿図
100
AcDbLine
 10
65.51404526357942
 20
700.6933825188171
 30
0.0
 11
63.6721904115409
 21
699.9638290386314
 31
0.0
  0
LINE
  5
254F50
330
18
100
AcDbEntity
  8
姿図
100
AcDbLine
 10
86.71345893718413
 20
677.3073582188179
 30
0.0
 11
85.86162244334787
 21
677.9847373414723
 31
0.0
  0
LINE
  5
254F51
330
18
100
AcDbEntity
  8
姿図
100
AcDbLine
 10
85.86162244334787
 20
677.9847373414723
 30
0.0
 11
86.05062960916683
 21
678.3678376748436
 31
0.0
  0
SPLINE
  5
254F52
330
18
100
AcDbEntity
  8
姿図
100
AcDbSpline
210
0.0
220
0.0
230
1.0
 70
     8
 71
     3
 72
    15
 73
    11
 74
     0
 42
0.000000001
 43
0.0000000001
 40
0.0
 40
0.0
 40
0.0
 40
0.0
 40
0.1257712496806439
 40
0.251421329735412
 40
0.3755694197533146
 40
0.4999878283117747
 40
0.6241366964630293
 40
0.7485558001459917
 40
0.8740839417490455
 40
1.0
 40
1.0
 40
1.0
 40
1.0
 10
86.71345893718413
 20
677.3073582188179
 30
0.0
 10
86.75321417791031
 20
677.2794033292705
 30
0.0
 10
86.8326863586567
 20
677.2235204822728
 30
0.0
 10
86.95071361359402
 20
677.1934357359678
 30
0.0
 10
87.04781069032623
 20
677.2033321719557
 30
0.0
 10
87.10502341208814
 20
677.2626102678823
 30
0.0
 10
87.12213061762526
 20
677.3538576737154
 30
0.0
 10
87.08679937184468
 20
677.4690465100667
 30
0.0
 10
87.01401341940235
 20
677.5908380072977
 30
0.0
 10
86.93968743881027
 20
677.6572174940512
 30
0.0
 10
86.90246711514715
 20
677.6904584410509
 30
0.0
  0
SPLINE
  5
254F53
330
18
100
AcDbEntity
  8
姿図
100
AcDbSpline
210
0.0
220
0.0
230
1.0
 70
     8
 71
     3
 72
    13
 73
     9
 74
     0
 42
0.000000001
 43
0.0000000001
 40
0.0
 40
0.0
 40
0.0
 40
0.0
 40
0.1453424292357078
 40
0.3686758408330822
 40
0.5850894180494869
 40
0.697916950424724
 40
0.8114978779393591
 40
1.0
 40
1.0
 40
1.0
 40
1.0
 10
88.66714134143606
 20
678.469473292583
 30
0.0
 10
88.68831639170611
 20
678.4852312850614
 30
0.0
 10
88.74202905843424
 20
678.5252030342428
 30
0.0
 10
88.75417205270941
 20
678.6524165616054
 30
0.0
 10
88.71532333079949
 20
678.7915592765515
 30
0.0
 10
88.65197362969784
 20
678.9068180448145
 30
0.0
 10
88.57638582075413
 20
679.0135278046421
 30
0.0
 10
88.50452545337751
 20
679.0811446423472
 30
0.0
 10
88.45968403721201
 20
679.1233380637005
 30
0.0
  0
LINE
  5
254F54
330
18
100
AcDbEntity
  8
姿図
100
AcDbLine
 10
86.53274954841964
 20
679.8739206019616
 30
0.0
 11
86.80996128261418
 21
680.4358009232515
 31
0.0
  0
LINE
  5
254F55
330
18
100
AcDbEntity
  8
姿図
100
AcDbLine
 10
86.53274954841964
 20
679.8739206019616
 30
0.0
 11
85.86162244334787
 21
677.9847373414723
 31
0.0
  0
LINE
  5
254F56
330
18
100
AcDbEntity
  8
姿図
100
AcDbLine
 10
86.229785688378
 20
680.1153876161944
 30
0.0
 11
86.53294482222736
 21
679.8743161598709
 31
0.0
  0
SPLINE
  5
254F57
330
18
100
AcDbEntity
  8
姿図
100
AcDbSpline
210
0.0
220
0.0
230
1.0
 70
     8
 71
     3
 72
     9
 73
     5
 74
     0
 42
0.000000001
 43
0.0000000001
 40
0.0
 40
0.0
 40
0.0
 40
0.0
 40
0.1006419596740538
 40
1.0
 40
1.0
 40
1.0
 40
1.0
 10
96.45588469433295
 20
697.9395757849677
 30
0.0
 10
96.4525574037342
 20
697.9406223200926
 30
0.0
 10
96.41949673391497
 20
697.9510209165468
 30
0.0
 10
96.38484546177509
 20
697.936426251028
 30
0.0
 10
96.35368156156852
 20
697.9233004212479
 30
0.0
  0
SPLINE
  5
254F58
330
18
100
AcDbEntity
  8
姿図
100
AcDbSpline
210
0.0
220
0.0
230
1.0
 70
     8
 71
     3
 72
     9
 73
     5
 74
     0
 42
0.000000001
 43
0.0000000001
 40
0.0
 40
0.0
 40
0.0
 40
0.0
 40
0.1739626073347799
 40
1.0
 40
1.0
 40
1.0
 40
1.0
 10
73.56414800298029
 20
712.0167712592988
 30
0.0
 10
73.56593572716483
 20
712.0191061659806
 30
0.0
 10
73.57621221250793
 20
712.032528054267
 30
0.0
 10
73.59286420638276
 20
712.03941168963
 30
0.0
 10
73.60661937598582
 20
712.0450978298375
 30
0.0
  0
SPLINE
  5
254F59
330
18
100
AcDbEntity
  8
姿図
100
AcDbSpline
210
0.0
220
0.0
230
1.0
 70
     8
 71
     3
 72
    11
 73
     7
 74
     0
 42
0.000000001
 43
0.0000000001
 40
0.0
 40
0.0
 40
0.0
 40
0.0
 40
0.2484466607395412
 40
0.5033251645224158
 40
0.7482738076308406
 40
1.0
 40
1.0
 40
1.0
 40
1.0
 10
74.03038371933138
 20
711.844752452656
 30
0.0
 10
73.99788363126129
 20
711.8798263078414
 30
0.0
 10
73.93204208552999
 20
711.9508820180654
 30
0.0
 10
73.81268196152197
 20
712.0239639907845
 30
0.0
 10
73.69571639598018
 20
712.0622676652686
 30
0.0
 10
73.63658733802771
 20
712.0508729385504
 30
0.0
 10
73.60661937598582
 20
712.0450978298375
 30
0.0
  0
SPLINE
  5
254F5A
330
18
100
AcDbEntity
  8
姿図
100
AcDbSpline
210
0.0
220
0.0
230
1.0
 70
     8
 71
     3
 72
     9
 73
     5
 74
     0
 42
0.000000001
 43
0.0000000001
 40
0.0
 40
0.0
 40
0.0
 40
0.0
 40
0.88809421629787
 40
1.0
 40
1.0
 40
1.0
 40
1.0
 10
83.49856931728914
 20
710.656697213295
 30
0.0
 10
83.51055877926177
 20
710.6890939467221
 30
0.0
 10
83.52405899326226
 20
710.7255728842408
 30
0.0
 10
83.51189602875891
 20
710.7601243889519
 30
0.0
 10
83.51053492268403
 20
710.7639909021648
 30
0.0
  0
SPLINE
  5
254F5B
330
18
100
AcDbEntity
  8
姿図
100
AcDbSpline
210
0.0
220
0.0
230
1.0
 70
     8
 71
     3
 72
    10
 73
     6
 74
     0
 42
0.000000001
 43
0.0000000001
 40
0.0
 40
0.0
 40
0.0
 40
0.0
 40
0.1307984132857703
 40
0.564407006224789
 40
1.0
 40
1.0
 40
1.0
 40
1.0
 10
83.30276798943606
 20
711.0635266023498
 30
0.0
 10
83.29912057579702
 20
711.0672593717404
 30
0.0
 10
83.28338165541746
 20
711.0833666099231
 30
0.0
 10
83.24097362979961
 20
711.0835844915025
 30
0.0
 10
83.20042114010326
 20
711.0659286996084
 30
0.0
 10
83.18009860427054
 20
711.0570806494367
 30
0.0
  0
ARC
  5
254F5C
330
18
100
AcDbEntity
  8
姿図
100
AcDbCircle
 10
74.92301503333701
 20
689.7826064774747
 30
0.0
 40
15.859546395699
100
AcDbArc
 50
56.95569402672841
 51
60.51621074625952
  0
SPLINE
  5
254F5D
330
18
100
AcDbEntity
  8
姿図
100
AcDbSpline
210
0.0
220
0.0
230
1.0
 70
     8
 71
     3
 72
    10
 73
     6
 74
     0
 42
0.000000001
 43
0.0000000001
 40
0.0
 40
0.0
 40
0.0
 40
0.0
 40
0.0529001943783546
 40
0.5253680264408784
 40
1.0
 40
1.0
 40
1.0
 40
1.0
 10
96.77900277092647
 20
697.6998876902801
 30
0.0
 10
96.78041621180148
 20
697.6984611140966
 30
0.0
 10
96.79445352587442
 20
697.6842933492537
 30
0.0
 10
96.7946823949053
 20
697.643886075293
 30
0.0
 10
96.77863709455588
 20
697.6030221229217
 30
0.0
 10
96.77059611246932
 20
697.5825434592726
 30
0.0
  0
ARC
  5
254F5E
330
18
100
AcDbEntity
  8
姿図
100
AcDbCircle
 10
68.23632218018372
 20
697.153414894309
 30
0.0
 40
4.510293886577893
100
AcDbArc
 50
129.4369458850225
 51
139.4676398751444
  0
SPLINE
  5
254F5F
330
18
100
AcDbEntity
  8
姿図
100
AcDbSpline
210
0.0
220
0.0
230
1.0
 70
     8
 71
     3
 72
    13
 73
     9
 74
     0
 42
0.000000001
 43
0.0000000001
 40
0.0
 40
0.0
 40
0.0
 40
0.0
 40
0.125447407015929
 40
0.2508932211688244
 40
0.5000001902131309
 40
0.749107300547581
 40
0.8745546255711932
 40
1.0
 40
1.0
 40
1.0
 40
1.0
 10
97.40782328796988
 20
688.6888784324693
 30
0.0
 10
97.42691417503283
 20
688.6724437361956
 30
0.0
 10
97.46509570675303
 20
688.6395745523272
 30
0.0
 10
97.53132605477668
 20
688.5640553628475
 30
0.0
 10
97.59558216505897
 20
688.4615210355792
 30
0.0
 10
97.61990004065137
 20
688.3640590865327
 30
0.0
 10
97.61665800191281
 20
688.2973628754804
 30
0.0
 10
97.60477578391465
 20
688.2708507649571
 30
0.0
 10
97.59883472110539
 20
688.2575948127562
 30
0.0
  0
LINE
  5
254F60
330
18
100
AcDbEntity
  8
姿図
100
AcDbLine
 10
97.57968044719362
 20
688.2414576629167
 30
0.0
 11
97.59883472110539
 21
688.2575948127562
 31
0.0
  0
SPLINE
  5
254F61
330
18
100
AcDbEntity
  8
姿図
100
AcDbSpline
210
0.0
220
0.0
230
1.0
 70
     8
 71
     3
 72
    11
 73
     7
 74
     0
 42
0.000000001
 43
0.0000000001
 40
0.0
 40
0.0
 40
0.0
 40
0.0
 40
0.2737561433202894
 40
0.5482573013413599
 40
0.7991401892936779
 40
1.0
 40
1.0
 40
1.0
 40
1.0
 10
82.24766180641339
 20
704.9174452948162
 30
0.0
 10
82.22704266426959
 20
704.7839014777213
 30
0.0
 10
82.18574826593891
 20
704.516450410201
 30
0.0
 10
82.27863496327143
 20
704.1079298217934
 30
0.0
 10
82.46759023915601
 20
703.7741118706447
 30
0.0
 10
82.64835124778779
 20
703.6454634210468
 30
0.0
 10
82.72872359710229
 20
703.588262046657
 30
0.0
  0
SPLINE
  5
254F62
330
18
100
AcDbEntity
  8
姿図
100
AcDbSpline
210
0.0
220
0.0
230
1.0
 70
     8
 71
     3
 72
     9
 73
     5
 74
     0
 42
0.000000001
 43
0.0000000001
 40
0.0
 40
0.0
 40
0.0
 40
0.0
 40
0.4019501713323881
 40
1.0
 40
1.0
 40
1.0
 40
1.0
 10
98.03136601720706
 20
692.8620848572667
 30
0.0
 10
98.01893778604392
 20
692.8676270553881
 30
0.0
 10
97.98801795555357
 20
692.8814153269617
 30
0.0
 10
97.94571695450253
 20
692.8601185316363
 30
0.0
 10
97.9204188480715
 20
692.8473819868408
 30
0.0
  0
LWPOLYLINE
  5
254F63
330
18
100
AcDbEntity
  8
姿図
100
AcDbPolyline
 90
        3
 70
   128
 43
0.0
 10
85.95302924164264
 20
676.4317846530124
 10
86.57438192619378
 20
677.1016539423201
 10
86.74611865276404
 20
677.2868221260231
  0
LINE
  5
254F64
330
18
100
AcDbEntity
  8
姿図
100
AcDbLine
 10
85.93498119099456
 20
676.4541004316509
 30
0.0
 11
85.9539320449187
 21
676.4306995657378
 31
0.0
  0
LINE
  5
254F65
330
18
100
AcDbEntity
  8
姿図
100
AcDbLine
 10
85.14792160097261
 20
677.4260212823424
 30
0.0
 11
85.93498119099456
 21
676.4541004316509
 31
0.0
  0
LINE
  5
254F66
330
18
100
AcDbEntity
  8
姿図
100
AcDbLine
 10
86.21919682306716
 20
702.0141046737335
 30
0.0
 11
86.19413403429076
 21
701.9901380331012
 31
0.0
  0
SPLINE
  5
254F67
330
18
100
AcDbEntity
  8
姿図
100
AcDbSpline
210
0.0
220
0.0
230
1.0
 70
     8
 71
     3
 72
     9
 73
     5
 74
     0
 42
0.000000001
 43
0.0000000001
 40
0.0
 40
0.0
 40
0.0
 40
0.0
 40
0.5836253008216614
 40
0.9999999999999999
 40
0.9999999999999999
 40
0.9999999999999999
 40
0.9999999999999999
 10
78.3115042542056
 20
712.2705157236896
 30
0.0
 10
78.32302730142538
 20
712.2970477057719
 30
0.0
 10
78.34277121452092
 20
712.3425083498613
 30
0.0
 10
78.3259753787815
 20
712.3759128341377
 30
0.0
 10
78.31898201772805
 20
712.3898216162295
 30
0.0
  0
SPLINE
  5
254F68
330
18
100
AcDbEntity
  8
姿図
100
AcDbSpline
210
0.0
220
0.0
230
1.0
 70
     8
 71
     3
 72
     9
 73
     5
 74
     0
 42
0.000000001
 43
0.0000000001
 40
0.0
 40
0.0
 40
0.0
 40
0.0
 40
0.424392162791202
 40
1.0
 40
1.0
 40
1.0
 40
1.0
 10
78.0397458467535
 20
712.6049428644781
 30
0.0
 10
78.02158343749491
 20
712.6093517217728
 30
0.0
 10
77.9787871494128
 20
712.6197403615294
 30
0.0
 10
77.93500809384886
 20
712.604436936665
 30
0.0
 10
77.90980852636068
 20
712.5956281653769
 30
0.0
  0
LINE
  5
254F69
330
18
100
AcDbEntity
  8
姿図
100
AcDbLine
 10
87.49153116690815
 20
700.6924839186951
 30
0.0
 11
87.52304302522504
 21
700.7226186813559
 31
0.0
  0
LINE
  5
254F6A
330
18
100
AcDbEntity
  8
姿図
100
AcDbLine
 10
85.93539090342023
 20
676.4542835501593
 30
0.0
 11
84.37258207523593
 21
675.0687387006315
 31
0.0
  0
LINE
  5
254F6B
330
18
100
AcDbEntity
  8
姿図
100
AcDbLine
 10
83.89075461049578
 20
675.6637353599922
 30
0.0
 11
84.37258207523593
 21
675.0687387006315
 31
0.0
  0
SPLINE
  5
254F6C
330
18
100
AcDbEntity
  8
姿図
100
AcDbSpline
210
0.0
220
0.0
230
1.0
 70
     8
 71
     3
 72
     9
 73
     5
 74
     0
 42
0.000000001
 43
0.0000000001
 40
0.0
 40
0.0
 40
0.0
 40
0.0
 40
0.230861516920195
 40
1.0
 40
1.0
 40
1.0
 40
1.0
 10
98.26056072420843
 20
692.5278642506576
 30
0.0
 10
98.2623270196375
 20
692.5203967010293
 30
0.0
 10
98.26997790685613
 20
692.488050254866
 30
0.0
 10
98.25836148182375
 20
692.4549868483329
 30
0.0
 10
98.24942684229555
 20
692.4295565099865
 30
0.0
  0
LINE
  5
254F6D
330
18
100
AcDbEntity
  8
姿図
100
AcDbLine
 10
83.97569989122707
 20
674.8915422576974
 30
0.0
 11
83.62278018530543
 21
675.3273543352984
 31
0.0
  0
SPLINE
  5
254F6E
330
18
100
AcDbEntity
  8
姿図
100
AcDbSpline
210
0.0
220
0.0
230
1.0
 70
     8
 71
     3
 72
    15
 73
    11
 74
     0
 42
0.000000001
 43
0.0000000001
 40
0.0
 40
0.0
 40
0.0
 40
0.0
 40
0.1257709273119096
 40
0.2514208984699509
 40
0.3755701400446626
 40
0.4999883079801125
 40
0.6241373208461469
 40
0.7485561975685768
 40
0.8740833985858183
 40
1.0
 40
1.0
 40
1.0
 40
1.0
 10
83.97569989122707
 20
674.8915422576974
 30
0.0
 10
84.00916379223202
 20
674.8547953047105
 30
0.0
 10
84.07605941140883
 20
674.7813367389394
 30
0.0
 10
84.19979054324443
 20
674.7083223404625
 30
0.0
 10
84.31754469117661
 20
674.6718843201744
 30
0.0
 10
84.41156114273602
 20
674.686862536698
 30
0.0
 10
84.47355009266329
 20
674.7414826865031
 30
0.0
 10
84.48544350613912
 20
674.8357531660183
 30
0.0
 10
84.45671456727581
 20
674.9511862482855
 30
0.0
 10
84.40065517818527
 20
675.0295141154961
 30
0.0
 10
84.37258207523593
 20
675.0687387006315
 30
0.0
  0
SPLINE
  5
254F6F
330
18
100
AcDbEntity
  8
姿図
100
AcDbSpline
210
0.0
220
0.0
230
1.0
 70
     8
 71
     3
 72
    12
 73
     8
 74
     0
 42
0.000000001
 43
0.0000000001
 40
0.0
 40
0.0
 40
0.0
 40
0.0
 40
0.1881682001156119
 40
0.4664585066154445
 40
0.6115448780379797
 40
0.7576014788882628
 40
1.0
 40
1.0
 40
1.0
 40
1.0
 10
86.01445397538743
 20
675.9324829550837
 30
0.0
 10
86.03568427356134
 20
675.948428957435
 30
0.0
 10
86.08831300240675
 20
675.9879582107235
 30
0.0
 10
86.0981832716717
 20
676.0916583105841
 30
0.0
 10
86.07843976946765
 20
676.1973163726507
 30
0.0
 10
86.03926299237042
 20
676.3039697326228
 30
0.0
 10
85.98669200895662
 20
676.3819955446203
 30
0.0
 10
85.95388737358837
 20
676.4306841584844
 30
0.0
  0
SPLINE
  5
254F70
330
18
100
AcDbEntity
  8
姿図
100
AcDbSpline
210
0.0
220
0.0
230
1.0
 70
     8
 71
     3
 72
     9
 73
     5
 74
     0
 42
0.000000001
 43
0.0000000001
 40
0.0
 40
0.0
 40
0.0
 40
0.0
 40
0.1375160415625098
 40
1.0
 40
1.0
 40
1.0
 40
1.0
 10
70.99543800372248
 20
709.5414869880276
 30
0.0
 10
70.99239029505236
 20
709.5412735463469
 30
0.0
 10
70.97022772670414
 20
709.5397214242952
 30
0.0
 10
70.95940688945473
 20
709.5236982087762
 30
0.0
 10
70.95007409091022
 20
709.5098784424284
 30
0.0
  0
SPLINE
  5
254F71
330
18
100
AcDbEntity
  8
姿図
100
AcDbSpline
210
0.0
220
0.0
230
1.0
 70
     8
 71
     3
 72
     9
 73
     5
 74
     0
 42
0.000000001
 43
0.0000000001
 40
0.0
 40
0.0
 40
0.0
 40
0.0
 40
0.4699828340413156
 40
1.0
 40
1.0
 40
1.0
 40
1.0
 10
97.48219151245374
 20
688.7316002969768
 30
0.0
 10
97.4761414066104
 20
688.732853495957
 30
0.0
 10
97.46326837082029
 20
688.7355199741544
 30
0.0
 10
97.42703016115573
 20
688.7050356484077
 30
0.0
 10
97.40782328796988
 20
688.6888784324693
 30
0.0
  0
SPLINE
  5
254F72
330
18
100
AcDbEntity
  8
姿図
100
AcDbSpline
210
0.0
220
0.0
230
1.0
 70
     8
 71
     3
 72
     9
 73
     5
 74
     0
 42
0.000000001
 43
0.0000000001
 40
0.0
 40
0.0
 40
0.0
 40
0.0
 40
0.5379402526442377
 40
1.0
 40
1.0
 40
1.0
 40
1.0
 10
74.03038530243907
 20
711.8447540805826
 30
0.0
 10
74.0455181002441
 20
711.8652812278629
 30
0.0
 10
74.0736491012812
 20
711.9034400144183
 30
0.0
 10
74.06855587383063
 20
711.918193136613
 30
0.0
 10
74.06620249844161
 20
711.925009960527
 30
0.0
  0
SPLINE
  5
254F73
330
18
100
AcDbEntity
  8
姿図
100
AcDbSpline
210
0.0
220
0.0
230
1.0
 70
     8
 71
     3
 72
     9
 73
     5
 74
     0
 42
0.000000001
 43
0.0000000001
 40
0.0
 40
0.0
 40
0.0
 40
0.0
 40
0.123333280791657
 40
1.0
 40
1.0
 40
1.0
 40
1.0
 10
73.7072087950076
 20
712.063684458583
 30
0.0
 10
73.7028554684727
 20
712.0641899439859
 30
0.0
 10
73.66755821126094
 20
712.0682884760249
 30
0.0
 10
73.63508636388843
 20
712.0559311160578
 30
0.0
 10
73.60661937598582
 20
712.0450978298375
 30
0.0
  0
LINE
  5
254F74
330
18
100
AcDbEntity
  8
姿図
100
AcDbLine
 10
77.28445071670825
 20
681.0613034555445
 30
0.0
 11
63.53013293300589
 21
697.4351980872989
 31
0.0
  0
LINE
  5
254F75
330
18
100
AcDbEntity
  8
姿図
100
AcDbLine
 10
77.28445071670825
 20
681.0613034555445
 30
0.0
 11
75.42991426536159
 21
680.8218803544108
 31
0.0
  0
LINE
  5
254F76
330
18
100
AcDbEntity
  8
姿図
100
AcDbLine
 10
75.42991426536159
 20
680.8218803544108
 30
0.0
 11
70.25969474460464
 21
687.1308815759882
 31
0.0
  0
LINE
  5
254F77
330
18
100
AcDbEntity
  8
姿図
100
AcDbLine
 10
70.25969474460464
 20
687.1308815759882
 30
0.0
 11
70.0781451091508
 21
687.1074433450419
 31
0.0
  0
LINE
  5
254F78
330
18
100
AcDbEntity
  8
姿図
100
AcDbLine
 10
70.0781451091508
 20
687.1074433450419
 30
0.0
 11
61.61082010533045
 21
697.187412333135
 31
0.0
  0
LINE
  5
254F79
330
18
100
AcDbEntity
  8
姿図
100
AcDbLine
 10
61.61082010533045
 20
697.187412333135
 30
0.0
 11
44.53032250288982
 21
712.4979011192729
 31
0.0
  0
LINE
  5
254F7A
330
18
100
AcDbEntity
  8
姿図
100
AcDbLine
 10
46.4496355000739
 20
712.7456866535134
 30
0.0
 11
44.53032250288982
 21
712.4979011192729
 31
0.0
  0
LWPOLYLINE
  5
254F7B
330
18
100
AcDbEntity
  8
姿図
100
AcDbPolyline
 90
        3
 70
   128
 43
0.0
 10
46.4496355000739
 20
712.7456866535134
 10
56.01471491761504
 20
704.1718131219764
 10
63.53013293300589
 20
697.4351980872989
  0
LINE
  5
254F7C
330
18
100
AcDbEntity
  8
姿図
100
AcDbLine
 10
63.51120888145101
 20
698.296010529586
 30
0.0
 11
63.5402937047607
 21
698.2699283380396
 31
0.0
  0
LINE
  5
254F7D
330
18
100
AcDbEntity
  8
姿図
100
AcDbLine
 10
63.53013293300589
 20
697.4351980872989
 30
0.0
 11
63.5402937047607
 21
698.2699283380396
 31
0.0
  0
LWPOLYLINE
  5
254F7E
330
18
100
AcDbEntity
  8
姿図
100
AcDbPolyline
 90
        5
 70
   128
 43
0.0
 10
46.4496355000739
 20
712.7456866535134
 10
46.83365611629682
 20
712.8910486376628
 10
47.08213259079196
 20
712.9850870389205
 10
47.33060669137461
 20
713.0791110854594
 10
47.57907891466328
 20
713.1731332847364
  0
SPLINE
  5
254F7F
330
18
100
AcDbEntity
  8
姿図
100
AcDbSpline
210
0.0
220
0.0
230
1.0
 70
     8
 71
     3
 72
    16
 73
    12
 74
     0
 42
0.000000001
 43
0.0000000001
 40
0.0
 40
0.0
 40
0.0
 40
0.0
 40
0.2006875678407095
 40
0.3473995683816054
 40
0.4941121395516586
 40
0.5798663319632229
 40
0.6656206137644167
 40
0.7513748468781202
 40
0.8371292693412277
 40
0.9228836300674825
 40
1.0
 40
1.0
 40
1.0
 40
1.0
 10
47.57907891466328
 20
713.1731332847364
 30
0.0
 10
48.64230304062525
 20
712.1779451828536
 30
0.0
 10
50.48279374179947
 20
710.4552280221819
 30
0.0
 10
53.104141216416
 20
708.0067965417301
 30
0.0
 10
55.11832563506681
 20
706.1292070808672
 30
0.0
 10
56.81083851152141
 20
704.5545577126078
 30
0.0
 10
58.18058799812678
 20
703.2823313248786
 30
0.0
 10
59.55182094470513
 20
702.0107797406054
 30
0.0
 10
60.91979352351791
 20
700.7337518522338
 30
0.0
 10
62.23982687724072
 20
699.49584648835
 30
0.0
 10
63.10266873608214
 20
698.6815603921679
 30
0.0
 10
63.51120888145101
 20
698.296010529586
 30
0.0
  0
SPLINE
  5
254F80
330
18
100
AcDbEntity
  8
姿図
100
AcDbSpline
210
0.0
220
0.0
230
1.0
 70
     8
 71
     3
 72
     9
 73
     5
 74
     0
 42
0.000000001
 43
0.0000000001
 40
0.0
 40
0.0
 40
0.0
 40
0.0
 40
0.4996414961537314
 40
1.0
 40
1.0
 40
1.0
 40
1.0
 10
57.31570313342121
 20
720.3677740223679
 30
0.0
 10
57.31670079858498
 20
719.5976126575165
 30
0.0
 10
57.31869756060621
 20
718.0561847121191
 30
0.0
 10
57.40033970084295
 20
716.5137559494817
 30
0.0
 10
57.44119003998264
 20
715.7419886015191
 30
0.0
  0
SPLINE
  5
254F81
330
18
100
AcDbEntity
  8
姿図
100
AcDbSpline
210
0.0
220
0.0
230
1.0
 70
     8
 71
     3
 72
    11
 73
     7
 74
     0
 42
0.000000001
 43
0.0000000001
 40
0.0
 40
0.0
 40
0.0
 40
0.0
 40
0.2778217255111996
 40
0.555638524970742
 40
0.8334506669354209
 40
1.0
 40
1.0
 40
1.0
 40
1.0
 10
57.44119003998264
 20
715.7419886015191
 30
0.0
 10
57.9066243391747
 20
715.2263014103787
 30
0.0
 10
58.83748468495219
 20
714.1949361717379
 30
0.0
 10
60.26485435835161
 20
712.6802923850767
 30
0.0
 10
61.51109964356516
 20
711.3782270982725
 30
0.0
 10
62.28033646618559
 20
710.5796782772971
 30
0.0
 10
62.56865101858398
 20
710.2803774129632
 30
0.0
  0
LINE
  5
254F82
330
18
100
AcDbEntity
  8
姿図
100
AcDbLine
 10
62.56865101858398
 20
710.2803774129632
 30
0.0
 11
62.43512034073927
 21
699.3105319240087
 31
0.0
  0
LINE
  5
254F83
330
18
100
AcDbEntity
  8
姿図
100
AcDbLine
 10
51.84354495528206
 20
720.8246887706997
 30
0.0
 11
47.52863237993739
 21
720.9572285747149
 31
0.0
  0
LINE
  5
254F84
330
18
100
AcDbEntity
  8
姿図
100
AcDbLine
 10
57.31570313342121
 20
720.3677740223679
 30
0.0
 11
51.84354495528206
 21
720.8246887706997
 31
0.0
  0
LINE
  5
254F85
330
18
100
AcDbEntity
  8
姿図
100
AcDbLine
 10
47.84185357305228
 20
714.7039846076269
 30
0.0
 11
56.79335279219157
 21
714.2731719822202
 31
0.0
  0
LINE
  5
254F86
330
18
100
AcDbEntity
  8
姿図
100
AcDbLine
 10
60.04694417081703
 20
701.9809920524112
 30
0.0
 11
47.38356828754024
 21
713.4823935172703
 31
0.0
  0
ELLIPSE
  5
254F87
330
18
100
AcDbEntity
  8
姿図
100
AcDbEllipse
 10
60.57743549821765
 20
702.5810067133341
 30
0.0
 11
-0.5327667830380562
 21
0.6456204799629292
 31
0.0
210
0.0
220
0.0
230
1.0
 40
0.9557914935019239
 41
1.720864690288008
 42
3.987926297480225
  0
LINE
  5
254F88
330
18
100
AcDbEntity
  8
姿図
100
AcDbLine
 10
61.47205650588637
 20
709.0603106492913
 30
0.0
 11
61.39262045891189
 21
702.5344607425263
 31
0.0
  0
ELLIPSE
  5
254F89
330
18
100
AcDbEntity
  8
姿図
100
AcDbEllipse
 10
60.65687155882154
 20
709.1068577397859
 30
0.0
 11
-0.5327667830380634
 21
0.6456204799629148
 31
0.0
210
0.0
220
0.0
230
1.0
 40
0.9557914935019379
 41
3.987926297480217
 42
4.753283352740258
  0
LINE
  5
254F8A
330
18
100
AcDbEntity
  8
姿図
100
AcDbLine
 10
57.36007368649004
 20
713.9992646933877
 30
0.0
 11
61.25165351190685
 21
709.6420400961698
 31
0.0
  0
ELLIPSE
  5
254F8B
330
18
100
AcDbEntity
  8
姿図
100
AcDbEllipse
 10
56.79073500424369
 20
713.4869753347994
 30
0.0
 11
-0.5099764045186675
 21
0.6180025135530942
 31
0.0
210
0.0
220
0.0
230
1.0
 40
0.9557914935019347
 41
4.753283352740258
 42
5.567625955234939
  0
LINE
  5
254F8C
330
18
100
AcDbEntity
  8
姿図
100
AcDbLine
 10
46.54913642553177
 20
720.9199114526276
 30
0.0
 11
46.4496355000739
 21
712.7456866535134
 31
0.0
  0
SPLINE
  5
254F8D
330
18
100
AcDbEntity
  8
姿図
100
AcDbSpline
210
0.0
220
0.0
230
1.0
 70
     8
 71
     3
 72
    11
 73
     7
 74
     0
 42
0.000000001
 43
0.0000000001
 40
0.0
 40
0.0
 40
0.0
 40
0.0
 40
0.0712502672179413
 40
0.4978273305435618
 40
0.7514951467412105
 40
1.0
 40
1.0
 40
1.0
 40
1.0
 10
47.53620506865124
 20
720.8894910180729
 30
0.0
 10
47.53369410363132
 20
720.7114185733599
 30
0.0
 10
47.51614993065107
 20
719.4672221196993
 30
0.0
 10
47.47624731645823
 20
717.589404379033
 30
0.0
 10
47.41127183765713
 20
715.2693735444844
 30
0.0
 10
47.3683842790071
 20
714.0153804647151
 30
0.0
 10
47.34716096854598
 20
713.3948302332321
 30
0.0
  0
LINE
  5
254F8E
330
18
100
AcDbEntity
  8
姿図
100
AcDbLine
 10
47.34716096854598
 20
713.3948302332321
 30
0.0
 11
47.57907891466328
 21
713.1731332847364
 31
0.0
  0
LINE
  5
254F8F
330
18
100
AcDbEntity
  8
姿図
100
AcDbLine
 10
45.43253429698251
 20
721.0216163299
 30
0.0
 11
26.55928887884687
 21
718.5850561975592
 31
0.0
  0
LINE
  5
254F90
330
18
100
AcDbEntity
  8
姿図
100
AcDbLine
 10
46.38462620314715
 20
721.1445328611213
 30
0.0
 11
45.43253429698251
 21
721.0216163299
 31
0.0
  0
SPLINE
  5
254F91
330
18
100
AcDbEntity
  8
姿図
100
AcDbSpline
210
0.0
220
0.0
230
1.0
 70
     8
 71
     3
 72
    12
 73
     8
 74
     0
 42
0.000000001
 43
0.0000000001
 40
0.0
 40
0.0
 40
0.0
 40
0.0
 40
0.2010657188781276
 40
0.4020104321241602
 40
0.6066031182047309
 40
0.8210287118715947
 40
1.0
 40
1.0
 40
1.0
 40
1.0
 10
46.54913642553177
 20
720.9199114526276
 30
0.0
 10
46.54775020677585
 20
720.9463628256278
 30
0.0
 10
46.54497860352001
 20
720.9992496526286
 30
0.0
 10
46.51924100730741
 20
721.0671661257878
 30
0.0
 10
46.48040970273087
 20
721.1175887500265
 30
0.0
 10
46.43336333542089
 20
721.1451367350452
 30
0.0
 10
46.39986560289208
 20
721.1447216838052
 30
0.0
 10
46.38462620314715
 20
721.1445328611213
 30
0.0
  0
ELLIPSE
  5
254F92
330
18
100
AcDbEntity
  8
姿図
100
AcDbEllipse
 10
44.25470334729687
 20
717.5682540433265
 30
0.0
 11
0.06451311377958294
 21
0.4965478515072022
 31
0.0
210
0.0
220
0.0
230
1.0
 40
0.6680285920060478
 41
4.886592824129597
 42
6.457389150924521
  0
LINE
  5
254F93
330
18
100
AcDbEntity
  8
姿図
100
AcDbLine
 10
44.26074629665317
 20
718.064757212935
 30
0.0
 11
27.662669179413
 21
715.9219236294397
 31
0.0
  0
ELLIPSE
  5
254F94
330
18
100
AcDbEntity
  8
姿図
100
AcDbEllipse
 10
27.65662382216658
 20
715.4254206325841
 30
0.0
 11
0.06451311377957937
 21
0.4965478515072163
 31
0.0
210
0.0
220
0.0
230
1.0
 40
0.6680285920060296
 41
0.1742038437449661
 42
1.745000170539839
  0
LINE
  5
254F95
330
18
100
AcDbEntity
  8
姿図
100
AcDbLine
 10
27.31875547498271
 20
715.381801210511
 30
0.0
 11
27.25650553804877
 21
710.2678288943023
 31
0.0
  0
LINE
  5
254F96
330
18
100
AcDbEntity
  8
姿図
100
AcDbLine
 10
27.25650553804877
 20
710.2678288943023
 30
0.0
 11
25.33719094034819
 21
710.0200430325293
 31
0.0
  0
LINE
  5
254F97
330
18
100
AcDbEntity
  8
姿図
100
AcDbLine
 10
25.43669186580604
 20
718.1942678316435
 30
0.0
 11
25.33719094034819
 21
710.0200430325293
 31
0.0
  0
SPLINE
  5
254F98
330
18
100
AcDbEntity
  8
姿図
100
AcDbSpline
210
0.0
220
0.0
230
1.0
 70
     8
 71
     3
 72
    12
 73
     8
 74
     0
 42
0.000000001
 43
0.0000000001
 40
0.0
 40
0.0
 40
0.0
 40
0.0
 40
0.2306018333248846
 40
0.4614615145613443
 40
0.6847183760920318
 40
0.8957670618644339
 40
1.0
 40
1.0
 40
1.0
 40
1.0
 10
25.60719865795306
 20
718.4621398839085
 30
0.0
 10
25.58746496869395
 20
718.4566557913981
 30
0.0
 10
25.54797552491084
 20
718.4456814743278
 30
0.0
 10
25.49533981776858
 20
718.3926211197345
 30
0.0
 10
25.45695325466937
 20
718.3203757532842
 30
0.0
 10
25.43926147716894
 20
718.2499126863647
 30
0.0
 10
25.43733031358943
 20
718.2080933986786
 30
0.0
 10
25.43669186580604
 20
718.1942678316435
 30
0.0
  0
LINE
  5
254F99
330
18
100
AcDbEntity
  8
姿図
100
AcDbLine
 10
25.60719865795306
 20
718.4621398839085
 30
0.0
 11
26.55928887884687
 21
718.5850561975592
 31
0.0
  0
LINE
  5
254F9A
330
18
100
AcDbEntity
  8
姿図
100
AcDbLine
 10
44.59257243982378
 20
717.6118734354816
 30
0.0
 11
44.53032250288982
 21
712.4979011192729
 31
0.0
  0
LINE
  5
254F9B
330
18
100
AcDbEntity
  8
姿図
100
AcDbLine
 10
47.43040304718011
 20
714.3072083307688
 30
0.0
 11
56.06965336540748
 21
713.8914249813156
 31
0.0
  0
ELLIPSE
  5
254F9C
330
18
100
AcDbEntity
  8
姿図
100
AcDbEllipse
 10
40.96679548125257
 20
717.2688449327361
 30
0.0
 11
4.250722033676965
 21
0.03417600228041806
 31
0.0
210
0.0
220
0.0
230
1.0
 40
0.1008065826429222
 41
5.545956138318012
 42
5.730294740571787
  0
ELLIPSE
  5
254F9D
330
18
100
AcDbEntity
  8
姿図
100
AcDbEllipse
 10
40.96679548125257
 20
717.2688449327361
 30
0.0
 11
4.250722033676965
 21
0.03417600228041806
 31
0.0
210
0.0
220
0.0
230
1.0
 40
0.1008065826429222
 41
0.5488150536405374
 42
1.187584720600294
  0
LINE
  5
254F9E
330
18
100
AcDbEntity
  8
姿図
100
AcDbLine
 10
34.83423473911461
 20
715.4525272108888
 30
0.0
 11
34.94441446083323
 21
715.466751433743
 31
0.0
  0
SPLINE
  5
254F9F
330
18
100
AcDbEntity
  8
姿図
100
AcDbSpline
210
0.0
220
0.0
230
1.0
 70
     8
 71
     3
 72
    12
 73
     8
 74
     0
 42
0.000000001
 43
0.0000000001
 40
0.0
 40
0.0
 40
0.0
 40
0.0
 40
0.169446343646663
 40
0.4150434224505303
 40
0.6538139326325558
 40
0.8815611960565293
 40
0.9999999999999999
 40
0.9999999999999999
 40
0.9999999999999999
 40
0.9999999999999999
 10
47.39563211123817
 20
721.111693215856
 30
0.0
 10
47.40853586468091
 20
721.1111966407113
 30
0.0
 10
47.44014243627203
 20
721.1099803250145
 30
0.0
 10
47.48391439213623
 20
721.073634990372
 30
0.0
 10
47.51925506035047
 20
721.0123412854832
 30
0.0
 10
47.53500889749938
 20
720.9460232929807
 30
0.0
 10
47.53590014937271
 20
720.9039018157675
 30
0.0
 10
47.53620506865124
 20
720.8894910180729
 30
0.0
  0
LINE
  5
254FA0
330
18
100
AcDbEntity
  8
姿図
100
AcDbLine
 10
63.6890239841436
 20
710.488455276521
 30
0.0
 11
63.69912920142895
 21
711.3186216026534
 31
0.0
  0
SPLINE
  5
254FA1
330
18
100
AcDbEntity
  8
姿図
100
AcDbSpline
210
0.0
220
0.0
230
1.0
 70
     8
 71
     3
 72
    11
 73
     7
 74
     0
 42
0.000000001
 43
0.0000000001
 40
0.0
 40
0.0
 40
0.0
 40
0.0
 40
0.2802088296618359
 40
0.5604127403387034
 40
0.840611794594984
 40
1.0
 40
1.0
 40
1.0
 40
1.0
 10
58.6053418689998
 20
715.9036574804528
 30
0.0
 10
59.07085127082374
 20
715.3880462100051
 30
0.0
 10
60.00186190258864
 20
714.3568327205165
 30
0.0
 10
61.42938759827371
 20
712.8423561907324
 30
0.0
 10
62.66099075453587
 20
711.5557135212666
 30
0.0
 10
63.41546291007563
 20
710.7724541817431
 30
0.0
 10
63.6890239841436
 20
710.488455276521
 30
0.0
  0
SPLINE
  5
254FA2
330
18
100
AcDbEntity
  8
姿図
100
AcDbSpline
210
0.0
220
0.0
230
1.0
 70
     8
 71
     3
 72
     9
 73
     5
 74
     0
 42
0.000000001
 43
0.0000000001
 40
0.0
 40
0.0
 40
0.0
 40
0.0
 40
0.4996884834128278
 40
1.0
 40
1.0
 40
1.0
 40
1.0
 10
58.47903908043787
 20
720.2579771912574
 30
0.0
 10
58.48260975002188
 20
719.532891625527
 30
0.0
 10
58.48975554125485
 20
718.0818164260783
 30
0.0
 10
58.56679709327059
 20
716.6300119697743
 30
0.0
 10
58.6053418689998
 20
715.9036574804528
 30
0.0
  0
LINE
  5
254FA3
330
18
100
AcDbEntity
  8
姿図
100
AcDbLine
 10
59.36699055299292
 20
720.1838364605214
 30
0.0
 11
59.3194819466957
 21
716.2808976086577
 31
0.0
  0
LWPOLYLINE
  5
254FA4
330
18
100
AcDbEntity
  8
姿図
100
AcDbPolyline
 90
        3
 70
   128
 43
0.0
 10
59.3194819466957
 20
716.2808976086577
 10
61.77208476077806
 20
713.502023575217
 10
63.69912920142895
 20
711.3186216026534
  0
LINE
  5
254FA5
330
18
100
AcDbEntity
  8
姿図
100
AcDbLine
 10
63.71371053765571
 20
710.4541350057384
 30
0.0
 11
63.6890239841436
 21
710.488455276521
 31
0.0
  0
LINE
  5
254FA6
330
18
100
AcDbEntity
  8
姿図
100
AcDbLine
 10
62.56865101858398
 20
710.2803774129632
 30
0.0
 11
63.71371053765571
 21
710.4541350057384
 31
0.0
  0
LWPOLYLINE
  5
254FA7
330
18
100
AcDbEntity
  8
姿図
100
AcDbPolyline
 90
        3
 70
   128
 43
0.0
 10
57.44119003998264
 20
715.7419886015191
 10
58.02326578498258
 20
715.8228232609094
 10
58.6053418689998
 20
715.9036574804528
  0
ARC
  5
254FA8
330
18
100
AcDbEntity
  8
姿図
100
AcDbCircle
 10
82.41320275555776
 20
682.0292238918398
 30
0.0
 40
5.219288021081152
100
AcDbArc
 50
180.1463924818955
 51
190.6874082981385
  0
LINE
  5
254FA9
330
18
100
AcDbEntity
  8
姿図
100
AcDbLine
 10
77.19393177069952
 20
682.0158884646532
 30
0.0
 11
63.5402937047607
 21
698.2699283380396
 31
0.0
  0
LINE
  5
254FAA
330
18
100
AcDbEntity
  8
姿図
100
AcDbLine
 10
28.15852015711619
 20
715.8207061078739
 30
0.0
 11
35.27522005162581
 21
716.7394812158672
 31
0.0
  0
LINE
  5
254FAB
330
18
100
AcDbEntity
  8
姿図
100
AcDbLine
 10
38.03144023312461
 20
717.0953125438107
 30
0.0
 11
44.51056172243835
 21
717.9317754598089
 31
0.0
  0
LINE
  5
254FAC
330
18
100
AcDbEntity
  8
姿図
100
AcDbLine
 10
80.2175002148847
 20
685.7593563417315
 30
0.0
 11
63.71371053765571
 21
710.4541350057384
 31
0.0
  0
LINE
  5
254FAD
330
18
100
AcDbEntity
  8
姿図
100
AcDbLine
 10
80.83465868078054
 20
685.6785664468784
 30
0.0
 11
63.69912920142895
 21
711.3186216026534
 31
0.0
  0
LINE
  5
254FAE
330
18
100
AcDbEntity
  8
姿図
100
AcDbLine
 10
79.04438573186877
 20
685.6275781733924
 30
0.0
 11
62.56865101858398
 21
710.2803774129632
 31
0.0
  0
ARC
  5
254FAF
330
18
100
AcDbEntity
  8
姿図
100
AcDbCircle
 10
79.2122148519311
 20
682.6075986902492
 30
0.0
 40
3.022659226288535
100
AcDbArc
 50
100.9814039682786
 51
169.6127905326029
  0
ARC
  5
254FB0
330
18
100
AcDbEntity
  8
姿図
100
AcDbCircle
 10
64.24654011440623
 20
699.3357945382597
 30
0.0
 40
1.036620451329273
100
AcDbArc
 50
178.7149171252002
 51
218.7604569019157
  0
LINE
  5
254FB1
330
18
100
AcDbEntity
  8
姿図
100
AcDbLine
 10
67.90141074997084
 20
693.373568883746
 30
0.0
 11
63.43821434202772
 21
698.6868019298096
 31
0.0
  0
ARC
  5
254FB2
330
18
100
AcDbEntity
  8
姿図
100
AcDbCircle
 10
68.35324242621533
 20
693.6878250459607
 30
0.0
 40
0.5503715101164874
100
AcDbArc
 50
214.8192312171945
 51
322.2988242227017
  0
LINE
  5
254FB3
330
18
100
AcDbEntity
  8
姿図
100
AcDbLine
 10
70.39597831246704
 20
695.3675160750911
 30
0.0
 11
68.78870241004768
 21
693.3512490491507
 31
0.0
  0
ARC
  5
254FB4
330
18
100
AcDbEntity
  8
姿図
100
AcDbCircle
 10
69.5648234883962
 20
695.949071022974
 30
0.0
 40
1.014408447807505
100
AcDbArc
 50
325.0197064226547
 51
33.96797187870318
  0
LINE
  5
254FB5
330
18
100
AcDbEntity
  8
姿図
100
AcDbLine
 10
64.40482596589152
 20
705.4956506966923
 30
0.0
 11
70.40612316471584
 21
696.5158508334891
 31
0.0
  0
LWPOLYLINE
  5
254FB6
330
18
100
AcDbEntity
  8
姿図
100
AcDbPolyline
 90
        9
 70
   128
 43
0.0
 10
63.27935480198749
 20
705.0418762552662
 10
63.31087884376052
 20
705.2845182378985
 10
63.39669116874217
 20
705.4995369973553
 10
63.52923964936099
 20
705.6680002259541
 10
63.69685478977453
 20
705.7750798370162
 10
63.88478121974504
 20
705.8113497909256
 10
64.07647575289383
 20
705.7736154649183
 10
64.25506487047193
 20
705.665201759105
 10
64.40482596589152
 20
705.4956506966923
  0
LINE
  5
254FB7
330
18
100
AcDbEntity
  8
姿図
100
AcDbLine
 10
63.21018039162027
 20
699.3590428737076
 30
0.0
 11
63.27935480198749
 21
705.0418762552662
 31
0.0
  0
ARC
  5
254FB8
330
18
100
AcDbEntity
  8
姿図
100
AcDbCircle
 10
70.85475883649065
 20
691.433909208399
 30
0.0
 40
1.013856430024028
100
AcDbArc
 50
145.01487797742
 51
219.3712999219502
  0
LINE
  5
254FB9
330
18
100
AcDbEntity
  8
姿図
100
AcDbLine
 10
74.64471534288441
 20
685.345969021523
 30
0.0
 11
70.07099568363935
 21
690.7907761110282
 31
0.0
  0
ARC
  5
254FBA
330
18
100
AcDbEntity
  8
姿図
100
AcDbCircle
 10
75.096546796175
 20
685.6602247789729
 30
0.0
 40
0.5503710959643622
100
AcDbArc
 50
214.8192098768611
 51
322.2988693087698
  0
LINE
  5
254FBB
330
18
100
AcDbEntity
  8
姿図
100
AcDbLine
 10
76.38950378986738
 20
686.3993470092909
 30
0.0
 11
75.53200671717707
 21
685.3236493780983
 31
0.0
  0
ARC
  5
254FBC
330
18
100
AcDbEntity
  8
姿図
100
AcDbCircle
 10
75.5583498134157
 20
686.9809021193976
 30
0.0
 40
1.014407846313636
100
AcDbArc
 50
325.0196714685673
 51
33.96798369843238
  0
LINE
  5
254FBD
330
18
100
AcDbEntity
  8
姿図
100
AcDbLine
 10
72.33447499494599
 20
693.63044024429
 30
0.0
 11
76.3996488739636
 21
687.5476817673948
 31
0.0
  0
ARC
  5
254FBE
330
18
100
AcDbEntity
  8
姿図
100
AcDbCircle
 10
71.83061858858605
 20
693.3755825239934
 30
0.0
 40
0.5646447872996919
100
AcDbArc
 50
26.83093376747723
 51
141.2682799793603
  0
LINE
  5
254FBF
330
18
100
AcDbEntity
  8
姿図
100
AcDbLine
 10
70.0241052930233
 20
692.0152176905547
 30
0.0
 11
71.3901481443375
 21
693.7288664375363
 31
0.0
  0
LINE
  5
254FC0
330
18
100
AcDbEntity
  8
姿図
100
AcDbLine
 10
56.43878246101832
 20
713.7130158169057
 30
0.0
 11
60.33036245594374
 21
709.3557909997642
 31
0.0
  0
SPLINE
  5
254FC1
330
18
100
AcDbEntity
  8
姿図
100
AcDbSpline
210
0.0
220
0.0
230
1.0
 70
     8
 71
     3
 72
    12
 73
     8
 74
     0
 42
0.000000001
 43
0.0000000001
 40
0.0
 40
0.0
 40
0.0
 40
0.0
 40
0.2189200394712089
 40
0.4375832575513275
 40
0.6632244627399103
 40
0.9025140822929812
 40
1.0
 40
1.0
 40
1.0
 40
1.0
 10
58.47903908043787
 20
720.2579771912574
 30
0.0
 10
58.47737584265349
 20
720.2846469876376
 30
0.0
 10
58.47405131827679
 20
720.3379552932932
 30
0.0
 10
58.44673575605592
 20
720.4068015823145
 30
0.0
 10
58.4056531453013
 20
720.4579254678373
 30
0.0
 10
58.363679426364
 20
720.4843362571806
 30
0.0
 10
58.33639734779234
 20
720.4849738108236
 30
0.0
 10
58.32850004477513
 20
720.4851583625356
 30
0.0
  0
LWPOLYLINE
  5
254FC2
330
18
100
AcDbEntity
  8
姿図
100
AcDbPolyline
 90
        3
 70
   128
 43
0.0
 10
58.30358718042049
 20
720.4870939819345
 10
57.75392731944851
 20
720.4207019721065
 10
57.31570313342121
 20
720.3677740223679
  0
ELLIPSE
  5
254FC3
330
18
100
AcDbEntity
  8
姿図
100
AcDbEllipse
 10
59.19808118603623
 20
720.1641195677694
 30
0.0
 11
0.02979968838067748
 21
0.2483082767166707
 31
0.0
210
0.0
220
0.0
230
1.0
 40
0.6696805454651205
 41
4.871818931639288
 42
6.451041789365029
  0
ELLIPSE
  5
254FC4
330
18
100
AcDbEntity
  8
姿図
100
AcDbEllipse
 10
59.85464790834908
 20
702.4733702106862
 30
0.0
 11
-0.3549607823266356
 21
0.4301505986295098
 31
0.0
210
0.0
220
0.0
230
1.0
 40
0.955791493501922
 41
3.201937978762656
 42
3.987926297480203
  0
ELLIPSE
  5
254FC5
330
18
100
AcDbEntity
  8
姿図
100
AcDbEllipse
 10
56.06794741437506
 20
713.3793388321515
 30
0.0
 11
-0.3321704038072397
 21
0.4025326322196605
 31
0.0
210
0.0
220
0.0
230
1.0
 40
0.9557914935019736
 41
4.75328335274027
 42
5.567625955234957
  0
LINE
  5
254FC6
330
18
100
AcDbEntity
  8
姿図
100
AcDbLine
 10
60.47720807121314
 20
708.9682086505344
 30
0.0
 11
60.39777202423869
 21
702.4423587437693
 31
0.0
  0
ELLIPSE
  5
254FC7
330
18
100
AcDbEntity
  8
姿図
100
AcDbEllipse
 10
59.93408396895296
 20
708.999221237138
 30
0.0
 11
-0.3549607823266428
 21
0.430150598629524
 31
0.0
210
0.0
220
0.0
230
1.0
 40
0.9557914935019378
 41
3.987926297480254
 42
4.753283352740306
  0
LINE
  5
254FC8
330
18
100
AcDbEntity
  8
姿図
100
AcDbLine
 10
63.58309624933025
 20
705.2407636138976
 30
0.0
 11
69.56027838607679
 21
696.2573205436267
 31
0.0
  0
ELLIPSE
  5
254FC9
330
18
100
AcDbEntity
  8
姿図
100
AcDbEllipse
 10
63.24980297210445
 20
704.883447271894
 30
0.0
 11
-0.05770706473867902
 21
0.5694184866326708
 31
0.0
210
0.0
220
0.0
230
1.0
 40
0.7768218687382278
 41
5.309692427261003
 42
5.645127831863161
  0
LINE
  5
254FCA
330
18
100
AcDbEntity
  8
姿図
100
AcDbLine
 10
47.2739910477946
 20
721.9296110386962
 30
0.0
 11
47.27342696810763
 21
721.9405866346845
 31
0.0
  0
LWPOLYLINE
  5
254FCB
330
18
100
AcDbEntity
  8
姿図
100
AcDbPolyline
 90
       21
 70
   128
 43
0.0
 10
36.2995689847063
 20
722.6239296538935
 10
36.79810005605651
 20
722.6803654205503
 10
37.35597390939014
 20
722.728723902007
 10
37.96536026939754
 20
722.7683266847512
 10
38.61771225561347
 20
722.7986173237387
 10
39.30386279168783
 20
722.8191708872656
 10
40.01418392728047
 20
722.8296988081529
 10
40.73870198426567
 20
722.8300533515536
 10
41.4672518326301
 20
722.8202293966183
 10
42.18960250695056
 20
722.800364936267
 10
42.89561267866759
 20
722.7707389025837
 10
43.57537264619236
 20
722.731767251646
 10
44.21934077049019
 20
722.6839966386073
 10
44.81847805588524
 20
722.6280980951315
 10
45.36437145231002
 20
722.5648561072574
 10
45.84935850380919
 20
722.49515835068
 10
46.2666312652664
 20
722.4199834749543
 10
46.61033264032125
 20
722.3403867002299
 10
46.87563788104961
 20
722.2574854328078
 10
47.05882260547747
 20
722.1724431401319
 10
47.14542701321011
 20
722.1025345128082
  0
LINE
  5
254FCC
330
18
100
AcDbEntity
  8
姿図
100
AcDbLine
 10
69.54308355824907
 20
695.4780859259545
 30
0.0
 11
67.93189886968116
 21
693.5149032689626
 31
0.0
  0
ARC
  5
254FCD
330
18
100
AcDbEntity
  8
姿図
100
AcDbCircle
 10
41.926696693304
 20
733.9004741599906
 30
0.0
 40
16.3970293280532
100
AcDbArc
 50
271.8983521900823
 51
276.5609993163503
  0
LINE
  5
254FCE
330
18
100
AcDbEntity
  8
姿図
100
AcDbLine
 10
71.42569357343507
 20
693.5523834941257
 30
0.0
 11
71.42340388248442
 21
693.5496618347422
 31
0.0
  0
ELLIPSE
  5
254FCF
330
18
100
AcDbEntity
  8
姿図
100
AcDbEllipse
 10
69.2275468266663
 20
695.9006070785407
 30
0.0
 11
-0.05760984765105093
 21
0.5684592070857803
 31
0.0
210
0.0
220
0.0
230
1.0
 40
0.7768218687382111
 41
3.799292798666666
 42
5.309692427260982
  0
LINE
  5
254FD0
330
18
100
AcDbEntity
  8
姿図
100
AcDbLine
 10
70.0781451091508
 20
687.1074433450419
 30
0.0
 11
70.29810662617757
 21
687.0840092251159
 31
0.0
  0
LINE
  5
254FD1
330
18
100
AcDbEntity
  8
姿図
100
AcDbLine
 10
71.4808813915156
 20
693.3707395250462
 30
0.0
 11
75.5297198430741
 21
687.2855131109552
 31
0.0
  0
ELLIPSE
  5
254FD2
330
18
100
AcDbEntity
  8
姿図
100
AcDbEllipse
 10
71.148330137291
 20
693.0142188449206
 30
0.0
 11
-0.0575786096181119
 21
0.568150969029972
 31
0.0
210
0.0
220
0.0
230
1.0
 40
0.7768218687382119
 41
5.30969242726098
 42
5.618608609803668
  0
ELLIPSE
  5
254FD3
330
18
100
AcDbEntity
  8
姿図
100
AcDbEllipse
 10
77.38921164774132
 20
681.3806965645443
 30
0.0
 11
-0.5433918092485044
 21
3.962967696672607
 31
0.0
210
0.0
220
0.0
230
1.0
 40
0.7807052794795848
 41
2.952340807885915
 42
3.135443368215419
  0
ELLIPSE
  5
254FD4
330
18
100
AcDbEntity
  8
姿図
100
AcDbEllipse
 10
77.38921164774132
 20
681.3806965645443
 30
0.0
 11
-0.4844956378064467
 21
3.970592777611543
 31
0.0
210
0.0
220
0.0
230
1.0
 40
0.7474888588838188
 41
1.303469105915688
 42
2.963700413657501
  0
LWPOLYLINE
  5
254FD5
330
18
100
AcDbEntity
  8
姿図
100
AcDbPolyline
 90
       44
 70
   128
 43
0.0
 10
77.35424238256905
 20
682.1105509120471
 10
77.39403915165221
 20
682.6852844335316
 10
77.49850248940103
 20
683.2405748183185
 10
77.66540538673075
 20
683.7645865914435
 10
77.89119092156605
 20
684.2461520059071
 10
78.17104698780884
 20
684.675006852714
 10
78.4990083688813
 20
685.0420109881636
 10
78.86808557988235
 20
685.3393422517426
 10
79.27041258783441
 20
685.5606636438683
 10
79.69741408416425
 20
685.7012582219284
 10
80.13998951002279
 20
685.7581291840809
 10
80.5887055143163
 20
685.7300645879703
 10
81.03399956328334
 20
685.6176626167316
 10
81.46638002537424
 20
685.4233186778952
 10
81.87663184933552
 20
685.1511751609519
 10
82.2560118045426
 20
684.807032175156
 10
82.59643329562883
 20
684.3982245995569
 10
82.89064126844673
 20
683.9334654845104
 10
83.13236442981793
 20
683.4226602035936
 10
83.31645160040256
 20
682.876695923743
 10
83.43897861480127
 20
682.3072086661197
 10
83.49733523718845
 20
681.72633621731
 10
83.49027666753616
 20
681.146458845996
 10
83.41795334757299
 20
680.5799356785128
 10
83.28190775247106
 20
680.0388411287344
 10
83.08503824495168
 20
679.5347076825383
 10
82.83154142049864
 20
679.078280062884
 10
82.52681939259844
 20
678.6792859073216
 10
82.17736754841852
 20
678.3462296674494
 10
81.79063340743414
 20
678.0862097524321
 10
81.37486030294443
 20
677.9047676568733
 10
80.93890914487031
 20
677.8057708903646
 10
80.49207108831905
 20
677.7913291661642
 10
80.04387067256135
 20
677.8617505200269
 10
79.60385943585146
 20
678.015533463172
 10
79.18141609227848
 20
678.2494013851517
 10
78.7855440331382
 20
678.5583685547779
 10
78.42468100461087
 20
678.9358508547153
 10
78.10651796693301
 20
679.3738026651305
 10
77.83783556547559
 20
679.86288950947
 10
77.62436087645472
 20
680.3926877651595
 10
77.47064361435025
 20
680.9519055796385
 10
77.37995967343738
 20
681.5286236341209
 10
77.35424238256905
 20
682.1105509120471
  0
LWPOLYLINE
  5
254FD6
330
18
100
AcDbEntity
  8
姿図
100
AcDbPolyline
 90
       42
 70
   128
 43
0.0
 10
83.30988824522103
 20
681.4565925736254
 10
83.2691957922462
 20
680.891870698351
 10
83.16191158588862
 20
680.347802424343
 10
82.99054926061544
 20
679.8371400172637
 10
82.75912607338003
 20
679.3718529668254
 10
82.47306616402818
 20
678.962847700739
 10
82.139074207568
 20
678.619710318804
 10
81.7649788059936
 20
678.3504840244724
 10
81.35954961790782
 20
678.1614789125008
 10
80.93228784321258
 20
678.0571255993502
 10
80.49320932593324
 20
678.0398700175165
 10
80.0526049636297
 20
678.1101161684205
 10
79.62080243139846
 20
678.2662175596179
 10
79.207923119459
 20
678.5045156811393
 10
78.82364427617921
 20
678.8194251787233
 10
78.47697272849825
 20
679.203564068044
 10
78.17603473194151
 20
679.6479290940124
 10
77.92788378333984
 20
680.1421046495639
 10
77.73833639124982
 20
680.6745074076894
 10
77.61183538874502
 20
681.232658599313
 10
77.55134558776626
 20
681.8034755487786
 10
77.55828517967021
 20
682.373578630491
 10
77.63249150862504
 20
682.9296053020664
 10
77.77222487514996
 20
683.4585225736394
 10
77.97421031210439
 20
683.9479331736859
 10
78.23371345314928
 20
684.3863657578735
 10
78.54465170300921
 20
684.7635440308453
 10
78.899737161279
 20
685.070626818879
 10
79.29064636857802
 20
685.3004166368386
 10
79.70821707886827
 20
685.4475274405602
 10
80.14266208167402
 20
685.5085109498449
 10
80.58379805508093
 20
685.4819378466511
 10
81.02128486293364
 20
685.3684309194123
 10
81.44486890993755
 20
685.170650631688
 10
81.84462055718149
 20
684.8932329949882
 10
82.21117168457704
 20
684.542680198821
 10
82.53592946353496
 20
684.1272091317289
 10
82.81128173436039
 20
683.6565578119114
 10
83.03077479557024
 20
683.1417581790759
 10
83.18926414273906
 20
682.5948764841795
 10
83.2830342529956
 20
682.0287313709409
 10
83.30988824522103
 20
681.4565925736254
  0
LWPOLYLINE
  5
254FD7
330
18
100
AcDbEntity
  8
姿図
100
AcDbPolyline
 90
       40
 70
   128
 43
0.0
 10
82.7193709772875
 20
681.4573416902456
 10
82.69268337319988
 20
681.991520724757
 10
82.60039727401482
 20
682.519143718079
 10
82.44490263809374
 20
683.0265455431077
 10
82.23022515946809
 20
683.5005849623178
 10
81.96192745556993
 20
683.9289842408921
 10
81.64695577546235
 20
684.3006484182838
 10
81.29346916053527
 20
684.6059513754356
 10
80.91062209671563
 20
684.836985966631
 10
80.50833068698705
 20
684.9877685357603
 10
80.09701377860065
 20
685.0543939725807
 10
79.68732413657438
 20
685.0351365440501
 10
79.28987289316223
 20
684.9304951672057
 10
78.91495330129246
 20
684.7431798899265
 10
78.5722764086442
 20
684.4780420638031
 10
78.27071632736752
 20
684.1419487953459
 10
78.018083786506
 20
683.7436044085771
 10
77.82092166341033
 20
683.293326181541
 10
77.68433703042831
 20
682.8027757186738
 10
77.611866499211
 20
682.2846585760954
 10
77.60538748594232
 20
681.7523930650857
 10
77.66506779664036
 20
681.2197648274225
 10
77.78936126638496
 20
680.7005685881068
 10
77.97504962977254
 20
680.208251651196
 10
78.21732297458095
 20
679.7555647848706
 10
78.50990671545355
 20
679.3542315017799
 10
78.8452226116955
 20
679.0146469186024
 10
79.21458718931603
 20
678.7456052823502
 10
79.60843328748598
 20
678.5540758697487
 10
80.01656101131064
 20
678.4450182053379
 10
80.42839968423505
 20
678.4212568987393
 10
80.83328303537002
 20
678.4834081452954
 10
81.22072507841756
 20
678.6298614315567
 10
81.58069070626152
 20
678.8568239565142
 10
81.90385762590154
 20
679.1584171374063
 10
82.18185455268608
 20
679.5268308320303
 10
82.40748402788893
 20
679.9525225621462
 10
82.57489977771303
 20
680.4244670542528
 10
82.67976736711762
 20
680.9304417776277
 10
82.7193709772875
 20
681.4573416902456
  0
LWPOLYLINE
  5
254FD8
330
18
100
AcDbEntity
  8
姿図
100
AcDbPolyline
 90
       17
 70
   128
 43
0.0
 10
78.7102375731196
 20
684.5973282952666
 10
78.84011422918064
 20
684.5451294729673
 10
79.22814657203821
 20
684.3292220381243
 10
79.5878317185493
 20
684.0357027954678
 10
79.90935778943356
 20
683.6725780840941
 10
80.18395533848135
 20
683.2497530680339
 10
80.40413367577455
 20
682.7787612493863
 10
80.56388712763788
 20
682.2724502015253
 10
80.65885752639332
 20
681.7446304890572
 10
80.68645476197088
 20
681.2097000507255
 10
80.64592567856289
 20
680.6822501066888
 10
80.53837617612237
 20
680.1766681616327
 10
80.36673949518337
 20
679.706745216123
 10
80.13569794433471
 20
679.285299610349
 10
79.85155351589867
 20
678.9238270141991
 10
79.52205731858083
 20
678.6321879146295
 10
79.4838509002401
 20
678.6050314450981
  0
LINE
  5
254FD9
330
18
100
AcDbEntity
  8
姿図
100
AcDbLine
 10
75.50296786263254
 20
686.506664287521
 30
0.0
 11
74.69371731186502
 21
685.4704978301952
 31
0.0
  0
LINE
  5
254FDA
330
18
100
AcDbEntity
  8
姿図
100
AcDbLine
 10
75.51701472542572
 20
686.5256111022338
 30
0.0
 11
75.5275828953383
 21
686.526875630352
 31
0.0
  0
ELLIPSE
  5
254FDB
330
18
100
AcDbEntity
  8
姿図
100
AcDbEllipse
 10
75.19407824288567
 20
686.9287706016676
 30
0.0
 11
-0.06906509205815325
 21
0.566009305169203
 31
0.0
210
0.0
220
0.0
230
1.0
 40
0.7474890236086154
 41
3.784373951621956
 42
3.832870120287278
  0
ELLIPSE
  5
254FDC
330
18
100
AcDbEntity
  8
姿図
100
AcDbEllipse
 10
75.19754900833772
 20
686.9294004064782
 30
0.0
 11
-0.05751275646758813
 21
0.5675011698852899
 31
0.0
210
0.0
220
0.0
230
1.0
 40
0.7768218687381887
 41
3.84842857508817
 42
5.30969242726096
  0
LINE
  5
254FDD
330
18
100
AcDbEntity
  8
姿図
100
AcDbLine
 10
36.72372437515986
 20
693.9744565082719
 30
0.0
 11
45.19105215783867
 21
683.894487520945
 31
0.0
  0
LINE
  5
254FDE
330
18
100
AcDbEntity
  8
姿図
100
AcDbLine
 10
45.19105215783867
 20
683.894487520945
 30
0.0
 11
45.00950113130025
 21
683.8710492917635
 31
0.0
  0
LINE
  5
254FDF
330
18
100
AcDbEntity
  8
姿図
100
AcDbLine
 10
45.00950113130025
 20
683.8710492917635
 30
0.0
 11
45.93982597905045
 21
682.7900681016014
 31
0.0
  0
LINE
  5
254FE0
330
18
100
AcDbEntity
  8
姿図
100
AcDbLine
 10
44.37503944654907
 20
682.3332706625507
 30
0.0
 11
34.80441344133033
 21
693.7266707010695
 31
0.0
  0
LWPOLYLINE
  5
254FE1
330
18
100
AcDbEntity
  8
姿図
100
AcDbPolyline
 90
        3
 70
   128
 43
0.0
 10
25.33719094034819
 20
710.0200430325293
 10
30.63883700856542
 20
700.895754470838
 10
34.80441344133033
 20
693.7266707010695
  0
LINE
  5
254FE2
330
18
100
AcDbEntity
  8
姿図
100
AcDbLine
 10
27.25650553804877
 20
710.2678288943023
 30
0.0
 11
36.72372437515986
 21
693.9744565082719
 31
0.0
  0
LINE
  5
254FE3
330
18
100
AcDbEntity
  8
姿図
100
AcDbLine
 10
37.33389211110983
 20
706.907936119097
 30
0.0
 11
36.69436932083897
 21
708.2849838586343
 31
0.0
  0
LINE
  5
254FE4
330
18
100
AcDbEntity
  8
姿図
100
AcDbLine
 10
37.33389211110983
 20
706.907936119097
 30
0.0
 11
36.72372437515986
 21
693.9744565082719
 31
0.0
  0
ELLIPSE
  5
254FE5
330
18
100
AcDbEntity
  8
姿図
100
AcDbEllipse
 10
35.76755057061155
 20
699.3645953520634
 30
0.0
 11
-0.04284804521243402
 21
0.5991530550459174
 31
0.0
210
0.0
220
0.0
230
1.0
 40
0.5472065925685206
 41
2.300288938290826
 42
4.560499951020526
  0
LINE
  5
254FE6
330
18
100
AcDbEntity
  8
姿図
100
AcDbLine
 10
36.09811919782379
 20
699.2971173323972
 30
0.0
 11
36.17755524479827
 21
705.8229672391622
 31
0.0
  0
ELLIPSE
  5
254FE7
330
18
100
AcDbEntity
  8
姿図
100
AcDbEllipse
 10
35.84698663121543
 20
705.8904463785152
 30
0.0
 11
-0.04284804521243402
 21
0.5991530550459174
 31
0.0
210
0.0
220
0.0
230
1.0
 40
0.5472065925685282
 41
4.560499951020528
 42
5.31970854424107
  0
LINE
  5
254FE8
330
18
100
AcDbEntity
  8
姿図
100
AcDbLine
 10
36.09176671960898
 20
706.2516187559104
 30
0.0
 11
35.07879347912359
 21
708.432788853693
 31
0.0
  0
LINE
  5
254FE9
330
18
100
AcDbEntity
  8
姿図
100
AcDbLine
 10
32.4105910795567
 20
711.3559974500663
 30
0.0
 11
28.71510326886209
 21
712.1103508982685
 31
0.0
  0
ELLIPSE
  5
254FEA
330
18
100
AcDbEntity
  8
姿図
100
AcDbEllipse
 10
28.7078517140929
 20
711.5145488733743
 30
0.0
 11
-0.04284804521243048
 21
0.5991530550459031
 31
0.0
210
0.0
220
0.0
230
1.0
 40
0.5472065925685311
 41
6.131296277815382
 42
8.583474245470487
  0
LINE
  5
254FEB
330
18
100
AcDbEntity
  8
姿図
100
AcDbLine
 10
28.49198406823876
 20
711.0977384596076
 30
0.0
 11
35.55168249718849
 21
698.9477850260272
 31
0.0
  0
LINE
  5
254FEC
330
18
100
AcDbEntity
  8
姿図
100
AcDbLine
 10
34.49058806696584
 20
714.700710116251
 30
0.0
 11
34.49321825307936
 21
714.9167858206381
 31
0.0
  0
ELLIPSE
  5
254FED
330
18
100
AcDbEntity
  8
姿図
100
AcDbEllipse
 10
28.15247732710702
 20
715.3242029264712
 30
0.0
 11
0.06451311377957582
 21
0.4965478515072164
 31
0.0
210
0.0
220
0.0
230
1.0
 40
0.6680285920060228
 41
0.1742038437449154
 42
1.745000170539832
  0
ELLIPSE
  5
254FEE
330
18
100
AcDbEntity
  8
姿図
100
AcDbEllipse
 10
34.8310375223881
 20
714.9562213065411
 30
0.0
 11
0.05959937676137627
 21
0.4966165534334123
 31
0.0
210
0.0
220
0.0
230
1.0
 40
0.6696805454650474
 41
0.1678564821855213
 42
1.730226278049666
  0
LINE
  5
254FEF
330
18
100
AcDbEntity
  8
姿図
100
AcDbLine
 10
34.98798914882354
 20
706.7456076768426
 30
0.0
 11
34.96330449246807
 21
706.7799278902914
 31
0.0
  0
SPLINE
  5
254FF0
330
18
100
AcDbEntity
  8
姿図
100
AcDbSpline
210
0.0
220
0.0
230
1.0
 70
     8
 71
     3
 72
     9
 73
     5
 74
     0
 42
0.000000001
 43
0.0000000001
 40
0.0
 40
0.0
 40
0.0
 40
0.0
 40
0.4673247114690574
 40
1.0
 40
1.0
 40
1.0
 40
1.0
 10
34.11210949224309
 20
708.4711798705919
 30
0.0
 10
34.24436602158912
 20
708.207105131787
 30
0.0
 10
34.52737380204707
 20
707.6420275051946
 30
0.0
 10
34.81179848983521
 20
707.0795472320708
 30
0.0
 10
34.96330449246807
 20
706.7799278902914
 30
0.0
  0
LINE
  5
254FF1
330
18
100
AcDbEntity
  8
姿図
100
AcDbLine
 10
37.66079291270074
 20
701.6906412244978
 30
0.0
 11
37.66789252507294
 21
696.017099077837
 31
0.0
  0
ELLIPSE
  5
254FF2
330
18
100
AcDbEntity
  8
姿図
100
AcDbEllipse
 10
38.12406034416779
 20
695.9657925011663
 30
0.0
 11
-0.09193105829901077
 21
0.5949755289519914
 31
0.0
210
0.0
220
0.0
230
1.0
 40
0.7509729411719626
 41
1.369515258088952
 42
2.25036791356574
  0
LINE
  5
254FF3
330
18
100
AcDbEntity
  8
姿図
100
AcDbLine
 10
37.83428551244543
 20
695.5381738563458
 30
0.0
 11
42.2974841590742
 21
690.2249404411539
 31
0.0
  0
ELLIPSE
  5
254FF4
330
18
100
AcDbEntity
  8
姿図
100
AcDbEllipse
 10
42.58725636084006
 20
690.6525590579299
 30
0.0
 11
-0.09193105829900362
 21
0.5949755289519771
 31
0.0
210
0.0
220
0.0
230
1.0
 40
0.7509729411719677
 41
2.250367913565783
 42
3.759304296352903
  0
LINE
  5
254FF5
330
18
100
AcDbEntity
  8
姿図
100
AcDbLine
 10
42.92097775820838
 20
690.2075157850775
 30
0.0
 11
44.47897575247654
 21
692.2157481263871
 31
0.0
  0
ELLIPSE
  5
254FF6
330
18
100
AcDbEntity
  8
姿図
100
AcDbEllipse
 10
44.14410763304073
 20
692.6623173724392
 30
0.0
 11
-0.09224626282563268
 21
0.5970155248296439
 31
0.0
210
0.0
220
0.0
230
1.0
 40
0.7509729411719314
 41
3.759304296353009
 42
5.269703924947279
  0
LINE
  5
254FF7
330
18
100
AcDbEntity
  8
姿図
100
AcDbLine
 10
44.47581510668272
 20
693.0368764567439
 30
0.0
 11
38.45149420497881
 21
702.014232050472
 31
0.0
  0
ELLIPSE
  5
254FF8
330
18
100
AcDbEntity
  8
姿図
100
AcDbEllipse
 10
38.11925669582405
 20
701.6390759808453
 30
0.0
 11
-0.09239349341904207
 21
0.5979683975781283
 31
0.0
210
0.0
220
0.0
230
1.0
 40
0.7509729411719359
 41
5.269703924947298
 42
7.652700565268487
  0
LINE
  5
254FF9
330
18
100
AcDbEntity
  8
姿図
100
AcDbLine
 10
48.98997652753053
 20
686.3099406832526
 30
0.0
 11
46.41156515687146
 21
690.1522500933295
 31
0.0
  0
ELLIPSE
  5
254FFA
330
18
100
AcDbEntity
  8
姿図
100
AcDbEllipse
 10
46.08002750695374
 20
689.7778832886042
 30
0.0
 11
-0.09219895433039937
 21
0.5967093454219992
 31
0.0
210
0.0
220
0.0
230
1.0
 40
0.7509729411719385
 41
5.269703924947275
 42
6.902265789622792
  0
LINE
  5
254FFB
330
18
100
AcDbEntity
  8
姿図
100
AcDbLine
 10
45.74490622240137
 20
690.2236726966114
 30
0.0
 11
44.42269222894186
 21
688.5142599555144
 31
0.0
  0
ELLIPSE
  5
254FFC
330
18
100
AcDbEntity
  8
姿図
100
AcDbEllipse
 10
44.75684131493688
 20
688.0697660788654
 30
0.0
 11
-0.09193105829900361
 21
0.5949755289519914
 31
0.0
210
0.0
220
0.0
230
1.0
 40
0.7509729411719582
 41
0.6190804824433507
 42
2.250367913565732
  0
LINE
  5
254FFD
330
18
100
AcDbEntity
  8
姿図
100
AcDbLine
 10
44.46706848195481
 20
687.6421475593568
 30
0.0
 11
47.35965169679326
 21
684.1986566019176
 31
0.0
  0
LINE
  5
254FFE
330
18
100
AcDbEntity
  8
姿図
100
AcDbLine
 10
46.86185673892425
 20
683.7054120577629
 30
0.0
 11
45.19105215783867
 21
683.894487520945
 31
0.0
  0
LINE
  5
254FFF
330
18
100
AcDbEntity
  8
姿図
100
AcDbLine
 10
50.27417576548601
 20
687.62749554275
 30
0.0
 11
37.33389211110983
 21
706.907936119097
 31
0.0
  0
LINE
  5
255000
330
18
100
AcDbEntity
  8
姿図
100
AcDbLine
 10
35.32231302036121
 20
706.2453571537378
 30
0.0
 11
34.98798914882354
 21
706.7456076768426
 31
0.0
  0
LWPOLYLINE
  5
255001
330
18
100
AcDbEntity
  8
姿図
100
AcDbPolyline
 90
        3
 70
   128
 43
0.0
 10
37.88999819938221
 20
701.9767885408063
 10
37.88943999354944
 20
701.977544754791
 10
37.88891094242913
 20
701.9783128810217
  0
LINE
  5
255002
330
18
100
AcDbEntity
  8
姿図
100
AcDbLine
 10
46.83604120488346
 20
683.6797966922779
 30
0.0
 11
45.00950113130025
 21
683.8710492917635
 31
0.0
  0
LWPOLYLINE
  5
255003
330
18
100
AcDbEntity
  8
姿図
100
AcDbPolyline
 90
       42
 70
   128
 43
0.0
 10
45.8509938206289
 20
723.4170048405224
 10
46.29020540027756
 20
723.4817617393003
 10
46.65582975689375
 20
723.5530125379852
 10
46.94273374310097
 20
723.6297577030182
 10
47.14688761087478
 20
723.7109196228172
 10
47.26542851386199
 20
723.7953587856499
 10
47.29668859938232
 20
723.8818902221371
 10
47.24023507664918
 20
723.9692988340198
 10
47.09685412326553
 20
724.0563578700911
 10
46.86856245371851
 20
724.1418451699525
 10
46.55856408221774
 20
724.2245607955452
 10
46.17121012687329
 20
724.3033431208647
 10
45.71193685523065
 20
724.3770867069451
 10
45.18719379750485
 20
724.4447562346904
 10
44.60434673062929
 20
724.5054017878357
 10
43.97157696256176
 20
724.5581717238065
 10
43.29776560884522
 20
724.602325783327
 10
42.59237586451223
 20
724.6372435886906
 10
41.8653055897019
 20
724.6624355964843
 10
41.1267652136014
 20
724.6775476466482
 10
40.38711499293214
 20
724.6823677601808
 10
39.65674663526599
 20
724.6768282666858
 10
38.94590995699124
 20
724.6610071228126
 10
38.26458086476882
 20
724.6351261023556
 10
37.62232579693779
 20
724.5995487711346
 10
37.02816196646705
 20
724.5547742927404
 10
36.4904248535164
 20
724.5014314447926
 10
36.01667179616595
 20
724.4402690740658
 10
35.61354562354023
 20
724.3721455037642
 10
35.28670910956976
 20
724.2980174115371
 10
35.0407452128095
 20
724.2189250158525
 10
34.87911548264009
 20
724.1359787265415
 10
34.80408357349199
 20
724.0503429833951
 10
34.81670182157137
 20
723.9632200147627
 10
34.91679479006154
 20
723.8758327211596
 10
35.10295748305165
 20
723.789407759977
 10
35.3725759863276
 20
723.7051583820323
 10
35.72186665595757
 20
723.6242672445898
 10
36.14592575751988
 20
723.5478700899585
 10
36.6387978226341
 20
723.4770391806369
 10
37.1935682773186
 20
723.4127689007532
 10
37.7906607927506
 20
723.3569461141655
  0
ARC
  5
255004
330
18
100
AcDbEntity
  8
姿図
100
AcDbCircle
 10
42.99437792345657
 20
746.6317267319914
 30
0.0
 40
23.38981758975966
100
AcDbArc
 50
273.1758306316311
 51
277.0150900507467
  0
LWPOLYLINE
  5
255005
330
18
100
AcDbEntity
  8
姿図
100
AcDbPolyline
 90
       21
 70
   128
 43
0.0
 10
44.2971798983038
 20
723.8528328258803
 10
44.26871019978262
 20
723.9041462759067
 10
44.15412372878677
 20
723.967119708152
 10
43.95479351138079
 20
724.0280547511677
 10
43.67615875069663
 20
724.0852892208529
 10
43.32581921539116
 20
724.1372618946885
 10
42.91333019949894
 20
724.1825549558839
 10
42.44994421202205
 20
724.2199334291812
 10
41.94830093164899
 20
724.2483772122001
 10
41.42208395476848
 20
724.2671105124052
 10
40.88564908301709
 20
724.2756225318361
 10
40.35362481858243
 20
724.2736809367134
 10
39.84052704915302
 20
724.2613389374962
 10
39.36034965999715
 20
724.2389327323027
 10
38.92618872121199
 20
724.2070738544426
 10
38.54989302016372
 20
724.1666313799346
 10
38.24171917066093
 20
724.1187081970905
 10
38.01007998925832
 20
724.0646116650663
 10
37.86129458627715
 20
724.0058172395677
 10
37.79941485161726
 20
723.9439291454307
 10
37.79766100995863
 20
723.931948467176
  0
LWPOLYLINE
  5
255006
330
18
100
AcDbEntity
  8
姿図
100
AcDbPolyline
 90
       29
 70
   128
 43
0.0
 10
47.30880482177869
 20
724.7896408659751
 10
47.30790342010209
 20
724.8032129658537
 10
47.25144989736896
 20
724.8906215777363
 10
47.10806894398527
 20
724.9776806138076
 10
46.87977727443825
 20
725.063167913669
 10
46.56977890293751
 20
725.1458835392617
 10
46.18242494759306
 20
725.2246658645813
 10
45.72315167595042
 20
725.2984094506616
 10
45.19840861822462
 20
725.3660789784069
 10
44.61556155134906
 20
725.4267245315522
 10
43.98279178328153
 20
725.4794944675231
 10
43.308980429565
 20
725.5236485270435
 10
42.60359068523201
 20
725.558566332407
 10
41.87652041042168
 20
725.5837583402008
 10
41.13798003432117
 20
725.5988703903647
 10
40.39832981365191
 20
725.6036905038973
 10
39.66796145598579
 20
725.5981510104023
 10
38.95712477771104
 20
725.5823298665291
 10
38.27579568548859
 20
725.556448846072
 10
37.63354061765756
 20
725.520871514851
 10
37.03937678718682
 20
725.4760970364568
 10
36.50163967423617
 20
725.4227541885091
 10
36.02788661688572
 20
725.3615918177823
 10
35.62476044426
 20
725.2934682474806
 10
35.29792393028953
 20
725.2193401552537
 10
35.05196003352927
 20
725.1402477595691
 10
34.89033030335986
 20
725.0573014702579
 10
34.81529839421177
 20
724.9716657271116
 10
34.80972981709948
 20
724.9417860598733
  0
LWPOLYLINE
  5
255007
330
18
100
AcDbEntity
  8
姿図
100
AcDbPolyline
 90
       22
 70
   128
 43
0.0
 10
46.09831958063768
 20
722.4524708161939
 10
45.99237650554022
 20
722.4943950934908
 10
45.73309918274106
 20
722.5704252393168
 10
45.39657421613947
 20
722.6428893005988
 10
44.98833095579488
 20
722.710597132505
 10
44.51506862419291
 20
722.7724370800349
 10
43.98456114525828
 20
722.8273936754332
 10
43.40551813669555
 20
722.8745645123796
 10
42.78744540361885
 20
722.9131753631434
 10
42.14049701564323
 20
722.9425917910787
 10
41.47529197365719
 20
722.9623310277486
 10
40.80275332308878
 20
722.9720687682786
 10
40.13392163927594
 20
722.9716455598029
 10
39.47978387922959
 20
722.9610676777052
 10
38.85108249904158
 20
722.9405095648531
 10
38.25813455267098
 20
722.9103081289552
 10
37.71067843309794
 20
722.8709596413532
 10
37.21770344138329
 20
722.8231100663436
 10
36.78730549214885
 20
722.7675451376338
 10
36.42655278080537
 20
722.705177126533
 10
36.14136342700027
 20
722.6370304964088
 10
35.97002250284771
 20
722.5787761657795
  0
ARC
  5
255008
330
18
100
AcDbEntity
  8
姿図
100
AcDbCircle
 10
41.859148059902
 20
734.8138346078395
 30
0.0
 40
17.31216622679358
100
AcDbArc
 50
272.021650829834
 51
276.4377006765999
  0
LWPOLYLINE
  5
255009
330
18
100
AcDbEntity
  8
姿図
100
AcDbPolyline
 90
       48
 70
   128
 43
0.0
 10
63.4570955526579
 20
651.4792402295518
 10
63.72945349272459
 20
651.7584739692807
 10
64.15838193463634
 20
652.2946500498795
 10
64.52303853010551
 20
652.88732271101
 10
64.82168465789698
 20
653.5336721249267
 10
65.05289790583481
 20
654.2306186732557
 10
65.21557620492439
 20
654.9748398261283
 10
65.30894353656907
 20
655.7627867076365
 10
65.33255655997891
 20
656.5907082605213
 10
65.28630192254724
 20
657.4546566145668
 10
65.17039972634734
 20
658.3505155038566
 10
64.98540273112019
 20
659.2740169324551
 10
64.73219270283897
 20
660.2207578615885
 10
64.41197547126103
 20
661.1862262386554
 10
64.02627735604926
 20
662.1658251748586
 10
63.57693700267032
 20
663.1548813607019
 10
63.06609532739537
 20
664.1486842687001
 10
62.49618628882746
 20
665.1424985811966
 10
61.86992673243526
 20
666.1315853361831
 10
61.19030057899425
 20
667.1112351489642
 10
60.46054651956092
 20
668.0767760657567
 10
59.6841413563709
 20
669.0236078849731
 10
58.86478614762913
 20
669.9472208909394
 10
58.00638534183463
 20
670.8432089556024
 10
57.11302977717367
 20
671.7073063332555
 10
56.18897514867137
 20
672.5353938499234
 10
55.23862783543336
 20
673.3235253017526
 10
54.26651295132228
 20
674.067944270067
 10
53.27726685555507
 20
674.7651034243895
 10
52.27560184409495
 20
675.4116818271633
 10
51.26629046178113
 20
676.0045968026141
 10
50.25414365088551
 20
676.5410231660172
 10
49.24398578934472
 20
677.018405104325
 10
48.24062868942593
 20
677.4344675267201
 10
47.24885525289389
 20
677.7872273211735
 10
46.27339159238312
 20
678.0750028577364
 10
45.31888476632344
 20
678.2964243047923
 10
44.38988511246049
 20
678.450435327391
 10
43.49082008682785
 20
678.53630224092
 10
42.62597207249539
 20
678.5536162465696
 10
41.79946238710281
 20
678.5022944224305
 10
41.01523330969263
 20
678.3825812944831
 10
40.27701757213953
 20
678.1950480194594
 10
39.58833565957275
 20
677.9405872659903
 10
38.9524708661441
 20
677.6204123904092
 10
38.37244934888008
 20
677.2360492996162
 10
37.85103846943764
 20
676.7893281578946
 10
37.58313064069938
 20
676.5099594883462
  0
LINE
  5
25500A
330
18
100
AcDbEntity
  8
姿図
100
AcDbLine
 10
46.21040081908257
 20
655.6803185757194
 30
0.0
 11
46.21796249414172
 21
655.6920693583277
 31
0.0
  0
ARC
  5
25500B
330
18
100
AcDbEntity
  8
姿図
100
AcDbCircle
 10
63.3977731986397
 20
676.7556967966547
 30
0.0
 40
27.18128578090123
100
AcDbArc
 50
230.7987987827323
 51
241.7206644744161
  0
ARC
  5
25500C
330
18
100
AcDbEntity
  8
姿図
100
AcDbCircle
 10
64.14317556062343
 20
678.1897047762617
 30
0.0
 40
28.75483010049092
100
AcDbArc
 50
210.4332505320101
 51
228.102910217293
  0
LINE
  5
25500D
330
18
100
AcDbEntity
  8
姿図
100
AcDbLine
 10
44.93328936050011
 20
656.7744265435983
 30
0.0
 11
44.94085101437068
 21
656.786177353697
 31
0.0
  0
LWPOLYLINE
  5
25500E
330
18
100
AcDbEntity
  8
姿図
100
AcDbPolyline
 90
       17
 70
   128
 43
0.0
 10
67.79604837663035
 20
656.1927493666366
 10
68.21237165978448
 20
656.7130398957158
 10
68.58571887961864
 20
657.320778262284
 10
68.88907100620841
 20
657.9853290779763
 10
69.1208816298232
 20
658.7033097549304
 10
69.27997049604019
 20
659.4710603614279
 10
69.36552605715457
 20
660.2846675899268
 10
69.37711228140023
 20
661.1399842514245
 10
69.31467084793417
 20
662.0326549837303
 10
69.17851899355674
 20
662.958130318123
 10
68.96935149826407
 20
663.9116920583264
 10
68.68823399038126
 20
664.8884822599289
 10
68.33659810117166
 20
665.8835246990296
 10
67.9162366642766
 20
666.8917456817019
 10
67.42929182334575
 20
667.9080119486605
 10
66.87824393877179
 20
668.9271411638273
 10
66.26590282161243
 20
669.9439425256319
  0
ARC
  5
25500F
330
18
100
AcDbEntity
  8
姿図
100
AcDbCircle
 10
46.48622054058274
 20
676.3187929854932
 30
0.0
 40
6.382661189931326
100
AcDbArc
 50
95.64402515645648
 51
132.7902203247498
  0
LWPOLYLINE
  5
255010
330
18
100
AcDbEntity
  8
姿図
100
AcDbPolyline
 90
       23
 70
   128
 43
0.0
 10
66.26590282161243
 20
669.9439425256319
 10
65.59538708245299
 20
670.9532333480239
 10
64.87011374949492
 20
671.9498698942136
 10
64.09377878081432
 20
672.9287746606406
 10
63.27033858490216
 20
673.8849593829952
 10
62.40398941350978
 20
674.8135506916726
 10
61.49914503564963
 20
675.7098171336445
 10
60.56041761243131
 20
676.5691924909847
 10
59.59258909471941
 20
677.3872965566604
 10
58.60059232795152
 20
678.1599599779605
 10
57.58948253527132
 20
678.8832465931318
 10
56.56441165979419
 20
679.5534701797003
 10
55.53060392301842
 20
680.1672153169583
 10
54.49332508457664
 20
680.7213545111692
 10
53.45786344573847
 20
681.2130647157296
 10
52.42949561374502
 20
681.63983922356
 10
51.41345922457873
 20
681.999504140288
 10
50.41493452599934
 20
682.2902259326505
 10
49.43900777294471
 20
682.5105235206058
 10
48.49065516824334
 20
682.6592747012088
 10
47.57470500246961
 20
682.735720889729
 10
46.69582680590617
 20
682.7394728203059
 10
45.8585012099478
 20
682.6705118321836
  0
SPLINE
  5
255011
330
18
100
AcDbEntity
  8
姿図
100
AcDbSpline
210
0.0
220
0.0
230
1.0
 70
     8
 71
     3
 72
    10
 73
     6
 74
     0
 42
0.000000001
 43
0.0000000001
 40
0.0
 40
0.0
 40
0.0
 40
0.0
 40
0.3574149210753422
 40
0.6787061986227131
 40
0.9999999999999999
 40
0.9999999999999999
 40
0.9999999999999999
 40
0.9999999999999999
 10
65.92683813852784
 20
671.3289218141178
 30
0.0
 10
65.93006038421476
 20
671.3109075539144
 30
0.0
 10
65.93617920576429
 20
671.2766997205453
 30
0.0
 10
65.94503618511249
 20
671.2263168239646
 30
0.0
 10
65.95063482401048
 20
671.1939556278899
 30
0.0
 10
65.95343415445416
 20
671.1777749663013
 30
0.0
  0
SPLINE
  5
255012
330
18
100
AcDbEntity
  8
姿図
100
AcDbSpline
210
0.0
220
0.0
230
1.0
 70
     8
 71
     3
 72
    10
 73
     6
 74
     0
 42
0.000000001
 43
0.0000000001
 40
0.0
 40
0.0
 40
0.0
 40
0.0
 40
0.3713896911979651
 40
0.6855457006579034
 40
1.0
 40
1.0
 40
1.0
 40
1.0
 10
65.95343415445416
 20
671.1777749663013
 30
0.0
 10
65.96269600275417
 20
671.1281915345199
 30
0.0
 10
65.97979238542894
 20
671.0366658156129
 30
0.0
 10
66.00740222178541
 20
670.9011667299363
 30
0.0
 10
66.02645577835008
 20
670.8148578067392
 30
0.0
 10
66.03598707730526
 20
670.7716828673676
 30
0.0
  0
SPLINE
  5
255013
330
18
100
AcDbEntity
  8
姿図
100
AcDbSpline
210
0.0
220
0.0
230
1.0
 70
     8
 71
     3
 72
    10
 73
     6
 74
     0
 42
0.000000001
 43
0.0000000001
 40
0.0
 40
0.0
 40
0.0
 40
0.0
 40
0.4117506178116174
 40
0.7050034492332611
 40
1.0
 40
1.0
 40
1.0
 40
1.0
 10
66.03598707730526
 20
670.7716828673676
 30
0.0
 10
66.06279797730281
 20
670.6602354534501
 30
0.0
 10
66.10870386343305
 20
670.4694140974616
 30
0.0
 10
66.18700167245936
 20
670.1918695321856
 30
0.0
 10
66.23954958941755
 20
670.0267480162483
 30
0.0
 10
66.26590143052783
 20
669.9439425273966
 30
0.0
  0
SPLINE
  5
255014
330
18
100
AcDbEntity
  8
姿図
100
AcDbSpline
210
0.0
220
0.0
230
1.0
 70
     8
 71
     3
 72
    10
 73
     6
 74
     0
 42
0.000000001
 43
0.0000000001
 40
0.0
 40
0.0
 40
0.0
 40
0.0
 40
0.4120357900534988
 40
0.7053086470284005
 40
1.0
 40
1.0
 40
1.0
 40
1.0
 10
45.85850120713349
 20
682.6705116009819
 30
0.0
 10
45.97679689645244
 20
682.6897484850026
 30
0.0
 10
46.1792913753228
 20
682.7226775192499
 30
0.0
 10
46.47400924150827
 20
682.7684882197227
 30
0.0
 10
46.64851331017746
 20
682.7950139647068
 30
0.0
 10
46.73597584484406
 20
682.8083088346082
 30
0.0
  0
SPLINE
  5
255015
330
18
100
AcDbEntity
  8
姿図
100
AcDbSpline
210
0.0
220
0.0
230
1.0
 70
     8
 71
     3
 72
    10
 73
     6
 74
     0
 42
0.000000001
 43
0.0000000001
 40
0.0
 40
0.0
 40
0.0
 40
0.0
 40
0.3714937598679189
 40
0.6856205399657805
 40
1.0
 40
1.0
 40
1.0
 40
1.0
 10
46.73597584484406
 20
682.8083088346082
 30
0.0
 10
46.79307440430097
 20
682.8169515834104
 30
0.0
 10
46.89845422327835
 20
682.8329024464952
 30
0.0
 10
47.0522585779309
 20
682.8559461913804
 30
0.0
 10
47.14881468881327
 20
682.8703031244524
 30
0.0
 10
47.19711215360184
 20
682.8774844769653
 30
0.0
  0
SPLINE
  5
255016
330
18
100
AcDbEntity
  8
姿図
100
AcDbSpline
210
0.0
220
0.0
230
1.0
 70
     8
 71
     3
 72
    10
 73
     6
 74
     0
 42
0.000000001
 43
0.0000000001
 40
0.0
 40
0.0
 40
0.0
 40
0.0
 40
0.3568420856945632
 40
0.6784257899143997
 40
1.0
 40
1.0
 40
1.0
 40
1.0
 10
47.19711215360186
 20
682.8774844769653
 30
0.0
 10
47.21424555178842
 20
682.8800470570038
 30
0.0
 10
47.2468194539839
 20
682.884919017057
 30
0.0
 10
47.29485006084923
 20
682.892037842737
 30
0.0
 10
47.32575141933097
 20
682.8965793890125
 30
0.0
 10
47.34120187049285
 20
682.8988501286296
 30
0.0
  0
SPLINE
  5
255017
330
18
100
AcDbEntity
  8
姿図
100
AcDbSpline
210
0.0
220
0.0
230
1.0
 70
     8
 71
     3
 72
    10
 73
     6
 74
     0
 42
0.000000001
 43
0.0000000001
 40
0.0
 40
0.0
 40
0.0
 40
0.0
 40
0.356249315232574
 40
0.6781245054544158
 40
0.9999999999999999
 40
0.9999999999999999
 40
0.9999999999999999
 40
0.9999999999999999
 10
47.34120187049285
 20
682.8988501286296
 30
0.0
 10
47.35385599738382
 20
682.9007131530516
 30
0.0
 10
47.37794326765487
 20
682.9042594406113
 30
0.0
 10
47.41347343950238
 20
682.9094557225113
 30
0.0
 10
47.43635168782129
 20
682.9127799964849
 30
0.0
 10
47.44779081738847
 20
682.9144421342576
 30
0.0
  0
SPLINE
  5
255018
330
18
100
AcDbEntity
  8
姿図
100
AcDbSpline
210
0.0
220
0.0
230
1.0
 70
     8
 71
     3
 72
    11
 73
     7
 74
     0
 42
0.000000001
 43
0.0000000001
 40
0.0
 40
0.0
 40
0.0
 40
0.0
 40
0.0134452922764749
 40
0.3690660372098488
 40
0.6845365305949273
 40
1.0
 40
1.0
 40
1.0
 40
1.0
 10
47.44779081738847
 20
682.9144421342576
 30
0.0
 10
47.44835658782119
 20
682.9145248274443
 30
0.0
 10
47.46388668172273
 20
682.9167947109196
 30
0.0
 10
47.49269499719179
 20
682.9209771029834
 30
0.0
 10
47.53422480425306
 20
682.9269785859601
 30
0.0
 10
47.56079292005199
 20
682.9307859878305
 30
0.0
 10
47.5740768300644
 20
682.9326896675724
 30
0.0
  0
SPLINE
  5
255019
330
18
100
AcDbEntity
  8
姿図
100
AcDbSpline
210
0.0
220
0.0
230
1.0
 70
     8
 71
     3
 72
    10
 73
     6
 74
     0
 42
0.000000001
 43
0.0000000001
 40
0.0
 40
0.0
 40
0.0
 40
0.0
 40
0.2898429648109828
 40
0.6449108102663916
 40
0.9999999999999999
 40
0.9999999999999999
 40
0.9999999999999999
 40
0.9999999999999999
 10
47.5740768300644
 20
682.9326896675724
 30
0.0
 10
47.58549948025825
 20
682.9343312369552
 30
0.0
 10
47.61091527945393
 20
682.9379837866782
 30
0.0
 10
47.65033692206279
 20
682.9436097164485
 30
0.0
 10
47.67834188294279
 20
682.9475730165645
 30
0.0
 10
47.69234478423738
 20
682.9495547261824
 30
0.0
  0
LINE
  5
25501A
330
18
100
AcDbEntity
  8
姿図
100
AcDbLine
 10
47.69234478423738
 20
682.9495547261824
 30
0.0
 11
47.74007080287311
 21
682.956311090928
 31
0.0
  0
LINE
  5
25501B
330
18
100
AcDbEntity
  8
姿図
100
AcDbLine
 10
47.74007080287311
 20
682.956311090928
 30
0.0
 11
47.74467799493289
 21
682.9569676092425
 31
0.0
  0
LINE
  5
25501C
330
18
100
AcDbEntity
  8
姿図
100
AcDbLine
 10
47.74467799493289
 20
682.9569676092425
 30
0.0
 11
48.55435067023257
 21
683.116812467292
 31
0.0
  0
SPLINE
  5
25501D
330
18
100
AcDbEntity
  8
姿図
100
AcDbSpline
210
0.0
220
0.0
230
1.0
 70
     8
 71
     3
 72
    13
 73
     9
 74
     0
 42
0.000000001
 43
0.0000000001
 40
0.0
 40
0.0
 40
0.0
 40
0.0
 40
0.1658331228628412
 40
0.3316191428390288
 40
0.4998853852261128
 40
0.6849777495353759
 40
0.8942892820229591
 40
1.0
 40
1.0
 40
1.0
 40
1.0
 10
48.31645585501133
 20
682.9162592294296
 30
0.0
 10
48.25451199754272
 20
682.9200575216255
 30
0.0
 10
48.13064187700672
 20
682.9276530271585
 30
0.0
 10
48.05508196993748
 20
682.9527334532986
 30
0.0
 10
48.06967374239133
 20
682.9871233973158
 30
0.0
 10
48.18546640755568
 20
683.0324491875814
 30
0.0
 10
48.3626912570615
 20
683.0777852454479
 30
0.0
 10
48.50619553219238
 20
683.1070067331298
 30
0.0
 10
48.55435067023257
 20
683.116812467292
 30
0.0
  0
SPLINE
  5
25501E
330
18
100
AcDbEntity
  8
姿図
100
AcDbSpline
210
0.0
220
0.0
230
1.0
 70
     8
 71
     3
 72
    17
 73
    13
 74
     0
 42
0.000000001
 43
0.0000000001
 40
0.0
 40
0.0
 40
0.0
 40
0.0
 40
0.0982929809781886
 40
0.1965859645791168
 40
0.29772398476242
 40
0.3988620054543612
 40
0.5000000177469691
 40
0.6011380046666914
 40
0.7022760625260261
 40
0.8034140798979997
 40
0.9017070302068406
 40
0.9999999999999999
 40
0.9999999999999999
 40
0.9999999999999999
 40
0.9999999999999999
 10
65.20065165672182
 20
672.3868499034993
 30
0.0
 10
64.75422997168079
 20
672.9520563617161
 30
0.0
 10
63.86138658968696
 20
674.082469293231
 30
0.0
 10
62.32899812744512
 20
675.6981671829151
 30
0.0
 10
60.67788225582058
 20
677.2228400153706
 30
0.0
 10
58.91823307252804
 20
678.6213332777857
 30
0.0
 10
57.09971681165973
 20
679.85680262893
 30
0.0
 10
55.2525878763667
 20
680.9073225292043
 30
0.0
 10
53.40796324251954
 20
681.7565430500157
 30
0.0
 10
51.61716728705363
 20
682.3783336235796
 30
0.0
 10
49.89851848987985
 20
682.7900643276919
 30
0.0
 10
48.84381010147945
 20
682.8741942594042
 30
0.0
 10
48.31645585501133
 20
682.9162592294296
 30
0.0
  0
SPLINE
  5
25501F
330
18
100
AcDbEntity
  8
姿図
100
AcDbSpline
210
0.0
220
0.0
230
1.0
 70
     8
 71
     3
 72
    13
 73
     9
 74
     0
 42
0.000000001
 43
0.0000000001
 40
0.0
 40
0.0
 40
0.0
 40
0.0
 40
0.105710303400055
 40
0.3150224495276617
 40
0.5001149402672327
 40
0.6683804490383578
 40
0.8341668409616267
 40
1.0
 40
1.0
 40
1.0
 40
1.0
 10
66.03706931453559
 20
672.2141494249715
 30
0.0
 10
66.02532242564774
 20
672.1816385567631
 30
0.0
 10
65.99031605831402
 20
672.0847544025239
 30
0.0
 10
65.89207552162418
 20
671.9901613452303
 30
0.0
 10
65.73859272024686
 20
671.9683416721577
 30
0.0
 10
65.56517997874118
 20
672.0329949895979
 30
0.0
 10
65.37902906789998
 20
672.1711243733575
 30
0.0
 10
65.26011638372421
 20
672.3149346331038
 30
0.0
 10
65.20065165672182
 20
672.3868499034993
 30
0.0
  0
LINE
  5
255020
330
18
100
AcDbEntity
  8
姿図
100
AcDbLine
 10
66.03706931453559
 20
672.2141494249715
 30
0.0
 11
65.87108783136492
 21
671.6528624332334
 31
0.0
  0
LINE
  5
255021
330
18
100
AcDbEntity
  8
姿図
100
AcDbLine
 10
65.87108783136492
 20
671.6528624332334
 30
0.0
 11
65.87182240753401
 21
671.6482292170442
 31
0.0
  0
SPLINE
  5
255022
330
18
100
AcDbEntity
  8
姿図
100
AcDbSpline
210
0.0
220
0.0
230
1.0
 70
     8
 71
     3
 72
    10
 73
     6
 74
     0
 42
0.000000001
 43
0.0000000001
 40
0.0
 40
0.0
 40
0.0
 40
0.0
 40
0.353377747465323
 40
0.7066956499386072
 40
1.0
 40
1.0
 40
1.0
 40
1.0
 10
65.87182240753401
 20
671.6482292170442
 30
0.0
 10
65.87212917255664
 20
671.6464065917564
 30
0.0
 10
65.87274265065088
 20
671.6427616498447
 30
0.0
 10
65.87360959650294
 20
671.6376035490433
 30
0.0
 10
65.87416880018878
 20
671.6342690973408
 30
0.0
 10
65.87442245195064
 20
671.6327566081163
 30
0.0
  0
LINE
  5
255023
330
18
100
AcDbEntity
  8
姿図
100
AcDbLine
 10
65.87442245195064
 20
671.6327566081163
 30
0.0
 11
65.89973464880123
 21
671.4854844752144
 31
0.0
  0
SPLINE
  5
255024
330
18
100
AcDbEntity
  8
姿図
100
AcDbSpline
210
0.0
220
0.0
230
1.0
 70
     8
 71
     3
 72
    10
 73
     6
 74
     0
 42
0.000000001
 43
0.0000000001
 40
0.0
 40
0.0
 40
0.0
 40
0.0
 40
0.3558610334924839
 40
0.5521160819313198
 40
1.0
 40
1.0
 40
1.0
 40
1.0
 10
65.89973464880123
 20
671.4854844752144
 30
0.0
 10
65.90300944672742
 20
671.4669039750702
 30
0.0
 10
65.90809027443805
 20
671.4380764497879
 30
0.0
 10
65.91714375287779
 20
671.3858851630167
 30
0.0
 10
65.9228620685301
 20
671.3522848482187
 30
0.0
 10
65.92683813852784
 20
671.3289218141178
 30
0.0
  0
SPLINE
  5
255025
330
18
100
AcDbEntity
  8
姿図
100
AcDbSpline
210
0.0
220
0.0
230
1.0
 70
     8
 71
     3
 72
    10
 73
     6
 74
     0
 42
0.000000001
 43
0.0000000001
 40
0.0
 40
0.0
 40
0.0
 40
0.0
 40
0.412035569865869
 40
0.7053099585799782
 40
1.0
 40
1.0
 40
1.0
 40
1.0
 10
66.26590281035521
 20
669.9439416008245
 30
0.0
 10
66.33201545874778
 20
669.8977216936877
 30
0.0
 10
66.44518507979427
 20
669.8186038621886
 30
0.0
 10
66.59776207569058
 20
669.7359334039302
 30
0.0
 10
66.68365118924606
 20
669.6994951043481
 30
0.0
 10
66.72669914441815
 20
669.681232087977
 30
0.0
  0
SPLINE
  5
255026
330
18
100
AcDbEntity
  8
姿図
100
AcDbSpline
210
0.0
220
0.0
230
1.0
 70
     8
 71
     3
 72
    10
 73
     6
 74
     0
 42
0.000000001
 43
0.0000000001
 40
0.0
 40
0.0
 40
0.0
 40
0.0
 40
0.3714934494803807
 40
0.6856172171057838
 40
0.9999999999999999
 40
0.9999999999999999
 40
0.9999999999999999
 40
0.9999999999999999
 10
66.72669914441815
 20
669.681232087977
 30
0.0
 10
66.75413549061687
 20
669.6713538136638
 30
0.0
 10
66.80477119187788
 20
669.6531227655687
 30
0.0
 10
66.87661310988813
 20
669.6324456568483
 30
0.0
 10
66.92072161368327
 20
669.6223281398097
 30
0.0
 10
66.94278495440892
 20
669.617267296514
 30
0.0
  0
SPLINE
  5
255027
330
18
100
AcDbEntity
  8
姿図
100
AcDbSpline
210
0.0
220
0.0
230
1.0
 70
     8
 71
     3
 72
    10
 73
     6
 74
     0
 42
0.000000001
 43
0.0000000001
 40
0.0
 40
0.0
 40
0.0
 40
0.0
 40
0.3568304795107355
 40
0.678420289621645
 40
1.0
 40
1.0
 40
1.0
 40
1.0
 10
66.94278495440892
 20
669.617267296514
 30
0.0
 10
66.95049815371567
 20
669.6158904620454
 30
0.0
 10
66.96516279479329
 20
669.6132727696324
 30
0.0
 10
66.98675693113955
 20
669.6092938284428
 30
0.0
 10
67.00063293324644
 20
669.6066614408346
 30
0.0
 10
67.00757082535205
 20
669.6053452676988
 30
0.0
  0
SPLINE
  5
255028
330
18
100
AcDbEntity
  8
姿図
100
AcDbSpline
210
0.0
220
0.0
230
1.0
 70
     8
 71
     3
 72
    10
 73
     6
 74
     0
 42
0.000000001
 43
0.0000000001
 40
0.0
 40
0.0
 40
0.0
 40
0.0
 40
0.35623296533336
 40
0.6781208356649259
 40
1.0
 40
1.0
 40
1.0
 40
1.0
 10
67.00757082535205
 20
669.6053452676988
 30
0.0
 10
67.01322225012501
 20
669.6043796940141
 30
0.0
 10
67.02398023510307
 20
669.602541639433
 30
0.0
 10
67.03983170487632
 20
669.5997596259784
 30
0.0
 10
67.05003062000958
 20
669.5979309890755
 30
0.0
 10
67.05513000861362
 20
669.5970166829889
 30
0.0
  0
SPLINE
  5
255029
330
18
100
AcDbEntity
  8
姿図
100
AcDbSpline
210
0.0
220
0.0
230
1.0
 70
     8
 71
     3
 72
    10
 73
     6
 74
     0
 42
0.000000001
 43
0.0000000001
 40
0.0
 40
0.0
 40
0.0
 40
0.0
 40
0.2827832174338283
 40
0.6413966036589871
 40
1.0
 40
1.0
 40
1.0
 40
1.0
 10
67.05559760911711
 20
669.59694064812
 30
0.0
 10
67.06083075874164
 20
669.5960996587689
 30
0.0
 10
67.07270036128057
 20
669.5941921632731
 30
0.0
 10
67.09119250766554
 20
669.5911293004251
 30
0.0
 10
67.1044444001576
 20
669.5888624997062
 30
0.0
 10
67.11107025411292
 20
669.5877291151337
 30
0.0
  0
SPLINE
  5
25502A
330
18
100
AcDbEntity
  8
姿図
100
AcDbSpline
210
0.0
220
0.0
230
1.0
 70
     8
 71
     3
 72
    10
 73
     6
 74
     0
 42
0.000000001
 43
0.0000000001
 40
0.0
 40
0.0
 40
0.0
 40
0.0
 40
0.2898439057461584
 40
0.6449232915904531
 40
1.0
 40
1.0
 40
1.0
 40
1.0
 10
67.11107025411292
 20
669.5877291151337
 30
0.0
 10
67.1160979310502
 20
669.5869649740526
 30
0.0
 10
67.12728486958912
 20
669.5852647058344
 30
0.0
 10
67.14461944195784
 20
669.5825481907867
 30
0.0
 10
67.15692067871697
 20
669.5805542845088
 30
0.0
 10
67.1630712739074
 20
669.5795573351286
 30
0.0
  0
LINE
  5
25502B
330
18
100
AcDbEntity
  8
姿図
100
AcDbLine
 10
67.1630712739074
 20
669.5795573351286
 30
0.0
 11
67.18392804045408
 21
669.5765141254733
 31
0.0
  0
LINE
  5
25502C
330
18
100
AcDbEntity
  8
姿図
100
AcDbLine
 10
67.18392804045408
 20
669.5765141254733
 30
0.0
 11
67.18592426066158
 21
669.576289902765
 31
0.0
  0
SPLINE
  5
25502D
330
18
100
AcDbEntity
  8
姿図
100
AcDbSpline
210
0.0
220
0.0
230
1.0
 70
     8
 71
     3
 72
    12
 73
     8
 74
     0
 42
0.000000001
 43
0.0000000001
 40
0.0
 40
0.0
 40
0.0
 40
0.0
 40
0.2229641064720511
 40
0.4458645409466056
 40
0.6721010591838246
 40
0.9209607218935348
 40
1.0
 40
1.0
 40
1.0
 40
1.0
 10
67.6058023956702
 20
668.5882600161777
 30
0.0
 10
67.56705640590909
 20
668.6714610322954
 30
0.0
 10
67.4895754911031
 20
668.8378393047653
 30
0.0
 10
67.4045306856923
 20
669.1279565623634
 30
0.0
 10
67.35714947140815
 20
669.412301293369
 30
0.0
 10
67.34377246699705
 20
669.6260803838404
 30
0.0
 10
67.36275161204998
 20
669.7162200511048
 30
0.0
 10
67.36732649088407
 20
669.7379480085407
 30
0.0
  0
SPLINE
  5
25502E
330
18
100
AcDbEntity
  8
姿図
100
AcDbSpline
210
0.0
220
0.0
230
1.0
 70
     8
 71
     3
 72
    13
 73
     9
 74
     0
 42
0.000000001
 43
0.0000000001
 40
0.0
 40
0.0
 40
0.0
 40
0.0
 40
0.0234170817153227
 40
0.2209560700072914
 40
0.4184951659145133
 40
0.6160341507887748
 40
0.8080171378409761
 40
1.0
 40
1.0
 40
1.0
 40
1.0
 10
69.39377430555498
 20
660.1810918949544
 30
0.0
 10
69.40753846105704
 20
660.2333207160431
 30
0.0
 10
69.5374126163286
 20
660.7261351149141
 30
0.0
 10
69.55631267155047
 20
661.8063268014241
 30
0.0
 10
69.43180712815587
 20
663.4009320499597
 30
0.0
 10
69.04349871614426
 20
665.0926252198294
 30
0.0
 10
68.45417233605872
 20
666.8290561284086
 30
0.0
 10
67.88859231447731
 20
668.0018588474145
 30
0.0
 10
67.6058023956702
 20
668.5882600161777
 30
0.0
  0
SPLINE
  5
25502F
330
18
100
AcDbEntity
  8
姿図
100
AcDbSpline
210
0.0
220
0.0
230
1.0
 70
     8
 71
     3
 72
     9
 73
     5
 74
     0
 42
0.000000001
 43
0.0000000001
 40
0.0
 40
0.0
 40
0.0
 40
0.0
 40
0.3245613138781464
 40
1.0
 40
1.0
 40
1.0
 40
1.0
 10
65.7023043314233
 20
671.9931886633025
 30
0.0
 10
65.74051139369539
 20
672.0028409364222
 30
0.0
 10
65.8582304829348
 20
672.0325803807334
 30
0.0
 10
65.93978805153856
 20
672.1377001501223
 30
0.0
 10
65.99487518851956
 20
672.208702109044
 30
0.0
  0
LINE
  5
255030
330
18
100
AcDbEntity
  8
姿図
100
AcDbLine
 10
65.99487518851956
 20
672.208702109044
 30
0.0
 11
66.03706931453559
 21
672.2141494249715
 31
0.0
  0
LINE
  5
255031
330
18
100
AcDbEntity
  8
姿図
100
AcDbLine
 10
69.80615706968894
 20
677.8941686955877
 30
0.0
 11
70.3314475640999
 21
677.9619843739055
 31
0.0
  0
LINE
  5
255032
330
18
100
AcDbEntity
  8
姿図
100
AcDbLine
 10
70.3314475640999
 20
677.9619843739055
 30
0.0
 11
70.43248715119125
 21
678.1124973724714
 31
0.0
  0
LINE
  5
255033
330
18
100
AcDbEntity
  8
姿図
100
AcDbLine
 10
70.43248714556267
 20
678.1124969100676
 30
0.0
 11
70.45286712582833
 21
678.1151279917273
 31
0.0
  0
LINE
  5
255034
330
18
100
AcDbEntity
  8
姿図
100
AcDbLine
 10
70.45287026452257
 20
678.1151284271626
 30
0.0
 11
70.43480363382798
 21
678.089796137748
 31
0.0
  0
LWPOLYLINE
  5
255035
330
18
100
AcDbEntity
  8
姿図
100
AcDbPolyline
 90
        4
 70
   128
 43
0.0
 10
70.43480363382798
 20
678.089796137748
 10
70.42155526762343
 20
678.0712178825877
 10
70.40830789114744
 20
678.0526398458804
 10
70.38257347558095
 20
678.0165460465275
  0
LINE
  5
255036
330
18
100
AcDbEntity
  8
姿図
100
AcDbLine
 10
70.38257347558095
 20
678.0165460465275
 30
0.0
 11
69.88891576355763
 21
677.322653936088
 31
0.0
  0
LINE
  5
255037
330
18
100
AcDbEntity
  8
姿図
100
AcDbLine
 10
69.88891576355763
 20
677.322653936088
 30
0.0
 11
69.32573306387374
 21
676.5286455269872
 31
0.0
  0
LINE
  5
255038
330
18
100
AcDbEntity
  8
姿図
100
AcDbLine
 10
69.32573306387374
 20
676.5286455269872
 30
0.0
 11
68.68987920760944
 21
675.6304820563064
 31
0.0
  0
LINE
  5
255039
330
18
100
AcDbEntity
  8
姿図
100
AcDbLine
 10
68.68987920760944
 20
675.6304820563064
 30
0.0
 11
67.97742742641091
 21
674.6232565798025
 31
0.0
  0
LINE
  5
25503A
330
18
100
AcDbEntity
  8
姿図
100
AcDbLine
 10
67.97742742641091
 20
674.6232565798025
 30
0.0
 11
67.18351999517432
 21
673.5010098676191
 31
0.0
  0
SPLINE
  5
25503B
330
18
100
AcDbEntity
  8
姿図
100
AcDbSpline
210
0.0
220
0.0
230
1.0
 70
     8
 71
     3
 72
     9
 73
     5
 74
     0
 42
0.000000001
 43
0.0000000001
 40
0.0
 40
0.0
 40
0.0
 40
0.0
 40
0.500000032844912
 40
0.9999999999999999
 40
0.9999999999999999
 40
0.9999999999999999
 40
0.9999999999999999
 10
67.18351999517432
 20
673.5010098676191
 30
0.0
 10
67.03668565556438
 20
673.2936655144451
 30
0.0
 10
66.74301699563568
 20
672.8789768353379
 30
0.0
 10
66.44893463483174
 20
672.4642022996843
 30
0.0
 10
66.30189346408889
 20
672.2568150454807
 30
0.0
  0
LINE
  5
25503C
330
18
100
AcDbEntity
  8
姿図
100
AcDbLine
 10
66.30189346408889
 20
672.2568150454807
 30
0.0
 11
65.87108783136492
 21
671.6528624332334
 31
0.0
  0
SPLINE
  5
25503D
330
18
100
AcDbEntity
  8
姿図
100
AcDbSpline
210
0.0
220
0.0
230
1.0
 70
     8
 71
     3
 72
    11
 73
     7
 74
     0
 42
0.000000001
 43
0.0000000001
 40
0.0
 40
0.0
 40
0.0
 40
0.0
 40
0.291660579310327
 40
0.6098024887430589
 40
0.9279501709268543
 40
1.0
 40
1.0
 40
1.0
 40
1.0
 10
69.80615706968894
 20
677.8941686955877
 30
0.0
 10
69.43718645309278
 20
677.3418038605812
 30
0.0
 10
68.6657445228688
 20
676.1869222105563
 30
0.0
 10
67.48708622864484
 20
674.428365018549
 30
0.0
 10
66.58486281317875
 20
673.0853883901539
 30
0.0
 10
66.08683571225475
 20
672.3453499406131
 30
0.0
 10
65.99487518851956
 20
672.208702109044
 30
0.0
  0
LWPOLYLINE
  5
25503E
330
18
100
AcDbEntity
  8
姿図
100
AcDbPolyline
 90
       18
 70
   128
 43
0.0
 10
70.3169836663044
 20
678.4362684029913
 10
69.55940863057322
 20
679.3717900062823
 10
68.75624149346123
 20
680.2835055863023
 10
67.91183483221505
 20
681.1664745510914
 10
67.0307654683262
 20
682.0159115231746
 10
66.11780740084933
 20
682.8272135296738
 10
65.1779083854995
 20
683.5959836264681
 10
64.21616207085228
 20
684.318055765131
 10
63.23778073529508
 20
684.9895167733089
 10
62.24806540973506
 20
685.6067279886546
 10
61.25238053920378
 20
686.1663442928495
 10
60.2561225970976
 20
686.6653331767677
 10
59.26468893616237
 20
687.1009904249601
 10
58.28345379430675
 20
687.4709552969572
 10
57.31773457379512
 20
687.7732222800942
 10
56.372763267339
 20
688.0061539052901
 10
55.45366212511317
 20
688.1684877019488
 10
54.56541436619239
 20
688.259343661795
  0
SPLINE
  5
25503F
330
18
100
AcDbEntity
  8
姿図
100
AcDbSpline
210
0.0
220
0.0
230
1.0
 70
     8
 71
     3
 72
     9
 73
     5
 74
     0
 42
0.000000001
 43
0.0000000001
 40
0.0
 40
0.0
 40
0.0
 40
0.0
 40
0.5945210117518245
 40
1.0
 40
1.0
 40
1.0
 40
1.0
 10
54.56541436337807
 20
688.2593434305932
 30
0.0
 10
56.15559618959543
 20
689.8187409200499
 30
0.0
 10
58.83032390280397
 20
692.4416885680427
 30
0.0
 10
61.56583078411256
 20
694.9168870966053
 30
0.0
 10
62.67502134669149
 20
695.9205280916801
 30
0.0
  0
LINE
  5
255040
330
18
100
AcDbEntity
  8
姿図
100
AcDbLine
 10
64.53322799222838
 20
697.5608666898722
 30
0.0
 11
66.9778340295693
 21
699.6924019956442
 31
0.0
  0
SPLINE
  5
255041
330
18
100
AcDbEntity
  8
姿図
100
AcDbSpline
210
0.0
220
0.0
230
1.0
 70
     8
 71
     3
 72
    14
 73
    10
 74
     0
 42
0.000000001
 43
0.0000000001
 40
0.0
 40
0.0
 40
0.0
 40
0.0
 40
0.1383245761776211
 40
0.2766491686216102
 40
0.4567249964933732
 40
0.6368009016899865
 40
0.8168767456573419
 40
0.996952633050662
 40
1.0
 40
1.0
 40
1.0
 40
1.0
 10
81.27855771792179
 20
690.7740994713322
 30
0.0
 10
80.94387573421949
 20
691.1758810305214
 30
0.0
 10
80.27451172745776
 20
691.9794441961476
 30
0.0
 10
79.06247579101142
 20
693.2411322727684
 30
0.0
 10
77.65833947672155
 20
694.5363241653815
 30
0.0
 10
76.05205762068022
 20
695.8175794771346
 30
0.0
 10
74.39340985103348
 20
696.9271775064312
 30
0.0
 10
73.25688379015702
 20
697.6171632494894
 30
0.0
 10
72.68795680290123
 20
697.8783734430411
 30
0.0
 10
72.67848924890993
 20
697.8827202602355
 30
0.0
  0
LINE
  5
255042
330
18
100
AcDbEntity
  8
姿図
100
AcDbLine
 10
67.30738098492998
 20
699.6433276280486
 30
0.0
 11
66.9778268227202
 21
699.6923954163883
 31
0.0
  0
LINE
  5
255043
330
18
100
AcDbEntity
  8
姿図
100
AcDbLine
 10
81.27856033568804
 20
690.7741028377353
 30
0.0
 11
79.0939508246629
 21
688.2832045187026
 31
0.0
  0
SPLINE
  5
255044
330
18
100
AcDbEntity
  8
姿図
100
AcDbSpline
210
0.0
220
0.0
230
1.0
 70
     8
 71
     3
 72
     9
 73
     5
 74
     0
 42
0.000000001
 43
0.0000000001
 40
0.0
 40
0.0
 40
0.0
 40
0.0
 40
0.3410093416212245
 40
1.0
 40
1.0
 40
1.0
 40
1.0
 10
74.01445131236059
 20
682.5491101045907
 30
0.0
 10
73.60208354516942
 20
682.0856405956995
 30
0.0
 10
72.39282703263319
 20
680.7265297083329
 30
0.0
 10
71.14155816270636
 20
679.3460148188882
 30
0.0
 10
70.3169836663044
 20
678.4362684029913
 30
0.0
  0
LINE
  5
255045
330
18
100
AcDbEntity
  8
姿図
100
AcDbLine
 10
54.37887238305763
 20
688.1239345223377
 30
0.0
 11
54.36282501417645
 21
688.1492809454485
 31
0.0
  0
LINE
  5
255046
330
18
100
AcDbEntity
  8
姿図
100
AcDbLine
 10
54.54012507585713
 20
688.0609712522844
 30
0.0
 11
54.36282501417645
 21
688.1492809454485
 31
0.0
  0
SPLINE
  5
255047
330
18
100
AcDbEntity
  8
姿図
100
AcDbSpline
210
0.0
220
0.0
230
1.0
 70
     8
 71
     3
 72
     9
 73
     5
 74
     0
 42
0.000000001
 43
0.0000000001
 40
0.0
 40
0.0
 40
0.0
 40
0.0
 40
0.4846805333927686
 40
0.9999999999999999
 40
0.9999999999999999
 40
0.9999999999999999
 40
0.9999999999999999
 10
54.62251808650927
 20
688.0143250903062
 30
0.0
 10
54.60921199982147
 20
688.0219461193437
 30
0.0
 10
54.58175868620339
 20
688.0376699384628
 30
0.0
 10
54.55428354893775
 20
688.0530471010579
 30
0.0
 10
54.54012507585713
 20
688.0609712522844
 30
0.0
  0
SPLINE
  5
255048
330
18
100
AcDbEntity
  8
姿図
100
AcDbSpline
210
0.0
220
0.0
230
1.0
 70
     8
 71
     3
 72
    14
 73
    10
 74
     0
 42
0.000000001
 43
0.0000000001
 40
0.0
 40
0.0
 40
0.0
 40
0.0
 40
0.1628778455695275
 40
0.3257598419830056
 40
0.4883844050495127
 40
0.650840888993817
 40
0.8133611453458002
 40
0.9761472505147327
 40
1.0
 40
1.0
 40
1.0
 40
1.0
 10
54.62251808650927
 20
688.0143250903062
 30
0.0
 10
54.62711661673228
 20
688.0120735739804
 30
0.0
 10
54.63631379436907
 20
688.0075704839501
 30
0.0
 10
54.64887126776256
 20
688.0062367713907
 30
0.0
 10
54.65867793854136
 20
688.0092293573082
 30
0.0
 10
54.66466492381437
 20
688.0165336965899
 30
0.0
 10
54.66614861081496
 20
688.02722534698
 30
0.0
 10
54.66391464160284
 20
688.036489388899
 30
0.0
 10
54.66173736831217
 20
688.0415766903759
 30
0.0
 10
54.66145910924092
 20
688.042226855787
 30
0.0
  0
LINE
  5
255049
330
18
100
AcDbEntity
  8
姿図
100
AcDbLine
 10
54.66145910924092
 20
688.042226855787
 30
0.0
 11
54.56541436619239
 21
688.259343661795
 31
0.0
  0
LINE
  5
25504A
330
18
100
AcDbEntity
  8
姿図
100
AcDbLine
 10
70.17657373290467
 20
678.3666108269243
 30
0.0
 11
70.3169836663044
 21
678.4362684029913
 31
0.0
  0
SPLINE
  5
25504B
330
18
100
AcDbEntity
  8
姿図
100
AcDbSpline
210
0.0
220
0.0
230
1.0
 70
     8
 71
     3
 72
    14
 73
    10
 74
     0
 42
0.000000001
 43
0.0000000001
 40
0.0
 40
0.0
 40
0.0
 40
0.0
 40
0.1631178529057957
 40
0.3262408678032697
 40
0.4890985557587887
 40
0.6516605120408472
 40
0.8141078386483263
 40
0.9766926993290005
 40
1.0
 40
1.0
 40
1.0
 40
1.0
 10
70.17657373290467
 20
678.3666108269243
 30
0.0
 10
70.17402856212959
 20
678.3647556275309
 30
0.0
 10
70.1689381400355
 20
678.3610451700349
 30
0.0
 10
70.16668897195149
 20
678.3506798719579
 30
0.0
 10
70.16887007144152
 20
678.3381485592396
 30
0.0
 10
70.17554857004785
 20
678.3244806406731
 30
0.0
 10
70.18586325750368
 20
678.3113458231635
 30
0.0
 10
70.19504458719194
 20
678.3032884225904
 30
0.0
 10
70.20014800731423
 20
678.2997665889761
 30
0.0
 10
70.20078787801333
 20
678.299325018797
 30
0.0
  0
SPLINE
  5
25504C
330
18
100
AcDbEntity
  8
姿図
100
AcDbSpline
210
0.0
220
0.0
230
1.0
 70
     8
 71
     3
 72
     9
 73
     5
 74
     0
 42
0.000000001
 43
0.0000000001
 40
0.0
 40
0.0
 40
0.0
 40
0.0
 40
0.4846858563601515
 40
1.0
 40
1.0
 40
1.0
 40
1.0
 10
70.20078764053727
 20
678.2993245566875
 30
0.0
 10
70.21390289403632
 20
678.2904684082164
 30
0.0
 10
70.24096218063812
 20
678.2721964731992
 30
0.0
 10
70.26794158526064
 20
678.2536145578702
 30
0.0
 10
70.28184445404958
 20
678.2440390340851
 30
0.0
  0
LINE
  5
25504D
330
18
100
AcDbEntity
  8
姿図
100
AcDbLine
 10
70.28184445404958
 20
678.2440390340851
 30
0.0
 11
70.45286375528667
 21
678.115127556586
 31
0.0
  0
LINE
  5
25504E
330
18
100
AcDbEntity
  8
姿図
100
AcDbLine
 10
70.43248715119125
 20
678.1124973724714
 30
0.0
 11
70.2116283731362
 21
678.2791728691965
 31
0.0
  0
LINE
  5
25504F
330
18
100
AcDbEntity
  8
姿図
100
AcDbLine
 10
70.2116283731362
 20
678.2791728691965
 30
0.0
 11
69.77013076645596
 21
678.2221750208887
 31
0.0
  0
LWPOLYLINE
  5
255050
330
18
100
AcDbEntity
  8
姿図
100
AcDbPolyline
 90
        9
 70
   128
 43
0.0
 10
69.76750778566162
 20
678.2255591792717
 10
69.7678358583131
 20
678.2251359280147
 10
69.7681637047458
 20
678.2247131394554
 10
69.76849154554986
 20
678.2242898884924
 10
69.7688193919825
 20
678.2238670999332
 10
69.76914723278657
 20
678.2234438489702
 10
69.76947507921926
 20
678.2230210604109
 10
69.7698029256519
 20
678.2225982718517
 10
69.77013076645596
 20
678.2221750208887
  0
LINE
  5
255051
330
18
100
AcDbEntity
  8
姿図
100
AcDbLine
 10
69.76750778566162
 20
678.2255591792717
 30
0.0
 11
69.58779869781227
 21
678.2023585351621
 31
0.0
  0
LINE
  5
255052
330
18
100
AcDbEntity
  8
姿図
100
AcDbLine
 10
69.58779869781227
 20
678.2023585351621
 30
0.0
 11
69.50498948029579
 21
678.2647774386123
 31
0.0
  0
ARC
  5
255053
330
18
100
AcDbEntity
  8
姿図
100
AcDbCircle
 10
48.7162639051495
 20
661.9723429592863
 30
0.0
 40
26.41239353602529
100
AcDbArc
 50
38.08632880076792
 51
39.79656276760873
  0
LINE
  5
255054
330
18
100
AcDbEntity
  8
姿図
100
AcDbLine
 10
69.18134053555019
 20
678.954973512115
 30
0.0
 11
69.00948489900503
 21
678.877954867656
 31
0.0
  0
LWPOLYLINE
  5
255055
330
18
100
AcDbEntity
  8
姿図
100
AcDbPolyline
 90
       16
 70
   128
 43
0.0
 10
69.18134053555019
 20
678.954973512115
 10
68.41570106056344
 20
679.835984438335
 10
67.60880071858483
 20
680.6894268788018
 10
66.76522039795387
 20
681.5104567745386
 10
65.88974830142831
 20
682.2944136781994
 10
64.98735329780891
 20
683.0368480643655
 10
64.06315792803395
 20
683.7335458140808
 10
63.12240705003029
 20
684.3805525252906
 10
62.17043999336033
 20
684.9741955530776
 10
61.21266261961679
 20
685.511105379556
 10
60.25450912049962
 20
685.988234713469
 10
59.30141838683221
 20
686.4028752185352
 10
58.35880057756503
 20
686.7526734683188
 10
57.43200526852286
 20
687.0356439105103
 10
56.5262933799865
 20
687.2501804449323
 10
55.64680602984947
 20
687.395065213732
  0
LINE
  5
255056
330
18
100
AcDbEntity
  8
姿図
100
AcDbLine
 10
55.76746081929159
 20
687.136014370802
 30
0.0
 11
55.64680602984947
 21
687.395065213732
 31
0.0
  0
LINE
  5
255057
330
18
100
AcDbEntity
  8
姿図
100
AcDbLine
 10
55.76746081929159
 20
687.136014370802
 30
0.0
 11
55.55240431622434
 21
687.1613131978837
 31
0.0
  0
ARC
  5
255058
330
18
100
AcDbEntity
  8
姿図
100
AcDbCircle
 10
54.41971564231699
 20
676.6605857103002
 30
0.0
 40
10.561640807116
100
AcDbArc
 50
83.84344387660244
 51
85.83869525496097
  0
LINE
  5
255059
330
18
100
AcDbEntity
  8
姿図
100
AcDbLine
 10
55.18611724790395
 20
687.1943829894153
 30
0.0
 11
54.74276525329924
 21
687.4152075103309
 31
0.0
  0
LINE
  5
25505A
330
18
100
AcDbEntity
  8
姿図
100
AcDbLine
 10
54.60789930492865
 20
688.0100508505552
 30
0.0
 11
54.95561812628131
 21
687.4608776945465
 31
0.0
  0
LINE
  5
25505B
330
18
100
AcDbEntity
  8
姿図
100
AcDbLine
 10
54.60789930492865
 20
688.0100508505552
 30
0.0
 11
54.37887238587192
 21
688.1239347535395
 31
0.0
  0
LINE
  5
25505C
330
18
100
AcDbEntity
  8
姿図
100
AcDbLine
 10
67.18592426066158
 20
669.576289902765
 30
0.0
 11
67.70561572431887
 21
670.0394183761953
 31
0.0
  0
LINE
  5
25505D
330
18
100
AcDbEntity
  8
姿図
100
AcDbLine
 10
67.70561572431887
 20
670.0394183761953
 30
0.0
 11
68.76690651060022
 21
670.9923873164867
 31
0.0
  0
LINE
  5
25505E
330
18
100
AcDbEntity
  8
姿図
100
AcDbLine
 10
68.76690651060022
 20
670.9923873164867
 30
0.0
 11
69.72416357086433
 21
671.8526210861187
 31
0.0
  0
LINE
  5
25505F
330
18
100
AcDbEntity
  8
姿図
100
AcDbLine
 10
69.72416357086433
 20
671.8526210861187
 30
0.0
 11
70.58425187167688
 21
672.6255816328535
 31
0.0
  0
LINE
  5
255060
330
18
100
AcDbEntity
  8
姿図
100
AcDbLine
 10
70.58425187167688
 20
672.6255816328535
 30
0.0
 11
71.35282218436828
 21
673.3158107038653
 31
0.0
  0
LINE
  5
255061
330
18
100
AcDbEntity
  8
姿図
100
AcDbLine
 10
74.0566137866519
 20
682.497660975163
 30
0.0
 11
70.28184445404958
 21
678.2440390340851
 31
0.0
  0
SPLINE
  5
255062
330
18
100
AcDbEntity
  8
姿図
100
AcDbSpline
210
0.0
220
0.0
230
1.0
 70
     8
 71
     3
 72
    11
 73
     7
 74
     0
 42
0.000000001
 43
0.0000000001
 40
0.0
 40
0.0
 40
0.0
 40
0.0
 40
0.2638482687715074
 40
0.5276966313612814
 40
0.7915451431271482
 40
1.0
 40
1.0
 40
1.0
 40
1.0
 10
80.94115860735332
 20
690.3589027018286
 30
0.0
 10
81.07062231407315
 20
690.2667351194042
 30
0.0
 10
81.329549773547
 20
690.0823999217828
 30
0.0
 10
81.71544583783657
 20
689.7984714259462
 30
0.0
 10
82.07260714493506
 20
689.5298844030559
 30
0.0
 10
82.30018421745257
 20
689.3538736299608
 30
0.0
 10
82.40062717261486
 20
689.2761898721267
 30
0.0
  0
LINE
  5
255063
330
18
100
AcDbEntity
  8
姿図
100
AcDbLine
 10
82.4799059055851
 20
689.214367556859
 30
0.0
 11
82.40062719380347
 21
689.2761898446363
 31
0.0
  0
LINE
  5
255064
330
18
100
AcDbEntity
  8
姿図
100
AcDbLine
 10
82.48008384389902
 20
689.2142280400803
 30
0.0
 11
82.4799059055851
 21
689.214367556859
 31
0.0
  0
SPLINE
  5
255065
330
18
100
AcDbEntity
  8
姿図
100
AcDbSpline
210
0.0
220
0.0
230
1.0
 70
     8
 71
     3
 72
    10
 73
     6
 74
     0
 42
0.000000001
 43
0.0000000001
 40
0.0
 40
0.0
 40
0.0
 40
0.0
 40
0.0432679154465677
 40
0.3052737018302533
 40
1.0
 40
1.0
 40
1.0
 40
1.0
 10
82.4800879163156
 20
689.2142313222475
 30
0.0
 10
82.44657493061885
 20
689.1781231831163
 30
0.0
 10
82.21012644223123
 20
688.9233647741427
 30
0.0
 10
81.43568311679735
 20
688.0882073122784
 30
0.0
 10
80.68901340631311
 20
687.2884915511349
 30
0.0
 10
80.14682286802639
 20
686.7077818840326
 30
0.0
  0
LINE
  5
255066
330
18
100
AcDbEntity
  8
姿図
100
AcDbLine
 10
69.13095271670954
 20
679.0153220161271
 30
0.0
 11
69.00948489900503
 21
678.877954867656
 31
0.0
  0
ELLIPSE
  5
255067
330
18
100
AcDbEntity
  8
姿図
100
AcDbEllipse
 10
70.07587015904713
 20
678.1304033519683
 30
0.0
 11
0.2566492405029379
 21
-0.1667961167974994
 31
0.0
210
0.0
220
0.0
230
1.0
 40
0.6529740430250703
 41
6.273454820597795
 42
7.746741614364233
  0
SPLINE
  5
255068
330
18
100
AcDbEntity
  8
姿図
100
AcDbSpline
210
0.0
220
0.0
230
1.0
 70
     8
 71
     3
 72
    12
 73
     8
 74
     0
 42
0.000000001
 43
0.0000000001
 40
0.0
 40
0.0
 40
0.0
 40
0.0
 40
0.2322196604541922
 40
0.4643709263961453
 40
0.6979425702440292
 40
0.9311175770749444
 40
1.0
 40
1.0
 40
1.0
 40
1.0
 10
69.77013099830339
 20
678.2221750205947
 30
0.0
 10
69.78597268555342
 20
678.1981484426462
 30
0.0
 10
69.81765139427938
 20
678.1501023631793
 30
0.0
 10
69.8407737946614
 20
678.0648159806387
 30
0.0
 10
69.84201339830668
 20
677.9818933474753
 30
0.0
 10
69.82542694506438
 20
677.9254641143121
 30
0.0
 10
69.80973542800157
 20
677.8999801613891
 30
0.0
 10
69.80615706968894
 20
677.8941686955877
 30
0.0
  0
LINE
  5
255069
330
18
100
AcDbEntity
  8
姿図
100
AcDbLine
 10
71.35282218436828
 20
673.3158107038653
 30
0.0
 11
72.0344612757512
 21
673.9270482367983
 31
0.0
  0
LINE
  5
25506A
330
18
100
AcDbEntity
  8
姿図
100
AcDbLine
 10
48.55435067023257
 20
683.116812467292
 30
0.0
 11
48.58758286262042
 21
683.0643275830832
 31
0.0
  0
LINE
  5
25506B
330
18
100
AcDbEntity
  8
姿図
100
AcDbLine
 10
48.58758286262042
 20
683.0643275830832
 30
0.0
 11
48.40244039242401
 21
682.9069672286928
 31
0.0
  0
LINE
  5
25506C
330
18
100
AcDbEntity
  8
姿図
100
AcDbLine
 10
47.74467799493289
 20
682.9569676092425
 30
0.0
 11
48.3586276947313
 21
683.4459672449966
 31
0.0
  0
LINE
  5
25506D
330
18
100
AcDbEntity
  8
姿図
100
AcDbLine
 10
48.3586276947313
 20
683.4459672449966
 30
0.0
 11
49.63098475624423
 21
684.441722843763
 31
0.0
  0
LINE
  5
25506E
330
18
100
AcDbEntity
  8
姿図
100
AcDbLine
 10
49.63098475624423
 20
684.441722843763
 30
0.0
 11
50.78037689148641
 21
685.3395988106977
 31
0.0
  0
LINE
  5
25506F
330
18
100
AcDbEntity
  8
姿図
100
AcDbLine
 10
50.78037689148641
 20
685.3395988106977
 30
0.0
 11
51.81321537401033
 21
686.1463152320108
 31
0.0
  0
LINE
  5
255070
330
18
100
AcDbEntity
  8
姿図
100
AcDbLine
 10
51.81321537401033
 20
686.1463152320108
 30
0.0
 11
52.73490498193181
 21
686.867385053039
 31
0.0
  0
LINE
  5
255071
330
18
100
AcDbEntity
  8
姿図
100
AcDbLine
 10
52.73490498193181
 20
686.867385053039
 30
0.0
 11
53.54996165096435
 21
687.5072627124218
 31
0.0
  0
LINE
  5
255072
330
18
100
AcDbEntity
  8
姿図
100
AcDbLine
 10
53.54996165096435
 20
687.5072627124218
 30
0.0
 11
54.26223043335273
 21
688.0695375587854
 31
0.0
  0
LWPOLYLINE
  5
255073
330
18
100
AcDbEntity
  8
姿図
100
AcDbPolyline
 90
        4
 70
   128
 43
0.0
 10
54.26223043335273
 20
688.0695375587854
 10
54.28132639296354
 20
688.0846709623016
 10
54.30042237227451
 20
688.0998059842308
 10
54.33751963386953
 20
688.1292154406094
  0
LINE
  5
255074
330
18
100
AcDbEntity
  8
姿図
100
AcDbLine
 10
54.33751963386953
 20
688.1292154406094
 30
0.0
 11
54.36282501417645
 21
688.1492809454485
 31
0.0
  0
LINE
  5
255075
330
18
100
AcDbEntity
  8
姿図
100
AcDbLine
 10
54.37887238587192
 20
688.1239347535395
 30
0.0
 11
54.21898350020126
 21
688.010122029704
 31
0.0
  0
SPLINE
  5
255076
330
18
100
AcDbEntity
  8
姿図
100
AcDbSpline
210
0.0
220
0.0
230
1.0
 70
     8
 71
     3
 72
    11
 73
     7
 74
     0
 42
0.000000001
 43
0.0000000001
 40
0.0
 40
0.0
 40
0.0
 40
0.0
 40
0.0720431072587413
 40
0.3901851631947647
 40
0.7083326484957765
 40
1.0
 40
1.0
 40
1.0
 40
1.0
 10
48.58758286262042
 20
683.0643275830832
 30
0.0
 10
48.73249917876086
 20
683.1679329859196
 30
0.0
 10
49.51736533201779
 20
683.7290594080264
 30
0.0
 10
50.94330149029889
 20
684.7454163517177
 30
0.0
 10
52.8133168834928
 20
686.0728425524583
 30
0.0
 10
54.04405135032215
 20
686.9413313070072
 30
0.0
 10
54.63269734690965
 20
687.3567193880476
 30
0.0
  0
LINE
  5
255077
330
18
100
AcDbEntity
  8
姿図
100
AcDbLine
 10
72.72344274975836
 20
674.3878833705922
 30
0.0
 11
72.71770617545093
 21
674.5381325158824
 31
0.0
  0
LINE
  5
255078
330
18
100
AcDbEntity
  8
姿図
100
AcDbLine
 10
83.50632411007126
 20
687.5932763502273
 30
0.0
 11
81.53713975409215
 21
685.3405115769739
 31
0.0
  0
SPLINE
  5
255079
330
18
100
AcDbEntity
  8
姿図
100
AcDbSpline
210
0.0
220
0.0
230
1.0
 70
     8
 71
     3
 72
    10
 73
     6
 74
     0
 42
0.000000001
 43
0.0000000001
 40
0.0
 40
0.0
 40
0.0
 40
0.0
 40
0.2717018953676013
 40
0.5435473770323525
 40
1.0
 40
1.0
 40
1.0
 40
1.0
 10
83.53997512882688
 20
686.2544432652328
 30
0.0
 10
83.54201697824169
 20
686.3730740322594
 30
0.0
 10
83.54610175612743
 20
686.6103982591128
 30
0.0
 10
83.5392289112718
 20
687.0546584373835
 30
0.0
 10
83.51900144587393
 20
687.3857613402192
 30
0.0
 10
83.50632411007126
 20
687.5932763502273
 30
0.0
  0
LINE
  5
25507A
330
18
100
AcDbEntity
  8
姿図
100
AcDbLine
 10
83.539975134124
 20
686.2544432583602
 30
0.0
 11
82.21801444444696
 21
684.7943550038086
 31
0.0
  0
LINE
  5
25507B
330
18
100
AcDbEntity
  8
姿図
100
AcDbLine
 10
76.03529071379333
 20
677.9902962908327
 30
0.0
 11
72.72344274975836
 21
674.3878833705922
 31
0.0
  0
LINE
  5
25507C
330
18
100
AcDbEntity
  8
姿図
100
AcDbLine
 10
72.0344612757512
 20
673.9270482367983
 30
0.0
 11
72.63289295929525
 21
674.4623969478481
 31
0.0
  0
LWPOLYLINE
  5
25507D
330
18
100
AcDbEntity
  8
姿図
100
AcDbPolyline
 90
       18
 70
   128
 43
0.0
 10
71.10664097214936
 20
662.1348358074506
 10
71.754287182442
 20
662.4239776345246
 10
72.3444468725026
 20
662.7811583326359
 10
72.8739219085694
 20
663.2044444623372
 10
73.33984274073839
 20
663.6915371543687
 10
73.73968436435257
 20
664.2398014448263
 10
74.07128009209555
 20
664.8462624156491
 10
74.33283284182386
 20
665.5076365089458
 10
74.52292520821757
 20
666.2203388112322
 10
74.64052695630176
 20
666.980505247941
 10
74.68500086754719
 20
667.7840180810852
 10
74.65610584609777
 20
668.6265235676157
 10
74.55399859559765
 20
669.5034538592101
 10
74.37923235939206
 20
670.4100571193286
 10
74.13275422852874
 20
671.3414205181471
 10
73.81589999727183
 20
672.2924970308053
 10
73.43038677337313
 20
673.258131917878
 10
72.97830378000197
 20
674.2330933379056
  0
LINE
  5
25507E
330
18
100
AcDbEntity
  8
姿図
100
AcDbLine
 10
72.97830366407823
 20
674.2330933380526
 30
0.0
 11
76.4591430772648
 21
677.7181211122734
 31
0.0
  0
LINE
  5
25507F
330
18
100
AcDbEntity
  8
姿図
100
AcDbLine
 10
82.68731796484394
 20
684.2273692908427
 30
0.0
 11
84.31243049982805
 21
685.9825301516134
 31
0.0
  0
SPLINE
  5
255080
330
18
100
AcDbEntity
  8
姿図
100
AcDbSpline
210
0.0
220
0.0
230
1.0
 70
     8
 71
     3
 72
    15
 73
    11
 74
     0
 42
0.000000001
 43
0.0000000001
 40
0.0
 40
0.0
 40
0.0
 40
0.0
 40
0.0623945390020272
 40
0.2058406295290634
 40
0.3492866825642305
 40
0.4927327568269614
 40
0.6361788367647634
 40
0.7796249038431823
 40
0.8898124446682735
 40
1.0
 40
1.0
 40
1.0
 40
1.0
 10
84.506052250756
 20
676.4742610776519
 30
0.0
 10
84.61511089164776
 20
676.5985456801557
 30
0.0
 10
84.97489717512377
 20
677.0085626660862
 30
0.0
 10
85.37097783929318
 20
677.8937788000312
 30
0.0
 10
85.68870977322646
 20
679.1018809773161
 30
0.0
 10
85.77518090922038
 20
680.4575342712524
 30
0.0
 10
85.64486505417597
 20
681.9237633024572
 30
0.0
 10
85.31903346873096
 20
683.3595880801495
 30
0.0
 10
84.87121860162097
 20
684.7196492683495
 30
0.0
 10
84.49869320859978
 20
685.5615698387184
 30
0.0
 10
84.31243049982805
 20
685.9825301516134
 30
0.0
  0
LINE
  5
255081
330
18
100
AcDbEntity
  8
姿図
100
AcDbLine
 10
72.7775698243876
 20
674.2587083904305
 30
0.0
 11
72.97830378000197
 21
674.2330933379056
 31
0.0
  0
LINE
  5
255082
330
18
100
AcDbEntity
  8
姿図
100
AcDbLine
 10
84.31243051042236
 20
685.9825301378681
 30
0.0
 11
83.59464114399992
 21
686.0741276079568
 31
0.0
  0
SPLINE
  5
255083
330
18
100
AcDbEntity
  8
姿図
100
AcDbSpline
210
0.0
220
0.0
230
1.0
 70
     8
 71
     3
 72
    10
 73
     6
 74
     0
 42
0.000000001
 43
0.0000000001
 40
0.0
 40
0.0
 40
0.0
 40
0.0
 40
0.0166664444893376
 40
0.5068741336228684
 40
1.0
 40
1.0
 40
1.0
 40
1.0
 10
45.83241448632498
 20
682.6830469800167
 30
0.0
 10
45.83219338882122
 20
682.6829475136403
 30
0.0
 10
45.82546918284328
 20
682.6799224573139
 30
0.0
 10
45.83198963388651
 20
682.6756465350135
 30
0.0
 10
45.8496453105648
 20
682.6722263222754
 30
0.0
 10
45.85849934672541
 20
682.670511140931
 30
0.0
  0
LINE
  5
255084
330
18
100
AcDbEntity
  8
姿図
100
AcDbLine
 10
49.455146862763
 20
686.2657091743399
 30
0.0
 11
51.97002695676042
 21
688.7238904986709
 31
0.0
  0
ELLIPSE
  5
255085
330
18
100
AcDbEntity
  8
姿図
100
AcDbEllipse
 10
72.5692095421096
 20
674.1925296006516
 30
0.0
 11
0.08552104169260138
 21
0.2583735075189253
 31
0.0
210
0.0
220
0.0
230
1.0
 40
0.4093699537246015
 41
5.454279491847989
 42
6.595452687924776
  0
LINE
  5
255086
330
18
100
AcDbEntity
  8
姿図
100
AcDbLine
 10
72.70496769761652
 20
674.3412988740236
 30
0.0
 11
72.69792096650522
 21
674.5204671455654
 31
0.0
  0
LWPOLYLINE
  5
255087
330
18
100
AcDbEntity
  8
姿図
100
AcDbPolyline
 90
        4
 70
   128
 43
0.0
 10
72.63289295929525
 20
674.4623969478481
 10
72.64898937277047
 20
674.4767719524286
 10
72.66508704587133
 20
674.491147990087
 10
72.69636591161708
 20
674.5190788415632
  0
LINE
  5
255088
330
18
100
AcDbEntity
  8
姿図
100
AcDbLine
 10
70.23645321680365
 20
662.8126832882084
 30
0.0
 11
70.3868489666072
 21
663.1870043092326
 31
0.0
  0
ARC
  5
255089
330
18
100
AcDbEntity
  8
姿図
100
AcDbCircle
 10
68.40571045089644
 20
668.2340076670203
 30
0.0
 40
5.421914118828581
100
AcDbArc
 50
291.4318733323314
 51
296.347093196207
  0
LINE
  5
25508A
330
18
100
AcDbEntity
  8
姿図
100
AcDbLine
 10
71.01337800066409
 20
663.1268803265043
 30
0.0
 11
70.81199872311646
 21
663.3753113950838
 31
0.0
  0
LWPOLYLINE
  5
25508B
330
18
100
AcDbEntity
  8
姿図
100
AcDbPolyline
 90
       16
 70
   128
 43
0.0
 10
71.01337825370013
 20
663.1268802987197
 10
71.59028622858864
 20
663.4598536726692
 10
72.1079152493636
 20
663.8582099425098
 10
72.56332701224352
 20
664.3196879184062
 10
72.95393655085445
 20
664.8416692102653
 10
73.27752671065241
 20
665.4211874727528
 10
73.53226110301438
 20
666.0549580360761
 10
73.71669357796895
 20
666.7393799269868
 10
73.82977736783698
 20
667.4705710086996
 10
73.8708706326504
 20
668.2443791761353
 10
73.8397401219218
 20
669.0564129336138
 10
73.73656249468092
 20
669.9020635697306
 10
73.56192341349941
 20
670.7765308695634
 10
73.31681405060766
 20
671.674851659555
 10
73.00262579777481
 20
672.5919258459028
 10
72.62114197914792
 20
673.5225491042264
  0
LINE
  5
25508C
330
18
100
AcDbEntity
  8
姿図
100
AcDbLine
 10
72.38546826563038
 20
673.5460701463923
 30
0.0
 11
72.62114186322421
 21
673.5225491043734
 31
0.0
  0
LINE
  5
25508D
330
18
100
AcDbEntity
  8
姿図
100
AcDbLine
 10
72.38546826563038
 20
673.5460701463923
 30
0.0
 11
72.27998914426081
 21
673.7800329974207
 31
0.0
  0
ARC
  5
25508E
330
18
100
AcDbEntity
  8
姿図
100
AcDbCircle
 10
55.09284467923942
 20
665.8872308350933
 30
0.0
 40
18.91280668892595
100
AcDbArc
 50
24.6658687536768
 51
25.52702515686059
  0
SPLINE
  5
25508F
330
18
100
AcDbEntity
  8
姿図
100
AcDbSpline
210
0.0
220
0.0
230
1.0
 70
     8
 71
     3
 72
     9
 73
     5
 74
     0
 42
0.000000001
 43
0.0000000001
 40
0.0
 40
0.0
 40
0.0
 40
0.0
 40
0.4846810662783395
 40
1.0
 40
1.0
 40
1.0
 40
1.0
 10
72.7193560992188
 20
674.3216051724935
 30
0.0
 10
72.7201217261088
 20
674.3322534096379
 30
0.0
 10
72.7217013770242
 20
674.3542229848603
 30
0.0
 10
72.72285055604877
 20
674.3764363849458
 30
0.0
 10
72.72344274975836
 20
674.3878833705922
 30
0.0
  0
SPLINE
  5
255090
330
18
100
AcDbEntity
  8
姿図
100
AcDbSpline
210
0.0
220
0.0
230
1.0
 70
     8
 71
     3
 72
    14
 73
    10
 74
     0
 42
0.000000001
 43
0.0000000001
 40
0.0
 40
0.0
 40
0.0
 40
0.0
 40
0.1628645959042221
 40
0.3257510410428011
 40
0.4883874387977651
 40
0.6508398841862993
 40
0.8133605756424651
 40
0.97614553634346
 40
1.0
 40
1.0
 40
1.0
 40
1.0
 10
72.7193560992188
 20
674.3216051724935
 30
0.0
 10
72.71955153333914
 20
674.3176842504781
 30
0.0
 10
72.71994242779849
 20
674.3098418804327
 30
0.0
 10
72.72627464307334
 20
674.2960893436685
 30
0.0
 10
72.73607725404395
 20
674.2827979493036
 30
0.0
 10
72.74865920737369
 20
674.2712222995432
 30
0.0
 10
72.76246880244344
 20
674.2627411659325
 30
0.0
 10
72.7722169229942
 20
674.2594767867697
 30
0.0
 10
72.77696320063737
 20
674.2587954698355
 30
0.0
 10
72.7775698243876
 20
674.2587083904305
 30
0.0
  0
LINE
  5
255091
330
18
100
AcDbEntity
  8
姿図
100
AcDbLine
 10
70.93400321852687
 20
662.3420643270738
 30
0.0
 11
71.10664097214936
 21
662.1348358074506
 31
0.0
  0
SPLINE
  5
255092
330
18
100
AcDbEntity
  8
姿図
100
AcDbSpline
210
0.0
220
0.0
230
1.0
 70
     8
 71
     3
 72
    14
 73
    10
 74
     0
 42
0.000000001
 43
0.0000000001
 40
0.0
 40
0.0
 40
0.0
 40
0.0
 40
0.1631126325425451
 40
0.3262368851465312
 40
0.489098786565904
 40
0.6516573278613743
 40
0.8141051831094188
 40
0.9766924970552024
 40
1.0
 40
1.0
 40
1.0
 40
1.0
 10
70.93400321852687
 20
662.3420643270738
 30
0.0
 10
70.93016042693131
 20
662.3461951144441
 30
0.0
 10
70.92247456998174
 20
662.3544569834596
 30
0.0
 10
70.90857107258302
 20
662.3636230649937
 30
0.0
 10
70.8948607334892
 20
662.3690117731082
 30
0.0
 10
70.88262286820662
 20
662.3698863092997
 30
0.0
 10
70.87332714007238
 20
662.3662035347352
 30
0.0
 10
70.86942766773478
 20
662.3606247411624
 30
0.0
 10
70.86841270957802
 20
662.3569198692452
 30
0.0
 10
70.86828545406536
 20
662.3564553521888
 30
0.0
  0
SPLINE
  5
255093
330
18
100
AcDbEntity
  8
姿図
100
AcDbSpline
210
0.0
220
0.0
230
1.0
 70
     8
 71
     3
 72
     9
 73
     5
 74
     0
 42
0.000000001
 43
0.0000000001
 40
0.0
 40
0.0
 40
0.0
 40
0.0
 40
0.484690709168305
 40
0.9999999999999999
 40
0.9999999999999999
 40
0.9999999999999999
 40
0.9999999999999999
 10
70.86828545406536
 20
662.3564553521888
 30
0.0
 10
70.8659115920878
 20
662.3468093886554
 30
0.0
 10
70.86101390799217
 20
662.3269081127469
 30
0.0
 10
70.85569230268976
 20
662.3072977339907
 30
0.0
 10
70.85295003003529
 20
662.2971923236208
 30
0.0
  0
LINE
  5
255094
330
18
100
AcDbEntity
  8
姿図
100
AcDbLine
 10
70.85295003003529
 20
662.2971923236208
 30
0.0
 11
70.80582474843703
 21
662.1799075241081
 31
0.0
  0
LINE
  5
255095
330
18
100
AcDbEntity
  8
姿図
100
AcDbLine
 10
70.78977643379187
 20
662.2052542070878
 30
0.0
 11
70.80582723376818
 21
662.1799035470328
 31
0.0
  0
LINE
  5
255096
330
18
100
AcDbEntity
  8
姿図
100
AcDbLine
 10
70.78977643379187
 20
662.2052542070878
 30
0.0
 11
70.85087150246699
 21
662.3565931108626
 31
0.0
  0
LINE
  5
255097
330
18
100
AcDbEntity
  8
姿図
100
AcDbLine
 10
70.85087150246699
 20
662.3565931108626
 30
0.0
 11
70.50315218348521
 21
662.905767016046
 31
0.0
  0
LINE
  5
255098
330
18
100
AcDbEntity
  8
姿図
100
AcDbLine
 10
70.50315218348521
 20
662.905767016046
 30
0.0
 11
70.37555446043729
 21
662.8594594975709
 31
0.0
  0
LINE
  5
255099
330
18
100
AcDbEntity
  8
姿図
100
AcDbLine
 10
70.37555443924867
 20
662.8594595250614
 30
0.0
 11
70.23645321680365
 21
662.8126832882084
 31
0.0
  0
LINE
  5
25509A
330
18
100
AcDbEntity
  8
姿図
100
AcDbLine
 10
72.69636591161708
 20
674.5190788415632
 30
0.0
 11
72.71770617545093
 21
674.5381325158824
 31
0.0
  0
SPLINE
  5
25509B
330
18
100
AcDbEntity
  8
姿図
100
AcDbSpline
210
0.0
220
0.0
230
1.0
 70
     8
 71
     3
 72
     9
 73
     5
 74
     0
 42
0.000000001
 43
0.0000000001
 40
0.0
 40
0.0
 40
0.0
 40
0.0
 40
0.3651695950651425
 40
1.0
 40
1.0
 40
1.0
 40
1.0
 10
83.53997512882688
 20
686.2544432652328
 30
0.0
 10
83.53958991075939
 20
686.2400092340649
 30
0.0
 10
83.53853500894752
 20
686.2004823091429
 30
0.0
 10
83.53720268684117
 20
686.1611070759315
 30
0.0
 10
83.53635688825887
 20
686.1361104806874
 30
0.0
  0
SPLINE
  5
25509C
330
18
100
AcDbEntity
  8
姿図
100
AcDbSpline
210
0.0
220
0.0
230
1.0
 70
     8
 71
     3
 72
    13
 73
     9
 74
     0
 42
0.000000001
 43
0.0000000001
 40
0.0
 40
0.0
 40
0.0
 40
0.0
 40
0.1657217651469007
 40
0.3314629051672127
 40
0.4967334846982141
 40
0.6613869096982403
 40
0.8257089448204693
 40
1.0
 40
1.0
 40
1.0
 40
1.0
 10
83.59464114399992
 20
686.0741276079568
 30
0.0
 10
83.59029703832292
 20
686.0750972884166
 30
0.0
 10
83.58160831909052
 20
686.0770367627033
 30
0.0
 10
83.56753693468684
 20
686.0853139233736
 30
0.0
 10
83.55468271742708
 20
686.0965033908473
 30
0.0
 10
83.54443982888449
 20
686.1096580053764
 30
0.0
 10
83.53742116548227
 20
686.1236909387443
 30
0.0
 10
83.53671854257948
 20
686.1318901695645
 30
0.0
 10
83.53635688825887
 20
686.1361104806874
 30
0.0
  0
LINE
  5
25509D
330
18
100
AcDbEntity
  8
姿図
100
AcDbLine
 10
73.26543802072212
 20
665.4876066731349
 30
0.0
 11
71.01337800066409
 21
663.1268803265043
 31
0.0
  0
LINE
  5
25509E
330
18
100
AcDbEntity
  8
姿図
100
AcDbLine
 10
55.99895775803861
 20
687.3449287608117
 30
0.0
 11
55.76746081929159
 21
687.136014370802
 31
0.0
  0
SPLINE
  5
25509F
330
18
100
AcDbEntity
  8
姿図
100
AcDbSpline
210
0.0
220
0.0
230
1.0
 70
     8
 71
     3
 72
    10
 73
     6
 74
     0
 42
0.000000001
 43
0.0000000001
 40
0.0
 40
0.0
 40
0.0
 40
0.0
 40
0.2501340347031524
 40
0.5002689728668369
 40
1.0
 40
1.0
 40
1.0
 40
1.0
 10
82.91735770832304
 20
688.8674838129914
 30
0.0
 10
82.88102168180671
 20
688.8966432447032
 30
0.0
 10
82.80834949753171
 20
688.9549622134482
 30
0.0
 10
82.66273593954165
 20
689.0708526546739
 30
0.0
 10
82.55312892956783
 20
689.1568902511382
 30
0.0
 10
82.48008384389902
 20
689.2142280400803
 30
0.0
  0
LINE
  5
2550A0
330
18
100
AcDbEntity
  8
姿図
100
AcDbLine
 10
82.91735770832304
 20
688.8674838129914
 30
0.0
 11
80.44457090303592
 21
686.2622586656191
 31
0.0
  0
LINE
  5
2550A1
330
18
100
AcDbEntity
  8
姿図
100
AcDbLine
 10
65.63040187742013
 20
699.734506353683
 30
0.0
 11
65.54776878175807
 21
699.7736760412226
 31
0.0
  0
LINE
  5
2550A2
330
18
100
AcDbEntity
  8
姿図
100
AcDbLine
 10
65.63027448108062
 20
699.7345655077792
 30
0.0
 11
66.51153572640177
 21
699.285820818165
 31
0.0
  0
LINE
  5
2550A3
330
18
100
AcDbEntity
  8
姿図
100
AcDbLine
 10
54.621432205237
 20
688.1327083827634
 30
0.0
 11
54.54012507585713
 21
688.0609712522844
 31
0.0
  0
SPLINE
  5
2550A4
330
18
100
AcDbEntity
  8
姿図
100
AcDbSpline
210
0.0
220
0.0
230
1.0
 70
     8
 71
     3
 72
    10
 73
     6
 74
     0
 42
0.000000001
 43
0.0000000001
 40
0.0
 40
0.0
 40
0.0
 40
0.0
 40
0.4413468947356609
 40
0.7203703538148887
 40
1.0
 40
1.0
 40
1.0
 40
1.0
 10
83.04187284442378
 20
688.7578383790756
 30
0.0
 10
83.02405176277733
 20
688.7746494935784
 30
0.0
 10
82.99496403372763
 20
688.8020887452121
 30
0.0
 10
82.95313675037062
 20
688.8383436412989
 30
0.0
 10
82.92929267996749
 20
688.8577633983866
 30
0.0
 10
82.91735770832304
 20
688.8674838129914
 30
0.0
  0
LINE
  5
2550A5
330
18
100
AcDbEntity
  8
姿図
100
AcDbLine
 10
83.04187284442378
 20
688.7578383790756
 30
0.0
 11
80.55537924911366
 21
686.0964553791221
 31
0.0
  0
SPLINE
  5
2550A6
330
18
100
AcDbEntity
  8
姿図
100
AcDbSpline
210
0.0
220
0.0
230
1.0
 70
     8
 71
     3
 72
    10
 73
     6
 74
     0
 42
0.000000001
 43
0.0000000001
 40
0.0
 40
0.0
 40
0.0
 40
0.0
 40
0.3047946112985214
 40
0.7099355558139498
 40
1.0
 40
1.0
 40
1.0
 40
1.0
 10
83.44893313580994
 20
688.1149276536349
 30
0.0
 10
83.4267946467225
 20
688.1806270100703
 30
0.0
 10
83.37522910070379
 20
688.3336556641168
 30
0.0
 10
83.23004143934284
 20
688.5608962650924
 30
0.0
 10
83.09726987077798
 20
688.6998584197563
 30
0.0
 10
83.04187284442378
 20
688.7578383790756
 30
0.0
  0
LINE
  5
2550A7
330
18
100
AcDbEntity
  8
姿図
100
AcDbLine
 10
83.44893313580994
 20
688.1149276536349
 30
0.0
 11
81.1837280348168
 21
685.5322331072359
 31
0.0
  0
ELLIPSE
  5
2550A8
330
18
100
AcDbEntity
  8
姿図
100
AcDbEllipse
 10
54.45546617865591
 20
687.8716798883711
 30
0.0
 11
0.2928973726596666
 21
-0.05740243362681953
 31
0.0
210
0.0
220
0.0
230
1.0
 40
0.6070946619409079
 41
1.146126881588552
 42
2.619413675354995
  0
SPLINE
  5
2550A9
330
18
100
AcDbEntity
  8
姿図
100
AcDbSpline
210
0.0
220
0.0
230
1.0
 70
     8
 71
     3
 72
    12
 73
     8
 74
     0
 42
0.000000001
 43
0.0000000001
 40
0.0
 40
0.0
 40
0.0
 40
0.0
 40
0.2322180396051443
 40
0.4643700976418892
 40
0.6979421932989954
 40
0.9311161341768961
 40
1.0
 40
1.0
 40
1.0
 40
1.0
 10
54.95561812628131
 20
687.4608776945465
 30
0.0
 10
54.93324298040952
 20
687.460684251255
 30
0.0
 10
54.88849904625647
 20
687.460297419636
 30
0.0
 10
54.80602426307411
 20
687.4408638377779
 30
0.0
 10
54.72372599290449
 20
687.4100376029446
 30
0.0
 10
54.66588646853563
 20
687.379334623113
 30
0.0
 10
54.63886056654826
 20
687.3609190370307
 30
0.0
 10
54.63269734690965
 20
687.3567193880476
 30
0.0
  0
ELLIPSE
  5
2550AA
330
18
100
AcDbEntity
  8
姿図
100
AcDbEllipse
 10
78.74460950511224
 20
693.169935083339
 30
0.0
 11
573.8412871368598
 21
569.0799568210623
 31
0.0
210
0.0
220
0.0
230
1.0
 40
0.0025179124659219
 41
4.650950172449558
 42
4.653680811718751
  0
SPLINE
  5
2550AB
330
18
100
AcDbEntity
  8
姿図
100
AcDbSpline
210
0.0
220
0.0
230
1.0
 70
     8
 71
     3
 72
    10
 73
     6
 74
     0
 42
0.000000001
 43
0.0000000001
 40
0.0
 40
0.0
 40
0.0
 40
0.0
 40
0.4413525003941979
 40
0.7203747092238793
 40
1.0
 40
1.0
 40
1.0
 40
1.0
 10
83.47158347972646
 20
687.9921625947611
 30
0.0
 10
83.46947305786233
 20
688.0097453067806
 30
0.0
 10
83.46602843132149
 20
688.038443775798
 30
0.0
 10
83.45783436430509
 20
688.0796777152561
 30
0.0
 10
83.45190234659043
 20
688.1031692208405
 30
0.0
 10
83.44893313580994
 20
688.1149276536349
 30
0.0
  0
LINE
  5
2550AC
330
18
100
AcDbEntity
  8
姿図
100
AcDbLine
 10
83.47158347972646
 20
687.9921625947611
 30
0.0
 11
81.28618175071259
 21
685.4766533324694
 31
0.0
  0
SPLINE
  5
2550AD
330
18
100
AcDbEntity
  8
姿図
100
AcDbSpline
210
0.0
220
0.0
230
1.0
 70
     8
 71
     3
 72
    11
 73
     7
 74
     0
 42
0.000000001
 43
0.0000000001
 40
0.0
 40
0.0
 40
0.0
 40
0.0
 40
0.2500321210171008
 40
0.500064488049838
 40
0.7500280185937338
 40
1.0
 40
1.0
 40
1.0
 40
1.0
 10
83.50632411007126
 20
687.5932763502273
 30
0.0
 10
83.50382843024494
 20
687.6263354332382
 30
0.0
 10
83.4988370681368
 20
687.6924536317879
 30
0.0
 10
83.49045172600242
 20
687.7920432397481
 30
0.0
 10
83.48146633720725
 20
687.8919021562017
 30
0.0
 10
83.47487780267738
 20
687.9587420719561
 30
0.0
 10
83.47158347972646
 20
687.9921625947611
 30
0.0
  0
SPLINE
  5
2550AE
330
18
100
AcDbEntity
  8
姿図
100
AcDbSpline
210
0.0
220
0.0
230
1.0
 70
     8
 71
     3
 72
    11
 73
     7
 74
     0
 42
0.000000001
 43
0.0000000001
 40
0.0
 40
0.0
 40
0.0
 40
0.0
 40
0.2500316445847395
 40
0.5000642902991941
 40
0.7500277614125238
 40
1.0
 40
1.0
 40
1.0
 40
1.0
 10
65.54776878175807
 20
699.7736760412226
 30
0.0
 10
65.50953717959021
 20
699.7916730229806
 30
0.0
 10
65.43307382217478
 20
699.8276670585567
 30
0.0
 10
65.31845207604636
 20
699.8808754332631
 30
0.0
 10
65.20388449070421
 20
699.9335568713648
 30
0.0
 10
65.12756158166019
 20
699.9681492764113
 30
0.0
 10
65.08939945789297
 20
699.9854457822616
 30
0.0
  0
SPLINE
  5
2550AF
330
18
100
AcDbEntity
  8
姿図
100
AcDbSpline
210
0.0
220
0.0
230
1.0
 70
     8
 71
     3
 72
    10
 73
     6
 74
     0
 42
0.000000001
 43
0.0000000001
 40
0.0
 40
0.0
 40
0.0
 40
0.0
 40
0.441350690311319
 40
0.720375752556938
 40
1.0
 40
1.0
 40
1.0
 40
1.0
 10
65.08939945789297
 20
699.9854457822616
 30
0.0
 10
65.06956123089674
 20
699.9941077269402
 30
0.0
 10
65.03718113494239
 20
700.0082458149809
 30
0.0
 10
64.99270761272197
 20
700.0247870713215
 30
0.0
 10
64.9681691022974
 20
700.0327417269468
 30
0.0
 10
64.95588668756625
 20
700.0367233206844
 30
0.0
  0
LINE
  5
2550B0
330
18
100
AcDbEntity
  8
姿図
100
AcDbLine
 10
64.439024745914
 20
699.970010603
 30
0.0
 11
63.36262453345006
 21
699.0216183671193
 31
0.0
  0
SPLINE
  5
2550B1
330
18
100
AcDbEntity
  8
姿図
100
AcDbSpline
210
0.0
220
0.0
230
1.0
 70
     8
 71
     3
 72
     8
 73
     4
 74
     0
 42
0.000000001
 43
0.0000000001
 40
0.8999807293856104
 40
0.8999807293856104
 40
0.8999807293856104
 40
0.8999807293856104
 40
1.0
 40
1.0
 40
1.0
 40
1.0
 10
52.91272590525125
 20
689.5941633897432
 30
0.0
 10
52.59845884190702
 20
689.3041314928123
 30
0.0
 10
52.28424289933372
 20
689.0140109957416
 30
0.0
 10
51.97002695676042
 20
688.7238904986709
 30
0.0
  0
SPLINE
  5
2550B2
330
18
100
AcDbEntity
  8
姿図
100
AcDbSpline
210
0.0
220
0.0
230
1.0
 70
     8
 71
     3
 72
    10
 73
     6
 74
     0
 42
0.000000001
 43
0.0000000001
 40
0.0
 40
0.0
 40
0.0
 40
0.0
 40
0.3047939943065211
 40
0.709935704697487
 40
0.9999999999999999
 40
0.9999999999999999
 40
0.9999999999999999
 40
0.9999999999999999
 10
64.95588668756625
 20
700.0367233206844
 30
0.0
 10
64.89076780586686
 20
700.0525233538783
 30
0.0
 10
64.7390908698643
 20
700.0893252853773
 30
0.0
 10
64.55722967844565
 20
700.0642226014422
 30
0.0
 10
64.47382436427398
 20
699.9977466840628
 30
0.0
 10
64.439024745914
 20
699.970010603
 30
0.0
  0
LWPOLYLINE
  5
2550B3
330
18
100
AcDbEntity
  8
姿図
100
AcDbPolyline
 90
        3
 70
   128
 43
0.0
 10
84.29372547843556
 20
690.4091414038771
 10
83.6998601410966
 20
691.2999787136403
 10
83.22890866729611
 20
691.9489347254427
  0
ARC
  5
2550B4
330
18
100
AcDbEntity
  8
姿図
100
AcDbCircle
 10
62.14245746164067
 20
676.0093126996146
 30
0.0
 40
26.43508440980414
100
AcDbArc
 50
39.87144360239743
 51
50.62168079334894
  0
ARC
  5
2550B5
330
18
100
AcDbEntity
  8
姿図
100
AcDbCircle
 10
64.4729568630957
 20
679.2458163062554
 30
0.0
 40
22.44689966765435
100
AcDbArc
 50
53.08211617917124
 51
64.72628693834794
  0
ARC
  5
2550B6
330
18
100
AcDbEntity
  8
姿図
100
AcDbCircle
 10
67.67361273944579
 20
686.7144783350249
 30
0.0
 40
14.30742944298169
100
AcDbArc
 50
70.95822270292445
 51
77.32211518226929
  0
ARC
  5
2550B7
330
18
100
AcDbEntity
  8
姿図
100
AcDbCircle
 10
67.95505917954438
 20
695.6653251347122
 30
0.0
 40
5.214283916637513
100
AcDbArc
 50
105.0238875310967
 51
123.6569559110119
  0
ARC
  5
2550B8
330
18
100
AcDbEntity
  8
姿図
100
AcDbCircle
 10
81.65571358776225
 20
682.473468869688
 30
0.0
 40
5.160792711531917
100
AcDbArc
 50
320.8505037301991
 51
351.0400410495297
  0
ARC
  5
2550B9
330
18
100
AcDbEntity
  8
姿図
100
AcDbCircle
 10
75.40683687008413
 20
682.6597174548934
 30
0.0
 40
11.45843212791048
100
AcDbArc
 50
2.705865421037163
 51
19.05879481858454
  0
ARC
  5
2550BA
330
18
100
AcDbEntity
  8
姿図
100
AcDbCircle
 10
67.30114220655815
 20
679.5916080339258
 30
0.0
 40
20.14365692871326
100
AcDbArc
 50
25.24513926385158
 51
32.48096206111465
  0
SPLINE
  5
2550BB
330
18
100
AcDbEntity
  8
姿図
100
AcDbSpline
210
0.0
220
0.0
230
1.0
 70
     8
 71
     3
 72
    10
 73
     6
 74
     0
 42
0.000000001
 43
0.0000000001
 40
0.0
 40
0.0
 40
0.0
 40
0.0
 40
0.3394036325070067
 40
0.8980713560547099
 40
1.0
 40
1.0
 40
1.0
 40
1.0
 10
61.25070447782502
 20
697.5102092973352
 30
0.0
 10
60.27660341488217
 20
696.6444663969637
 30
0.0
 10
57.69910518344139
 20
694.3536868469971
 30
0.0
 10
54.92943792602796
 20
691.6692922535586
 30
0.0
 10
53.14874001951875
 20
689.8370142167616
 30
0.0
 10
52.87398204048912
 20
689.5542975310339
 30
0.0
  0
ARC
  5
2550BC
330
18
100
AcDbEntity
  8
姿図
100
AcDbCircle
 10
52.94439352912849
 20
682.9163663144599
 30
0.0
 40
5.208176821776212
100
AcDbArc
 50
113.4255781924629
 51
155.7839060672065
  0
LINE
  5
2550BD
330
18
100
AcDbEntity
  8
姿図
100
AcDbLine
 10
48.55136748217001
 20
683.0940291731051
 30
0.0
 11
48.51829423404234
 21
682.906007391018
 31
0.0
  0
SPLINE
  5
2550BE
330
18
100
AcDbEntity
  8
姿図
100
AcDbSpline
210
0.0
220
0.0
230
1.0
 70
     8
 71
     3
 72
     9
 73
     5
 74
     0
 42
0.000000001
 43
0.0000000001
 40
0.0
 40
0.0
 40
0.0
 40
0.0
 40
0.4230244441272523
 40
1.0
 40
1.0
 40
1.0
 40
1.0
 10
69.51765057464155
 20
661.9669829612801
 30
0.0
 10
69.55675643240374
 20
662.0130263849056
 30
0.0
 10
69.64919992663937
 20
662.1218697963556
 30
0.0
 10
69.74177869888172
 20
662.2308177035786
 30
0.0
 10
69.79519438745825
 20
662.2936779829098
 30
0.0
  0
SPLINE
  5
2550BF
330
18
100
AcDbEntity
  8
姿図
100
AcDbSpline
210
0.0
220
0.0
230
1.0
 70
     8
 71
     3
 72
     9
 73
     5
 74
     0
 42
0.000000001
 43
0.0000000001
 40
0.0
 40
0.0
 40
0.0
 40
0.0
 40
0.4782795608040898
 40
1.0
 40
1.0
 40
1.0
 40
1.0
 10
69.79519438745825
 20
662.2936779829098
 30
0.0
 10
69.86544403431327
 20
662.3763590864532
 30
0.0
 10
70.0123239192427
 20
662.5492310013736
 30
0.0
 10
70.15961069530744
 20
662.7223589163631
 30
0.0
 10
70.23645321680365
 20
662.8126832882084
 30
0.0
  0
LINE
  5
2550C0
330
18
100
AcDbEntity
  8
姿図
100
AcDbLine
 10
70.37555443924867
 20
662.8594595250614
 30
0.0
 11
70.24578441283234
 21
662.6980778671477
 31
0.0
  0
LINE
  5
2550C1
330
18
100
AcDbEntity
  8
姿図
100
AcDbLine
 10
70.24578441283234
 20
662.6980778671477
 30
0.0
 11
69.53067548990333
 21
661.8106924464073
 31
0.0
  0
LINE
  5
2550C2
330
18
100
AcDbEntity
  8
姿図
100
AcDbLine
 10
70.24578441283234
 20
662.6980778671477
 30
0.0
 11
70.6594987387956
 21
662.044674735009
 31
0.0
  0
LINE
  5
2550C3
330
18
100
AcDbEntity
  8
姿図
100
AcDbLine
 10
70.6594987387956
 20
662.044674735009
 30
0.0
 11
70.78977643379187
 21
662.2052542070878
 31
0.0
  0
LINE
  5
2550C4
330
18
100
AcDbEntity
  8
姿図
100
AcDbLine
 10
70.80583018279424
 20
662.1798995693694
 30
0.0
 11
70.78311829371498
 21
662.1544773214907
 31
0.0
  0
LWPOLYLINE
  5
2550C5
330
18
100
AcDbEntity
  8
姿図
100
AcDbPolyline
 90
        4
 70
   128
 43
0.0
 10
70.78311829371498
 20
662.1544773214907
 10
70.76646294062562
 20
662.1358322086224
 10
70.74980857716588
 20
662.1171851350011
 10
70.71745384304387
 20
662.0809526265039
  0
LINE
  5
2550C6
330
18
100
AcDbEntity
  8
姿図
100
AcDbLine
 10
70.71745384304387
 20
662.0809526265039
 30
0.0
 11
70.09624357792384
 21
661.3827733217397
 31
0.0
  0
LINE
  5
2550C7
330
18
100
AcDbEntity
  8
姿図
100
AcDbLine
 10
70.09624357792384
 20
661.3827733217397
 30
0.0
 11
69.4981690492753
 21
660.7072339127194
 31
0.0
  0
LINE
  5
2550C8
330
18
100
AcDbEntity
  8
姿図
100
AcDbLine
 10
69.40704849198943
 20
660.2334486546985
 30
0.0
 11
70.32296544817217
 21
661.234047982585
 31
0.0
  0
ELLIPSE
  5
2550C9
330
18
100
AcDbEntity
  8
姿図
100
AcDbEllipse
 10
78.74461689931354
 20
693.1699427266394
 30
0.0
 11
548.3191269659789
 21
590.944923060006
 31
0.0
210
0.0
220
0.0
230
1.0
 40
0.0020479404889255
 41
4.650826474159176
 42
4.653302585619834
  0
LINE
  5
2550CA
330
18
100
AcDbEntity
  8
姿図
100
AcDbLine
 10
73.70639936416592
 20
666.6912925752296
 30
0.0
 11
70.81199872311646
 21
663.3753113950838
 31
0.0
  0
SPLINE
  5
2550CB
330
18
100
AcDbEntity
  8
姿図
100
AcDbSpline
210
0.0
220
0.0
230
1.0
 70
     8
 71
     3
 72
    10
 73
     6
 74
     0
 42
0.000000001
 43
0.0000000001
 40
0.0
 40
0.0
 40
0.0
 40
0.0
 40
0.1707648956575848
 40
0.6884296327062129
 40
1.0
 40
1.0
 40
1.0
 40
1.0
 10
73.76972960935421
 20
667.1366057253169
 30
0.0
 10
73.57928893950825
 20
666.9126044387043
 30
0.0
 10
72.81153746524001
 20
666.0095551153956
 30
0.0
 10
71.6806427128144
 20
664.6918509002467
 30
0.0
 10
70.74020263007623
 20
663.5979995373766
 30
0.0
 10
70.3868489666072
 20
663.1870043092326
 30
0.0
  0
SPLINE
  5
2550CC
330
18
100
AcDbEntity
  8
姿図
100
AcDbSpline
210
0.0
220
0.0
230
1.0
 70
     8
 71
     3
 72
     9
 73
     5
 74
     0
 42
0.000000001
 43
0.0000000001
 40
0.0
 40
0.0
 40
0.0
 40
0.0
 40
0.0018556014959191
 40
1.0
 40
1.0
 40
1.0
 40
1.0
 10
70.86828545406536
 20
662.3564553521888
 30
0.0
 10
70.86829092067069
 20
662.3564615595733
 30
0.0
 10
70.87123692245888
 20
662.3598067737776
 30
0.0
 10
70.87411638109063
 20
662.36326196914
 30
0.0
 10
70.87699049659466
 20
662.3667107530367
 30
0.0
  0
LINE
  5
2550CD
330
18
100
AcDbEntity
  8
姿図
100
AcDbLine
 10
70.90141770556994
 20
662.3547881773759
 30
0.0
 11
70.85295003003529
 21
662.2971923236208
 31
0.0
  0
ELLIPSE
  5
2550CE
330
18
100
AcDbEntity
  8
姿図
100
AcDbEllipse
 10
70.7131321952179
 20
662.1950166589813
 30
0.0
 11
0.1487943105802359
 21
0.2310470692703178
 31
0.0
210
0.0
220
0.0
230
1.0
 40
0.1602120508777631
 41
4.111213065570329
 42
5.584499859338117
  0
SPLINE
  5
2550CF
330
18
100
AcDbEntity
  8
姿図
100
AcDbSpline
210
0.0
220
0.0
230
1.0
 70
     8
 71
     3
 72
    12
 73
     8
 74
     0
 42
0.000000001
 43
0.0000000001
 40
0.0
 40
0.0
 40
0.0
 40
0.0
 40
0.2322196200479455
 40
0.4643712252102172
 40
0.6979438287121793
 40
0.9311195701941422
 40
1.0
 40
1.0
 40
1.0
 40
1.0
 10
70.50315218348521
 20
662.905767016046
 30
0.0
 10
70.48568830884341
 20
662.8978164701629
 30
0.0
 10
70.4507656745601
 20
662.881917707035
 30
0.0
 10
70.38520349645918
 20
662.8357737523397
 30
0.0
 10
70.31925248714259
 20
662.7791286013436
 30
0.0
 10
70.27262632216625
 20
662.7307169083622
 30
0.0
 10
70.2507687747052
 20
662.7041387173865
 30
0.0
 10
70.24578441283234
 20
662.6980778671477
 30
0.0
  0
LINE
  5
2550D0
330
18
100
AcDbEntity
  8
姿図
100
AcDbLine
 10
45.01477391006878
 20
656.7299813600931
 30
0.0
 11
46.56110634715498
 21
658.2707170943667
 31
0.0
  0
LINE
  5
2550D1
330
18
100
AcDbEntity
  8
姿図
100
AcDbLine
 10
71.1023013036085
 20
662.1400445851326
 30
0.0
 11
70.32296544817217
 21
661.234047982585
 31
0.0
  0
LINE
  5
2550D2
330
18
100
AcDbEntity
  8
姿図
100
AcDbLine
 10
85.721992543407
 20
701.48682859261
 30
0.0
 11
86.21919682306716
 21
702.0141046737335
 31
0.0
  0
LINE
  5
2550D3
330
18
100
AcDbEntity
  8
姿図
100
AcDbLine
 10
79.4332408254972
 20
695.9759770355014
 30
0.0
 11
85.75061049090436
 21
702.6243817477347
 31
0.0
  0
LINE
  5
2550D4
330
18
100
AcDbEntity
  8
姿図
100
AcDbLine
 10
88.27193898066741
 20
700.1269529020149
 30
0.0
 11
81.85848326483199
 21
693.6013046421447
 31
0.0
  0
LINE
  5
2550D5
330
18
100
AcDbEntity
  8
姿図
100
AcDbLine
 10
86.99880022289432
 20
700.1942854204328
 30
0.0
 11
87.46314717988224
 21
700.6622559726519
 31
0.0
  0
LINE
  5
2550D6
330
18
100
AcDbEntity
  8
姿図
100
AcDbLine
 10
90.56607822974115
 20
696.6778824246978
 30
0.0
 11
84.38515701172554
 21
690.258739483043
 31
0.0
  0
SPLINE
  5
2550D7
330
18
100
AcDbEntity
  8
姿図
100
AcDbSpline
210
0.0
220
0.0
230
1.0
 70
     8
 71
     3
 72
     9
 73
     5
 74
     0
 42
0.000000001
 43
0.0000000001
 40
0.0
 40
0.0
 40
0.0
 40
0.0
 40
0.0025181420860924
 40
1.0
 40
1.0
 40
1.0
 40
1.0
 10
81.07568419725922
 20
703.7089749399771
 30
0.0
 10
81.07666811832627
 20
703.7099891042884
 30
0.0
 10
81.46740106087145
 20
704.1127321889207
 30
0.0
 10
81.85802325473549
 20
704.515595975997
 30
0.0
 10
82.24766180641339
 20
704.9174452948162
 30
0.0
  0
LWPOLYLINE
  5
2550D8
330
18
100
AcDbEntity
  8
姿図
100
AcDbPolyline
 90
        3
 70
   128
 43
0.0
 10
71.28947472500829
 20
700.5545760234236
 10
72.2334869716637
 20
701.5023838069716
 10
73.75486569157397
 20
703.0298750681368
  0
SPLINE
  5
2550D9
330
18
100
AcDbEntity
  8
姿図
100
AcDbSpline
210
0.0
220
0.0
230
1.0
 70
     8
 71
     3
 72
    11
 73
     7
 74
     0
 42
0.000000001
 43
0.0000000001
 40
0.0
 40
0.0
 40
0.0
 40
0.0
 40
0.2835280861893514
 40
0.568120103329471
 40
0.8558695092336969
 40
1.0
 40
1.0
 40
1.0
 40
1.0
 10
73.75486569157397
 20
703.0298750681368
 30
0.0
 10
73.88770372895476
 20
703.145737577765
 30
0.0
 10
74.15387827461313
 20
703.377897367741
 30
0.0
 10
74.70336513116126
 20
703.6436178125051
 30
0.0
 10
75.20112343528584
 20
703.7996313691007
 30
0.0
 10
75.48532423407212
 20
703.8022324120284
 30
0.0
 10
75.5801700486632
 20
703.803100453344
 30
0.0
  0
LWPOLYLINE
  5
2550DA
330
18
100
AcDbEntity
  8
姿図
100
AcDbPolyline
 90
        3
 70
   128
 43
0.0
 10
81.1317669653098
 20
694.3700325918276
 10
85.46952716246349
 20
698.7914423635684
 10
86.91195895567506
 20
700.2617616715278
  0
LWPOLYLINE
  5
2550DB
330
18
100
AcDbEntity
  8
姿図
100
AcDbPolyline
 90
        4
 70
   128
 43
0.0
 10
85.88869910393137
 20
701.2753206205476
 10
84.753444999262
 20
700.0827426556184
 10
80.21244791770641
 20
695.3122426992235
 10
80.20352893206172
 20
695.3028728097615
  0
LWPOLYLINE
  5
2550DC
330
18
100
AcDbEntity
  8
姿図
100
AcDbPolyline
 90
        3
 70
   128
 43
0.0
 10
83.64584401460849
 20
691.3348967107088
 10
87.8057300520972
 20
695.6618686648175
 10
89.23254189779874
 20
697.1460953290224
  0
LINE
  5
2550DD
330
18
100
AcDbEntity
  8
姿図
100
AcDbLine
 10
74.02859631645265
 20
702.7711205972528
 30
0.0
 11
71.69051575940068
 21
700.4238041557633
 31
0.0
  0
LINE
  5
2550DE
330
18
100
AcDbEntity
  8
姿図
100
AcDbLine
 10
74.13848315082538
 20
702.378108349121
 30
0.0
 11
74.02859631645265
 21
702.7711205972528
 31
0.0
  0
SPLINE
  5
2550DF
330
18
100
AcDbEntity
  8
姿図
100
AcDbSpline
210
0.0
220
0.0
230
1.0
 70
     8
 71
     3
 72
    10
 73
     6
 74
     0
 42
0.000000001
 43
0.0000000001
 40
0.0
 40
0.0
 40
0.0
 40
0.0
 40
0.2372862420709662
 40
0.6186670856353086
 40
1.0
 40
1.0
 40
1.0
 40
1.0
 10
75.15213678126833
 20
703.3800250144623
 30
0.0
 10
75.0487206145333
 20
703.353746102908
 30
0.0
 10
74.77908771073277
 20
703.2852301304562
 30
0.0
 10
74.37078317562924
 20
703.066556928543
 30
0.0
 10
74.14265382426876
 20
702.869595248636
 30
0.0
 10
74.02859631645265
 20
702.7711205972528
 30
0.0
  0
LINE
  5
2550E0
330
18
100
AcDbEntity
  8
姿図
100
AcDbLine
 10
82.72872359710229
 20
703.588262046657
 30
0.0
 11
82.19112040017006
 21
703.0348187685904
 31
0.0
  0
ELLIPSE
  5
2550E1
330
18
100
AcDbEntity
  8
姿図
100
AcDbEllipse
 10
47.83950373338513
 20
713.9980829901742
 30
0.0
 11
-0.4578916606193388
 21
0.5548848823012378
 31
0.0
210
0.0
220
0.0
230
1.0
 40
0.9557914935019508
 41
5.567625955234909
 42
6.303765462584356
  0
LINE
  5
2550E2
330
18
100
AcDbEntity
  8
姿図
100
AcDbLine
 10
44.34476848004687
 20
718.0599594078283
 30
0.0
 11
44.26074629665317
 21
718.064757212935
 31
0.0
  0
LINE
  5
2550E3
330
18
100
AcDbEntity
  8
姿図
100
AcDbLine
 10
35.412958781577
 20
699.2086623473788
 30
0.0
 11
35.40107447394749
 21
699.2069883146706
 31
0.0
  0
LINE
  5
2550E4
330
18
100
AcDbEntity
  8
姿図
100
AcDbLine
 10
45.88083742615299
 20
690.095947173246
 30
0.0
 11
48.67956968227648
 21
685.9081782310087
 31
0.0
  0
LWPOLYLINE
  5
2550E5
330
18
100
AcDbEntity
  8
姿図
100
AcDbPolyline
 90
        3
 70
   128
 43
0.0
 10
45.75375649646264
 20
690.2347716510499
 10
45.80748974017536
 20
690.1866264059289
 10
45.88083742615299
 20
690.095947173246
  0
ARC
  5
2550E6
330
18
100
AcDbEntity
  8
姿図
100
AcDbCircle
 10
45.86454885753628
 20
690.1594250905855
 30
0.0
 40
0.0655344448160299
100
AcDbArc
 50
226.4061616786811
 51
284.3917093134164
  0
SPLINE
  5
2550E7
330
18
100
AcDbEntity
  8
姿図
100
AcDbSpline
210
0.0
220
0.0
230
1.0
 70
     8
 71
     3
 72
     9
 73
     5
 74
     0
 42
0.000000001
 43
0.0000000001
 40
0.0
 40
0.0
 40
0.0
 40
0.0
 40
0.0001345858310783
 40
0.9999999999999999
 40
0.9999999999999999
 40
0.9999999999999999
 40
0.9999999999999999
 10
70.20078764053727
 20
678.2993245566875
 30
0.0
 10
70.20079294584747
 20
678.2993306728623
 30
0.0
 10
70.24021247587979
 20
678.3447750912151
 30
0.0
 10
70.27961566904776
 20
678.3894243922182
 30
0.0
 10
70.31901355910418
 20
678.434067684058
 30
0.0
  0
LINE
  5
2550E8
330
18
100
AcDbEntity
  8
姿図
100
AcDbLine
 10
82.3343536732886
 20
684.6746956026216
 30
0.0
 11
83.59464114399992
 21
686.0741276079568
 31
0.0
  0
LINE
  5
2550E9
330
18
100
AcDbEntity
  8
姿図
100
AcDbLine
 10
72.70496769761652
 20
674.3412988740236
 30
0.0
 11
72.46254026573556
 21
674.31000112037
 31
0.0
  0
SPLINE
  5
2550EA
330
18
100
AcDbEntity
  8
姿図
100
AcDbSpline
210
0.0
220
0.0
230
1.0
 70
     8
 71
     3
 72
     9
 73
     5
 74
     0
 42
0.000000001
 43
0.0000000001
 40
0.0
 40
0.0
 40
0.0
 40
0.0
 40
0.0000074308550656
 40
1.0
 40
1.0
 40
1.0
 40
1.0
 10
83.53635688825887
 20
686.1361104806874
 30
0.0
 10
83.5363537378243
 20
686.136107047791
 30
0.0
 10
83.11238710981138
 20
685.6741284113757
 30
0.0
 10
82.6937310440382
 20
685.2048937960817
 30
0.0
 10
82.2750780892375
 20
684.735662667602
 30
0.0
  0
LWPOLYLINE
  5
2550EB
330
18
100
AcDbEntity
  8
姿図
100
AcDbPolyline
 90
        4
 70
   128
 43
0.0
 10
54.65943143896772
 20
688.0468079269422
 10
54.62253644267827
 20
688.014341464726
 10
54.62251808650927
 20
688.0143250903062
 10
54.62251808650927
 20
688.0143250903062
  0
ENDSEC
  0
SECTION
  2
OBJECTS
  0
DICTIONARY
  5
C
330
0
100
AcDbDictionary
281
     1
  3
ACAD_GROUP
350
D
  3
ACAD_IMAGE_VARS
350
25517D
  3
ACAD_LAYOUT
350
617
  3
ACAD_MLINESTYLE
350
E
  3
ACAD_PLOTSETTINGS
350
618
  3
ACAD_PLOTSTYLENAME
350
615
  3
ACAD_SCALELIST
350
66C31
  3
AcadDim
350
239631
  3
AcDbVariableDictionary
350
6DE
  3
APPDATA
350
25517C
  3
DWGPROPS
350
2551A0
  0
DICTIONARY
  5
67DE7
330
2
100
AcDbDictionary
280
     1
281
     1
  3
ACAD_LAYERFILTERS
360
2394DD
  3
ACAD_LAYERSTATES
360
67DE8
  3
ACLYDICTIONARY
360
2394DC
  0
DICTIONARY
  5
66C5B
330
F
100
AcDbDictionary
280
     1
281
     1
  3
ADSK_XREC_LAYER_RECONCILED
360
66C5C
  0
DICTIONARY
  5
66C67
330
2F4
100
AcDbDictionary
280
     1
281
     1
  3
ADSK_XREC_LAYER_RECONCILED
360
66C68
  0
DICTIONARY
  5
66C6B
330
305
100
AcDbDictionary
280
     1
281
     1
  3
ADSK_XREC_LAYER_RECONCILED
360
66C6C
  0
DICTIONARY
  5
845D5
330
18
100
AcDbDictionary
280
     1
281
     1
  3
ACAD_SORTENTS
360
845D6
  0
DICTIONARY
  5
D
102
{ACAD_REACTORS
330
C
102
}
330
C
100
AcDbDictionary
281
     1
  0
RASTERVARIABLES
  5
25517D
102
{ACAD_REACTORS
330
C
102
}
330
C
100
AcDbRasterVariables
 90
        0
 70
     1
 71
     1
 72
     0
  0
DICTIONARY
  5
617
102
{ACAD_REACTORS
330
C
102
}
330
C
100
AcDbDictionary
281
     1
  3
Model
350
619
  3
ﾚｲｱｳﾄ1
350
61A
  0
DICTIONARY
  5
E
102
{ACAD_REACTORS
330
C
102
}
330
C
100
AcDbDictionary
281
     1
  3
STANDARD
350
1B
  0
DICTIONARY
  5
618
102
{ACAD_REACTORS
330
C
102
}
330
C
100
AcDbDictionary
281
     1
  0
ACDBDICTIONARYWDFLT
  5
615
102
{ACAD_REACTORS
330
C
102
}
330
C
100
AcDbDictionary
281
     1
  3
Normal
350
616
100
AcDbDictionaryWithDefault
340
616
  0
DICTIONARY
  5
66C31
102
{ACAD_REACTORS
330
C
102
}
330
C
100
AcDbDictionary
281
     1
  3
A0
350
66C32
  3
A1
350
66C33
  3
A2
350
66C34
  3
A3
350
66C35
  3
A4
350
66C36
  3
A5
350
66C37
  3
A6
350
66C38
  3
A7
350
66C39
  3
A8
350
66C3A
  3
A9
350
66C3B
  3
B0
350
66C3C
  3
B1
350
66C3D
  3
B2
350
66C3E
  3
B3
350
66C3F
  3
B4
350
66C40
  3
B5
350
66C41
  3
B6
350
66C42
  3
B7
350
66C43
  3
B8
350
66C44
  3
B9
350
66C45
  3
C0
350
66C46
  3
C1
350
66C47
  3
C2
350
66C48
  3
C3
350
66C49
  3
C4
350
66C4A
  3
C5
350
66C4B
  3
C6
350
66C4C
  3
C7
350
66C4D
  3
C8
350
66C4E
  3
C9
350
66C4F
  3
D0
350
66C50
  3
D1
350
66C51
  3
D2
350
66C52
  0
XRECORD
  5
239631
102
{ACAD_REACTORS
330
C
102
}
330
C
100
AcDbXrecord
280
     1
 90
   990106
  3
OPEN
 60
     0
 61
     0
 62
     4
 63
     4
 64
     1
 65
     0
 66
     0
 67
     3
 68
     1
 69
     0
 70
     0
 71
     0
 72
     0
 40
0.0
170
     2
  0
DICTIONARY
  5
6DE
102
{ACAD_REACTORS
330
C
102
}
330
C
100
AcDbDictionary
281
     1
  3
DIMASSOC
350
6DF
  3
INDEXCTL
350
66CB9
  3
PROJECTNAME
350
6E0
  3
SORTENTS
350
66CB8
  0
DICTIONARY
  5
25517C
102
{ACAD_REACTORS
330
C
102
}
330
C
100
AcDbDictionary
281
     1
  0
XRECORD
  5
2551A0
102
{ACAD_REACTORS
330
C
102
}
330
C
100
AcDbXrecord
280
     1
  1
DWGPROPS COOKIE
  2

  3

  4

  6

  7

  8
SPAX
  9

300
=
301
=
302
=
303
=
304
=
305
=
306
=
307
=
308
=
309
=
 40
0.0
 41
2448636.244629629
 42
2456822.110873947
  1

 90
        0
  0
DICTIONARY
  5
2394DD
102
{ACAD_REACTORS
330
67DE7
102
}
330
67DE7
100
AcDbDictionary
281
     1
  0
DICTIONARY
  5
67DE8
102
{ACAD_REACTORS
330
67DE7
102
}
330
67DE7
100
AcDbDictionary
281
     1
  0
DICTIONARY
  5
2394DC
102
{ACAD_REACTORS
330
67DE7
102
}
330
67DE7
100
AcDbDictionary
281
     1
1001
ACAD
1000
<All
  0
XRECORD
  5
66C5C
102
{ACAD_REACTORS
330
66C5B
102
}
330
66C5B
100
AcDbXrecord
280
     1
290
     1
  0
XRECORD
  5
66C68
102
{ACAD_REACTORS
330
66C67
102
}
330
66C67
100
AcDbXrecord
280
     1
290
     1
  0
XRECORD
  5
66C6C
102
{ACAD_REACTORS
330
66C6B
102
}
330
66C6B
100
AcDbXrecord
280
     1
290
     1
  0
SORTENTSTABLE
  5
845D6
102
{ACAD_REACTORS
330
845D5
102
}
330
845D5
100
AcDbSortentsTable
330
18
331
0
  5
24D1F8
331
11B04
  5
11B04
331
12B3E
  5
12B3E
331
246FE7
  5
246FEB
331
0
  5
246FED
  0
LAYOUT
  5
619
102
{ACAD_REACTORS
330
617
102
}
330
617
100
AcDbPlotSettings
  1

  2
FX ApeosPort-IV C3370
  4
A4
  6

 40
4.900083065032959
 41
4.900057315826416
 42
4.90008544921875
 43
4.90008544921875
 44
210.0156707763672
 45
297.0106506347656
 46
12.61014188360454
 47
8.108916365526824
 48
0.0
 49
0.0
140
524.9856554847192
141
812.9780254160005
142
1.0
143
3.0
 70
  3748
 72
     1
 73
     0
 74
     4
  7
spax form.ctb
 75
     0
147
0.3333333333333333
148
0.0
149
0.0
100
AcDbLayout
  1
Model
 70
     1
 71
     0
 10
0.0
 20
0.0
 11
12.0
 21
9.0
 12
0.0
 22
0.0
 32
0.0
 14
21.8215574572389
 24
618.8019538722299
 34
0.0
 15
98.26483364682258
 25
726.3031744221139
 35
0.0
146
0.0
 13
0.0
 23
0.0
 33
0.0
 16
1.0
 26
0.0
 36
0.0
 17
0.0
 27
1.0
 37
0.0
 76
     0
330
18
331
2305E2
1001
ACAD_PSEXT
1000
FX ApeosPort-IV C3370
1000
FX ApeosPort-IV C3370
1000
IP_192.168.6.107
1000

1070
     0
  0
LAYOUT
  5
61A
102
{ACAD_REACTORS
330
617
102
}
330
617
100
AcDbPlotSettings
  1

  2
Canon LASER SHOT LBP-750
  4

  6

 40
0.0
 41
0.0
 42
0.0
 43
0.0
 44
0.0
 45
0.0
 46
0.0
 47
0.0
 48
0.0
 49
0.0
140
0.0
141
0.0
142
1.0
143
1.0
 70
   688
 72
     0
 73
     0
 74
     5
  7
spax form.ctb
 75
    16
147
1.0
148
0.0
149
0.0
100
AcDbLayout
  1
ﾚｲｱｳﾄ1
 70
     0
 71
     1
 10
0.0
 20
0.0
 11
12.0
 21
9.0
 12
0.0
 22
0.0
 32
0.0
 14
1.000000000000000E+20
 24
1.000000000000000E+20
 34
1.000000000000000E+20
 15
-1.000000000000000E+20
 25
-1.000000000000000E+20
 35
-1.000000000000000E+20
146
0.0
 13
0.0
 23
0.0
 33
0.0
 16
1.0
 26
0.0
 36
0.0
 17
0.0
 27
1.0
 37
0.0
 76
     0
330
15
  0
MLINESTYLE
  5
1B
102
{ACAD_REACTORS
330
E
102
}
330
E
100
AcDbMlineStyle
  2
STANDARD
 70
     0
  3

 62
     0
 51
90.0
 52
90.0
 71
     2
 49
0.5
 62
   256
  6
BYLAYER
 49
-0.5
 62
   256
  6
BYLAYER
  0
ACDBPLACEHOLDER
  5
616
102
{ACAD_REACTORS
330
615
102
}
330
615
  0
SCALE
  5
66C32
102
{ACAD_REACTORS
330
66C31
102
}
330
66C31
100
AcDbScale
 70
     0
300
1:1
140
1.0
141
1.0
290
     1
1001
ACAD
1000
AcRTDxfName
1000
SCALE
1000
AcRTDxfName
1000
SCALE
  0
SCALE
  5
66C33
102
{ACAD_REACTORS
330
66C31
102
}
330
66C31
100
AcDbScale
 70
     0
300
1:2
140
1.0
141
2.0
290
     0
1001
ACAD
1000
AcRTDxfName
1000
SCALE
1000
AcRTDxfName
1000
SCALE
  0
SCALE
  5
66C34
102
{ACAD_REACTORS
330
66C31
102
}
330
66C31
100
AcDbScale
 70
     0
300
1:4
140
1.0
141
4.0
290
     0
1001
ACAD
1000
AcRTDxfName
1000
SCALE
1000
AcRTDxfName
1000
SCALE
  0
SCALE
  5
66C35
102
{ACAD_REACTORS
330
66C31
102
}
330
66C31
100
AcDbScale
 70
     0
300
1:5
140
1.0
141
5.0
290
     0
1001
ACAD
1000
AcRTDxfName
1000
SCALE
1000
AcRTDxfName
1000
SCALE
  0
SCALE
  5
66C36
102
{ACAD_REACTORS
330
66C31
102
}
330
66C31
100
AcDbScale
 70
     0
300
1:8
140
1.0
141
8.0
290
     0
1001
ACAD
1000
AcRTDxfName
1000
SCALE
1000
AcRTDxfName
1000
SCALE
  0
SCALE
  5
66C37
102
{ACAD_REACTORS
330
66C31
102
}
330
66C31
100
AcDbScale
 70
     0
300
1:10
140
1.0
141
10.0
290
     0
1001
ACAD
1000
AcRTDxfName
1000
SCALE
1000
AcRTDxfName
1000
SCALE
  0
SCALE
  5
66C38
102
{ACAD_REACTORS
330
66C31
102
}
330
66C31
100
AcDbScale
 70
     0
300
1:16
140
1.0
141
16.0
290
     0
1001
ACAD
1000
AcRTDxfName
1000
SCALE
1000
AcRTDxfName
1000
SCALE
  0
SCALE
  5
66C39
102
{ACAD_REACTORS
330
66C31
102
}
330
66C31
100
AcDbScale
 70
     0
300
1:20
140
1.0
141
20.0
290
     0
1001
ACAD
1000
AcRTDxfName
1000
SCALE
1000
AcRTDxfName
1000
SCALE
  0
SCALE
  5
66C3A
102
{ACAD_REACTORS
330
66C31
102
}
330
66C31
100
AcDbScale
 70
     0
300
1:30
140
1.0
141
30.0
290
     0
1001
ACAD
1000
AcRTDxfName
1000
SCALE
1000
AcRTDxfName
1000
SCALE
  0
SCALE
  5
66C3B
102
{ACAD_REACTORS
330
66C31
102
}
330
66C31
100
AcDbScale
 70
     0
300
1:40
140
1.0
141
40.0
290
     0
1001
ACAD
1000
AcRTDxfName
1000
SCALE
1000
AcRTDxfName
1000
SCALE
  0
SCALE
  5
66C3C
102
{ACAD_REACTORS
330
66C31
102
}
330
66C31
100
AcDbScale
 70
     0
300
1:50
140
1.0
141
50.0
290
     0
1001
ACAD
1000
AcRTDxfName
1000
SCALE
1000
AcRTDxfName
1000
SCALE
  0
SCALE
  5
66C3D
102
{ACAD_REACTORS
330
66C31
102
}
330
66C31
100
AcDbScale
 70
     0
300
1:100
140
1.0
141
100.0
290
     0
1001
ACAD
1000
AcRTDxfName
1000
SCALE
1000
AcRTDxfName
1000
SCALE
  0
SCALE
  5
66C3E
102
{ACAD_REACTORS
330
66C31
102
}
330
66C31
100
AcDbScale
 70
     0
300
2:1
140
2.0
141
1.0
290
     0
1001
ACAD
1000
AcRTDxfName
1000
SCALE
1000
AcRTDxfName
1000
SCALE
  0
SCALE
  5
66C3F
102
{ACAD_REACTORS
330
66C31
102
}
330
66C31
100
AcDbScale
 70
     0
300
4:1
140
4.0
141
1.0
290
     0
1001
ACAD
1000
AcRTDxfName
1000
SCALE
1000
AcRTDxfName
1000
SCALE
  0
SCALE
  5
66C40
102
{ACAD_REACTORS
330
66C31
102
}
330
66C31
100
AcDbScale
 70
     0
300
8:1
140
8.0
141
1.0
290
     0
1001
ACAD
1000
AcRTDxfName
1000
SCALE
1000
AcRTDxfName
1000
SCALE
  0
SCALE
  5
66C41
102
{ACAD_REACTORS
330
66C31
102
}
330
66C31
100
AcDbScale
 70
     0
300
10:1
140
10.0
141
1.0
290
     0
1001
ACAD
1000
AcRTDxfName
1000
SCALE
1000
AcRTDxfName
1000
SCALE
  0
SCALE
  5
66C42
102
{ACAD_REACTORS
330
66C31
102
}
330
66C31
100
AcDbScale
 70
     0
300
100:1
140
100.0
141
1.0
290
     0
1001
ACAD
1000
AcRTDxfName
1000
SCALE
1000
AcRTDxfName
1000
SCALE
  0
SCALE
  5
66C43
102
{ACAD_REACTORS
330
66C31
102
}
330
66C31
100
AcDbScale
 70
     0
300
1/128" = 1'-0"
140
0.0078125
141
12.0
290
     0
1001
ACAD
1000
AcRTDxfName
1000
SCALE
1000
AcRTDxfName
1000
SCALE
  0
SCALE
  5
66C44
102
{ACAD_REACTORS
330
66C31
102
}
330
66C31
100
AcDbScale
 70
     0
300
1/64" = 1'-0"
140
0.015625
141
12.0
290
     0
1001
ACAD
1000
AcRTDxfName
1000
SCALE
1000
AcRTDxfName
1000
SCALE
  0
SCALE
  5
66C45
102
{ACAD_REACTORS
330
66C31
102
}
330
66C31
100
AcDbScale
 70
     0
300
1/32" = 1'-0"
140
0.03125
141
12.0
290
     0
1001
ACAD
1000
AcRTDxfName
1000
SCALE
1000
AcRTDxfName
1000
SCALE
  0
SCALE
  5
66C46
102
{ACAD_REACTORS
330
66C31
102
}
330
66C31
100
AcDbScale
 70
     0
300
1/16" = 1'-0"
140
0.0625
141
12.0
290
     0
1001
ACAD
1000
AcRTDxfName
1000
SCALE
1000
AcRTDxfName
1000
SCALE
  0
SCALE
  5
66C47
102
{ACAD_REACTORS
330
66C31
102
}
330
66C31
100
AcDbScale
 70
     0
300
3/32" = 1'-0"
140
0.09375
141
12.0
290
     0
1001
ACAD
1000
AcRTDxfName
1000
SCALE
1000
AcRTDxfName
1000
SCALE
  0
SCALE
  5
66C48
102
{ACAD_REACTORS
330
66C31
102
}
330
66C31
100
AcDbScale
 70
     0
300
1/8" = 1'-0"
140
0.125
141
12.0
290
     0
1001
ACAD
1000
AcRTDxfName
1000
SCALE
1000
AcRTDxfName
1000
SCALE
  0
SCALE
  5
66C49
102
{ACAD_REACTORS
330
66C31
102
}
330
66C31
100
AcDbScale
 70
     0
300
3/16" = 1'-0"
140
0.1875
141
12.0
290
     0
1001
ACAD
1000
AcRTDxfName
1000
SCALE
1000
AcRTDxfName
1000
SCALE
  0
SCALE
  5
66C4A
102
{ACAD_REACTORS
330
66C31
102
}
330
66C31
100
AcDbScale
 70
     0
300
1/4" = 1'-0"
140
0.25
141
12.0
290
     0
1001
ACAD
1000
AcRTDxfName
1000
SCALE
1000
AcRTDxfName
1000
SCALE
  0
SCALE
  5
66C4B
102
{ACAD_REACTORS
330
66C31
102
}
330
66C31
100
AcDbScale
 70
     0
300
3/8" = 1'-0"
140
0.375
141
12.0
290
     0
1001
ACAD
1000
AcRTDxfName
1000
SCALE
1000
AcRTDxfName
1000
SCALE
  0
SCALE
  5
66C4C
102
{ACAD_REACTORS
330
66C31
102
}
330
66C31
100
AcDbScale
 70
     0
300
1/2" = 1'-0"
140
0.5
141
12.0
290
     0
1001
ACAD
1000
AcRTDxfName
1000
SCALE
1000
AcRTDxfName
1000
SCALE
  0
SCALE
  5
66C4D
102
{ACAD_REACTORS
330
66C31
102
}
330
66C31
100
AcDbScale
 70
     0
300
3/4" = 1'-0"
140
0.75
141
12.0
290
     0
1001
ACAD
1000
AcRTDxfName
1000
SCALE
1000
AcRTDxfName
1000
SCALE
  0
SCALE
  5
66C4E
102
{ACAD_REACTORS
330
66C31
102
}
330
66C31
100
AcDbScale
 70
     0
300
1" = 1'-0"
140
1.0
141
12.0
290
     0
1001
ACAD
1000
AcRTDxfName
1000
SCALE
1000
AcRTDxfName
1000
SCALE
  0
SCALE
  5
66C4F
102
{ACAD_REACTORS
330
66C31
102
}
330
66C31
100
AcDbScale
 70
     0
300
1-1/2" = 1'-0"
140
1.5
141
12.0
290
     0
1001
ACAD
1000
AcRTDxfName
1000
SCALE
1000
AcRTDxfName
1000
SCALE
  0
SCALE
  5
66C50
102
{ACAD_REACTORS
330
66C31
102
}
330
66C31
100
AcDbScale
 70
     0
300
3" = 1'-0"
140
3.0
141
12.0
290
     0
1001
ACAD
1000
AcRTDxfName
1000
SCALE
1000
AcRTDxfName
1000
SCALE
  0
SCALE
  5
66C51
102
{ACAD_REACTORS
330
66C31
102
}
330
66C31
100
AcDbScale
 70
     0
300
6" = 1'-0"
140
6.0
141
12.0
290
     0
1001
ACAD
1000
AcRTDxfName
1000
SCALE
1000
AcRTDxfName
1000
SCALE
  0
SCALE
  5
66C52
102
{ACAD_REACTORS
330
66C31
102
}
330
66C31
100
AcDbScale
 70
     0
300
1'-0" = 1'-0"
140
12.0
141
12.0
290
     0
1001
ACAD
1000
AcRTDxfName
1000
SCALE
1000
AcRTDxfName
1000
SCALE
  0
DICTIONARYVAR
  5
6DF
102
{ACAD_REACTORS
330
6DE
102
}
330
6DE
100
DictionaryVariables
280
     0
  1
1
  0
DICTIONARYVAR
  5
66CB9
102
{ACAD_REACTORS
330
6DE
102
}
330
6DE
100
DictionaryVariables
280
     0
  1
0
  0
DICTIONARYVAR
  5
6E0
102
{ACAD_REACTORS
330
6DE
102
}
330
6DE
100
DictionaryVariables
280
     0
  1

  0
DICTIONARYVAR
  5
66CB8
102
{ACAD_REACTORS
330
6DE
102
}
330
6DE
100
DictionaryVariables
280
     0
  1
127
  0
ENDSEC
  0
EOF
