  0
SECTION
  2
HEADER
  9
$ACADVER
  1
AC1015
  9
$ACADMAINTVER
 70
     6
  9
$DWGCODEPAGE
  3
ANSI_932
  9
$INSBASE
 10
0.0
 20
0.0
 30
0.0
  9
$EXTMIN
 10
6078.030893774748
 20
475.1837868867476
 30
0.0
  9
$EXTMAX
 10
6166.864227108081
 20
560.6528755155042
 30
0.0
  9
$LIMMIN
 10
0.0
 20
0.0
  9
$LIMMAX
 10
840.0
 20
594.0
  9
$ORTHOMODE
 70
     1
  9
$REGENMODE
 70
     1
  9
$FILLMODE
 70
     1
  9
$QTEXTMODE
 70
     0
  9
$MIRRTEXT
 70
     1
  9
$LTSCALE
 40
7.0
  9
$ATTMODE
 70
     0
  9
$TEXTSIZE
 40
6.0
  9
$TRACEWID
 40
1.0
  9
$TEXTSTYLE
  7
STANDARD
  9
$CLAYER
  8
寸法線
  9
$CELTYPE
  6
BYLAYER
  9
$CECOLOR
 62
   256
  9
$CELTSCALE
 40
1.0
  9
$DISPSILH
 70
     0
  9
$DIMSCALE
 40
1.0
  9
$DIMASZ
 40
6.0
  9
$DIMEXO
 40
3.0
  9
$DIMDLI
 40
7.149999999999999
  9
$DIMRND
 40
0.0
  9
$DIMDLE
 40
0.0
  9
$DIMEXE
 40
2.0
  9
$DIMTP
 40
0.0
  9
$DIMTM
 40
0.0
  9
$DIMTXT
 40
5.0
  9
$DIMCEN
 40
0.0
  9
$DIMTSZ
 40
0.0
  9
$DIMTOL
 70
     0
  9
$DIMLIM
 70
     0
  9
$DIMTIH
 70
     0
  9
$DIMTOH
 70
     0
  9
$DIMSE1
 70
     0
  9
$DIMSE2
 70
     0
  9
$DIMTAD
 70
     3
  9
$DIMZIN
 70
     8
  9
$DIMBLK
  1
Open30
  9
$DIMASO
 70
     1
  9
$DIMSHO
 70
     0
  9
$DIMPOST
  1

  9
$DIMAPOST
  1

  9
$DIMALT
 70
     0
  9
$DIMALTD
 70
     2
  9
$DIMALTF
 40
25.4
  9
$DIMLFAC
 40
1.0
  9
$DIMTOFL
 70
     0
  9
$DIMTVP
 40
0.0
  9
$DIMTIX
 70
     0
  9
$DIMSOXD
 70
     0
  9
$DIMSAH
 70
     0
  9
$DIMBLK1
  1

  9
$DIMBLK2
  1

  9
$DIMSTYLE
  2
STANDARD
  9
$DIMCLRD
 70
     0
  9
$DIMCLRE
 70
     0
  9
$DIMCLRT
 70
     0
  9
$DIMTFAC
 40
1.0
  9
$DIMGAP
 40
2.0
  9
$DIMJUST
 70
     0
  9
$DIMSD1
 70
     0
  9
$DIMSD2
 70
     0
  9
$DIMTOLJ
 70
     1
  9
$DIMTZIN
 70
     0
  9
$DIMALTZ
 70
     0
  9
$DIMALTTZ
 70
     0
  9
$DIMUPT
 70
     1
  9
$DIMDEC
 70
     2
  9
$DIMTDEC
 70
     2
  9
$DIMALTU
 70
     2
  9
$DIMALTTD
 70
     2
  9
$DIMTXSTY
  7
STANDARD
  9
$DIMAUNIT
 70
     0
  9
$DIMADEC
 70
     2
  9
$DIMALTRND
 40
0.0
  9
$DIMAZIN
 70
     2
  9
$DIMDSEP
 70
    46
  9
$DIMATFIT
 70
     3
  9
$DIMFRAC
 70
     0
  9
$DIMLDRBLK
  1
Open30
  9
$DIMLUNIT
 70
     2
  9
$DIMLWD
 70
    -2
  9
$DIMLWE
 70
    -2
  9
$DIMTMOVE
 70
     0
  9
$LUNITS
 70
     2
  9
$LUPREC
 70
     2
  9
$SKETCHINC
 40
0.1
  9
$FILLETRAD
 40
0.0
  9
$AUNITS
 70
     0
  9
$AUPREC
 70
     2
  9
$MENU
  1
ACAD
  9
$ELEVATION
 40
0.0
  9
$PELEVATION
 40
0.0
  9
$THICKNESS
 40
0.0
  9
$LIMCHECK
 70
     0
  9
$CHAMFERA
 40
0.0
  9
$CHAMFERB
 40
0.0
  9
$CHAMFERC
 40
0.0
  9
$CHAMFERD
 40
0.0
  9
$SKPOLY
 70
     0
  9
$TDCREATE
 40
2449505.922222222
  9
$TDUCREATE
 40
2449505.547222222
  9
$TDUPDATE
 40
2456821.59992118
  9
$TDUUPDATE
 40
2456821.22492118
  9
$TDINDWG
 40
2.9286922685
  9
$TDUSRTIMER
 40
2456821.22477537
  9
$USRTIMER
 70
     1
  9
$ANGBASE
 50
0.0
  9
$ANGDIR
 70
     0
  9
$PDMODE
 70
     3
  9
$PDSIZE
 40
0.0
  9
$PLINEWID
 40
0.0
  9
$SPLFRAME
 70
     0
  9
$SPLINETYPE
 70
     6
  9
$SPLINESEGS
 70
     8
  9
$HANDSEED
  5
20D5F
  9
$SURFTAB1
 70
     6
  9
$SURFTAB2
 70
     6
  9
$SURFTYPE
 70
     6
  9
$SURFU
 70
     6
  9
$SURFV
 70
     6
  9
$UCSBASE
  2

  9
$UCSNAME
  2

  9
$UCSORG
 10
0.0
 20
0.0
 30
0.0
  9
$UCSXDIR
 10
1.0
 20
0.0
 30
0.0
  9
$UCSYDIR
 10
0.0
 20
1.0
 30
0.0
  9
$UCSORTHOREF
  2

  9
$UCSORTHOVIEW
 70
     0
  9
$UCSORGTOP
 10
0.0
 20
0.0
 30
0.0
  9
$UCSORGBOTTOM
 10
0.0
 20
0.0
 30
0.0
  9
$UCSORGLEFT
 10
0.0
 20
0.0
 30
0.0
  9
$UCSORGRIGHT
 10
0.0
 20
0.0
 30
0.0
  9
$UCSORGFRONT
 10
0.0
 20
0.0
 30
0.0
  9
$UCSORGBACK
 10
0.0
 20
0.0
 30
0.0
  9
$PUCSBASE
  2

  9
$PUCSNAME
  2

  9
$PUCSORG
 10
0.0
 20
0.0
 30
0.0
  9
$PUCSXDIR
 10
1.0
 20
0.0
 30
0.0
  9
$PUCSYDIR
 10
0.0
 20
1.0
 30
0.0
  9
$PUCSORTHOREF
  2

  9
$PUCSORTHOVIEW
 70
     0
  9
$PUCSORGTOP
 10
0.0
 20
0.0
 30
0.0
  9
$PUCSORGBOTTOM
 10
0.0
 20
0.0
 30
0.0
  9
$PUCSORGLEFT
 10
0.0
 20
0.0
 30
0.0
  9
$PUCSORGRIGHT
 10
0.0
 20
0.0
 30
0.0
  9
$PUCSORGFRONT
 10
0.0
 20
0.0
 30
0.0
  9
$PUCSORGBACK
 10
0.0
 20
0.0
 30
0.0
  9
$USERI1
 70
     0
  9
$USERI2
 70
     0
  9
$USERI3
 70
     0
  9
$USERI4
 70
     0
  9
$USERI5
 70
     0
  9
$USERR1
 40
0.0
  9
$USERR2
 40
0.0
  9
$USERR3
 40
0.0
  9
$USERR4
 40
0.0
  9
$USERR5
 40
0.0
  9
$WORLDVIEW
 70
     0
  9
$SHADEDGE
 70
     3
  9
$SHADEDIF
 70
    70
  9
$TILEMODE
 70
     1
  9
$MAXACTVP
 70
    16
  9
$PINSBASE
 10
0.0
 20
0.0
 30
0.0
  9
$PLIMCHECK
 70
     0
  9
$PEXTMIN
 10
1.000000000000000E+20
 20
1.000000000000000E+20
 30
1.000000000000000E+20
  9
$PEXTMAX
 10
-1.000000000000000E+20
 20
-1.000000000000000E+20
 30
-1.000000000000000E+20
  9
$PLIMMIN
 10
0.0
 20
0.0
  9
$PLIMMAX
 10
0.0
 20
0.0
  9
$UNITMODE
 70
     0
  9
$VISRETAIN
 70
     0
  9
$PLINEGEN
 70
     0
  9
$PSLTSCALE
 70
     0
  9
$TREEDEPTH
 70
  3020
  9
$CMLSTYLE
  2
STANDARD
  9
$CMLJUST
 70
     0
  9
$CMLSCALE
 40
1.0
  9
$PROXYGRAPHICS
 70
     1
  9
$MEASUREMENT
 70
     0
  9
$CELWEIGHT
370
    -1
  9
$ENDCAPS
280
     0
  9
$JOINSTYLE
280
     0
  9
$LWDISPLAY
290
     0
  9
$INSUNITS
 70
     0
  9
$HYPERLINKBASE
  1

  9
$STYLESHEET
  1
spax form.ctb
  9
$XEDIT
290
     1
  9
$CEPSNTYPE
380
     0
  9
$PSTYLEMODE
290
     1
  9
$FINGERPRINTGUID
  2
{C1CFCF3E-DF91-11D3-B30C-0060B0FA8DFC}
  9
$VERSIONGUID
  2
{DF1DD320-E269-4547-A6F4-621024588CAF}
  9
$EXTNAMES
290
     1
  9
$PSVPSCALE
 40
0.0
  9
$OLESTARTUP
290
     0
  0
ENDSEC
  0
SECTION
  2
CLASSES
  0
CLASS
  1
LWPOLYLINE
  2
AcDbPolyline
  3
ObjectDBX Classes
 90
        0
280
     0
281
     1
  0
CLASS
  1
ACDBDICTIONARYWDFLT
  2
AcDbDictionaryWithDefault
  3
ObjectDBX Classes
 90
        0
280
     0
281
     0
  0
CLASS
  1
ACDBPLACEHOLDER
  2
AcDbPlaceHolder
  3
ObjectDBX Classes
 90
        0
280
     0
281
     0
  0
CLASS
  1
LAYOUT
  2
AcDbLayout
  3
ObjectDBX Classes
 90
        0
280
     0
281
     0
  0
CLASS
  1
DICTIONARYVAR
  2
AcDbDictionaryVar
  3
ObjectDBX Classes
 90
        0
280
     0
281
     0
  0
CLASS
  1
LONG_TRANSACTION
  2
AcDbLongTransaction
  3
ObjectDBX Classes
 90
        0
280
     0
281
     0
  0
CLASS
  1
LWPOLYLINE
  2
AcDbPolyline
  3
ObjectDBX Classes
 90
        0
280
     0
281
     1
  0
CLASS
  1
HATCH
  2
AcDbHatch
  3
ObjectDBX Classes
 90
        0
280
     0
281
     1
  0
CLASS
  1
XRECORD
  2
AcDbXrecord
  3
ObjectDBX Classes
 90
        0
280
     0
281
     0
  0
CLASS
  1
MATERIAL
  2
AcDbMaterial
  3
ObjectDBX Classes
 90
     1153
280
     0
281
     0
  0
CLASS
  1
VISUALSTYLE
  2
AcDbVisualStyle
  3
ObjectDBX Classes
 90
     4095
280
     0
281
     0
  0
CLASS
  1
TABLESTYLE
  2
AcDbTableStyle
  3
ObjectDBX Classes
 90
     4095
280
     0
281
     0
  0
CLASS
  1
SCALE
  2
AcDbScale
  3
ObjectDBX Classes
 90
     1153
280
     0
281
     0
  0
CLASS
  1
MLEADERSTYLE
  2
AcDbMLeaderStyle
  3
ACDB_MLEADERSTYLE_CLASS
 90
     4095
280
     0
281
     0
  0
CLASS
  1
CELLSTYLEMAP
  2
AcDbCellStyleMap
  3
ObjectDBX Classes
 90
     1152
280
     0
281
     0
  0
CLASS
  1
SORTENTSTABLE
  2
AcDbSortentsTable
  3
ObjectDBX Classes
 90
        0
280
     0
281
     0
  0
CLASS
  1
RASTERVARIABLES
  2
AcDbRasterVariables
  3
ISM
 90
        0
280
     0
281
     0
  0
CLASS
  1
SUN
  2
AcDbSun
  3
SCENEOE
 90
     1153
280
     0
281
     0
  0
ENDSEC
  0
SECTION
  2
TABLES
  0
TABLE
  2
VPORT
  5
8
330
0
100
AcDbSymbolTable
 70
     1
  0
VPORT
  5
20353
330
8
100
AcDbSymbolTableRecord
100
AcDbViewportTableRecord
  2
*Active
 70
     0
 10
0.0
 20
0.0
 11
1.0
 21
1.0
 12
6122.447560441415
 22
517.9183312011259
 13
0.0
 23
0.0
 14
1.0
 24
1.0
 15
20.0
 25
20.0
 16
0.0
 26
0.0
 36
1.0
 17
0.0
 27
0.0
 37
0.0
 40
87.17847040133178
 41
1.731829573934837
 42
50.0
 43
0.0
 44
0.0
 50
0.0
 51
0.0
 71
    16
 72
  2000
 73
     1
 74
     0
 75
     0
 76
     0
 77
     0
 78
     1
281
     0
 65
     1
110
0.0
120
0.0
130
0.0
111
1.0
121
0.0
131
0.0
112
0.0
122
1.0
132
0.0
 79
     0
146
0.0
  0
ENDTAB
  0
TABLE
  2
LTYPE
  5
5
330
0
100
AcDbSymbolTable
 70
     5
  0
LTYPE
  5
12
330
5
100
AcDbSymbolTableRecord
100
AcDbLinetypeTableRecord
  2
BYBLOCK
 70
     0
  3

 72
    65
 73
     0
 40
0.0
  0
LTYPE
  5
13
330
5
100
AcDbSymbolTableRecord
100
AcDbLinetypeTableRecord
  2
BYLAYER
 70
     0
  3

 72
    65
 73
     0
 40
0.0
  0
LTYPE
  5
14
330
5
100
AcDbSymbolTableRecord
100
AcDbLinetypeTableRecord
  2
CONTINUOUS
 70
     0
  3
Solid line
 72
    65
 73
     0
 40
0.0
  0
LTYPE
  5
3D
330
5
100
AcDbSymbolTableRecord
100
AcDbLinetypeTableRecord
  2
PHANTOM
 70
     0
  3
_____ _ _ _____ _ _ _____ _ _ _____ _ _ ____
 72
    65
 73
     6
 40
2.5
 49
1.25
 74
     0
 49
-0.25
 74
     0
 49
0.25
 74
     0
 49
-0.25
 74
     0
 49
0.25
 74
     0
 49
-0.25
 74
     0
  0
LTYPE
  5
40D2
330
5
100
AcDbSymbolTableRecord
100
AcDbLinetypeTableRecord
  2
CENTER
 70
     0
  3
____ _ ____ _ ____ _ ____ _ ____ _ ____ _ ____ 
 72
    65
 73
     4
 40
2.0
 49
1.25
 74
     0
 49
-0.25
 74
     0
 49
0.25
 74
     0
 49
-0.25
 74
     0
  0
LTYPE
  5
A244
330
5
100
AcDbSymbolTableRecord
100
AcDbLinetypeTableRecord
  2
HIDDEN
 70
     0
  3
_ _ _ _ _ _ _ _ _ _ _ _ _ _ _ _ _ _ _ _ _ _ _
 72
    65
 73
     2
 40
0.375
 49
0.25
 74
     0
 49
-0.125
 74
     0
  0
ENDTAB
  0
TABLE
  2
LAYER
  5
2
102
{ACAD_XDICTIONARY
360
17B73
102
}
330
0
100
AcDbSymbolTable
 70
    24
  0
LAYER
  5
F
102
{ACAD_XDICTIONARY
360
17B0E
102
}
330
2
100
AcDbSymbolTableRecord
100
AcDbLayerTableRecord
  2
0
 70
     0
 62
     7
  6
CONTINUOUS
370
    -3
390
40CA
  0
LAYER
  5
4C
102
{ACAD_XDICTIONARY
360
17B16
102
}
330
2
100
AcDbSymbolTableRecord
100
AcDbLayerTableRecord
  2
寸法線
 70
     0
 62
     7
  6
CONTINUOUS
370
    -3
390
40CA
  0
LAYER
  5
4D
102
{ACAD_XDICTIONARY
360
17B18
102
}
330
2
100
AcDbSymbolTableRecord
100
AcDbLayerTableRecord
  2
姿図
 70
     0
 62
     8
  6
CONTINUOUS
370
    -3
390
40CA
  0
LAYER
  5
40D4
102
{ACAD_XDICTIONARY
360
17B1C
102
}
330
2
100
AcDbSymbolTableRecord
100
AcDbLayerTableRecord
  2
文字
 70
     0
 62
     7
  6
CONTINUOUS
370
    -3
390
40CA
  0
ENDTAB
  0
TABLE
  2
STYLE
  5
3
330
0
100
AcDbSymbolTable
 70
     1
  0
STYLE
  5
10
330
3
100
AcDbSymbolTableRecord
100
AcDbTextStyleTableRecord
  2
STANDARD
 70
     0
 40
0.0
 41
1.0
 50
0.0
 71
     0
 42
6.0
  3
MONOTXT
  4
BIGFONT
  0
ENDTAB
  0
TABLE
  2
VIEW
  5
6
330
0
100
AcDbSymbolTable
 70
     1
  0
VIEW
  5
41
330
6
100
AcDbSymbolTableRecord
100
AcDbViewTableRecord
  2
CUT1
 70
     0
 40
612.7795527156796
 10
420.0000000000169
 20
306.3897763578398
 41
840.0000000000338
 11
0.0
 21
0.0
 31
1.0
 12
0.0
 22
0.0
 32
0.0
 42
50.0
 43
0.0
 44
0.0
 50
0.0
 71
     0
281
     0
 72
     0
  0
ENDTAB
  0
TABLE
  2
UCS
  5
7
330
0
100
AcDbSymbolTable
 70
     0
  0
ENDTAB
  0
TABLE
  2
APPID
  5
9
330
0
100
AcDbSymbolTable
 70
     7
  0
APPID
  5
11
330
9
100
AcDbSymbolTableRecord
100
AcDbRegAppTableRecord
  2
ACAD
 70
     0
  0
APPID
  5
17B0A
330
9
100
AcDbSymbolTableRecord
100
AcDbRegAppTableRecord
  2
ACAD_MLEADERVER
 70
     0
  0
APPID
  5
19778
330
9
100
AcDbSymbolTableRecord
100
AcDbRegAppTableRecord
  2
ACAD_PSEXT
 70
     0
  0
APPID
  5
1C7AB
330
9
100
AcDbSymbolTableRecord
100
AcDbRegAppTableRecord
  2
AcadAnnotative
 70
     0
  0
APPID
  5
1C7AC
330
9
100
AcDbSymbolTableRecord
100
AcDbRegAppTableRecord
  2
ACAD_DSTYLE_DIMJAG
 70
     0
  0
APPID
  5
1C7AD
330
9
100
AcDbSymbolTableRecord
100
AcDbRegAppTableRecord
  2
ACAD_DSTYLE_DIMTALN
 70
     0
  0
APPID
  5
1C7C9
330
9
100
AcDbSymbolTableRecord
100
AcDbRegAppTableRecord
  2
ACAD_EXEMPT_FROM_CAD_STANDARDS
 70
     0
  0
ENDTAB
  0
TABLE
  2
DIMSTYLE
  5
A
330
0
100
AcDbSymbolTable
 70
     3
100
AcDbDimStyleTable
  0
DIMSTYLE
105
1B3A
330
A
100
AcDbSymbolTableRecord
100
AcDbDimStyleTableRecord
  2
STANDARD
 70
     0
 41
4.0
 42
3.0
 43
7.149999999999999
 44
2.0
 73
     0
 74
     0
 77
     3
 78
     8
 79
     2
140
5.0
141
0.0
147
2.0
178
     0
179
     2
271
     2
272
     2
288
     1
340
10
341
49C3
342
49C3
  0
ENDTAB
  0
TABLE
  2
BLOCK_RECORD
  5
1
330
0
100
AcDbSymbolTable
 70
    61
  0
BLOCK_RECORD
  5
18
102
{ACAD_XDICTIONARY
360
9FD5
102
}
330
1
100
AcDbSymbolTableRecord
100
AcDbBlockTableRecord
  2
*MODEL_SPACE
340
40CD
  0
BLOCK_RECORD
  5
15
330
1
100
AcDbSymbolTableRecord
100
AcDbBlockTableRecord
  2
*PAPER_SPACE
340
40CE
  0
BLOCK_RECORD
  5
49C3
330
1
100
AcDbSymbolTableRecord
100
AcDbBlockTableRecord
  2
_OPEN
340
0
102
{BLKREFS
331
163E8
331
163E9
331
163F1
331
163F2
331
163F9
331
163FA
331
166FA
331
166FB
331
16790
331
16791
331
167E9
331
167EA
331
167F4
331
167F5
331
16847
331
16848
331
17159
331
1715A
331
17175
331
17176
331
17187
331
17188
331
17190
331
17191
331
171A6
331
171A7
331
171AF
331
171B0
331
17A3A
331
17A3B
331
17A47
331
17A48
331
17A59
331
17A5A
331
17A70
331
17A71
331
17A79
331
17A7A
331
17AA4
331
17AA5
102
}
  0
BLOCK_RECORD
  5
FD36
330
1
100
AcDbSymbolTableRecord
100
AcDbBlockTableRecord
  2
_Open30
340
0
102
{BLKREFS
331
1931A
331
1931B
331
19323
331
19324
331
1932E
331
1932F
331
19337
331
19338
331
19342
331
19343
331
1AA50
331
1AA51
331
1C771
331
1C772
331
1C77A
331
1C77B
331
1C785
331
1C786
331
1C78F
331
1C790
331
1C79A
331
1C79B
331
1C7A3
331
1C7A4
331
1DB46
331
1DB47
331
1DB4F
331
1DB50
331
1DB58
331
1DB59
331
1DB63
331
1DB64
331
1DBD6
331
1DBD7
331
1EF52
331
1EF53
331
1EF5B
331
1EF5C
331
1EF64
331
1EF65
331
1EF6F
331
1EF70
331
1EF7A
331
1EF7B
331
1F93C
331
1F93D
331
1F945
331
1F946
331
1F950
331
1F951
331
1F95B
331
1F95C
331
1F964
331
1F965
331
2031B
331
2031C
331
20324
331
20325
331
2032F
331
20330
331
2033A
331
2033B
331
20343
331
20344
331
20CE5
331
20CE6
331
20CEE
331
20CEF
331
20CF9
331
20CFA
331
20D04
331
20D05
331
20D0D
331
20D0E
102
}
  0
ENDTAB
  0
ENDSEC
  0
SECTION
  2
BLOCKS
  0
BLOCK
  5
52
330
18
100
AcDbEntity
  8
0
100
AcDbBlockBegin
  2
*MODEL_SPACE
 70
     0
 10
0.0
 20
0.0
 30
0.0
  3
*MODEL_SPACE
  1
*MODEL_SPACE
  0
ENDBLK
  5
53
330
18
100
AcDbEntity
  8
0
100
AcDbBlockEnd
  0
BLOCK
  5
50
330
15
100
AcDbEntity
 67
     1
  8
0
100
AcDbBlockBegin
  2
*PAPER_SPACE
 70
     0
 10
0.0
 20
0.0
 30
0.0
  3
*PAPER_SPACE
  1
*PAPER_SPACE
  0
ENDBLK
  5
51
330
15
100
AcDbEntity
 67
     1
  8
0
100
AcDbBlockEnd
  0
BLOCK
  5
49C7
330
49C3
100
AcDbEntity
  8
0
100
AcDbBlockBegin
  2
_OPEN
 70
     0
 10
0.0
 20
0.0
 30
0.0
  3
_OPEN
  1
_OPEN
  0
LINE
  5
49C4
330
49C3
100
AcDbEntity
  8
0
  6
ByBlock
 62
     0
100
AcDbLine
 10
-1.0
 20
0.1666666666666667
 30
0.0
 11
0.0
 21
0.0
 31
0.0
  0
LINE
  5
49C5
330
49C3
100
AcDbEntity
  8
0
  6
ByBlock
 62
     0
100
AcDbLine
 10
0.0
 20
0.0
 30
0.0
 11
-1.0
 21
-0.1666666666666667
 31
0.0
  0
LINE
  5
49C6
330
49C3
100
AcDbEntity
  8
0
  6
ByBlock
 62
     0
100
AcDbLine
 10
0.0
 20
0.0
 30
0.0
 11
-1.0
 21
0.0
 31
0.0
  0
ENDBLK
  5
49C8
330
49C3
100
AcDbEntity
  8
0
100
AcDbBlockEnd
  0
BLOCK
  5
FD3A
330
FD36
100
AcDbEntity
  8
0
100
AcDbBlockBegin
  2
_Open30
 70
     0
 10
0.0
 20
0.0
 30
0.0
  3
_Open30
  1
_Open30
  0
LINE
  5
FD37
330
FD36
100
AcDbEntity
  8
寸法線
 62
     0
370
    -2
100
AcDbLine
 10
-1.0
 20
0.26794919
 30
0.0
 11
0.0
 21
0.0
 31
0.0
  0
LINE
  5
FD38
330
FD36
100
AcDbEntity
  8
寸法線
 62
     0
370
    -2
100
AcDbLine
 10
0.0
 20
0.0
 30
0.0
 11
-1.0
 21
-0.26794919
 31
0.0
  0
LINE
  5
FD39
330
FD36
100
AcDbEntity
  8
寸法線
 62
     0
370
    -2
100
AcDbLine
 10
0.0
 20
0.0
 30
0.0
 11
-1.0
 21
0.0
 31
0.0
  0
ENDBLK
  5
FD3B
330
FD36
100
AcDbEntity
  8
0
100
AcDbBlockEnd
  0
ENDSEC
  0
SECTION
  2
ENTITIES
  0
TEXT
  5
208EA
330
18
100
AcDbEntity
  8
文字
100
AcDbText
 10
6078.030893774748
 20
475.1837868867476
 30
0.0
 40
6.5
  1
SX-B050D/EZ/BF
100
AcDbText
  0
LINE
  5
208EB
330
18
100
AcDbEntity
  8
姿図
100
AcDbLine
 10
6128.62595729745
 20
528.7272728754581
 30
0.0
 11
6128.795111485818
 21
519.7633066753715
 31
0.0
  0
LINE
  5
208EC
330
18
100
AcDbEntity
  8
姿図
100
AcDbLine
 10
6128.03064479745
 20
529.6974117643472
 30
0.0
 11
6128.383422575227
 21
516.6446339865695
 31
0.0
  0
LINE
  5
208ED
330
18
100
AcDbEntity
  8
姿図
100
AcDbLine
 10
6123.737711312207
 20
525.458566278236
 30
0.0
 11
6121.660577116243
 21
526.9080902040173
 31
0.0
  0
SPLINE
  5
208EE
330
18
100
AcDbEntity
  8
姿図
100
AcDbSpline
210
0.0
220
0.0
230
1.0
 70
     8
 71
     3
 72
    12
 73
     8
 74
     6
 42
0.000000001
 43
0.0000000001
 44
0.0000000001
 40
0.0
 40
0.0
 40
0.0
 40
0.0
 40
2.344472056217917
 40
3.48506950182749
 40
4.152524498741307
 40
4.565337826234322
 40
5.186795096789631
 40
5.186795096789631
 40
5.186795096789631
 40
5.186795096789631
 10
6136.175967606455
 20
527.8601142028169
 30
0.0
 10
6136.337164299397
 20
527.0878164177004
 30
0.0
 10
6136.576783994107
 20
525.9397918762688
 30
0.0
 10
6136.39774060833
 20
524.5524896937428
 30
0.0
 10
6136.160284684029
 20
523.8443663553159
 30
0.0
 10
6135.83269500806
 20
523.3718870466842
 30
0.0
 10
6135.553803658926
 20
523.1649385501453
 30
0.0
 10
6135.386227536254
 20
523.0405903882161
 30
0.0
 11
6136.175967606455
 21
527.8601142028169
 31
0.0
 11
6136.483115145545
 21
525.5358488109957
 31
0.0
 11
6136.331431069119
 21
524.4053823259153
 31
0.0
 11
6136.097763969045
 21
523.7801656760664
 31
0.0
 11
6135.860148705568
 21
523.4425951946575
 31
0.0
 11
6135.386227536254
 21
523.0405903882161
 31
0.0
  0
LINE
  5
208EF
330
18
100
AcDbEntity
  8
姿図
100
AcDbLine
 10
6137.765691598874
 20
528.1462189199249
 30
0.0
 11
6136.379584462622
 21
526.8039689949094
 31
0.0
  0
SPLINE
  5
208F0
330
18
100
AcDbEntity
  8
姿図
100
AcDbSpline
210
0.0
220
0.0
230
1.0
 70
     8
 71
     3
 72
     8
 73
     4
 74
     0
 42
0.000000001
 43
0.0000000001
 40
36.0
 40
36.0
 40
36.0
 40
36.0
 40
37.0
 40
37.0
 40
37.0
 40
37.0
 10
6141.26360106915
 20
529.3961381640868
 30
0.0
 10
6139.010508621234
 20
526.4435190777151
 30
0.0
 10
6137.3012244958
 20
524.4493255555797
 30
0.0
 10
6136.62788058304
 20
523.905517233097
 30
0.0
  0
LINE
  5
208F1
330
18
100
AcDbEntity
  8
姿図
100
AcDbLine
 10
6137.824795551209
 20
527.7003709288604
 30
0.0
 11
6136.453400816227
 21
526.2415505659303
 31
0.0
  0
LINE
  5
208F2
330
18
100
AcDbEntity
  8
姿図
100
AcDbLine
 10
6137.867348994798
 20
527.1407894941237
 30
0.0
 11
6136.484063759684
 21
525.6633521042031
 31
0.0
  0
SPLINE
  5
208F3
330
18
100
AcDbEntity
  8
姿図
100
AcDbSpline
210
0.0
220
0.0
230
1.0
 70
     8
 71
     3
 72
     8
 73
     4
 74
     0
 42
0.000000001
 43
0.0000000001
 40
4.0
 40
4.0
 40
4.0
 40
4.0
 40
5.0
 40
5.0
 40
5.0
 40
5.0
 10
6103.272035449577
 20
522.9319332487221
 30
0.0
 10
6102.825723329351
 20
524.1780242860484
 30
0.0
 10
6101.841976313292
 20
526.8305755555798
 30
0.0
 10
6103.018993186121
 20
529.0054643359617
 30
0.0
  0
SPLINE
  5
208F4
330
18
100
AcDbEntity
  8
姿図
100
AcDbSpline
210
0.0
220
0.0
230
1.0
 70
     8
 71
     3
 72
     8
 73
     4
 74
     0
 42
0.000000001
 43
0.0000000001
 40
0.0
 40
0.0
 40
0.0
 40
0.0
 40
1.0
 40
1.0
 40
1.0
 40
1.0
 10
6107.878214241894
 20
531.3290089865693
 30
0.0
 10
6105.465183236035
 20
531.3290089865693
 30
0.0
 10
6101.704603130783
 20
529.3446339865693
 30
0.0
 10
6103.512589241894
 20
523.7442867643472
 30
0.0
  0
SPLINE
  5
208F5
330
18
100
AcDbEntity
  8
姿図
100
AcDbSpline
210
0.0
220
0.0
230
1.0
 70
     8
 71
     3
 72
     8
 73
     4
 74
     0
 42
0.000000001
 43
0.0000000001
 40
0.0
 40
0.0
 40
0.0
 40
0.0
 40
1.0
 40
1.0
 40
1.0
 40
1.0
 10
6103.272035449577
 20
522.9319332487221
 30
0.0
 10
6103.880525439811
 20
524.3998884353541
 30
0.0
 10
6105.070719802875
 20
526.7795881423854
 30
0.0
 10
6107.922311464116
 20
531.2187659310136
 30
0.0
  0
SPLINE
  5
208F6
330
18
100
AcDbEntity
  8
姿図
100
AcDbSpline
210
0.0
220
0.0
230
1.0
 70
     8
 71
     3
 72
     8
 73
     4
 74
     0
 42
0.000000001
 43
0.0000000001
 40
0.0
 40
0.0
 40
0.0
 40
0.0
 40
1.0
 40
1.0
 40
1.0
 40
1.0
 10
6131.227693408561
 20
533.8866478754583
 30
0.0
 10
6133.167971186339
 20
532.2698645638263
 30
0.0
 10
6135.071558697189
 20
528.2347964757187
 30
0.0
 10
6134.99124979659
 20
526.6650022487054
 30
0.0
  0
SPLINE
  5
208F7
330
18
100
AcDbEntity
  8
姿図
100
AcDbSpline
210
0.0
220
0.0
230
1.0
 70
     8
 71
     3
 72
     8
 73
     4
 74
     0
 42
0.000000001
 43
0.0000000001
 40
0.0
 40
0.0
 40
0.0
 40
0.0
 40
1.0
 40
1.0
 40
1.0
 40
1.0
 10
6132.219880908561
 20
521.142550653236
 30
0.0
 10
6131.161547575227
 20
527.2279673199025
 30
0.0
 10
6130.676478130783
 20
530.1383839865694
 30
0.0
 10
6129.529950353005
 20
531.5053978754584
 30
0.0
  0
LINE
  5
208F8
330
18
100
AcDbEntity
  8
姿図
100
AcDbLine
 10
6126.766467008821
 20
514.3147159093126
 30
0.0
 11
6126.531339241894
 21
530.050189542125
 31
0.0
  0
LINE
  5
208F9
330
18
100
AcDbEntity
  8
姿図
100
AcDbLine
 10
6126.310853130783
 20
514.175189542125
 30
0.0
 11
6126.134464241894
 21
529.9178978754583
 31
0.0
  0
LINE
  5
208FA
330
18
100
AcDbEntity
  8
姿図
100
AcDbLine
 10
6120.034319792024
 20
531.3951548199027
 30
0.0
 11
6120.240164247319
 21
518.0777937087917
 31
0.0
  0
LINE
  5
208FB
330
18
100
AcDbEntity
  8
姿図
100
AcDbLine
 10
6121.65127535843
 20
531.0129214757187
 30
0.0
 11
6121.817242833474
 21
521.6946272048854
 31
0.0
  0
LINE
  5
208FC
330
18
100
AcDbEntity
  8
姿図
100
AcDbLine
 10
6119.681542014247
 20
531.0129214757187
 30
0.0
 11
6119.887386469542
 21
518.1365325868298
 31
0.0
  0
LINE
  5
208FD
330
18
100
AcDbEntity
  8
姿図
100
AcDbLine
 10
6118.564383675487
 20
530.6014048199027
 30
0.0
 11
6118.463786887293
 21
522.0549841927325
 31
0.0
  0
SPLINE
  5
208FE
330
18
100
AcDbEntity
  8
姿図
100
AcDbSpline
210
0.0
220
0.0
230
1.0
 70
     8
 71
     3
 72
     8
 73
     4
 74
     0
 42
0.000000001
 43
0.0000000001
 40
0.0
 40
0.0
 40
0.0
 40
0.0
 40
1.0
 40
1.0
 40
1.0
 40
1.0
 10
6137.670393293872
 20
524.9614744140147
 30
0.0
 10
6138.842549138692
 20
530.000583216897
 30
0.0
 10
6134.681229378612
 20
534.809330574026
 30
0.0
 10
6133.034990500574
 20
536.5732194629147
 30
0.0
  0
SPLINE
  5
20935
330
18
100
AcDbEntity
  8
姿図
100
AcDbSpline
210
0.0
220
0.0
230
1.0
 70
     8
 71
     3
 72
     8
 73
     4
 74
     0
 42
0.000000001
 43
0.0000000001
 40
0.0
 40
0.0
 40
0.0
 40
0.0
 40
1.0
 40
1.0
 40
1.0
 40
1.0
 10
6101.881594911382
 20
519.3428327712916
 30
0.0
 10
6104.185416390331
 20
520.8638424284097
 30
0.0
 10
6108.391447341937
 20
521.8806623611354
 30
0.0
 10
6113.374864089984
 20
522.0999426888263
 30
0.0
  0
SPLINE
  5
20936
330
18
100
AcDbEntity
  8
姿図
100
AcDbSpline
210
0.0
220
0.0
230
1.0
 70
     8
 71
     3
 72
     8
 73
     4
 74
     0
 42
0.000000001
 43
0.0000000001
 40
0.0
 40
0.0
 40
0.0
 40
0.0
 40
1.0
 40
1.0
 40
1.0
 40
1.0
 10
6100.379361024663
 20
516.6244801779756
 30
0.0
 10
6100.902068137293
 20
519.0947858962916
 30
0.0
 10
6106.26995754159
 20
521.0865678515868
 30
0.0
 10
6113.221729595626
 20
521.4877492209444
 30
0.0
  0
SPLINE
  5
20937
330
18
100
AcDbEntity
  8
姿図
100
AcDbSpline
210
0.0
220
0.0
230
1.0
 70
     8
 71
     3
 72
     8
 73
     4
 74
     0
 42
0.000000001
 43
0.0000000001
 40
0.0
 40
0.0
 40
0.0
 40
0.0
 40
1.0
 40
1.0
 40
1.0
 40
1.0
 10
6112.067450353005
 20
520.13572149742
 30
0.0
 10
6105.982033686339
 20
519.7240325868297
 30
0.0
 10
6100.89612534758
 20
517.6955603646077
 30
0.0
 10
6100.984319792025
 20
517.3134992751977
 30
0.0
  0
SPLINE
  5
20938
330
18
100
AcDbEntity
  8
姿図
100
AcDbSpline
210
0.0
220
0.0
230
1.0
 70
     8
 71
     3
 72
    11
 73
     7
 74
     0
 42
0.000000001
 43
0.0000000001
 40
0.0
 40
0.0
 40
0.0
 40
0.0
 40
1.0
 40
1.0
 40
1.0
 40
2.0
 40
2.0
 40
2.0
 40
2.0
 10
6098.070371902484
 20
510.7852155837916
 30
0.0
 10
6101.700469016199
 20
512.8560624804929
 30
0.0
 10
6108.437008729741
 20
514.0472042448159
 30
0.0
 10
6116.14222316659
 20
514.0472042448159
 30
0.0
 10
6124.003500428959
 20
514.0472042448159
 30
0.0
 10
6130.43394340856
 20
512.8412485699027
 30
0.0
 10
6134.012880854308
 20
510.8591128819687
 30
0.0
  0
ELLIPSE
  5
20939
330
18
100
AcDbEntity
  8
姿図
100
AcDbEllipse
 10
6116.036329544086
 20
506.9563364605276
 30
0.0
 11
20.74330749511719
 21
0.0
 31
0.0
210
0.0
220
0.0
230
1.0
 40
0.324823693302516
 41
0.0
 42
6.283185307179586
  0
SPLINE
  5
2093A
330
18
100
AcDbEntity
  8
姿図
100
AcDbSpline
210
0.0
220
0.0
230
1.0
 70
     8
 71
     3
 72
    11
 73
     7
 74
     0
 42
0.000000001
 43
0.0000000001
 40
0.0
 40
0.0
 40
0.0
 40
0.0
 40
1.0
 40
1.0
 40
1.0
 40
2.0
 40
2.0
 40
2.0
 40
2.0
 10
6127.76743950231
 20
510.0352182964652
 30
0.0
 10
6124.889406733214
 20
509.1181338780623
 30
0.0
 10
6120.95192097475
 20
508.5527937087916
 30
0.0
 10
6116.609464241894
 20
508.5527937087916
 30
0.0
 10
6112.040147971277
 20
508.5527937087916
 30
0.0
 10
6107.919210878178
 20
509.1785953038436
 30
0.0
 10
6105.009224848448
 20
510.1816348546249
 30
0.0
  0
SPLINE
  5
2093B
330
18
100
AcDbEntity
  8
姿図
100
AcDbSpline
210
0.0
220
0.0
230
1.0
 70
     8
 71
     3
 72
    11
 73
     7
 74
     0
 42
0.000000001
 43
0.0000000001
 40
0.0
 40
0.0
 40
0.0
 40
0.0
 40
1.0
 40
1.0
 40
1.0
 40
2.0
 40
2.0
 40
2.0
 40
2.0
 10
6128.662992073925
 20
509.7062116775417
 30
0.0
 10
6125.734660910731
 20
508.5698469314477
 30
0.0
 10
6121.342594802875
 20
507.847238153236
 30
0.0
 10
6116.433075353005
 20
507.847238153236
 30
0.0
 10
6111.396604134472
 20
507.847238153236
 30
0.0
 10
6106.90488863968
 20
508.6075707270209
 30
0.0
 10
6103.979227425488
 20
509.7954396506318
 30
0.0
  0
SPLINE
  5
2093C
330
18
100
AcDbEntity
  8
姿図
100
AcDbSpline
210
0.0
220
0.0
230
1.0
 70
     8
 71
     3
 72
    11
 73
     7
 74
     0
 42
0.000000001
 43
0.0000000001
 40
0.0
 40
0.0
 40
0.0
 40
0.0
 40
1.0
 40
1.0
 40
1.0
 40
2.0
 40
2.0
 40
2.0
 40
2.0
 10
6129.239356548752
 20
509.4454179492429
 30
0.0
 10
6126.351333002744
 20
508.1056203146943
 30
0.0
 10
6121.573674582606
 20
507.2298770421251
 30
0.0
 10
6116.168492019672
 20
507.2298770421251
 30
0.0
 10
6110.759864361252
 20
507.2298770421251
 30
0.0
 10
6105.979535992111
 20
508.1068260981144
 30
0.0
 10
6103.092115337814
 20
509.4481740256317
 30
0.0
  0
SPLINE
  5
2093D
330
18
100
AcDbEntity
  8
姿図
100
AcDbSpline
210
0.0
220
0.0
230
1.0
 70
     8
 71
     3
 72
    11
 73
     7
 74
     0
 42
0.000000001
 43
0.0000000001
 40
0.0
 40
0.0
 40
0.0
 40
0.0
 40
1.0
 40
1.0
 40
1.0
 40
2.0
 40
2.0
 40
2.0
 40
2.0
 10
6129.851894526182
 20
509.1346703363959
 30
0.0
 10
6127.058611106043
 20
507.6234792014131
 30
0.0
 10
6121.97554497106
 20
506.6125159310138
 30
0.0
 10
6116.168492019672
 20
506.6125159310138
 30
0.0
 10
6110.369965679611
 20
506.6125159310138
 30
0.0
 10
6105.293617480826
 20
507.6203786154756
 30
0.0
 10
6102.497664111685
 20
509.1279524001977
 30
0.0
  0
SPLINE
  5
2093E
330
18
100
AcDbEntity
  8
姿図
100
AcDbSpline
210
0.0
220
0.0
230
1.0
 70
     8
 71
     3
 72
    11
 73
     7
 74
     0
 42
0.000000001
 43
0.0000000001
 40
0.0
 40
0.0
 40
0.0
 40
0.0
 40
1.0
 40
1.0
 40
1.0
 40
2.0
 40
2.0
 40
2.0
 40
2.0
 10
6130.462537701095
 20
508.7913665712047
 30
0.0
 10
6127.846676698491
 20
507.0815656814477
 30
0.0
 10
6122.428316645323
 20
505.9069603754581
 30
0.0
 10
6116.168492019672
 20
505.9069603754581
 30
0.0
 10
6109.932524680262
 20
505.9069603754581
 30
0.0
 10
6104.531734614073
 20
507.0726084331839
 30
0.0
 10
6101.904590923751
 20
508.771729526934
 30
0.0
  0
SPLINE
  5
2093F
330
18
100
AcDbEntity
  8
姿図
100
AcDbSpline
210
0.0
220
0.0
230
1.0
 70
     8
 71
     3
 72
    11
 73
     7
 74
     0
 42
0.000000001
 43
0.0000000001
 40
0.0
 40
0.0
 40
0.0
 40
0.0
 40
1.0
 40
1.0
 40
1.0
 40
2.0
 40
2.0
 40
2.0
 40
2.0
 10
6131.016164545713
 20
508.350738858531
 30
0.0
 10
6128.572041553091
 20
506.4984832704235
 30
0.0
 10
6122.923032357128
 20
505.2014048199028
 30
0.0
 10
6116.344880908561
 20
505.2014048199028
 30
0.0
 10
6109.574493131868
 20
505.2014048199028
 30
0.0
 10
6103.788541390331
 20
506.5754811545382
 30
0.0
 10
6101.467752816113
 20
508.5145531488959
 30
0.0
  0
SPLINE
  5
20940
330
18
100
AcDbEntity
  8
姿図
100
AcDbSpline
210
0.0
220
0.0
230
1.0
 70
     8
 71
     3
 72
    11
 73
     7
 74
     0
 42
0.000000001
 43
0.0000000001
 40
0.0
 40
0.0
 40
0.0
 40
0.0
 40
1.0
 40
1.0
 40
1.0
 40
2.0
 40
2.0
 40
2.0
 40
2.0
 10
6131.453174908126
 20
508.0150143034095
 30
0.0
 10
6129.305846891633
 20
505.9679385655625
 30
0.0
 10
6123.352549636859
 20
504.495849264347
 30
0.0
 10
6116.344880908561
 20
504.495849264347
 30
0.0
 10
6109.167282845409
 20
504.495849264347
 30
0.0
 10
6103.096163325011
 20
506.0401133159965
 30
0.0
 10
6101.087242019672
 20
508.1648759570555
 30
0.0
  0
SPLINE
  5
20941
330
18
100
AcDbEntity
  8
姿図
100
AcDbSpline
210
0.0
220
0.0
230
1.0
 70
     8
 71
     3
 72
    11
 73
     7
 74
     0
 42
0.000000001
 43
0.0000000001
 40
0.0
 40
0.0
 40
0.0
 40
0.0
 40
1.0
 40
1.0
 40
1.0
 40
2.0
 40
2.0
 40
2.0
 40
2.0
 10
6131.616989198491
 20
507.7487084223333
 30
0.0
 10
6129.719602859515
 20
505.5660681771076
 30
0.0
 10
6123.560977913769
 20
503.9666825976803
 30
0.0
 10
6116.256686464117
 20
503.9666825976803
 30
0.0
 10
6108.841118430262
 20
503.9666825976803
 30
0.0
 10
6102.606529129047
 20
505.6149885330103
 30
0.0
 10
6100.812667909428
 20
507.8487884462047
 30
0.0
  0
SPLINE
  5
20942
330
18
100
AcDbEntity
  8
姿図
100
AcDbSpline
210
0.0
220
0.0
230
1.0
 70
     8
 71
     3
 72
    11
 73
     7
 74
     0
 42
0.000000001
 43
0.0000000001
 40
0.0
 40
0.0
 40
0.0
 40
0.0
 40
1.0
 40
1.0
 40
1.0
 40
2.0
 40
2.0
 40
2.0
 40
2.0
 10
6131.87537135995
 20
507.3842173199027
 30
0.0
 10
6130.349366314376
 20
505.0289777908229
 30
0.0
 10
6123.936321066981
 20
503.2611270421251
 30
0.0
 10
6116.256686464117
 20
503.2611270421251
 30
0.0
 10
6108.412979188725
 20
503.2611270421251
 30
0.0
 10
6101.890552159645
 20
505.1054589106145
 30
0.0
 10
6100.54705104745
 20
507.5359737760659
 30
0.0
  0
SPLINE
  5
20943
330
18
100
AcDbEntity
  8
姿図
100
AcDbSpline
210
0.0
220
0.0
230
1.0
 70
     8
 71
     3
 72
    11
 73
     7
 74
     0
 42
0.000000001
 43
0.0000000001
 40
0.0
 40
0.0
 40
0.0
 40
0.0
 40
1.0
 40
1.0
 40
1.0
 40
2.0
 40
2.0
 40
2.0
 40
2.0
 10
6132.029367128179
 20
507.0414303190346
 30
0.0
 10
6130.841325949793
 20
504.5502817730278
 30
0.0
 10
6124.231910259689
 20
502.6437659310138
 30
0.0
 10
6116.256686464117
 20
502.6437659310138
 30
0.0
 10
6108.011453309819
 20
502.6437659310138
 30
0.0
 10
6101.226251622536
 20
504.6817121658228
 30
0.0
 10
6100.381944846277
 20
507.296367385007
 30
0.0
  0
SPLINE
  5
20944
330
18
100
AcDbEntity
  8
姿図
100
AcDbSpline
210
0.0
220
0.0
230
1.0
 70
     8
 71
     3
 72
    11
 73
     7
 74
     0
 42
0.000000001
 43
0.0000000001
 40
0.0
 40
0.0
 40
0.0
 40
0.0
 40
1.0
 40
1.0
 40
1.0
 40
2.0
 40
2.0
 40
2.0
 40
2.0
 10
6132.139093419411
 20
506.6154442621771
 30
0.0
 10
6131.329840489724
 20
503.988903463566
 30
0.0
 10
6124.527671707172
 20
501.9382103754581
 30
0.0
 10
6116.256686464117
 20
501.9382103754581
 30
0.0
 10
6107.440428732996
 20
501.9382103754581
 30
0.0
 10
6100.293492019672
 20
504.2681284527152
 30
0.0
 10
6100.293492019672
 20
507.1416825976805
 30
0.0
  0
SPLINE
  5
20945
330
18
100
AcDbEntity
  8
姿図
100
AcDbSpline
210
0.0
220
0.0
230
1.0
 70
    11
 71
     3
 72
    20
 73
    16
 74
     0
 42
0.000000001
 43
0.0000000001
 40
0.0
 40
0.0
 40
0.0
 40
0.0
 40
1.0
 40
1.0
 40
1.0
 40
2.0
 40
2.0
 40
2.0
 40
3.0
 40
3.0
 40
3.0
 40
4.0
 40
4.0
 40
4.0
 40
5.0
 40
5.0
 40
5.0
 40
5.0
 10
6100.852975526616
 20
507.9080440885659
 30
0.0
 10
6102.80091864185
 20
510.0648461176459
 30
0.0
 10
6108.920527881217
 20
511.6395992643472
 30
0.0
 10
6116.168492019672
 20
511.6395992643472
 30
0.0
 10
6124.984663623404
 20
511.6395992643472
 30
0.0
 10
6132.131686464117
 20
509.3096811870903
 30
0.0
 10
6132.131686464117
 20
506.4361270421248
 30
0.0
 10
6132.131686464117
 20
503.5625728971597
 30
0.0
 10
6124.984663623404
 20
501.2326548199028
 30
0.0
 10
6116.168492019672
 20
501.2326548199028
 30
0.0
 10
6107.352234288552
 20
501.2326548199028
 30
0.0
 10
6100.205297575228
 20
503.5625728971597
 30
0.0
 10
6100.205297575228
 20
506.4361270421248
 30
0.0
 10
6100.205297575228
 20
506.9473792122637
 30
0.0
 10
6100.431468093891
 20
507.441405904972
 30
0.0
 10
6100.852975526616
 20
507.9080440885659
 30
0.0
  0
ELLIPSE
  5
20946
330
18
100
AcDbEntity
  8
姿図
100
AcDbEllipse
 10
6116.14644340856
 20
506.4361270421248
 30
0.0
 11
17.21996527777777
 21
0.0
 31
0.0
210
0.0
220
0.0
230
1.0
 40
0.3329065300896287
 41
0.0
 42
6.283185307179586
  0
SPLINE
  5
20947
330
18
100
AcDbEntity
  8
姿図
100
AcDbSpline
210
0.0
220
0.0
230
1.0
 70
     8
 71
     3
 72
     8
 73
     4
 74
     0
 42
0.000000001
 43
0.0000000001
 40
46.0
 40
46.0
 40
46.0
 40
46.0
 40
47.0
 40
47.0
 40
47.0
 40
47.0
 10
6122.852666281825
 20
500.5923838238089
 30
0.0
 10
6115.268977588248
 20
499.8303287022811
 30
0.0
 10
6107.286174582606
 20
499.9028479622636
 30
0.0
 10
6099.484669726919
 20
502.8420311762395
 30
0.0
  0
SPLINE
  5
20948
330
18
100
AcDbEntity
  8
姿図
100
AcDbSpline
210
0.0
220
0.0
230
1.0
 70
     8
 71
     3
 72
     8
 73
     4
 74
     0
 42
0.000000001
 43
0.0000000001
 40
3.0
 40
3.0
 40
3.0
 40
3.0
 40
4.0
 40
4.0
 40
4.0
 40
4.0
 10
6101.895805930262
 20
519.3610917773678
 30
0.0
 10
6101.895805930262
 20
519.3610917773678
 30
0.0
 10
6102.955861811338
 20
522.5040523893472
 30
0.0
 10
6103.272035449577
 20
522.9319332487221
 30
0.0
  0
LINE
  5
20949
330
18
100
AcDbEntity
  8
姿図
100
AcDbLine
 10
6099.99893635561
 20
516.2923729731144
 30
0.0
 11
6100.918949105176
 21
516.9664059049721
 31
0.0
  0
LINE
  5
2094A
330
18
100
AcDbEntity
  8
姿図
100
AcDbLine
 10
6100.974415142501
 20
517.2716413650417
 30
0.0
 11
6100.752464865809
 21
512.0271725065347
 31
0.0
  0
LINE
  5
2094B
330
18
100
AcDbEntity
  8
姿図
100
AcDbLine
 10
6099.886970752311
 20
516.2041785286699
 30
0.0
 11
6099.923661019237
 21
516.2331173307534
 31
0.0
  0
SPLINE
  5
2094C
330
18
100
AcDbEntity
  8
姿図
100
AcDbSpline
210
0.0
220
0.0
230
1.0
 70
    24
 71
     3
 72
     8
 73
     4
 74
     0
 42
0.000000001
 43
0.0000000001
 40
0.0
 40
0.0
 40
0.0
 40
0.0
 40
1.0
 40
1.0
 40
1.0
 40
1.0
 10
6099.923661019237
 20
516.2331173307534
 30
0.0
 10
6099.923661019237
 20
516.2331173307534
 30
0.0
 10
6099.99893635561
 20
516.2923729731144
 30
0.0
 10
6099.99893635561
 20
516.2923729731144
 30
0.0
  0
SPLINE
  5
2094D
330
18
100
AcDbEntity
  8
姿図
100
AcDbSpline
210
0.0
220
0.0
230
1.0
 70
     8
 71
     3
 72
     8
 73
     4
 74
     0
 42
0.000000001
 43
0.0000000001
 40
1.0
 40
1.0
 40
1.0
 40
1.0
 40
2.0
 40
2.0
 40
2.0
 40
2.0
 10
6099.99893635561
 20
516.2923729731144
 30
0.0
 10
6099.99893635561
 20
516.2923729731144
 30
0.0
 10
6099.868711746234
 20
517.0547726041909
 30
0.0
 10
6100.445248475835
 20
517.9103620681665
 30
0.0
  0
LINE
  5
2094E
330
18
100
AcDbEntity
  8
姿図
100
AcDbLine
 10
6099.385192594758
 20
515.8086815668646
 30
0.0
 11
6099.198554546799
 21
511.4444346050589
 31
0.0
  0
LINE
  5
2094F
330
18
100
AcDbEntity
  8
姿図
100
AcDbLine
 10
6098.921052105392
 20
515.7454640646945
 30
0.0
 11
6098.754567866025
 21
511.1948374370902
 31
0.0
  0
SPLINE
  5
20950
330
18
100
AcDbEntity
  8
姿図
100
AcDbSpline
210
0.0
220
0.0
230
1.0
 70
     8
 71
     3
 72
     8
 73
     4
 74
     0
 42
0.000000001
 43
0.0000000001
 40
48.0
 40
48.0
 40
48.0
 40
48.0
 40
49.0
 40
49.0
 40
49.0
 40
49.0
 10
6098.101894526182
 20
510.8243174175589
 30
0.0
 10
6098.139187684819
 20
511.8659420377846
 30
0.0
 10
6098.176308588682
 20
513.9860537999373
 30
0.0
 10
6098.194912104307
 20
514.2651065343123
 30
0.0
  0
SPLINE
  5
20951
330
18
100
AcDbEntity
  8
姿図
100
AcDbSpline
210
0.0
220
0.0
230
1.0
 70
     8
 71
     3
 72
     8
 73
     4
 74
     0
 42
0.000000001
 43
0.0000000001
 40
49.0
 40
49.0
 40
49.0
 40
49.0
 40
50.0
 40
50.0
 40
50.0
 40
50.0
 10
6098.194912104307
 20
514.2651065343123
 30
0.0
 10
6098.213515619932
 20
514.5439870139132
 30
0.0
 10
6098.60410332067
 20
515.7900780512393
 30
0.0
 10
6098.920190831521
 20
515.8086815668646
 30
0.0
  0
SPLINE
  5
20952
330
18
100
AcDbEntity
  8
姿図
100
AcDbSpline
210
0.0
220
0.0
230
1.0
 70
     8
 71
     3
 72
     8
 73
     4
 74
     0
 42
0.000000001
 43
0.0000000001
 40
50.0
 40
50.0
 40
50.0
 40
50.0
 40
51.0
 40
51.0
 40
51.0
 40
51.0
 10
6098.920190831521
 20
515.8086815668646
 30
0.0
 10
6099.236364469759
 20
515.8272850824894
 30
0.0
 10
6099.385192594758
 20
515.8086815668646
 30
0.0
 10
6099.385192594758
 20
515.8086815668646
 30
0.0
  0
SPLINE
  5
20953
330
18
100
AcDbEntity
  8
姿図
100
AcDbSpline
210
0.0
220
0.0
230
1.0
 70
    24
 71
     3
 72
     8
 73
     4
 74
     0
 42
0.000000001
 43
0.0000000001
 40
51.0
 40
51.0
 40
51.0
 40
51.0
 40
52.0
 40
52.0
 40
52.0
 40
52.0
 10
6099.385192594758
 20
515.8086815668646
 30
0.0
 10
6099.385192594758
 20
515.8086815668646
 30
0.0
 10
6099.886970752311
 20
516.2041785286699
 30
0.0
 10
6099.886970752311
 20
516.2041785286699
 30
0.0
  0
SPLINE
  5
20954
330
18
100
AcDbEntity
  8
姿図
100
AcDbSpline
210
0.0
220
0.0
230
1.0
 70
     8
 71
     3
 72
     8
 73
     4
 74
     0
 42
0.000000001
 43
0.0000000001
 40
2.0
 40
2.0
 40
2.0
 40
2.0
 40
3.0
 40
3.0
 40
3.0
 40
3.0
 10
6100.445248475835
 20
517.9103620681665
 30
0.0
 10
6101.021785205436
 20
518.765779277368
 30
0.0
 10
6101.895805930262
 20
519.3610917773678
 30
0.0
 10
6101.895805930262
 20
519.3610917773678
 30
0.0
  0
SPLINE
  5
20955
330
18
100
AcDbEntity
  8
姿図
100
AcDbSpline
210
0.0
220
0.0
230
1.0
 70
     8
 71
     3
 72
     8
 73
     4
 74
     0
 42
0.000000001
 43
0.0000000001
 40
47.0
 40
47.0
 40
47.0
 40
47.0
 40
48.0
 40
48.0
 40
48.0
 40
48.0
 10
6099.484669726919
 20
502.8420311762395
 30
0.0
 10
6095.311883946755
 20
504.583699199243
 30
0.0
 10
6093.057327333257
 20
507.7509477343992
 30
0.0
 10
6098.101894526182
 20
510.8243174175589
 30
0.0
  0
SPLINE
  5
20956
330
18
100
AcDbEntity
  8
姿図
100
AcDbSpline
210
0.0
220
0.0
230
1.0
 70
     8
 71
     3
 72
     8
 73
     4
 74
     0
 42
0.000000001
 43
0.0000000001
 40
0.0
 40
0.0
 40
0.0
 40
0.0
 40
1.0
 40
1.0
 40
1.0
 40
1.0
 10
6131.78545040072
 20
523.6309326156104
 30
0.0
 10
6133.151644980127
 20
523.3777543880688
 30
0.0
 10
6135.48300714777
 20
523.6913792319413
 30
0.0
 10
6134.99124979659
 20
526.6650022487054
 30
0.0
  0
SPLINE
  5
20957
330
18
100
AcDbEntity
  8
姿図
100
AcDbSpline
210
0.0
220
0.0
230
1.0
 70
     8
 71
     3
 72
     8
 73
     4
 74
     0
 42
0.000000001
 43
0.0000000001
 40
0.0
 40
0.0
 40
0.0
 40
0.0
 40
1.0
 40
1.0
 40
1.0
 40
1.0
 10
6132.507890891199
 20
522.4241261740692
 30
0.0
 10
6132.258465978005
 20
522.6997338129584
 30
0.0
 10
6132.076564936338
 20
522.8650983962916
 30
0.0
 10
6131.919640836946
 20
522.9536373502847
 30
0.0
  0
SPLINE
  5
20958
330
18
100
AcDbEntity
  8
姿図
100
AcDbSpline
210
0.0
220
0.0
230
1.0
 70
     8
 71
     3
 72
     8
 73
     4
 74
     0
 42
0.000000001
 43
0.0000000001
 40
0.0
 40
0.0
 40
0.0
 40
0.0
 40
1.0
 40
1.0
 40
1.0
 40
1.0
 10
6132.252953825227
 20
521.0512556228541
 30
0.0
 10
6131.545675721928
 20
522.0165713780623
 30
0.0
 10
6130.52713324146
 20
522.6203243620034
 30
0.0
 10
6128.912589241893
 20
522.928488153236
 30
0.0
  0
SPLINE
  5
20959
330
18
100
AcDbEntity
  8
姿図
100
AcDbSpline
210
0.0
220
0.0
230
1.0
 70
     8
 71
     3
 72
     8
 73
     4
 74
     0
 42
0.000000001
 43
0.0000000001
 40
0.0
 40
0.0
 40
0.0
 40
0.0
 40
0.9455772662780577
 40
0.9455772662780577
 40
0.9455772662780577
 40
0.9455772662780577
 10
6128.804068734081
 20
519.7531436436873
 30
0.0
 10
6130.665300763383
 20
518.8851550653949
 30
0.0
 10
6131.894759928108
 20
517.837738065057
 30
0.0
 10
6132.235256846792
 20
516.7084673230706
 30
0.0
  0
SPLINE
  5
2095A
330
18
100
AcDbEntity
  8
姿図
100
AcDbSpline
210
0.0
220
0.0
230
1.0
 70
     8
 71
     3
 72
     8
 73
     4
 74
     0
 42
0.000000001
 43
0.0000000001
 40
1.0
 40
1.0
 40
1.0
 40
1.0
 40
2.0
 40
2.0
 40
2.0
 40
2.0
 10
6130.059117019672
 20
517.8939978646074
 30
0.0
 10
6130.955703119932
 20
517.4383839865693
 30
0.0
 10
6132.190425342154
 20
516.938672886309
 30
0.0
 10
6133.018109532693
 20
516.0233110156491
 30
0.0
  0
SPLINE
  5
2095B
330
18
100
AcDbEntity
  8
姿図
100
AcDbSpline
210
0.0
220
0.0
230
1.0
 70
     8
 71
     3
 72
     8
 73
     4
 74
     0
 42
0.000000001
 43
0.0000000001
 40
0.0
 40
0.0
 40
0.0
 40
0.0
 40
1.0
 40
1.0
 40
1.0
 40
1.0
 10
6123.672340625358
 20
524.9559268468124
 30
0.0
 10
6124.828256288335
 20
524.1459848980278
 30
0.0
 10
6126.1639198083
 20
525.0709930360485
 30
0.0
 10
6126.1639198083
 20
525.4935339974202
 30
0.0
  0
LINE
  5
2095C
330
18
100
AcDbEntity
  8
姿図
100
AcDbLine
 10
6123.773368050487
 20
524.8923648350935
 30
0.0
 11
6121.696233854525
 21
526.3418887608748
 31
0.0
  0
SPLINE
  5
2095D
330
18
100
AcDbEntity
  8
姿図
100
AcDbSpline
210
0.0
220
0.0
230
1.0
 70
     8
 71
     3
 72
     8
 73
     4
 74
     0
 42
0.000000001
 43
0.0000000001
 40
0.0
 40
0.0
 40
0.0
 40
0.0
 40
1.0
 40
1.0
 40
1.0
 40
1.0
 10
6126.147211095193
 20
526.00323587459
 30
0.0
 10
6126.147211095193
 20
525.5806949132186
 30
0.0
 10
6124.893540847796
 20
524.6486243294514
 30
0.0
 10
6123.737711312207
 20
525.458566278236
 30
0.0
  0
LINE
  5
2095E
330
18
100
AcDbEntity
  8
姿図
100
AcDbLine
 10
6120.2107948083
 20
523.6633270204236
 30
0.0
 11
6121.710100363855
 21
523.3398325542778
 31
0.0
  0
LINE
  5
2095F
330
18
100
AcDbEntity
  8
姿図
100
AcDbLine
 10
6120.181425369281
 20
524.3101436979409
 30
0.0
 11
6121.680730924837
 21
523.9866492317949
 31
0.0
  0
LINE
  5
20960
330
18
100
AcDbEntity
  8
姿図
100
AcDbLine
 10
6120.181425369281
 20
524.8980492426456
 30
0.0
 11
6121.680730924837
 21
524.5745547764998
 31
0.0
  0
LINE
  5
20961
330
18
100
AcDbEntity
  8
姿図
100
AcDbLine
 10
6120.181425369281
 20
525.4566714757186
 30
0.0
 11
6121.680730924837
 21
525.1331770095728
 31
0.0
  0
LINE
  5
20962
330
18
100
AcDbEntity
  8
姿図
100
AcDbLine
 10
6120.151969802875
 20
526.1033158984617
 30
0.0
 11
6121.65127535843
 21
525.7798214323159
 31
0.0
  0
LINE
  5
20963
330
18
100
AcDbEntity
  8
姿図
100
AcDbLine
 10
6120.122600363856
 20
526.6913936979408
 30
0.0
 11
6121.621905919411
 21
526.367899231795
 31
0.0
  0
LINE
  5
20964
330
18
100
AcDbEntity
  8
姿図
100
AcDbLine
 10
6128.140887853005
 20
526.2578284310136
 30
0.0
 11
6126.685679519672
 21
526.5665089865695
 31
0.0
  0
LINE
  5
20965
330
18
100
AcDbEntity
  8
姿図
100
AcDbLine
 10
6128.096790630782
 20
525.7286617643472
 30
0.0
 11
6126.64158229745
 21
526.0373423199028
 31
0.0
  0
LINE
  5
20966
330
18
100
AcDbEntity
  8
姿図
100
AcDbLine
 10
6128.096790630782
 20
525.0672034310139
 30
0.0
 11
6126.64158229745
 21
525.3758839865693
 31
0.0
  0
LINE
  5
20967
330
18
100
AcDbEntity
  8
姿図
100
AcDbLine
 10
6128.096790630782
 20
524.493939542125
 30
0.0
 11
6126.64158229745
 21
524.8026200976803
 31
0.0
  0
LINE
  5
20968
330
18
100
AcDbEntity
  8
姿図
100
AcDbLine
 10
6128.096790630782
 20
523.920675653236
 30
0.0
 11
6126.64158229745
 21
524.2293562087916
 31
0.0
  0
LINE
  5
20969
330
18
100
AcDbEntity
  8
姿図
100
AcDbLine
 10
6128.184985075227
 20
523.3033145421248
 30
0.0
 11
6126.729776741894
 21
523.6119950976806
 31
0.0
  0
SPLINE
  5
2096A
330
18
100
AcDbEntity
  8
姿図
100
AcDbSpline
210
0.0
220
0.0
230
1.0
 70
     8
 71
     3
 72
     8
 73
     4
 74
     0
 42
0.000000001
 43
0.0000000001
 40
0.0
 40
0.0
 40
0.0
 40
0.0
 40
1.0
 40
1.0
 40
1.0
 40
1.0
 10
6128.814231765766
 20
519.1910763151284
 30
0.0
 10
6129.890307340852
 20
518.6493350499375
 30
0.0
 10
6130.688880474533
 20
518.037486091604
 30
0.0
 10
6131.139154454568
 20
517.3803341276284
 30
0.0
  0
SPLINE
  5
2096B
330
18
100
AcDbEntity
  8
姿図
100
AcDbSpline
210
0.0
220
0.0
230
1.0
 70
     8
 71
     3
 72
     8
 73
     4
 74
     0
 42
0.000000001
 43
0.0000000001
 40
0.0
 40
0.0
 40
0.0
 40
0.0
 40
1.0
 40
1.0
 40
1.0
 40
1.0
 10
6130.059117019672
 20
517.8939978646074
 30
0.0
 10
6129.352355680696
 20
518.203195184486
 30
0.0
 10
6128.802346186339
 20
518.5499440451631
 30
0.0
 10
6128.802346186339
 20
519.378661764347
 30
0.0
  0
LINE
  5
2096C
330
18
100
AcDbEntity
  8
姿図
100
AcDbLine
 10
6128.795111485818
 20
519.7633066753715
 30
0.0
 11
6128.802346186339
 21
519.378661764347
 31
0.0
  0
SPLINE
  5
2096D
330
18
100
AcDbEntity
  8
姿図
100
AcDbSpline
210
0.0
220
0.0
230
1.0
 70
     8
 71
     3
 72
     8
 73
     4
 74
     0
 42
0.000000001
 43
0.0000000001
 40
0.0
 40
0.0
 40
0.0
 40
0.0
 40
1.0
 40
1.0
 40
1.0
 40
1.0
 10
6121.825683317415
 20
521.1496130989824
 30
0.0
 10
6123.443844667241
 20
520.918102682316
 30
0.0
 10
6124.926613764464
 20
520.5959862543643
 30
0.0
 10
6126.220763883821
 20
520.2020395855277
 30
0.0
  0
SPLINE
  5
2096E
330
18
100
AcDbEntity
  8
姿図
100
AcDbSpline
210
0.0
220
0.0
230
1.0
 70
     8
 71
     3
 72
     8
 73
     4
 74
     0
 42
0.000000001
 43
0.0000000001
 40
0.0
 40
0.0
 40
0.0
 40
0.0
 40
1.0
 40
1.0
 40
1.0
 40
1.0
 10
6121.726464567415
 20
521.6994503385658
 30
0.0
 10
6123.367708056999
 20
521.4579491449895
 30
0.0
 10
6124.883722325661
 20
521.125152921031
 30
0.0
 10
6126.225759272275
 20
520.7198374370903
 30
0.0
  0
SPLINE
  5
2096F
330
18
100
AcDbEntity
  8
姿図
100
AcDbSpline
210
0.0
220
0.0
230
1.0
 70
     8
 71
     3
 72
     8
 73
     4
 74
     0
 42
0.000000001
 43
0.0000000001
 40
0.0
 40
0.0
 40
0.0
 40
0.0
 40
1.0
 40
1.0
 40
1.0
 40
1.0
 10
6126.766467008821
 20
514.3147159093126
 30
0.0
 10
6126.766467008821
 20
514.2010277582706
 30
0.0
 10
6126.61557182653
 20
514.0075856467256
 30
0.0
 10
6126.266755908561
 20
514.1090437087917
 30
0.0
  0
SPLINE
  5
20970
330
18
100
AcDbEntity
  8
姿図
100
AcDbSpline
210
0.0
220
0.0
230
1.0
 70
     8
 71
     3
 72
     8
 73
     4
 74
     0
 42
0.000000001
 43
0.0000000001
 40
0.0
 40
0.0
 40
0.0
 40
0.0
 40
1.0
 40
1.0
 40
1.0
 40
1.0
 10
6122.092247580653
 20
514.8145992643472
 30
0.0
 10
6122.591958680913
 20
514.6969492534965
 30
0.0
 10
6125.149683697189
 20
514.5205603646075
 30
0.0
 10
6126.354950353005
 20
514.0795881423853
 30
0.0
  0
SPLINE
  5
20971
330
18
100
AcDbEntity
  8
姿図
100
AcDbSpline
210
0.0
220
0.0
230
1.0
 70
     8
 71
     3
 72
     8
 73
     4
 74
     0
 42
0.000000001
 43
0.0000000001
 40
0.0
 40
0.0
 40
0.0
 40
0.0
 40
1.0
 40
1.0
 40
1.0
 40
1.0
 10
6121.827664247319
 20
515.2555714865694
 30
0.0
 10
6121.827664247319
 20
515.011830980927
 30
0.0
 10
6121.946003277267
 20
514.8145992643472
 30
0.0
 10
6122.092247580653
 20
514.8145992643472
 30
0.0
  0
LINE
  5
20972
330
18
100
AcDbEntity
  8
姿図
100
AcDbLine
 10
6121.739469802875
 20
517.8719492534965
 30
0.0
 11
6121.798208680912
 21
515.2261159201632
 31
0.0
  0
LINE
  5
20973
330
18
100
AcDbEntity
  8
姿図
100
AcDbLine
 10
6120.240250374706
 20
518.6362436870902
 30
0.0
 11
6121.739555930262
 21
518.3127492209444
 31
0.0
  0
LINE
  5
20974
330
18
100
AcDbEntity
  8
姿図
100
AcDbLine
 10
6120.240250374706
 20
519.3123436762396
 30
0.0
 11
6121.739555930262
 21
518.9888492100938
 31
0.0
  0
LINE
  5
20975
330
18
100
AcDbEntity
  8
姿図
100
AcDbLine
 10
6120.240250374706
 20
519.9591603537567
 30
0.0
 11
6121.739555930262
 21
519.6356658876109
 31
0.0
  0
LINE
  5
20976
330
18
100
AcDbEntity
  8
姿図
100
AcDbLine
 10
6120.240250374706
 20
520.5177825868298
 30
0.0
 11
6121.739555930262
 21
520.194288120684
 31
0.0
  0
LINE
  5
20977
330
18
100
AcDbEntity
  8
姿図
100
AcDbLine
 10
6120.2107948083
 20
521.1938825759792
 30
0.0
 11
6121.710100363855
 21
520.8703881098334
 31
0.0
  0
LINE
  5
20978
330
18
100
AcDbEntity
  8
姿図
100
AcDbLine
 10
6120.2107948083
 20
521.8112436870902
 30
0.0
 11
6121.710100363855
 21
521.4877492209444
 31
0.0
  0
LINE
  5
20979
330
18
100
AcDbEntity
  8
姿図
100
AcDbLine
 10
6120.181425369281
 20
522.399149231795
 30
0.0
 11
6121.680730924837
 21
522.0756547656492
 31
0.0
  0
LINE
  5
2097A
330
18
100
AcDbEntity
  8
姿図
100
AcDbLine
 10
6120.2107948083
 20
523.0459659093124
 30
0.0
 11
6121.710100363855
 21
522.7224714431666
 31
0.0
  0
LINE
  5
2097B
330
18
100
AcDbEntity
  8
姿図
100
AcDbLine
 10
6121.817242833474
 20
521.6946272048854
 30
0.0
 11
6121.826802973447
 21
521.1583980924722
 31
0.0
  0
LINE
  5
2097C
330
18
100
AcDbEntity
  8
姿図
100
AcDbLine
 10
6121.826802973447
 20
521.1583980924722
 30
0.0
 11
6121.886403125357
 21
517.8132103754581
 31
0.0
  0
LINE
  5
2097D
330
18
100
AcDbEntity
  8
姿図
100
AcDbLine
 10
6119.975580913986
 20
518.0777937087917
 30
0.0
 11
6121.710014236469
 21
517.8424936870902
 31
0.0
  0
LINE
  5
2097E
330
18
100
AcDbEntity
  8
姿図
100
AcDbLine
 10
6128.184985075227
 20
522.7741478754581
 30
0.0
 11
6126.729776741894
 21
523.0828284310139
 31
0.0
  0
LINE
  5
2097F
330
18
100
AcDbEntity
  8
姿図
100
AcDbLine
 10
6128.140887853005
 20
522.1567867643471
 30
0.0
 11
6126.685679519672
 21
522.4654673199027
 31
0.0
  0
LINE
  5
20980
330
18
100
AcDbEntity
  8
姿図
100
AcDbLine
 10
6128.140887853005
 20
521.4953284310138
 30
0.0
 11
6126.685679519672
 21
521.8040089865692
 31
0.0
  0
LINE
  5
20981
330
18
100
AcDbEntity
  8
姿図
100
AcDbLine
 10
6128.140887853005
 20
520.8779673199026
 30
0.0
 11
6126.685679519672
 21
521.1866478754582
 31
0.0
  0
LINE
  5
20982
330
18
100
AcDbEntity
  8
姿図
100
AcDbLine
 10
6128.140887853005
 20
520.2606062087916
 30
0.0
 11
6126.685679519672
 21
520.5692867643472
 31
0.0
  0
LINE
  5
20983
330
18
100
AcDbEntity
  8
姿図
100
AcDbLine
 10
6128.140887853005
 20
519.6432450976804
 30
0.0
 11
6126.685679519672
 21
519.951925653236
 31
0.0
  0
LINE
  5
20984
330
18
100
AcDbEntity
  8
姿図
100
AcDbLine
 10
6128.184985075227
 20
519.0699812087917
 30
0.0
 11
6126.729776741894
 21
519.378661764347
 31
0.0
  0
LINE
  5
20985
330
18
100
AcDbEntity
  8
姿図
100
AcDbLine
 10
6128.229082297449
 20
518.4967173199027
 30
0.0
 11
6126.773873964116
 21
518.8053978754581
 31
0.0
  0
LINE
  5
20986
330
18
100
AcDbEntity
  8
姿図
100
AcDbLine
 10
6128.229082297449
 20
517.8793562087915
 30
0.0
 11
6126.773873964116
 21
518.1880367643471
 31
0.0
  0
LINE
  5
20987
330
18
100
AcDbEntity
  8
姿図
100
AcDbLine
 10
6128.273179519671
 20
517.2619950976805
 30
0.0
 11
6126.817971186339
 21
517.5706756532361
 31
0.0
  0
LINE
  5
20988
330
18
100
AcDbEntity
  8
姿図
100
AcDbLine
 10
6128.273179519671
 20
516.6887312087915
 30
0.0
 11
6126.817971186339
 21
516.9974117643471
 31
0.0
  0
SPLINE
  5
20989
330
18
100
AcDbEntity
  8
姿図
100
AcDbSpline
210
0.0
220
0.0
230
1.0
 70
     8
 71
     3
 72
     8
 73
     4
 74
     0
 42
0.000000001
 43
0.0000000001
 40
0.0
 40
0.0
 40
0.0
 40
0.0
 40
1.0
 40
1.0
 40
1.0
 40
1.0
 10
6132.572658686338
 20
516.4548092252846
 30
0.0
 10
6132.572658686338
 20
518.8677541037569
 30
0.0
 10
6132.574208979307
 20
521.0958696093992
 30
0.0
 10
6132.153907330002
 20
521.0879458897812
 30
0.0
  0
SPLINE
  5
2098A
330
18
100
AcDbEntity
  8
姿図
100
AcDbSpline
210
0.0
220
0.0
230
1.0
 70
     8
 71
     3
 72
     8
 73
     4
 74
     0
 42
0.000000001
 43
0.0000000001
 40
38.0
 40
38.0
 40
38.0
 40
38.0
 40
39.0
 40
39.0
 40
39.0
 40
39.0
 10
6132.500139426355
 20
522.4461747851803
 30
0.0
 10
6133.018109532693
 20
521.8505177756317
 30
0.0
 10
6133.147472868196
 20
521.3843963563611
 30
0.0
 10
6133.199321555262
 20
520.840415779104
 30
0.0
  0
SPLINE
  5
2098B
330
18
100
AcDbEntity
  8
姿図
100
AcDbSpline
210
0.0
220
0.0
230
1.0
 70
     8
 71
     3
 72
    11
 73
     7
 74
     0
 42
0.000000001
 43
0.0000000001
 40
39.0
 40
39.0
 40
39.0
 40
39.0
 40
40.0
 40
40.0
 40
40.0
 40
41.0
 40
41.0
 40
41.0
 40
41.0
 10
6133.199321555262
 20
520.840415779104
 30
0.0
 10
6133.251170242328
 20
520.2966074566214
 30
0.0
 10
6133.303018929394
 20
517.0334130121771
 30
0.0
 10
6133.303018929394
 20
516.8520287348331
 30
0.0
 10
6133.303018929394
 20
516.6708167122638
 30
0.0
 10
6133.173483339116
 20
516.2303612543644
 30
0.0
 10
6133.018109532693
 20
516.0233110156494
 30
0.0
  0
SPLINE
  5
2098C
330
18
100
AcDbEntity
  8
姿図
100
AcDbSpline
210
0.0
220
0.0
230
1.0
 70
     8
 71
     3
 72
    11
 73
     7
 74
     0
 42
0.000000001
 43
0.0000000001
 40
41.0
 40
41.0
 40
41.0
 40
41.0
 40
42.0
 40
42.0
 40
42.0
 40
43.0
 40
43.0
 40
43.0
 40
43.0
 10
6133.018109532693
 20
516.0233110156494
 30
0.0
 10
6133.691453445453
 20
515.4016435351805
 30
0.0
 10
6133.846827251877
 20
515.0132090191214
 30
0.0
 10
6133.846827251877
 20
514.3140268902152
 30
0.0
 10
6133.846827251877
 20
513.6146725065346
 30
0.0
 10
6134.012880854308
 20
510.8591128819687
 30
0.0
 10
6134.012880854308
 20
510.8591128819687
 30
0.0
  0
SPLINE
  5
2098D
330
18
100
AcDbEntity
  8
姿図
100
AcDbSpline
210
0.0
220
0.0
230
1.0
 70
    27
 71
     3
 72
     8
 73
     4
 74
     0
 42
0.000000001
 43
0.0000000001
 40
43.0
 40
43.0
 40
43.0
 40
43.0
 40
44.0
 40
44.0
 40
44.0
 40
44.0
 10
6134.012880854308
 20
510.8591128819687
 30
0.0
 10
6134.012880854308
 20
510.8591128819687
 30
0.0
 10
6134.012880854308
 20
510.8591128819687
 30
0.0
 10
6134.012880854308
 20
510.8591128819687
 30
0.0
  0
SPLINE
  5
2098E
330
18
100
AcDbEntity
  8
姿図
100
AcDbSpline
210
0.0
220
0.0
230
1.0
 70
     8
 71
     3
 72
     8
 73
     4
 74
     0
 42
0.000000001
 43
0.0000000001
 40
37.0
 40
37.0
 40
37.0
 40
37.0
 40
38.0
 40
38.0
 40
38.0
 40
38.0
 10
6136.62788058304
 20
523.905517233097
 30
0.0
 10
6135.083959526196
 20
522.4495319456105
 30
0.0
 10
6133.515353338437
 20
522.5315937065075
 30
0.0
 10
6132.124279508821
 20
522.7887895312742
 30
0.0
  0
LINE
  5
2098F
330
18
100
AcDbEntity
  8
姿図
100
AcDbLine
 10
6137.854348979931
 20
526.660095963083
 30
0.0
 11
6136.444256714708
 21
524.9988473885903
 31
0.0
  0
LINE
  5
20990
330
18
100
AcDbEntity
  8
姿図
100
AcDbLine
 10
6137.849674349843
 20
526.1175767175
 30
0.0
 11
6136.300918525326
 21
524.2929667475225
 31
0.0
  0
LINE
  5
20991
330
18
100
AcDbEntity
  8
姿図
100
AcDbLine
 10
6137.788187479257
 20
525.5797601726465
 30
0.0
 11
6135.849980408419
 21
523.2963324758136
 31
0.0
  0
SPLINE
  5
20992
330
18
100
AcDbEntity
  8
姿図
100
AcDbSpline
210
0.0
220
0.0
230
1.0
 70
     8
 71
     3
 72
    11
 73
     7
 74
     0
 42
0.000000001
 43
0.0000000001
 40
44.0
 40
44.0
 40
44.0
 40
44.0
 40
45.0
 40
45.0
 40
45.0
 40
46.0
 40
46.0
 40
46.0
 40
46.0
 10
6134.012880854308
 20
510.8591128819687
 30
0.0
 10
6134.012880854308
 20
510.8591128819687
 30
0.0
 10
6137.159631071321
 20
509.7778696636526
 30
0.0
 10
6136.869381776616
 20
506.7298214323159
 30
0.0
 10
6136.579132481911
 20
503.681773200979
 30
0.0
 10
6130.280981168978
 20
501.4838022808401
 30
0.0
 10
6122.852666281825
 20
500.5923838238089
 30
0.0
  0
LINE
  5
20993
330
18
100
AcDbEntity
  8
姿図
100
AcDbLine
 10
6113.125783686338
 20
516.9018103646074
 30
0.0
 11
6116.653561464116
 21
516.8725270529756
 31
0.0
  0
LINE
  5
20994
330
18
100
AcDbEntity
  8
姿図
100
AcDbLine
 10
6113.449192025098
 20
519.8416825976803
 30
0.0
 11
6116.829950353005
 21
519.8709659093124
 31
0.0
  0
LINE
  5
20995
330
18
100
AcDbEntity
  8
姿図
100
AcDbLine
 10
6113.625580913986
 20
522.1934770312741
 30
0.0
 11
6116.447803136208
 21
522.2229325976805
 31
0.0
  0
SPLINE
  5
20996
330
18
100
AcDbEntity
  8
姿図
100
AcDbSpline
210
0.0
220
0.0
230
1.0
 70
     8
 71
     3
 72
     8
 73
     4
 74
     0
 42
0.000000001
 43
0.0000000001
 40
0.0
 40
0.0
 40
0.0
 40
0.0
 40
1.0
 40
1.0
 40
1.0
 40
1.0
 10
6112.243839241894
 20
519.9593326085312
 30
0.0
 10
6112.243839241894
 20
520.0568288107881
 30
0.0
 10
6112.164946555262
 20
520.13572149742
 30
0.0
 10
6112.067450353005
 20
520.13572149742
 30
0.0
  0
SPLINE
  5
20997
330
18
100
AcDbEntity
  8
姿図
100
AcDbSpline
210
0.0
220
0.0
230
1.0
 70
     8
 71
     3
 72
     8
 73
     4
 74
     0
 42
0.000000001
 43
0.0000000001
 40
0.0
 40
0.0
 40
0.0
 40
0.0
 40
1.0
 40
1.0
 40
1.0
 40
1.0
 10
6113.272803136208
 20
521.8701548199026
 30
0.0
 10
6113.272803136208
 20
522.0487830208574
 30
0.0
 10
6113.430588509472
 20
522.1934770312741
 30
0.0
 10
6113.625580913986
 20
522.1934770312741
 30
0.0
  0
LINE
  5
20998
330
18
100
AcDbEntity
  8
姿図
100
AcDbLine
 10
6113.272803136208
 20
521.8701548199026
 30
0.0
 11
6113.288650575444
 21
521.5039411697292
 31
0.0
  0
LINE
  5
20999
330
18
100
AcDbEntity
  8
姿図
100
AcDbLine
 10
6113.288650575444
 20
521.5039411697292
 30
0.0
 11
6113.360997580653
 21
519.8416825976803
 31
0.0
  0
LINE
  5
2099A
330
18
100
AcDbEntity
  8
姿図
100
AcDbLine
 10
6113.360997580653
 20
519.9004214757185
 30
0.0
 11
6113.066958680914
 21
516.9312659310137
 31
0.0
  0
LINE
  5
2099B
330
18
100
AcDbEntity
  8
姿図
100
AcDbLine
 10
6113.125783686338
 20
516.9018103646074
 30
0.0
 11
6112.978764236469
 21
514.0503048307535
 31
0.0
  0
LINE
  5
2099C
330
18
100
AcDbEntity
  8
姿図
100
AcDbLine
 10
6112.831830913986
 20
516.8430714865692
 30
0.0
 11
6112.92002535843
 21
514.0208492643471
 31
0.0
  0
SPLINE
  5
2099D
330
18
100
AcDbEntity
  8
姿図
100
AcDbSpline
210
0.0
220
0.0
230
1.0
 70
     8
 71
     3
 72
     8
 73
     4
 74
     0
 42
0.000000001
 43
0.0000000001
 40
0.0
 40
0.0
 40
0.0
 40
0.0
 40
1.0
 40
1.0
 40
1.0
 40
1.0
 10
6112.831830913986
 20
516.8430714865692
 30
0.0
 10
6112.896081944802
 20
516.8430714865692
 30
0.0
 10
6112.302578119932
 20
516.87269930775
 30
0.0
 10
6112.273208680913
 20
520.0475270529757
 30
0.0
  0
LINE
  5
2099E
330
18
100
AcDbEntity
  8
姿図
100
AcDbLine
 10
6118.463786887293
 20
522.0549841927325
 30
0.0
 11
6118.446819792024
 21
520.6059770312743
 31
0.0
  0
SPLINE
  5
2099F
330
18
100
AcDbEntity
  8
姿図
100
AcDbSpline
210
0.0
220
0.0
230
1.0
 70
     8
 71
     3
 72
     8
 73
     4
 74
     0
 42
0.000000001
 43
0.0000000001
 40
0.0
 40
0.0
 40
0.0
 40
0.0
 40
1.0
 40
1.0
 40
1.0
 40
1.0
 10
6118.446819792024
 20
520.6059770312743
 30
0.0
 10
6118.446819792024
 20
520.4597327278886
 30
0.0
 10
6118.312202685905
 20
520.3119381315346
 30
0.0
 10
6118.182236458691
 20
520.3119381315346
 30
0.0
  0
LINE
  5
209A0
330
18
100
AcDbEntity
  8
姿図
100
AcDbLine
 10
6117.858828119933
 20
520.2531992534964
 30
0.0
 11
6118.182236458691
 21
520.3119381315346
 31
0.0
  0
LINE
  5
209A1
330
18
100
AcDbEntity
  8
姿図
100
AcDbLine
 10
6116.88877535843
 20
516.9312659310137
 30
0.0
 11
6116.77112534758
 21
514.1383270204235
 31
0.0
  0
SPLINE
  5
209A2
330
18
100
AcDbEntity
  8
姿図
100
AcDbSpline
210
0.0
220
0.0
230
1.0
 70
     8
 71
     3
 72
     8
 73
     4
 74
     0
 42
0.000000001
 43
0.0000000001
 40
0.0
 40
0.0
 40
0.0
 40
0.0
 40
1.0
 40
1.0
 40
1.0
 40
1.0
 10
6117.270922575227
 20
517.3427825868298
 30
0.0
 10
6117.270922575227
 20
517.1154062847465
 30
0.0
 10
6117.100045839116
 20
516.9312659310137
 30
0.0
 10
6116.88877535843
 20
516.9312659310137
 30
0.0
  0
LINE
  5
209A3
330
18
100
AcDbEntity
  8
姿図
100
AcDbLine
 10
6117.476680903135
 20
519.8709659093124
 30
0.0
 11
6117.270922575227
 21
517.3427825868298
 31
0.0
  0
SPLINE
  5
209A4
330
18
100
AcDbEntity
  8
姿図
100
AcDbSpline
210
0.0
220
0.0
230
1.0
 70
     8
 71
     3
 72
     8
 73
     4
 74
     0
 42
0.000000001
 43
0.0000000001
 40
0.0
 40
0.0
 40
0.0
 40
0.0
 40
1.0
 40
1.0
 40
1.0
 40
1.0
 10
6116.829950353005
 20
521.899610386309
 30
0.0
 10
6116.829950353005
 20
522.0782385872637
 30
0.0
 10
6116.659073616894
 20
522.2229325976805
 30
0.0
 10
6116.447803136208
 20
522.2229325976805
 30
0.0
  0
LINE
  5
209A5
330
18
100
AcDbEntity
  8
姿図
100
AcDbLine
 10
6116.947514236469
 20
519.4889048199027
 30
0.0
 11
6116.653561464116
 21
516.8725270529756
 31
0.0
  0
LINE
  5
209A6
330
18
100
AcDbEntity
  8
姿図
100
AcDbLine
 10
6116.712386469541
 20
516.8725270529756
 30
0.0
 11
6116.712386469541
 21
514.0795881423853
 31
0.0
  0
LINE
  5
209A7
330
18
100
AcDbEntity
  8
姿図
100
AcDbLine
 10
6116.829950353005
 20
521.899610386309
 30
0.0
 11
6116.947514236469
 21
519.4889048199027
 31
0.0
  0
CIRCLE
  5
209A8
330
18
100
AcDbEntity
  8
姿図
100
AcDbCircle
 10
6114.907414816981
 20
515.0350853754583
 30
0.0
 40
0.7760938856336805
  0
SPLINE
  5
209A9
330
18
100
AcDbEntity
  8
姿図
100
AcDbSpline
210
0.0
220
0.0
230
1.0
 70
     8
 71
     3
 72
     8
 73
     4
 74
     0
 42
0.000000001
 43
0.0000000001
 40
0.0
 40
0.0
 40
0.0
 40
0.0
 40
1.0
 40
1.0
 40
1.0
 40
1.0
 10
6116.80015027705
 20
521.5511389778887
 30
0.0
 10
6117.350504280957
 20
521.5392533984616
 30
0.0
 10
6117.893192947407
 20
521.5177215516735
 30
0.0
 10
6118.426752110818
 20
521.4865434375242
 30
0.0
  0
SPLINE
  5
209AA
330
18
100
AcDbEntity
  8
姿図
100
AcDbSpline
210
0.0
220
0.0
230
1.0
 70
     8
 71
     3
 72
     8
 73
     4
 74
     0
 42
0.000000001
 43
0.0000000001
 40
0.0
 40
0.0
 40
0.0
 40
0.0
 40
1.0
 40
1.0
 40
1.0
 40
1.0
 10
6116.727114252745
 20
522.1262976692949
 30
0.0
 10
6117.338446446755
 20
522.1094167014132
 30
0.0
 10
6117.941079774663
 20
522.0804778993297
 30
0.0
 10
6118.533205561339
 20
522.039998027368
 30
0.0
  0
SPLINE
  5
209AB
330
18
100
AcDbEntity
  8
姿図
100
AcDbSpline
210
0.0
220
0.0
230
1.0
 70
     8
 71
     3
 72
     8
 73
     4
 74
     0
 42
0.000000001
 43
0.0000000001
 40
0.0
 40
0.0
 40
0.0
 40
0.0
 40
1.0
 40
1.0
 40
1.0
 40
1.0
 10
6117.476680903135
 20
519.8709659093124
 30
0.0
 10
6117.476680903135
 20
520.0823225173854
 30
0.0
 10
6117.647557639247
 20
520.2531992534964
 30
0.0
 10
6117.858828119933
 20
520.2531992534964
 30
0.0
  0
SPLINE
  5
209AC
330
18
100
AcDbEntity
  8
姿図
100
AcDbSpline
210
0.0
220
0.0
230
1.0
 70
     8
 71
     3
 72
    11
 73
     7
 74
     0
 42
0.000000001
 43
0.0000000001
 40
0.0
 40
0.0
 40
0.0
 40
0.0
 40
1.0
 40
1.0
 40
1.0
 40
2.0
 40
2.0
 40
2.0
 40
2.0
 10
6123.860356711512
 20
511.0746036046251
 30
0.0
 10
6121.663160937857
 20
510.7030500564479
 30
0.0
 10
6119.167361512945
 20
510.4930714865693
 30
0.0
 10
6116.521269797449
 20
510.4930714865693
 30
0.0
 10
6113.786553000575
 20
510.4930714865693
 30
0.0
 10
6111.212463780739
 20
510.7173472027152
 30
0.0
 10
6108.96247191876
 20
511.1121551454235
 30
0.0
  0
SPLINE
  5
209AD
330
18
100
AcDbEntity
  8
姿図
100
AcDbSpline
210
0.0
220
0.0
230
1.0
 70
     8
 71
     3
 72
    11
 73
     7
 74
     0
 42
0.000000001
 43
0.0000000001
 40
0.0
 40
0.0
 40
0.0
 40
0.0
 40
1.0
 40
1.0
 40
1.0
 40
2.0
 40
2.0
 40
2.0
 40
2.0
 10
6121.751613764463
 20
511.3765662239825
 30
0.0
 10
6120.163338617979
 20
511.2039669401283
 30
0.0
 10
6118.463959142067
 20
511.1104325976805
 30
0.0
 10
6116.697658686338
 20
511.1104325976805
 30
0.0
 10
6114.783649761642
 20
511.1104325976805
 30
0.0
 10
6112.948275141417
 20
511.2203311436874
 30
0.0
 10
6111.247689882085
 20
511.4216969748506
 30
0.0
  0
SPLINE
  5
209AE
330
18
100
AcDbEntity
  8
姿図
100
AcDbSpline
210
0.0
220
0.0
230
1.0
 70
     8
 71
     3
 72
    11
 73
     7
 74
     0
 42
0.000000001
 43
0.0000000001
 40
0.0
 40
0.0
 40
0.0
 40
0.0
 40
1.0
 40
1.0
 40
1.0
 40
2.0
 40
2.0
 40
2.0
 40
2.0
 10
6125.557755257519
 20
510.712179559486
 30
0.0
 10
6123.058424609732
 20
510.1831851475938
 30
0.0
 10
6120.076349956955
 20
509.8757103754581
 30
0.0
 10
6116.874047575227
 20
509.8757103754581
 30
0.0
 10
6113.406300586294
 20
509.8757103754581
 30
0.0
 10
6110.196763504046
 20
510.2362396180797
 30
0.0
 10
6107.579007698925
 20
510.8484330859617
 30
0.0
  0
SPLINE
  5
209AF
330
18
100
AcDbEntity
  8
姿図
100
AcDbSpline
210
0.0
220
0.0
230
1.0
 70
     8
 71
     3
 72
    11
 73
     7
 74
     0
 42
0.000000001
 43
0.0000000001
 40
0.0
 40
0.0
 40
0.0
 40
0.0
 40
1.0
 40
1.0
 40
1.0
 40
2.0
 40
2.0
 40
2.0
 40
2.0
 10
6126.813320307432
 20
510.348032966604
 30
0.0
 10
6124.05948323061
 20
509.6119883159965
 30
0.0
 10
6120.536786968673
 20
509.1701548199028
 30
0.0
 10
6116.697658686338
 20
509.1701548199028
 30
0.0
 10
6112.625297439594
 20
509.1701548199028
 30
0.0
 10
6108.909159066113
 20
509.6672820985484
 30
0.0
 10
6106.089090028569
 20
510.4854922765001
 30
0.0
  0
SPLINE
  5
20A4F
330
18
100
AcDbEntity
  8
姿図
100
AcDbSpline
210
0.0
220
0.0
230
1.0
 70
     8
 71
     3
 72
     8
 73
     4
 74
     0
 42
0.000000001
 43
0.0000000001
 40
0.0
 40
0.0
 40
0.0
 40
0.0
 40
1.0
 40
1.0
 40
1.0
 40
1.0
 10
6118.505644797449
 20
529.058002042125
 30
0.0
 10
6118.400483257736
 20
529.058002042125
 30
0.0
 10
6108.816313742762
 20
534.8852949294946
 30
0.0
 10
6103.747803136208
 20
530.0574242426458
 30
0.0
  0
SPLINE
  5
20A50
330
18
100
AcDbEntity
  8
姿図
100
AcDbSpline
210
0.0
220
0.0
230
1.0
 70
     8
 71
     3
 72
     8
 73
     4
 74
     0
 42
0.000000001
 43
0.0000000001
 40
5.0
 40
5.0
 40
5.0
 40
5.0
 40
6.0
 40
6.0
 40
6.0
 40
6.0
 10
6103.018993186121
 20
529.0054643359617
 30
0.0
 10
6103.893272293109
 20
530.5555850499375
 30
0.0
 10
6105.161670323708
 20
531.9060624804931
 30
0.0
 10
6105.575512418977
 20
532.3718393902152
 30
0.0
  0
SPLINE
  5
20A5E
330
18
100
AcDbEntity
  8
姿図
100
AcDbSpline
210
0.0
220
0.0
230
1.0
 70
     8
 71
     3
 72
    14
 73
    10
 74
     0
 42
0.000000001
 43
0.0000000001
 40
20.0
 40
20.0
 40
20.0
 40
20.0
 40
21.0
 40
21.0
 40
21.0
 40
22.0
 40
22.0
 40
22.0
 40
23.0
 40
23.0
 40
23.0
 40
23.0
 10
6140.559595806564
 20
559.8964297764999
 30
0.0
 10
6140.559595806564
 20
559.8964297764999
 30
0.0
 10
6140.702567269237
 20
560.0871158116561
 30
0.0
 10
6140.86948214554
 20
560.2778879741995
 30
0.0
 10
6141.036397021841
 20
560.468660136743
 30
0.0
 10
6141.131826166807
 20
560.6593461718992
 30
0.0
 10
6141.489427078265
 20
560.4209455642604
 30
0.0
 10
6141.847027989724
 20
560.1825449566215
 30
0.0
 10
6143.086745600401
 20
558.9666846321857
 30
0.0
 10
6143.086745600401
 20
558.9666846321857
 30
0.0
  0
SPLINE
  5
20A5F
330
18
100
AcDbEntity
  8
姿図
100
AcDbSpline
210
0.0
220
0.0
230
1.0
 70
     8
 71
     3
 72
     8
 73
     4
 74
     0
 42
0.000000001
 43
0.0000000001
 40
0.0
 40
0.0
 40
0.0
 40
0.0
 40
1.0
 40
1.0
 40
1.0
 40
1.0
 10
6136.496622445019
 20
558.3204708463784
 30
0.0
 10
6140.079521750575
 20
558.3204708463784
 30
0.0
 10
6142.119018278352
 20
557.5708180686006
 30
0.0
 10
6143.062221479172
 20
556.947819309242
 30
0.0
  0
ELLIPSE
  5
20A60
330
18
100
AcDbEntity
  8
姿図
100
AcDbEllipse
 10
6142.154588889246
 20
551.7750047412351
 30
0.0
 11
-1.159877522786458
 21
0.9731964111328124
 31
0.0
210
0.0
220
0.0
230
1.0
 40
0.7351229721554959
 41
0.0
 42
6.283185307179586
  0
SPLINE
  5
20A61
330
18
100
AcDbEntity
  8
姿図
100
AcDbSpline
210
0.0
220
0.0
230
1.0
 70
     8
 71
     3
 72
     8
 73
     4
 74
     0
 42
0.000000001
 43
0.0000000001
 40
0.0
 40
0.0
 40
0.0
 40
0.0
 40
1.0
 40
1.0
 40
1.0
 40
1.0
 10
6140.797776893221
 20
552.4710828815919
 30
0.0
 10
6141.202403358065
 20
552.8743313082412
 30
0.0
 10
6141.980994937926
 20
552.8087022392308
 30
0.0
 10
6142.578719004766
 20
552.3071824638403
 30
0.0
  0
SPLINE
  5
20A62
330
18
100
AcDbEntity
  8
姿図
100
AcDbSpline
210
0.0
220
0.0
230
1.0
 70
     8
 71
     3
 72
     8
 73
     4
 74
     0
 42
0.000000001
 43
0.0000000001
 40
0.0
 40
0.0
 40
0.0
 40
0.0
 40
1.0
 40
1.0
 40
1.0
 40
1.0
 10
6139.848011333907
 20
541.0123111241562
 30
0.0
 10
6141.104782167241
 20
542.2249847352673
 30
0.0
 10
6142.890719667242
 20
545.0692555686007
 30
0.0
 10
6142.956865500574
 20
545.6204708463783
 30
0.0
  0
SPLINE
  5
20A63
330
18
100
AcDbEntity
  8
姿図
100
AcDbSpline
210
0.0
220
0.0
230
1.0
 70
     8
 71
     3
 72
     8
 73
     4
 74
     0
 42
0.000000001
 43
0.0000000001
 40
0.0
 40
0.0
 40
0.0
 40
0.0
 40
1.0
 40
1.0
 40
1.0
 40
1.0
 10
6140.156691889463
 20
540.6154361241563
 30
0.0
 10
6141.192976611685
 20
541.8942555686006
 30
0.0
 10
6142.604087722797
 20
543.3494639019339
 30
0.0
 10
6143.441934945019
 20
545.6645680686006
 30
0.0
  0
SPLINE
  5
20A64
330
18
100
AcDbEntity
  8
姿図
100
AcDbSpline
210
0.0
220
0.0
230
1.0
 70
     8
 71
     3
 72
     8
 73
     4
 74
     0
 42
0.000000001
 43
0.0000000001
 40
0.0
 40
0.0
 40
0.0
 40
0.0
 40
0.8940086046754551
 40
0.8940086046754551
 40
0.8940086046754551
 40
0.8940086046754551
 10
6142.114275870775
 20
545.6959262250955
 30
0.0
 10
6141.584145164979
 20
544.8165949630095
 30
0.0
 10
6140.294113713921
 20
545.0023226960836
 30
0.0
 10
6139.43556258798
 20
545.3041376635667
 30
0.0
  0
SPLINE
  5
20A65
330
18
100
AcDbEntity
  8
姿図
100
AcDbSpline
210
0.0
220
0.0
230
1.0
 70
     8
 71
     3
 72
     8
 73
     4
 74
     0
 42
0.000000001
 43
0.0000000001
 40
0.0
 40
0.0
 40
0.0
 40
0.0
 40
1.0
 40
1.0
 40
1.0
 40
1.0
 10
6142.377055930262
 20
546.0795298199025
 30
0.0
 10
6141.847889263595
 20
544.9036326031057
 30
0.0
 10
6140.165132373405
 20
545.3373701248072
 30
0.0
 10
6139.628214241894
 20
545.7102155837915
 30
0.0
  0
ELLIPSE
  5
20A66
330
18
100
AcDbEntity
  8
姿図
100
AcDbEllipse
 10
6139.980303000574
 20
548.379303311656
 30
0.0
 11
-1.128268771701389
 21
0.9467983669704861
 31
0.0
210
0.0
220
0.0
230
1.0
 40
0.7417511887598578
 41
0.0
 42
6.283185307179586
  0
SPLINE
  5
20A67
330
18
100
AcDbEntity
  8
姿図
100
AcDbSpline
210
0.0
220
0.0
230
1.0
 70
     8
 71
     3
 72
     8
 73
     4
 74
     0
 42
0.000000001
 43
0.0000000001
 40
0.0
 40
0.0
 40
0.0
 40
0.0
 40
0.9866995420590119
 40
0.9866995420590119
 40
0.9866995420590119
 40
0.9866995420590119
 10
6142.604087722797
 20
535.573711135007
 30
0.0
 10
6142.198044426953
 20
537.2560968880018
 30
0.0
 10
6140.876006734517
 20
539.9116637987099
 30
0.0
 10
6138.46501338607
 20
542.284005396624
 30
0.0
  0
SPLINE
  5
20A68
330
18
100
AcDbEntity
  8
姿図
100
AcDbSpline
210
0.0
220
0.0
230
1.0
 70
     8
 71
     3
 72
     8
 73
     4
 74
     0
 42
0.000000001
 43
0.0000000001
 40
0.0
 40
0.0
 40
0.0
 40
0.0
 40
1.0
 40
1.0
 40
1.0
 40
1.0
 10
6141.898532167242
 20
530.2195159852672
 30
0.0
 10
6143.56320230613
 20
534.0559743186006
 30
0.0
 10
6140.542542583908
 20
539.4137868186006
 30
0.0
 10
6138.10617105613
 20
541.2658701519338
 30
0.0
  0
LINE
  5
20A69
330
18
100
AcDbEntity
  8
姿図
100
AcDbLine
 10
6140.960260411599
 20
556.0786610861787
 30
0.0
 11
6136.809437115157
 21
549.6069630881318
 31
0.0
  0
LINE
  5
20A6A
330
18
100
AcDbEntity
  8
姿図
100
AcDbLine
 10
6141.171617019671
 20
555.869113153236
 30
0.0
 11
6137.467450353005
 21
550.0189103808837
 31
0.0
  0
LINE
  5
20A6B
330
18
100
AcDbEntity
  8
姿図
100
AcDbLine
 10
6140.559595806564
 20
559.8964297764999
 30
0.0
 11
6139.164504389463
 21
558.1661305686005
 31
0.0
  0
SPLINE
  5
20A6C
330
18
100
AcDbEntity
  8
姿図
100
AcDbSpline
210
0.0
220
0.0
230
1.0
 70
     8
 71
     3
 72
     8
 73
     4
 74
     0
 42
0.000000001
 43
0.0000000001
 40
16.0
 40
16.0
 40
16.0
 40
16.0
 40
17.0
 40
17.0
 40
17.0
 40
17.0
 10
6138.533018386859
 20
560.1586876703802
 30
0.0
 10
6138.675989849533
 20
560.0394873665607
 30
0.0
 10
6138.866675884689
 20
559.9202870627412
 30
0.0
 10
6138.866675884689
 20
559.9202870627412
 30
0.0
  0
SPLINE
  5
20A6D
330
18
100
AcDbEntity
  8
姿図
100
AcDbSpline
210
0.0
220
0.0
230
1.0
 70
     8
 71
     3
 72
     8
 73
     4
 74
     0
 42
0.000000001
 43
0.0000000001
 40
17.0
 40
17.0
 40
17.0
 40
17.0
 40
18.0
 40
18.0
 40
18.0
 40
18.0
 10
6138.866675884689
 20
559.9202870627412
 30
0.0
 10
6138.866675884689
 20
559.9202870627412
 30
0.0
 10
6139.15279106481
 20
560.2302595291042
 30
0.0
 10
6139.295934782259
 20
560.4209455642604
 30
0.0
  0
SPLINE
  5
20A6E
330
18
100
AcDbEntity
  8
姿図
100
AcDbSpline
210
0.0
220
0.0
230
1.0
 70
     8
 71
     3
 72
     8
 73
     4
 74
     0
 42
0.000000001
 43
0.0000000001
 40
18.0
 40
18.0
 40
18.0
 40
18.0
 40
19.0
 40
19.0
 40
19.0
 40
19.0
 10
6139.295934782259
 20
560.4209455642604
 30
0.0
 10
6139.438906244933
 20
560.6117177268036
 30
0.0
 10
6139.534335389898
 20
560.7547753168644
 30
0.0
 10
6139.725021425053
 20
560.564003154321
 30
0.0
  0
SPLINE
  5
20A6F
330
18
100
AcDbEntity
  8
姿図
100
AcDbSpline
210
0.0
220
0.0
230
1.0
 70
     8
 71
     3
 72
     8
 73
     4
 74
     0
 42
0.000000001
 43
0.0000000001
 40
19.0
 40
19.0
 40
19.0
 40
19.0
 40
20.0
 40
20.0
 40
20.0
 40
20.0
 10
6139.725021425053
 20
560.564003154321
 30
0.0
 10
6139.91570746021
 20
560.3733171191648
 30
0.0
 10
6140.559595806564
 20
559.8964297764999
 30
0.0
 10
6140.559595806564
 20
559.8964297764999
 30
0.0
  0
SPLINE
  5
20A70
330
18
100
AcDbEntity
  8
姿図
100
AcDbSpline
210
0.0
220
0.0
230
1.0
 70
     8
 71
     3
 72
     8
 73
     4
 74
     0
 42
0.000000001
 43
0.0000000001
 40
11.0
 40
11.0
 40
11.0
 40
11.0
 40
12.0
 40
12.0
 40
12.0
 40
12.0
 10
6132.356995708908
 20
557.8588280512395
 30
0.0
 10
6133.095968690678
 20
558.1448571039739
 30
0.0
 10
6133.164181581304
 20
558.236841153453
 30
0.0
 10
6133.378811030088
 20
558.1892127083577
 30
0.0
  0
SPLINE
  5
20A71
330
18
100
AcDbEntity
  8
姿図
100
AcDbSpline
210
0.0
220
0.0
230
1.0
 70
     8
 71
     3
 72
     8
 73
     4
 74
     0
 42
0.000000001
 43
0.0000000001
 40
12.0
 40
12.0
 40
12.0
 40
12.0
 40
13.0
 40
13.0
 40
13.0
 40
13.0
 10
6133.378811030088
 20
558.1892127083577
 30
0.0
 10
6133.593440478873
 20
558.1414981358748
 30
0.0
 10
6134.427842605609
 20
557.8553829557534
 30
0.0
 10
6134.737901199359
 20
557.903097528236
 30
0.0
  0
SPLINE
  5
20A72
330
18
100
AcDbEntity
  8
姿図
100
AcDbSpline
210
0.0
220
0.0
230
1.0
 70
     8
 71
     3
 72
     8
 73
     4
 74
     0
 42
0.000000001
 43
0.0000000001
 40
13.0
 40
13.0
 40
13.0
 40
13.0
 40
14.0
 40
14.0
 40
14.0
 40
14.0
 10
6134.737901199359
 20
557.903097528236
 30
0.0
 10
6135.047787538335
 20
557.9508121007186
 30
0.0
 10
6136.107154400314
 20
558.2711198535399
 30
0.0
 10
6136.512469884255
 20
558.2949771397812
 30
0.0
  0
LINE
  5
20A73
330
18
100
AcDbEntity
  8
姿図
100
AcDbLine
 10
6138.866675884689
 20
559.9202870627412
 30
0.0
 11
6137.51085855613
 21
558.3645680686006
 31
0.0
  0
SPLINE
  5
20A74
330
18
100
AcDbEntity
  8
姿図
100
AcDbSpline
210
0.0
220
0.0
230
1.0
 70
     8
 71
     3
 72
    11
 73
     7
 74
     0
 42
0.000000001
 43
0.0000000001
 40
14.0
 40
14.0
 40
14.0
 40
14.0
 40
15.0
 40
15.0
 40
15.0
 40
16.0
 40
16.0
 40
16.0
 40
16.0
 10
6136.512469884255
 20
558.2949771397812
 30
0.0
 10
6137.036985672015
 20
558.9148359451196
 30
0.0
 10
6137.978358013595
 20
560.0654117100937
 30
0.0
 10
6138.097558317415
 20
560.1607547276717
 30
0.0
 10
6138.216758621234
 20
560.2560977452499
 30
0.0
 10
6138.389874669411
 20
560.2778879741995
 30
0.0
 10
6138.533018386859
 20
560.1586876703802
 30
0.0
  0
LINE
  5
20A75
330
18
100
AcDbEntity
  8
姿図
100
AcDbLine
 10
6138.169517554691
 20
541.651512050403
 30
0.0
 11
6139.820859638236
 21
545.1861232674344
 31
0.0
  0
SPLINE
  5
20A76
330
18
100
AcDbEntity
  8
姿図
100
AcDbSpline
210
0.0
220
0.0
230
1.0
 70
     8
 71
     3
 72
     8
 73
     4
 74
     0
 42
0.000000001
 43
0.0000000001
 40
0.0
 40
0.0
 40
0.0
 40
0.0
 40
1.0
 40
1.0
 40
1.0
 40
1.0
 10
6139.43556258798
 20
545.3041376635667
 30
0.0
 10
6138.727838536599
 20
545.5062659310138
 30
0.0
 10
6138.316321880783
 20
544.9605628060137
 30
0.0
 10
6138.101089207784
 20
544.7349607067702
 30
0.0
  0
SPLINE
  5
20A77
330
18
100
AcDbEntity
  8
姿図
100
AcDbSpline
210
0.0
220
0.0
230
1.0
 70
     8
 71
     3
 72
     8
 73
     4
 74
     0
 42
0.000000001
 43
0.0000000001
 40
0.134000468148693
 40
0.134000468148693
 40
0.134000468148693
 40
0.134000468148693
 40
1.0
 40
1.0
 40
1.0
 40
1.0
 10
6138.169517554691
 20
541.651512050403
 30
0.0
 10
6138.072137546988
 20
541.4990819515936
 30
0.0
 10
6138.023141608106
 20
541.3285881133231
 30
0.0
 10
6138.10617105613
 20
541.2658701519338
 30
0.0
  0
SPLINE
  5
20A78
330
18
100
AcDbEntity
  8
姿図
100
AcDbSpline
210
0.0
220
0.0
230
1.0
 70
     8
 71
     3
 72
     8
 73
     4
 74
     0
 42
0.000000001
 43
0.0000000001
 40
0.0
 40
0.0
 40
0.0
 40
0.0
 40
1.0
 40
1.0
 40
1.0
 40
1.0
 10
6139.628214241894
 20
545.7102155837915
 30
0.0
 10
6138.926276036599
 20
545.947238153236
 30
0.0
 10
6138.514759380782
 20
545.4015350282359
 30
0.0
 10
6138.349394797449
 20
545.124118714217
 30
0.0
  0
ELLIPSE
  5
20A79
330
18
100
AcDbEntity
  8
姿図
100
AcDbEllipse
 10
6139.932291184751
 20
548.4034654463644
 30
0.0
 11
-0.6214952256944444
 21
0.5215874565972222
 31
0.0
210
0.0
220
0.0
230
1.0
 40
0.7351581471724161
 41
0.0
 42
6.283185307179586
  0
SPLINE
  5
20A7A
330
18
100
AcDbEntity
  8
姿図
100
AcDbSpline
210
0.0
220
0.0
230
1.0
 70
     8
 71
     3
 72
     8
 73
     4
 74
     0
 42
0.000000001
 43
0.0000000001
 40
0.0
 40
0.0
 40
0.0
 40
0.0
 40
1.0
 40
1.0
 40
1.0
 40
1.0
 10
6134.468150222797
 20
554.6383527908229
 30
0.0
 10
6130.76398355613
 20
553.8005055686006
 30
0.0
 10
6127.875615500575
 20
552.1909569574893
 30
0.0
 10
6127.611032167241
 20
551.9484222352673
 30
0.0
  0
SPLINE
  5
20A7B
330
18
100
AcDbEntity
  8
姿図
100
AcDbSpline
210
0.0
220
0.0
230
1.0
 70
     8
 71
     3
 72
     8
 73
     4
 74
     0
 42
0.000000001
 43
0.0000000001
 40
0.0
 40
0.0
 40
0.0
 40
0.0
 40
1.0
 40
1.0
 40
1.0
 40
1.0
 10
6134.578393278352
 20
554.6163041797117
 30
0.0
 10
6130.918323833907
 20
553.5579708463783
 30
0.0
 10
6128.18429605613
 20
552.0586652908228
 30
0.0
 10
6127.963809945019
 20
551.8602277908228
 30
0.0
  0
SPLINE
  5
20A7C
330
18
100
AcDbEntity
  8
姿図
100
AcDbSpline
210
0.0
220
0.0
230
1.0
 70
     8
 71
     3
 72
     8
 73
     4
 74
     0
 42
0.000000001
 43
0.0000000001
 40
0.0
 40
0.0
 40
0.0
 40
0.0
 40
1.0
 40
1.0
 40
1.0
 40
1.0
 10
6122.892629389463
 20
549.3025889019339
 30
0.0
 10
6126.59679605613
 20
552.3673458463784
 30
0.0
 10
6130.874226611685
 20
554.6824500130449
 30
0.0
 10
6132.299979378612
 20
554.7559166742865
 30
0.0
  0
SPLINE
  5
20A7D
330
18
100
AcDbEntity
  8
姿図
100
AcDbSpline
210
0.0
220
0.0
230
1.0
 70
     8
 71
     3
 72
     8
 73
     4
 74
     0
 42
0.000000001
 43
0.0000000001
 40
0.0
 40
0.0
 40
0.0
 40
0.0
 40
1.0
 40
1.0
 40
1.0
 40
1.0
 10
6136.165893278352
 20
554.2635264019339
 30
0.0
 10
6133.498011333908
 20
553.6461652908229
 30
0.0
 10
6132.197143278352
 20
552.5657833463783
 30
0.0
 10
6131.337247445019
 20
552.0366166797116
 30
0.0
  0
SPLINE
  5
20A7E
330
18
100
AcDbEntity
  8
姿図
100
AcDbSpline
210
0.0
220
0.0
230
1.0
 70
     8
 71
     3
 72
     8
 73
     4
 74
     0
 42
0.000000001
 43
0.0000000001
 40
0.0
 40
0.0
 40
0.0
 40
0.0
 40
1.0
 40
1.0
 40
1.0
 40
1.0
 10
6136.298184945019
 20
554.1091861241562
 30
0.0
 10
6135.394191889463
 20
553.9107486241562
 30
0.0
 10
6132.682212722797
 20
552.7642208463783
 30
0.0
 10
6131.822316889463
 20
551.882276401934
 30
0.0
  0
SPLINE
  5
20A7F
330
18
100
AcDbEntity
  8
姿図
100
AcDbSpline
210
0.0
220
0.0
230
1.0
 70
     8
 71
     3
 72
     8
 73
     4
 74
     0
 42
0.000000001
 43
0.0000000001
 40
0.0106763948050698
 40
0.0106763948050698
 40
0.0106763948050698
 40
0.0106763948050698
 40
1.0
 40
1.0
 40
1.0
 40
1.0
 10
6133.200679714951
 20
545.4861420968705
 30
0.0
 10
6131.473489581635
 20
546.7973251767166
 30
0.0
 10
6126.553717915216
 20
549.2075678668527
 30
0.0
 10
6122.561900222797
 20
548.5749847352672
 30
0.0
  0
SPLINE
  5
20A80
330
18
100
AcDbEntity
  8
姿図
100
AcDbSpline
210
0.0
220
0.0
230
1.0
 70
     8
 71
     3
 72
     8
 73
     4
 74
     0
 42
0.000000001
 43
0.0000000001
 40
0.0
 40
0.0
 40
0.0
 40
0.0
 40
0.9548759970193254
 40
0.9548759970193254
 40
0.9548759970193254
 40
0.9548759970193254
 10
6122.892629389463
 20
549.3025889019339
 30
0.0
 10
6128.808716143913
 20
549.5552331761453
 30
0.0
 10
6132.211845052229
 20
547.1340903020707
 30
0.0
 10
6133.697107770352
 20
546.2431948813576
 30
0.0
  0
SPLINE
  5
20A81
330
18
100
AcDbEntity
  8
姿図
100
AcDbSpline
210
0.0
220
0.0
230
1.0
 70
     8
 71
     3
 72
     8
 73
     4
 74
     0
 42
0.000000001
 43
0.0000000001
 40
0.0
 40
0.0
 40
0.0
 40
0.0
 40
1.0
 40
1.0
 40
1.0
 40
1.0
 10
6125.273879389463
 20
549.3687347352673
 30
0.0
 10
6125.913289111685
 20
550.2286305686005
 30
0.0
 10
6126.574747445019
 20
551.309012513045
 30
0.0
 10
6127.611032167241
 20
551.9484222352673
 30
0.0
  0
SPLINE
  5
20A82
330
18
100
AcDbEntity
  8
姿図
100
AcDbSpline
210
0.0
220
0.0
230
1.0
 70
     8
 71
     3
 72
     8
 73
     4
 74
     0
 42
0.000000001
 43
0.0000000001
 40
0.0
 40
0.0
 40
0.0
 40
0.0
 40
1.0
 40
1.0
 40
1.0
 40
1.0
 10
6125.714851611686
 20
549.2364430686005
 30
0.0
 10
6126.464504389463
 20
550.2727277908227
 30
0.0
 10
6126.905476611685
 20
551.110575013045
 30
0.0
 10
6127.963809945019
 20
551.8602277908228
 30
0.0
  0
SPLINE
  5
20A83
330
18
100
AcDbEntity
  8
姿図
100
AcDbSpline
210
0.0
220
0.0
230
1.0
 70
     8
 71
     3
 72
     8
 73
     4
 74
     0
 42
0.000000001
 43
0.0000000001
 40
0.0
 40
0.0
 40
0.0
 40
0.0
 40
1.0
 40
1.0
 40
1.0
 40
1.0
 10
6128.559122445019
 20
548.7293250130449
 30
0.0
 10
6128.559122445019
 20
548.7440527962483
 30
0.0
 10
6128.559122445019
 20
548.7587805794512
 30
0.0
 10
6128.559294699793
 20
548.7734222352672
 30
0.0
  0
SPLINE
  5
20A84
330
18
100
AcDbEntity
  8
姿図
100
AcDbSpline
210
0.0
220
0.0
230
1.0
 70
     8
 71
     3
 72
     8
 73
     4
 74
     0
 42
0.000000001
 43
0.0000000001
 40
0.0
 40
0.0
 40
0.0
 40
0.0
 40
1.0
 40
1.0
 40
1.0
 40
1.0
 10
6129.044191889464
 20
548.5749847352672
 30
0.0
 10
6130.212768278352
 20
550.2065819574893
 30
0.0
 10
6130.96242105613
 20
551.0003319574896
 30
0.0
 10
6131.822316889463
 20
551.882276401934
 30
0.0
  0
SPLINE
  5
20A85
330
18
100
AcDbEntity
  8
姿図
100
AcDbSpline
210
0.0
220
0.0
230
1.0
 70
     8
 71
     3
 72
     8
 73
     4
 74
     0
 42
0.000000001
 43
0.0000000001
 40
0.0
 40
0.0
 40
0.0
 40
0.0
 40
1.0
 40
1.0
 40
1.0
 40
1.0
 10
6119.497143278352
 20
547.759186124156
 30
0.0
 10
6120.224747445019
 20
548.332450013045
 30
0.0
 10
6121.106691889464
 20
548.8616166797117
 30
0.0
 10
6122.892629389463
 20
549.3025889019339
 30
0.0
  0
SPLINE
  5
20A86
330
18
100
AcDbEntity
  8
姿図
100
AcDbSpline
210
0.0
220
0.0
230
1.0
 70
     8
 71
     3
 72
     8
 73
     4
 74
     0
 42
0.000000001
 43
0.0000000001
 40
1.0
 40
1.0
 40
1.0
 40
1.0
 40
2.0
 40
2.0
 40
2.0
 40
2.0
 10
6128.559294699793
 20
548.7734222352672
 30
0.0
 10
6129.37492105613
 20
549.9860958463785
 30
0.0
 10
6130.146622445019
 20
551.0003319574896
 30
0.0
 10
6131.337247445019
 20
552.0366166797116
 30
0.0
  0
SPLINE
  5
20A87
330
18
100
AcDbEntity
  8
姿図
100
AcDbSpline
210
0.0
220
0.0
230
1.0
 70
     8
 71
     3
 72
     8
 73
     4
 74
     0
 42
0.000000001
 43
0.0000000001
 40
0.0
 40
0.0
 40
0.0
 40
0.0
 40
1.0
 40
1.0
 40
1.0
 40
1.0
 10
6126.136897327003
 20
529.9180797583442
 30
0.0
 10
6126.177032689416
 20
530.1192733347332
 30
0.0
 10
6126.46883227709
 20
530.1695717288303
 30
0.0
 10
6126.539284479781
 20
530.0991195261392
 30
0.0
  0
LINE
  5
20A88
330
18
100
AcDbEntity
  8
姿図
100
AcDbLine
 10
6120.063775358431
 20
530.8952714648678
 30
0.0
 11
6121.563080913986
 21
530.571776998722
 31
0.0
  0
LINE
  5
20A89
330
18
100
AcDbEntity
  8
姿図
100
AcDbLine
 10
6120.063775358431
 20
530.307365920163
 30
0.0
 11
6121.563080913986
 21
529.9838714540172
 31
0.0
  0
LINE
  5
20A8A
330
18
100
AcDbEntity
  8
姿図
100
AcDbLine
 10
6120.09314479745
 20
531.3656992534964
 30
0.0
 11
6121.592450353005
 21
531.042377042125
 31
0.0
  0
SPLINE
  5
20A8B
330
18
100
AcDbEntity
  8
姿図
100
AcDbSpline
210
0.0
220
0.0
230
1.0
 70
     8
 71
     3
 72
     8
 73
     4
 74
     0
 42
0.000000001
 43
0.0000000001
 40
0.0
 40
0.0
 40
0.0
 40
0.0
 40
1.0
 40
1.0
 40
1.0
 40
1.0
 10
6119.593347569802
 20
531.042377042125
 30
0.0
 10
6119.593347569802
 20
531.1886213455102
 30
0.0
 10
6119.790579286381
 20
531.3069603754582
 30
0.0
 10
6120.034319792024
 20
531.3069603754582
 30
0.0
  0
SPLINE
  5
20A8C
330
18
100
AcDbEntity
  8
姿図
100
AcDbSpline
210
0.0
220
0.0
230
1.0
 70
     8
 71
     3
 72
     8
 73
     4
 74
     0
 42
0.000000001
 43
0.0000000001
 40
0.0
 40
0.0
 40
0.0
 40
0.0
 40
1.0
 40
1.0
 40
1.0
 40
1.0
 10
6137.467450353005
 20
550.0189103808837
 30
0.0
 10
6137.37925590856
 20
549.7249576085312
 30
0.0
 10
6136.820805930262
 20
549.489743714217
 30
0.0
 10
6136.497311464116
 20
549.5779381586615
 30
0.0
  0
LINE
  5
20A8D
330
18
100
AcDbEntity
  8
姿図
100
AcDbLine
 10
6131.99939479745
 20
543.6541825976803
 30
0.0
 11
6135.527172575227
 21
549.0340437087916
 31
0.0
  0
SPLINE
  5
20A8E
330
18
100
AcDbEntity
  8
姿図
100
AcDbSpline
210
0.0
220
0.0
230
1.0
 70
     8
 71
     3
 72
     8
 73
     4
 74
     0
 42
0.000000001
 43
0.0000000001
 40
0.0
 40
0.0
 40
0.0
 40
0.0
 40
1.0
 40
1.0
 40
1.0
 40
1.0
 10
6132.792455778353
 20
546.9433875130451
 30
0.0
 10
6134.093323833908
 20
548.8616166797117
 30
0.0
 10
6134.512247445019
 20
549.3907833463784
 30
0.0
 10
6135.571614306998
 20
550.7577972352672
 30
0.0
  0
SPLINE
  5
20A8F
330
18
100
AcDbEntity
  8
姿図
100
AcDbSpline
210
0.0
220
0.0
230
1.0
 70
     8
 71
     3
 72
     8
 73
     4
 74
     0
 42
0.000000001
 43
0.0000000001
 40
0.0
 40
0.0
 40
0.0
 40
0.0
 40
1.0
 40
1.0
 40
1.0
 40
1.0
 10
6136.055650222796
 20
551.9484222352673
 30
0.0
 10
6134.13742105613
 20
550.0081444574896
 30
0.0
 10
6132.726309945018
 20
547.759186124156
 30
0.0
 10
6132.373532167241
 20
547.0756791797116
 30
0.0
  0
SPLINE
  5
20A90
330
18
100
AcDbEntity
  8
姿図
100
AcDbSpline
210
0.0
220
0.0
230
1.0
 70
     8
 71
     3
 72
     8
 73
     4
 74
     0
 42
0.000000001
 43
0.0000000001
 40
0.0
 40
0.0
 40
0.0
 40
0.0
 40
1.0
 40
1.0
 40
1.0
 40
1.0
 10
6135.527172575227
 20
549.0781409310136
 30
0.0
 10
6135.791755908561
 20
549.4309187087915
 30
0.0
 10
6135.961082351703
 20
549.5779381586615
 30
0.0
 10
6136.497311464116
 20
549.5779381586615
 30
0.0
  0
LINE
  5
20A91
330
18
100
AcDbEntity
  8
姿図
100
AcDbLine
 10
6133.924111821604
 20
535.5775214207702
 30
0.0
 11
6132.602294431778
 21
534.0575418587684
 31
0.0
  0
LINE
  5
20A92
330
18
100
AcDbEntity
  8
姿図
100
AcDbLine
 10
6134.377490956073
 20
535.0289091098339
 30
0.0
 11
6133.016401458953
 21
533.556841482937
 31
0.0
  0
LINE
  5
20A93
330
18
100
AcDbEntity
  8
姿図
100
AcDbLine
 10
6135.093253679573
 20
534.0890400836183
 30
0.0
 11
6133.737288027804
 21
532.6259016104079
 31
0.0
  0
LINE
  5
20A94
330
18
100
AcDbEntity
  8
姿図
100
AcDbLine
 10
6135.448014804305
 20
533.5811639931558
 30
0.0
 11
6134.067718994314
 21
532.167036601297
 31
0.0
  0
LINE
  5
20A95
330
18
100
AcDbEntity
  8
姿図
100
AcDbLine
 10
6135.835370590752
 20
532.9854612394108
 30
0.0
 11
6134.426314342253
 21
531.6390821063953
 31
0.0
  0
LINE
  5
20A96
330
18
100
AcDbEntity
  8
姿図
100
AcDbLine
 10
6134.784221529831
 20
534.5330459468453
 30
0.0
 11
6133.389060261418
 21
533.086214538697
 31
0.0
  0
LINE
  5
20A97
330
18
100
AcDbEntity
  8
姿図
100
AcDbLine
 10
6136.173012122089
 20
532.4218847516386
 30
0.0
 11
6134.781037158307
 21
531.0775039310067
 31
0.0
  0
LINE
  5
20A98
330
18
100
AcDbEntity
  8
姿図
100
AcDbLine
 10
6136.470577625113
 20
531.8805940190719
 30
0.0
 11
6135.045312845193
 21
530.6256394885813
 31
0.0
  0
LINE
  5
20A99
330
18
100
AcDbEntity
  8
姿図
100
AcDbLine
 10
6136.769885193622
 20
531.2793623685054
 30
0.0
 11
6135.333532694015
 21
530.088191168634
 31
0.0
  0
LINE
  5
20A9A
330
18
100
AcDbEntity
  8
姿図
100
AcDbLine
 10
6133.425592603096
 20
536.1472177207822
 30
0.0
 11
6132.161929061193
 21
534.5687212414425
 31
0.0
  0
SPLINE
  5
20A9B
330
18
100
AcDbEntity
  8
姿図
100
AcDbSpline
210
0.0
220
0.0
230
1.0
 70
     8
 71
     3
 72
     8
 73
     4
 74
     0
 42
0.000000001
 43
0.0000000001
 40
0.0
 40
0.0
 40
0.0
 40
0.0
 40
1.0
 40
1.0
 40
1.0
 40
1.0
 10
6139.120407167241
 20
552.9332889073592
 30
0.0
 10
6138.238462722797
 20
553.5359222352672
 30
0.0
 10
6135.813115500575
 20
554.9249847352673
 30
0.0
 10
6132.299979378612
 20
554.7559166742865
 30
0.0
  0
SPLINE
  5
20A9C
330
18
100
AcDbEntity
  8
姿図
100
AcDbSpline
210
0.0
220
0.0
230
1.0
 70
     8
 71
     3
 72
     8
 73
     4
 74
     0
 42
0.000000001
 43
0.0000000001
 40
0.0
 40
0.0
 40
0.0
 40
0.0
 40
1.0
 40
1.0
 40
1.0
 40
1.0
 10
6138.370754389463
 20
553.3374847352673
 30
0.0
 10
6137.091934945019
 20
553.1390472352673
 30
0.0
 10
6136.628914111686
 20
552.477588901934
 30
0.0
 10
6136.055650222796
 20
551.9484222352673
 30
0.0
  0
SPLINE
  5
20A9D
330
18
100
AcDbEntity
  8
姿図
100
AcDbSpline
210
0.0
220
0.0
230
1.0
 70
     8
 71
     3
 72
     8
 73
     4
 74
     0
 42
0.000000001
 43
0.0000000001
 40
1.0
 40
1.0
 40
1.0
 40
1.0
 40
2.0
 40
2.0
 40
2.0
 40
2.0
 10
6135.571614306998
 20
550.7577972352672
 30
0.0
 10
6136.143844667241
 20
551.6397416797117
 30
0.0
 10
6136.827351611685
 20
552.676026401934
 30
0.0
 10
6138.480997445019
 20
553.2713389019339
 30
0.0
  0
SPLINE
  5
20A9E
330
18
100
AcDbEntity
  8
姿図
100
AcDbSpline
210
0.0
220
0.0
230
1.0
 70
     8
 71
     3
 72
     8
 73
     4
 74
     0
 42
0.000000001
 43
0.0000000001
 40
10.0
 40
10.0
 40
10.0
 40
10.0
 40
11.0
 40
11.0
 40
11.0
 40
11.0
 10
6124.476339784428
 20
552.4946421245902
 30
0.0
 10
6127.801029183301
 20
555.3071319520641
 30
0.0
 10
6131.617850472362
 20
557.572712871118
 30
0.0
 10
6132.356995708908
 20
557.8588280512395
 30
0.0
  0
SPLINE
  5
20A9F
330
18
100
AcDbEntity
  8
姿図
100
AcDbSpline
210
0.0
220
0.0
230
1.0
 70
     8
 71
     3
 72
     8
 73
     4
 74
     0
 42
0.000000001
 43
0.0000000001
 40
0.0
 40
0.0
 40
0.0
 40
0.0
 40
1.0
 40
1.0
 40
1.0
 40
1.0
 10
6134.424053000575
 20
557.4826236241561
 30
0.0
 10
6133.255476611685
 20
556.9314083463785
 30
0.0
 10
6131.844365500575
 20
555.4100541797118
 30
0.0
 10
6131.204955778352
 20
554.7926930686006
 30
0.0
  0
SPLINE
  5
20AA0
330
18
100
AcDbEntity
  8
姿図
100
AcDbSpline
210
0.0
220
0.0
230
1.0
 70
     8
 71
     3
 72
     8
 73
     4
 74
     0
 42
0.000000001
 43
0.0000000001
 40
7.0
 40
7.0
 40
7.0
 40
7.0
 40
8.0
 40
8.0
 40
8.0
 40
8.0
 10
6111.598314475184
 20
539.728065654321
 30
0.0
 10
6114.069309212598
 20
542.8538869162569
 30
0.0
 10
6116.457449403569
 20
546.1182010167342
 30
0.0
 10
6118.208074674837
 20
546.239726760007
 30
0.0
  0
SPLINE
  5
20AA1
330
18
100
AcDbEntity
  8
姿図
100
AcDbSpline
210
0.0
220
0.0
230
1.0
 70
     8
 71
     3
 72
     8
 73
     4
 74
     0
 42
0.000000001
 43
0.0000000001
 40
6.0
 40
6.0
 40
6.0
 40
6.0
 40
7.0
 40
7.0
 40
7.0
 40
7.0
 10
6105.575512418977
 20
532.3718393902152
 30
0.0
 10
6107.079296598665
 20
534.3147009896077
 30
0.0
 10
6109.33213066442
 20
536.8614017003281
 30
0.0
 10
6111.598314475184
 20
539.728065654321
 30
0.0
  0
SPLINE
  5
20AA2
330
18
100
AcDbEntity
  8
姿図
100
AcDbSpline
210
0.0
220
0.0
230
1.0
 70
     8
 71
     3
 72
     8
 73
     4
 74
     0
 42
0.000000001
 43
0.0000000001
 40
8.718707976915393
 40
8.718707976915393
 40
8.718707976915393
 40
8.718707976915393
 40
9.0
 40
9.0
 40
9.0
 40
9.0
 10
6118.298239947813
 20
546.2654055093526
 30
0.0
 10
6118.599550643078
 20
546.6899883975643
 30
0.0
 10
6118.839136544858
 20
547.0085924494731
 30
0.0
 10
6118.939726828699
 20
547.1091827333141
 30
0.0
  0
SPLINE
  5
20AA3
330
18
100
AcDbEntity
  8
姿図
100
AcDbSpline
210
0.0
220
0.0
230
1.0
 70
     8
 71
     3
 72
     8
 73
     4
 74
     0
 42
0.000000001
 43
0.0000000001
 40
0.0
 40
0.0
 40
0.0
 40
0.0
 40
1.0
 40
1.0
 40
1.0
 40
1.0
 10
6118.564383675487
 20
530.6014048199027
 30
0.0
 10
6118.564383675487
 20
530.845145325545
 30
0.0
 10
6118.787970372537
 20
531.042377042125
 30
0.0
 10
6119.064180903136
 20
531.042377042125
 30
0.0
  0
SPLINE
  5
20AA4
330
18
100
AcDbEntity
  8
姿図
100
AcDbSpline
210
0.0
220
0.0
230
1.0
 70
     8
 71
     3
 72
     8
 73
     4
 74
     0
 42
0.000000001
 43
0.0000000001
 40
0.0
 40
0.0
 40
0.0
 40
0.0
 40
1.0
 40
1.0
 40
1.0
 40
1.0
 10
6131.99939479745
 20
543.6541825976803
 30
0.0
 10
6127.153351231911
 20
546.4521168967256
 30
0.0
 10
6121.019272591503
 20
547.0655161480277
 30
0.0
 10
6118.208074674837
 20
546.239726760007
 30
0.0
  0
SPLINE
  5
20AA5
330
18
100
AcDbEntity
  8
姿図
100
AcDbSpline
210
0.0
220
0.0
230
1.0
 70
     8
 71
     3
 72
     8
 73
     4
 74
     0
 42
0.000000001
 43
0.0000000001
 40
0.0
 40
0.0
 40
0.0
 40
0.0
 40
1.0
 40
1.0
 40
1.0
 40
1.0
 10
6118.46085855613
 20
546.4803666797118
 30
0.0
 10
6119.100268278352
 20
547.1638736241562
 30
0.0
 10
6120.401136333908
 20
548.3104014019339
 30
0.0
 10
6122.561900222797
 20
548.5749847352672
 30
0.0
  0
SPLINE
  5
20AA6
330
18
100
AcDbEntity
  8
姿図
100
AcDbSpline
210
0.0
220
0.0
230
1.0
 70
     8
 71
     3
 72
     8
 73
     4
 74
     0
 42
0.000000001
 43
0.0000000001
 40
9.0
 40
9.0
 40
9.0
 40
9.0
 40
10.0
 40
10.0
 40
10.0
 40
10.0
 10
6118.939726828699
 20
547.1091827333141
 30
0.0
 10
6119.72650051034
 20
548.0151567187743
 30
0.0
 10
6122.334868430262
 20
550.6830386632187
 30
0.0
 10
6124.476339784428
 20
552.4946421245902
 30
0.0
  0
LINE
  5
20AA7
330
18
100
AcDbEntity
  8
姿図
100
AcDbLine
 10
6119.064180903136
 20
531.042377042125
 30
0.0
 11
6119.593347569802
 21
531.042377042125
 31
0.0
  0
LINE
  5
20AA8
330
18
100
AcDbEntity
  8
姿図
100
AcDbLine
 10
6120.181425369281
 20
527.3087548090518
 30
0.0
 11
6121.680730924837
 21
526.985260342906
 31
0.0
  0
LINE
  5
20AA9
330
18
100
AcDbEntity
  8
姿図
100
AcDbLine
 10
6120.181425369281
 20
527.8966603537567
 30
0.0
 11
6121.680730924837
 21
527.5731658876109
 31
0.0
  0
LINE
  5
20AAA
330
18
100
AcDbEntity
  8
姿図
100
AcDbLine
 10
6128.05269340856
 20
527.5807450976806
 30
0.0
 11
6126.597485075227
 21
527.889425653236
 31
0.0
  0
LINE
  5
20AAB
330
18
100
AcDbEntity
  8
姿図
100
AcDbLine
 10
6128.140887853005
 20
526.9192867643471
 30
0.0
 11
6126.685679519672
 21
527.2279673199025
 31
0.0
  0
SPLINE
  5
20AAC
330
18
100
AcDbEntity
  8
姿図
100
AcDbSpline
210
0.0
220
0.0
230
1.0
 70
     8
 71
     3
 72
     8
 73
     4
 74
     0
 42
0.000000001
 43
0.0000000001
 40
0.0
 40
0.0
 40
0.0
 40
0.0
 40
1.0
 40
1.0
 40
1.0
 40
1.0
 10
6128.62595729745
 20
528.7272728754581
 30
0.0
 10
6128.62595729745
 20
529.0442216601805
 30
0.0
 10
6128.399097759689
 20
529.300536764347
 30
0.0
 10
6128.118839241894
 20
529.300536764347
 30
0.0
  0
LINE
  5
20AAD
330
18
100
AcDbEntity
  8
姿図
100
AcDbLine
 10
6120.063775358431
 20
528.5434770312743
 30
0.0
 11
6121.563080913986
 21
528.2199825651285
 31
0.0
  0
LINE
  5
20AAE
330
18
100
AcDbEntity
  8
姿図
100
AcDbLine
 10
6120.063775358431
 20
529.1608381423853
 30
0.0
 11
6121.563080913986
 21
528.8373436762395
 31
0.0
  0
LINE
  5
20AAF
330
18
100
AcDbEntity
  8
姿図
100
AcDbLine
 10
6120.063775358431
 20
529.690004809052
 30
0.0
 11
6121.563080913986
 21
529.3665103429062
 31
0.0
  0
LINE
  5
20AB0
330
18
100
AcDbEntity
  8
姿図
100
AcDbLine
 10
6128.002890190418
 20
529.282865785023
 30
0.0
 11
6126.547681857085
 21
529.5915463405784
 31
0.0
  0
LINE
  5
20AB1
330
18
100
AcDbEntity
  8
姿図
100
AcDbLine
 10
6128.008596186338
 20
528.7713700976803
 30
0.0
 11
6126.553387853005
 21
529.080050653236
 31
0.0
  0
LINE
  5
20AB2
330
18
100
AcDbEntity
  8
姿図
100
AcDbLine
 10
6128.008596186338
 20
528.1981062087916
 30
0.0
 11
6126.553387853005
 21
528.5067867643472
 31
0.0
  0
LINE
  5
20AB3
330
18
100
AcDbEntity
  8
姿図
100
AcDbLine
 10
6137.383074560304
 20
529.7347832911598
 30
0.0
 11
6135.986343220237
 21
528.538260536084
 31
0.0
  0
LINE
  5
20AB4
330
18
100
AcDbEntity
  8
姿図
100
AcDbLine
 10
6137.550532599793
 20
529.1641953055671
 30
0.0
 11
6136.176616042155
 21
527.8758164663257
 31
0.0
  0
LINE
  5
20AB5
330
18
100
AcDbEntity
  8
姿図
100
AcDbLine
 10
6137.663629347927
 20
528.6933809151765
 30
0.0
 11
6136.282239373905
 21
527.3413986892645
 31
0.0
  0
SPLINE
  5
20AB6
330
18
100
AcDbEntity
  8
姿図
100
AcDbSpline
210
0.0
220
0.0
230
1.0
 70
     8
 71
     3
 72
     8
 73
     4
 74
     0
 42
0.000000001
 43
0.0000000001
 40
0.0
 40
0.0
 40
0.0
 40
0.0
 40
1.0
 40
1.0
 40
1.0
 40
1.0
 10
6107.878214241894
 20
531.3290089865693
 30
0.0
 10
6111.802867019672
 20
531.7699812087915
 30
0.0
 10
6116.212589241894
 20
529.7856062087915
 30
0.0
 10
6118.417450353005
 20
528.4185923199027
 30
0.0
  0
SPLINE
  5
20AB7
330
18
100
AcDbEntity
  8
姿図
100
AcDbSpline
210
0.0
220
0.0
230
1.0
 70
     8
 71
     3
 72
     8
 73
     4
 74
     0
 42
0.000000001
 43
0.0000000001
 40
0.3748330610719267
 40
0.3748330610719267
 40
0.3748330610719267
 40
0.3748330610719267
 40
0.9335741083362055
 40
0.9335741083362055
 40
0.9335741083362055
 40
0.9335741083362055
 10
6136.175967606455
 20
527.8601142028169
 30
0.0
 10
6135.522259300038
 20
530.6920010965962
 30
0.0
 10
6133.051183059563
 20
533.5808532040685
 30
0.0
 10
6131.843385160938
 20
534.9275470221266
 30
0.0
  0
LINE
  5
20AB8
330
18
100
AcDbEntity
  8
姿図
100
AcDbLine
 10
6138.349394797449
 20
545.124118714217
 30
0.0
 11
6128.295228130783
 21
529.3666825976804
 31
0.0
  0
LINE
  5
20AB9
330
18
100
AcDbEntity
  8
姿図
100
AcDbLine
 10
6126.547531190678
 20
530.0679317838783
 30
0.0
 11
6127.95864230179
 21
529.7592512283229
 31
0.0
  0
LINE
  5
20ABA
330
18
100
AcDbEntity
  8
姿図
100
AcDbLine
 10
6136.967574826484
 20
530.8397171070112
 30
0.0
 11
6135.550421175751
 21
529.6408463792402
 31
0.0
  0
LINE
  5
20ABB
330
18
100
AcDbEntity
  8
姿図
100
AcDbLine
 10
6137.188692021745
 20
530.2909582323311
 30
0.0
 11
6135.797847363009
 21
529.061613751893
 31
0.0
  0
SPLINE
  5
20ABC
330
18
100
AcDbEntity
  8
姿図
100
AcDbSpline
210
0.0
220
0.0
230
1.0
 70
     8
 71
     3
 72
     8
 73
     4
 74
     0
 42
0.000000001
 43
0.0000000001
 40
26.0
 40
26.0
 40
26.0
 40
26.0
 40
27.0
 40
27.0
 40
27.0
 40
27.0
 10
6146.080533577831
 20
558.2286590516735
 30
0.0
 10
6146.62899277922
 20
557.7756289952499
 30
0.0
 10
6147.630309782258
 20
556.6073971159096
 30
0.0
 10
6147.487338319585
 20
556.2975107769339
 30
0.0
  0
LINE
  5
20ABD
330
18
100
AcDbEntity
  8
姿図
100
AcDbLine
 10
6143.086745600401
 20
558.9666846321857
 30
0.0
 11
6141.87648355613
 21
557.6149152908229
 31
0.0
  0
SPLINE
  5
20ABE
330
18
100
AcDbEntity
  8
姿図
100
AcDbSpline
210
0.0
220
0.0
230
1.0
 70
     8
 71
     3
 72
     8
 73
     4
 74
     0
 42
0.000000001
 43
0.0000000001
 40
0.0
 40
0.0
 40
0.0
 40
0.0
 40
1.0
 40
1.0
 40
1.0
 40
1.0
 10
6140.960260411599
 20
556.0786610861787
 30
0.0
 10
6141.342321501009
 20
556.6958499425155
 30
0.0
 10
6141.753838156825
 20
556.1279259516302
 30
0.0
 10
6141.753838156825
 20
556.2254221538872
 30
0.0
  0
SPLINE
  5
20ABF
330
18
100
AcDbEntity
  8
姿図
100
AcDbSpline
210
0.0
220
0.0
230
1.0
 70
     8
 71
     3
 72
     8
 73
     4
 74
     0
 42
0.000000001
 43
0.0000000001
 40
0.0
 40
0.0
 40
0.0
 40
0.0
 40
1.0
 40
1.0
 40
1.0
 40
1.0
 10
6141.171617019671
 20
555.869113153236
 30
0.0
 10
6141.553850363855
 20
556.5159298307533
 30
0.0
 10
6141.965367019672
 20
555.9480058398678
 30
0.0
 10
6141.965367019672
 20
556.0455020421248
 30
0.0
  0
SPLINE
  5
20AC0
330
18
100
AcDbEntity
  8
姿図
100
AcDbSpline
210
0.0
220
0.0
230
1.0
 70
     8
 71
     3
 72
     8
 73
     4
 74
     0
 42
0.000000001
 43
0.0000000001
 40
23.0
 40
23.0
 40
23.0
 40
23.0
 40
24.0
 40
24.0
 40
24.0
 40
24.0
 10
6143.086745600401
 20
558.9666846321857
 30
0.0
 10
6143.086745600401
 20
558.9666846321857
 30
0.0
 10
6143.377511659429
 20
559.2473737869166
 30
0.0
 10
6143.51600449797
 20
559.3719139887396
 30
0.0
  0
SPLINE
  5
20AC1
330
18
100
AcDbEntity
  8
姿図
100
AcDbSpline
210
0.0
220
0.0
230
1.0
 70
     8
 71
     3
 72
     8
 73
     4
 74
     0
 42
0.000000001
 43
0.0000000001
 40
24.0
 40
24.0
 40
24.0
 40
24.0
 40
25.0
 40
25.0
 40
25.0
 40
25.0
 10
6143.51600449797
 20
559.3719139887396
 30
0.0
 10
6143.754405105609
 20
559.5865434375241
 30
0.0
 10
6143.921319981911
 20
559.5626861512828
 30
0.0
 10
6144.326635465853
 20
559.3719139887396
 30
0.0
  0
SPLINE
  5
20AC2
330
18
100
AcDbEntity
  8
姿図
100
AcDbSpline
210
0.0
220
0.0
230
1.0
 70
     8
 71
     3
 72
     8
 73
     4
 74
     0
 42
0.000000001
 43
0.0000000001
 40
25.0
 40
25.0
 40
25.0
 40
25.0
 40
26.0
 40
26.0
 40
26.0
 40
26.0
 10
6144.326635465853
 20
559.3719139887396
 30
0.0
 10
6144.731950949793
 20
559.1812279535832
 30
0.0
 10
6145.532246631216
 20
558.6816029807098
 30
0.0
 10
6146.080533577831
 20
558.2286590516735
 30
0.0
  0
SPLINE
  5
20AC3
330
18
100
AcDbEntity
  8
姿図
100
AcDbSpline
210
0.0
220
0.0
230
1.0
 70
     8
 71
     3
 72
     8
 73
     4
 74
     0
 42
0.000000001
 43
0.0000000001
 40
0.0
 40
0.0
 40
0.0
 40
0.0
 40
1.0
 40
1.0
 40
1.0
 40
1.0
 10
6147.587073833908
 20
553.0508527908228
 30
0.0
 10
6147.322490500575
 20
553.8446027908228
 30
0.0
 10
6146.991761333908
 20
554.0430402908228
 30
0.0
 10
6146.550789111686
 20
554.4399152908229
 30
0.0
  0
LINE
  5
20AC4
330
18
100
AcDbEntity
  8
姿図
100
AcDbLine
 10
6146.63898355613
 20
554.6163041797117
 30
0.0
 11
6145.62453210938
 21
553.0771364674008
 31
0.0
  0
SPLINE
  5
20AC5
330
18
100
AcDbEntity
  8
姿図
100
AcDbSpline
210
0.0
220
0.0
230
1.0
 70
     8
 71
     3
 72
     8
 73
     4
 74
     0
 42
0.000000001
 43
0.0000000001
 40
30.0
 40
30.0
 40
30.0
 40
30.0
 40
31.0
 40
31.0
 40
31.0
 40
31.0
 10
6148.513632264897
 20
553.963114075545
 30
0.0
 10
6148.37048854745
 20
553.7485707541475
 30
0.0
 10
6148.084373367328
 20
553.3671125564479
 30
0.0
 10
6148.084373367328
 20
553.3671125564479
 30
0.0
  0
LINE
  5
20AC6
330
18
100
AcDbEntity
  8
姿図
100
AcDbLine
 10
6144.611200353005
 20
553.3996687087915
 30
0.0
 11
6142.700378141633
 21
555.0753631532359
 31
0.0
  0
SPLINE
  5
20AC7
330
18
100
AcDbEntity
  8
姿図
100
AcDbSpline
210
0.0
220
0.0
230
1.0
 70
     8
 71
     3
 72
     8
 73
     4
 74
     0
 42
0.000000001
 43
0.0000000001
 40
0.0
 40
0.0
 40
0.0
 40
0.0
 40
1.0
 40
1.0
 40
1.0
 40
1.0
 10
6148.645407167241
 20
552.6539777908229
 30
0.0
 10
6148.446969667241
 20
552.7642208463783
 30
0.0
 10
6148.005997445019
 20
553.0067555686007
 30
0.0
 10
6147.587073833908
 20
553.0508527908228
 30
0.0
  0
SPLINE
  5
20AC8
330
18
100
AcDbEntity
  8
姿図
100
AcDbSpline
210
0.0
220
0.0
230
1.0
 70
     8
 71
     3
 72
     8
 73
     4
 74
     0
 42
0.000000001
 43
0.0000000001
 40
0.0
 40
0.0
 40
0.0
 40
0.0
 40
1.0
 40
1.0
 40
1.0
 40
1.0
 10
6145.934117019672
 20
552.7823075976805
 30
0.0
 10
6145.966673172015
 20
552.7823075976805
 30
0.0
 10
6146.257611485818
 20
552.2825964974202
 30
0.0
 10
6145.963572586078
 20
551.8121687087917
 30
0.0
  0
SPLINE
  5
20AC9
330
18
100
AcDbEntity
  8
姿図
100
AcDbSpline
210
0.0
220
0.0
230
1.0
 70
    24
 71
     3
 72
     8
 73
     4
 74
     0
 42
0.000000001
 43
0.0000000001
 40
31.0
 40
31.0
 40
31.0
 40
31.0
 40
32.0
 40
32.0
 40
32.0
 40
32.0
 10
6148.084373367328
 20
553.3671125564479
 30
0.0
 10
6148.084373367328
 20
553.3671125564479
 30
0.0
 10
6148.6805471412
 20
552.6519107335312
 30
0.0
 10
6148.6805471412
 20
552.6519107335312
 30
0.0
  0
SPLINE
  5
20ACA
330
18
100
AcDbEntity
  8
姿図
100
AcDbSpline
210
0.0
220
0.0
230
1.0
 70
     8
 71
     3
 72
     8
 73
     4
 74
     0
 42
0.000000001
 43
0.0000000001
 40
32.0
 40
32.0
 40
32.0
 40
32.0
 40
33.0
 40
33.0
 40
33.0
 40
33.0
 10
6148.6805471412
 20
552.6519107335312
 30
0.0
 10
6148.6805471412
 20
552.6519107335312
 30
0.0
 10
6149.662054845193
 20
552.2206709060572
 30
0.0
 10
6149.566797955002
 20
551.7200124045382
 30
0.0
  0
LINE
  5
20ACB
330
18
100
AcDbEntity
  8
姿図
100
AcDbLine
 10
6144.611200353005
 20
553.3996687087915
 30
0.0
 11
6144.905239252745
 21
553.6937076085312
 31
0.0
  0
SPLINE
  5
20ACC
330
18
100
AcDbEntity
  8
姿図
100
AcDbSpline
210
0.0
220
0.0
230
1.0
 70
     8
 71
     3
 72
     8
 73
     4
 74
     0
 42
0.000000001
 43
0.0000000001
 40
1.0
 40
1.0
 40
1.0
 40
1.0
 40
2.0
 40
2.0
 40
2.0
 40
2.0
 10
6142.578719004766
 20
552.3071824638403
 30
0.0
 10
6143.186261593742
 20
551.7973944592829
 30
0.0
 10
6143.382804291225
 20
551.0253485608455
 30
0.0
 10
6143.032782589836
 20
550.5587103772516
 30
0.0
  0
LINE
  5
20ACD
330
18
100
AcDbEntity
  8
姿図
100
AcDbLine
 10
6145.934117019672
 20
552.8117631640866
 30
0.0
 11
6144.905239252745
 21
553.6937076085312
 31
0.0
  0
SPLINE
  5
20ACE
330
18
100
AcDbEntity
  8
姿図
100
AcDbSpline
210
0.0
220
0.0
230
1.0
 70
     8
 71
     3
 72
     8
 73
     4
 74
     0
 42
0.000000001
 43
0.0000000001
 40
0.0
 40
0.0
 40
0.0
 40
0.0
 40
1.0
 40
1.0
 40
1.0
 40
1.0
 10
6143.640372445018
 20
547.913526401934
 30
0.0
 10
6143.640372445018
 20
547.0536305686007
 30
0.0
 10
6143.26554605613
 20
546.2598805686005
 30
0.0
 10
6142.978914111686
 20
545.5543250130452
 30
0.0
  0
SPLINE
  5
20ACF
330
18
100
AcDbEntity
  8
姿図
100
AcDbSpline
210
0.0
220
0.0
230
1.0
 70
     8
 71
     3
 72
     8
 73
     4
 74
     0
 42
0.000000001
 43
0.0000000001
 40
0.0
 40
0.0
 40
0.0
 40
0.0
 40
1.0
 40
1.0
 40
1.0
 40
1.0
 10
6143.640372445018
 20
547.913526401934
 30
0.0
 10
6143.904955778352
 20
547.4284569574895
 30
0.0
 10
6143.486032167241
 20
545.8630055686006
 30
0.0
 10
6143.441934945019
 20
545.6645680686006
 30
0.0
  0
SPLINE
  5
20AD0
330
18
100
AcDbEntity
  8
姿図
100
AcDbSpline
210
0.0
220
0.0
230
1.0
 70
     8
 71
     3
 72
     8
 73
     4
 74
     0
 42
0.000000001
 43
0.0000000001
 40
0.0
 40
0.0
 40
0.0
 40
0.0
 40
1.0
 40
1.0
 40
1.0
 40
1.0
 10
6144.588462722797
 20
546.7890472352672
 30
0.0
 10
6144.588462722797
 20
547.6827911317516
 30
0.0
 10
6144.235684945019
 20
548.134012513045
 30
0.0
 10
6143.824168289203
 20
548.4060028016736
 30
0.0
  0
SPLINE
  5
20AD1
330
18
100
AcDbEntity
  8
姿図
100
AcDbSpline
210
0.0
220
0.0
230
1.0
 70
     8
 71
     3
 72
     8
 73
     4
 74
     0
 42
0.000000001
 43
0.0000000001
 40
0.0
 40
0.0
 40
0.0
 40
0.0
 40
1.0
 40
1.0
 40
1.0
 40
1.0
 10
6144.588462722797
 20
546.7890472352672
 30
0.0
 10
6144.588462722797
 20
541.7802229080103
 30
0.0
 10
6141.964678000574
 20
537.6609222352672
 30
0.0
 10
6141.87648355613
 20
537.7270680686006
 30
0.0
  0
SPLINE
  5
20AD2
330
18
100
AcDbEntity
  8
姿図
100
AcDbSpline
210
0.0
220
0.0
230
1.0
 70
     8
 71
     3
 72
     8
 73
     4
 74
     0
 42
0.000000001
 43
0.0000000001
 40
0.0
 40
0.0
 40
0.0
 40
0.0
 40
1.0
 40
1.0
 40
1.0
 40
1.0
 10
6144.985337722796
 20
547.8473805686006
 30
0.0
 10
6145.955476611686
 20
549.4569291797118
 30
0.0
 10
6146.705129389463
 20
550.3829708463784
 30
0.0
 10
6147.43273355613
 20
552.5216861241561
 30
0.0
  0
LINE
  5
20AD3
330
18
100
AcDbEntity
  8
姿図
100
AcDbLine
 10
6142.377055930262
 20
546.0795298199025
 30
0.0
 11
6145.963572586078
 21
551.8416242751978
 31
0.0
  0
SPLINE
  5
20AD4
330
18
100
AcDbEntity
  8
姿図
100
AcDbSpline
210
0.0
220
0.0
230
1.0
 70
     8
 71
     3
 72
     8
 73
     4
 74
     0
 42
0.000000001
 43
0.0000000001
 40
33.0
 40
33.0
 40
33.0
 40
33.0
 40
34.0
 40
34.0
 40
34.0
 40
34.0
 10
6149.566797955002
 20
551.7200124045382
 30
0.0
 10
6149.600904400314
 20
550.7273081402152
 30
0.0
 10
6147.499223899012
 20
543.1195899056231
 30
0.0
 10
6143.005441346929
 20
536.3717675043645
 30
0.0
  0
SPLINE
  5
20AD5
330
18
100
AcDbEntity
  8
姿図
100
AcDbSpline
210
0.0
220
0.0
230
1.0
 70
     8
 71
     3
 72
     8
 73
     4
 74
     0
 42
0.000000001
 43
0.0000000001
 40
34.0
 40
34.0
 40
34.0
 40
34.0
 40
35.0
 40
35.0
 40
35.0
 40
35.0
 10
6143.005441346929
 20
536.3717675043645
 30
0.0
 10
6142.767385248838
 20
536.1025332921249
 30
0.0
 10
6142.53260199146
 20
536.0780731141735
 30
0.0
 10
6142.687975797883
 20
535.2751074837481
 30
0.0
  0
LINE
  5
20AD6
330
18
100
AcDbEntity
  8
姿図
100
AcDbLine
 10
6147.146101611685
 20
555.7407833463783
 30
0.0
 11
6146.881518278352
 21
555.3880055686006
 31
0.0
  0
SPLINE
  5
20AD7
330
18
100
AcDbEntity
  8
姿図
100
AcDbSpline
210
0.0
220
0.0
230
1.0
 70
     8
 71
     3
 72
    11
 73
     7
 74
     0
 42
0.000000001
 43
0.0000000001
 40
28.0
 40
28.0
 40
28.0
 40
28.0
 40
29.0
 40
29.0
 40
29.0
 40
30.0
 40
30.0
 40
30.0
 40
30.0
 10
6147.130598681998
 20
555.7035763151284
 30
0.0
 10
6147.130598681998
 20
555.7035763151284
 30
0.0
 10
6148.084373367328
 20
554.773745043427
 30
0.0
 10
6148.299002816112
 20
554.6068301671248
 30
0.0
 10
6148.513632264897
 20
554.4399152908229
 30
0.0
 10
6148.656603727571
 20
554.1777435243298
 30
0.0
 10
6148.513632264897
 20
553.963114075545
 30
0.0
  0
LINE
  5
20AD8
330
18
100
AcDbEntity
  8
姿図
100
AcDbLine
 10
6142.700378141633
 20
555.0753631532359
 30
0.0
 11
6142.847311464116
 21
555.3105770475502
 31
0.0
  0
SPLINE
  5
20AD9
330
18
100
AcDbEntity
  8
姿図
100
AcDbSpline
210
0.0
220
0.0
230
1.0
 70
     8
 71
     3
 72
     8
 73
     4
 74
     0
 42
0.000000001
 43
0.0000000001
 40
27.0
 40
27.0
 40
27.0
 40
27.0
 40
28.0
 40
28.0
 40
28.0
 40
28.0
 10
6147.487338319585
 20
556.2975107769339
 30
0.0
 10
6147.344194602137
 20
555.9876244379582
 30
0.0
 10
6147.130598681998
 20
555.7035763151284
 30
0.0
 10
6147.130598681998
 20
555.7035763151284
 30
0.0
  0
LINE
  5
20ADA
330
18
100
AcDbEntity
  8
姿図
100
AcDbLine
 10
6143.353740500575
 20
557.3723805686006
 30
0.0
 11
6142.281586911698
 21
555.8109219861426
 31
0.0
  0
LINE
  5
20ADB
330
18
100
AcDbEntity
  8
姿図
100
AcDbLine
 10
6142.876767030522
 20
555.3694020529756
 30
0.0
 11
6141.965367019672
 21
556.0455020421248
 31
0.0
  0
SPLINE
  5
20ADC
330
18
100
AcDbEntity
  8
姿図
100
AcDbSpline
210
0.0
220
0.0
230
1.0
 70
     8
 71
     3
 72
     8
 73
     4
 74
     0
 42
0.000000001
 43
0.0000000001
 40
0.0
 40
0.0
 40
0.0
 40
0.0
 40
1.0
 40
1.0
 40
1.0
 40
1.0
 10
6146.63898355613
 20
554.6163041797117
 30
0.0
 10
6147.697316889463
 20
556.0274152908228
 30
0.0
 10
6145.029434945019
 20
559.2906097352673
 30
0.0
 10
6143.353740500575
 20
557.3723805686006
 30
0.0
  0
SPLINE
  5
20ADD
330
18
100
AcDbEntity
  8
姿図
100
AcDbSpline
210
0.0
220
0.0
230
1.0
 70
     8
 71
     3
 72
     8
 73
     4
 74
     0
 42
0.000000001
 43
0.0000000001
 40
35.0
 40
35.0
 40
35.0
 40
35.0
 40
36.0
 40
36.0
 40
36.0
 40
36.0
 10
6142.687975797883
 20
535.2751074837481
 30
0.0
 10
6142.843349604307
 20
534.4723141080972
 30
0.0
 10
6143.568542204133
 20
531.9083017925589
 30
0.0
 10
6141.26360106915
 20
529.3961381640868
 30
0.0
  0
ENDSEC
  0
SECTION
  2
OBJECTS
  0
DICTIONARY
  5
C
330
0
100
AcDbDictionary
281
     1
  3
ACAD_GROUP
350
D
  3
ACAD_IMAGE_VARS
350
20D3A
  3
ACAD_LAYOUT
350
40CB
  3
ACAD_MLINESTYLE
350
E
  3
ACAD_PLOTSETTINGS
350
40CC
  3
ACAD_PLOTSTYLENAME
350
40C9
  3
ACAD_SCALELIST
350
17AE6
  3
AcDbVariableDictionary
350
6377
  3
APPDATA
350
20D39
  3
DWGPROPS
350
20D5E
  0
DICTIONARY
  5
17B73
330
2
100
AcDbDictionary
280
     1
281
     1
  3
ACAD_LAYERFILTERS
360
19352
  3
ACAD_LAYERSTATES
360
17B74
  0
DICTIONARY
  5
17B0E
330
F
100
AcDbDictionary
280
     1
281
     1
  3
ADSK_XREC_LAYER_RECONCILED
360
17B0F
  0
DICTIONARY
  5
17B16
330
4C
100
AcDbDictionary
280
     1
281
     1
  3
ADSK_XREC_LAYER_RECONCILED
360
17B17
  0
DICTIONARY
  5
17B18
330
4D
100
AcDbDictionary
280
     1
281
     1
  3
ADSK_XREC_LAYER_RECONCILED
360
17B19
  0
DICTIONARY
  5
17B1C
330
40D4
100
AcDbDictionary
280
     1
281
     1
  3
ADSK_XREC_LAYER_RECONCILED
360
17B1D
  0
DICTIONARY
  5
9FD5
330
18
100
AcDbDictionary
280
     1
281
     1
  3
ACAD_SORTENTS
360
1DBE3
  0
DICTIONARY
  5
D
102
{ACAD_REACTORS
330
C
102
}
330
C
100
AcDbDictionary
281
     1
  0
RASTERVARIABLES
  5
20D3A
102
{ACAD_REACTORS
330
C
102
}
330
C
100
AcDbRasterVariables
 90
        0
 70
     1
 71
     1
 72
     0
  0
DICTIONARY
  5
40CB
102
{ACAD_REACTORS
330
C
102
}
330
C
100
AcDbDictionary
281
     1
  3
Model
350
40CD
  3
ﾚｲｱｳﾄ1
350
40CE
  0
DICTIONARY
  5
E
102
{ACAD_REACTORS
330
C
102
}
330
C
100
AcDbDictionary
281
     1
  3
STANDARD
350
1B
  0
DICTIONARY
  5
40CC
102
{ACAD_REACTORS
330
C
102
}
330
C
100
AcDbDictionary
281
     1
  0
ACDBDICTIONARYWDFLT
  5
40C9
102
{ACAD_REACTORS
330
C
102
}
330
C
100
AcDbDictionary
281
     1
  3
Normal
350
40CA
100
AcDbDictionaryWithDefault
340
40CA
  0
DICTIONARY
  5
17AE6
102
{ACAD_REACTORS
330
C
102
}
330
C
100
AcDbDictionary
281
     1
  3
A0
350
17AE7
  3
A1
350
17AE8
  3
A2
350
17AE9
  3
A3
350
17AEA
  3
A4
350
17AEB
  3
A5
350
17AEC
  3
A6
350
17AED
  3
A7
350
17AEE
  3
A8
350
17AEF
  3
A9
350
17AF0
  3
B0
350
17AF1
  3
B1
350
17AF2
  3
B2
350
17AF3
  3
B3
350
17AF4
  3
B4
350
17AF5
  3
B5
350
17AF6
  3
B6
350
17AF7
  3
B7
350
17AF8
  3
B8
350
17AF9
  3
B9
350
17AFA
  3
C0
350
17AFB
  3
C1
350
17AFC
  3
C2
350
17AFD
  3
C3
350
17AFE
  3
C4
350
17AFF
  3
C5
350
17B00
  3
C6
350
17B01
  3
C7
350
17B02
  3
C8
350
17B03
  3
C9
350
17B04
  3
D0
350
17B05
  3
D1
350
17B06
  3
D2
350
17B07
  0
DICTIONARY
  5
6377
102
{ACAD_REACTORS
330
C
102
}
330
C
100
AcDbDictionary
281
     1
  3
DIMASSOC
350
73F2
  3
INDEXCTL
350
17B6B
  3
PROJECTNAME
350
140E9
  3
SORTENTS
350
6378
  0
DICTIONARY
  5
20D39
102
{ACAD_REACTORS
330
C
102
}
330
C
100
AcDbDictionary
281
     1
  0
XRECORD
  5
20D5E
102
{ACAD_REACTORS
330
C
102
}
330
C
100
AcDbXrecord
280
     1
  1
DWGPROPS COOKIE
  2

  3

  4

  6

  7

  8
SPAX
  9

300
=
301
=
302
=
303
=
304
=
305
=
306
=
307
=
308
=
309
=
 40
0.0
 41
2449505.547222222
 42
2456821.22492118
  1

 90
        0
  0
DICTIONARY
  5
19352
102
{ACAD_REACTORS
330
17B73
102
}
330
17B73
100
AcDbDictionary
281
     1
  0
DICTIONARY
  5
17B74
102
{ACAD_REACTORS
330
17B73
102
}
330
17B73
100
AcDbDictionary
281
     1
  0
XRECORD
  5
17B0F
102
{ACAD_REACTORS
330
17B0E
102
}
330
17B0E
100
AcDbXrecord
280
     1
290
     1
  0
XRECORD
  5
17B17
102
{ACAD_REACTORS
330
17B16
102
}
330
17B16
100
AcDbXrecord
280
     1
290
     1
  0
XRECORD
  5
17B19
102
{ACAD_REACTORS
330
17B18
102
}
330
17B18
100
AcDbXrecord
280
     1
290
     1
  0
XRECORD
  5
17B1D
102
{ACAD_REACTORS
330
17B1C
102
}
330
17B1C
100
AcDbXrecord
280
     1
290
     1
  0
SORTENTSTABLE
  5
1DBE3
102
{ACAD_REACTORS
330
9FD5
102
}
330
9FD5
100
AcDbSortentsTable
330
18
331
0
  5
15B8E
  0
LAYOUT
  5
40CD
102
{ACAD_REACTORS
330
40CB
102
}
330
40CB
100
AcDbPlotSettings
  1

  2
JUST PDF 2
  4
A4
  6
CUT1
 40
3.174999952316284
 41
3.174999952316284
 42
3.175003051757812
 43
3.17498779296875
 44
209.8886566162109
 45
297.0530090332031
 46
14.27171755861536
 47
9.855173074625839
 48
6082.614405459771
 49
73.60157366637304
140
6432.604842449583
141
615.5869239437059
142
1.0
143
2.0
 70
 11940
 72
     1
 73
     0
 74
     4
  7
spax form.ctb
 75
     0
147
0.5
148
-6082.614405459771
149
-73.60157366637304
100
AcDbLayout
  1
Model
 70
     1
 71
     0
 10
0.0
 20
0.0
 11
12.0
 21
9.0
 12
0.0
 22
0.0
 32
0.0
 14
6078.030893774748
 24
475.1837868867476
 34
0.0
 15
6166.864227108081
 25
560.6528755155042
 35
0.0
146
0.0
 13
0.0
 23
0.0
 33
0.0
 16
1.0
 26
0.0
 36
0.0
 17
0.0
 27
1.0
 37
0.0
 76
     0
330
18
331
20353
1001
ACAD_PSEXT
1000
JUST PDF 2
1000
JUST PDF 2
1000
JUST PDF 2 Port:
1000

1070
     0
  0
LAYOUT
  5
40CE
102
{ACAD_REACTORS
330
40CB
102
}
330
40CB
100
AcDbPlotSettings
  1

  2
なし
  4

  6

 40
0.0
 41
0.0
 42
0.0
 43
0.0
 44
0.0
 45
0.0
 46
0.0
 47
0.0
 48
0.0
 49
0.0
140
0.0
141
0.0
142
1.0
143
1.0
 70
   688
 72
     0
 73
     0
 74
     5
  7
Aiba.ctb
 75
    16
147
1.0
148
0.0
149
0.0
100
AcDbLayout
  1
ﾚｲｱｳﾄ1
 70
     0
 71
     1
 10
0.0
 20
0.0
 11
12.0
 21
9.0
 12
0.0
 22
0.0
 32
0.0
 14
1.000000000000000E+20
 24
1.000000000000000E+20
 34
1.000000000000000E+20
 15
-1.000000000000000E+20
 25
-1.000000000000000E+20
 35
-1.000000000000000E+20
146
0.0
 13
0.0
 23
0.0
 33
0.0
 16
1.0
 26
0.0
 36
0.0
 17
0.0
 27
1.0
 37
0.0
 76
     0
330
15
  0
MLINESTYLE
  5
1B
102
{ACAD_REACTORS
330
E
102
}
330
E
100
AcDbMlineStyle
  2
STANDARD
 70
     0
  3

 62
     0
 51
90.0
 52
90.0
 71
     2
 49
0.5
 62
   256
  6
BYLAYER
 49
-0.5
 62
   256
  6
BYLAYER
  0
ACDBPLACEHOLDER
  5
40CA
102
{ACAD_REACTORS
330
40C9
102
}
330
40C9
  0
SCALE
  5
17AE7
102
{ACAD_REACTORS
330
17AE6
102
}
330
17AE6
100
AcDbScale
 70
     0
300
1:1
140
1.0
141
1.0
290
     1
1001
ACAD
1000
AcRTDxfName
1000
SCALE
1000
AcRTDxfName
1000
SCALE
1000
AcRTDxfName
1000
SCALE
1000
AcRTDxfName
1000
SCALE
1000
AcRTDxfName
1000
SCALE
1000
AcRTDxfName
1000
SCALE
1000
AcRTDxfName
1000
SCALE
1000
AcRTDxfName
1000
SCALE
1000
AcRTDxfName
1000
SCALE
  0
SCALE
  5
17AE8
102
{ACAD_REACTORS
330
17AE6
102
}
330
17AE6
100
AcDbScale
 70
     0
300
1:2
140
1.0
141
2.0
290
     0
1001
ACAD
1000
AcRTDxfName
1000
SCALE
1000
AcRTDxfName
1000
SCALE
1000
AcRTDxfName
1000
SCALE
1000
AcRTDxfName
1000
SCALE
1000
AcRTDxfName
1000
SCALE
1000
AcRTDxfName
1000
SCALE
1000
AcRTDxfName
1000
SCALE
1000
AcRTDxfName
1000
SCALE
1000
AcRTDxfName
1000
SCALE
  0
SCALE
  5
17AE9
102
{ACAD_REACTORS
330
17AE6
102
}
330
17AE6
100
AcDbScale
 70
     0
300
1:4
140
1.0
141
4.0
290
     0
1001
ACAD
1000
AcRTDxfName
1000
SCALE
1000
AcRTDxfName
1000
SCALE
1000
AcRTDxfName
1000
SCALE
1000
AcRTDxfName
1000
SCALE
1000
AcRTDxfName
1000
SCALE
1000
AcRTDxfName
1000
SCALE
1000
AcRTDxfName
1000
SCALE
1000
AcRTDxfName
1000
SCALE
1000
AcRTDxfName
1000
SCALE
  0
SCALE
  5
17AEA
102
{ACAD_REACTORS
330
17AE6
102
}
330
17AE6
100
AcDbScale
 70
     0
300
1:5
140
1.0
141
5.0
290
     0
1001
ACAD
1000
AcRTDxfName
1000
SCALE
1000
AcRTDxfName
1000
SCALE
1000
AcRTDxfName
1000
SCALE
1000
AcRTDxfName
1000
SCALE
1000
AcRTDxfName
1000
SCALE
1000
AcRTDxfName
1000
SCALE
1000
AcRTDxfName
1000
SCALE
1000
AcRTDxfName
1000
SCALE
1000
AcRTDxfName
1000
SCALE
  0
SCALE
  5
17AEB
102
{ACAD_REACTORS
330
17AE6
102
}
330
17AE6
100
AcDbScale
 70
     0
300
1:8
140
1.0
141
8.0
290
     0
1001
ACAD
1000
AcRTDxfName
1000
SCALE
1000
AcRTDxfName
1000
SCALE
1000
AcRTDxfName
1000
SCALE
1000
AcRTDxfName
1000
SCALE
1000
AcRTDxfName
1000
SCALE
1000
AcRTDxfName
1000
SCALE
1000
AcRTDxfName
1000
SCALE
1000
AcRTDxfName
1000
SCALE
1000
AcRTDxfName
1000
SCALE
  0
SCALE
  5
17AEC
102
{ACAD_REACTORS
330
17AE6
102
}
330
17AE6
100
AcDbScale
 70
     0
300
1:10
140
1.0
141
10.0
290
     0
1001
ACAD
1000
AcRTDxfName
1000
SCALE
1000
AcRTDxfName
1000
SCALE
1000
AcRTDxfName
1000
SCALE
1000
AcRTDxfName
1000
SCALE
1000
AcRTDxfName
1000
SCALE
1000
AcRTDxfName
1000
SCALE
1000
AcRTDxfName
1000
SCALE
1000
AcRTDxfName
1000
SCALE
1000
AcRTDxfName
1000
SCALE
  0
SCALE
  5
17AED
102
{ACAD_REACTORS
330
17AE6
102
}
330
17AE6
100
AcDbScale
 70
     0
300
1:16
140
1.0
141
16.0
290
     0
1001
ACAD
1000
AcRTDxfName
1000
SCALE
1000
AcRTDxfName
1000
SCALE
1000
AcRTDxfName
1000
SCALE
1000
AcRTDxfName
1000
SCALE
1000
AcRTDxfName
1000
SCALE
1000
AcRTDxfName
1000
SCALE
1000
AcRTDxfName
1000
SCALE
1000
AcRTDxfName
1000
SCALE
1000
AcRTDxfName
1000
SCALE
  0
SCALE
  5
17AEE
102
{ACAD_REACTORS
330
17AE6
102
}
330
17AE6
100
AcDbScale
 70
     0
300
1:20
140
1.0
141
20.0
290
     0
1001
ACAD
1000
AcRTDxfName
1000
SCALE
1000
AcRTDxfName
1000
SCALE
1000
AcRTDxfName
1000
SCALE
1000
AcRTDxfName
1000
SCALE
1000
AcRTDxfName
1000
SCALE
1000
AcRTDxfName
1000
SCALE
1000
AcRTDxfName
1000
SCALE
1000
AcRTDxfName
1000
SCALE
1000
AcRTDxfName
1000
SCALE
  0
SCALE
  5
17AEF
102
{ACAD_REACTORS
330
17AE6
102
}
330
17AE6
100
AcDbScale
 70
     0
300
1:30
140
1.0
141
30.0
290
     0
1001
ACAD
1000
AcRTDxfName
1000
SCALE
1000
AcRTDxfName
1000
SCALE
1000
AcRTDxfName
1000
SCALE
1000
AcRTDxfName
1000
SCALE
1000
AcRTDxfName
1000
SCALE
1000
AcRTDxfName
1000
SCALE
1000
AcRTDxfName
1000
SCALE
1000
AcRTDxfName
1000
SCALE
1000
AcRTDxfName
1000
SCALE
  0
SCALE
  5
17AF0
102
{ACAD_REACTORS
330
17AE6
102
}
330
17AE6
100
AcDbScale
 70
     0
300
1:40
140
1.0
141
40.0
290
     0
1001
ACAD
1000
AcRTDxfName
1000
SCALE
1000
AcRTDxfName
1000
SCALE
1000
AcRTDxfName
1000
SCALE
1000
AcRTDxfName
1000
SCALE
1000
AcRTDxfName
1000
SCALE
1000
AcRTDxfName
1000
SCALE
1000
AcRTDxfName
1000
SCALE
1000
AcRTDxfName
1000
SCALE
1000
AcRTDxfName
1000
SCALE
  0
SCALE
  5
17AF1
102
{ACAD_REACTORS
330
17AE6
102
}
330
17AE6
100
AcDbScale
 70
     0
300
1:50
140
1.0
141
50.0
290
     0
1001
ACAD
1000
AcRTDxfName
1000
SCALE
1000
AcRTDxfName
1000
SCALE
1000
AcRTDxfName
1000
SCALE
1000
AcRTDxfName
1000
SCALE
1000
AcRTDxfName
1000
SCALE
1000
AcRTDxfName
1000
SCALE
1000
AcRTDxfName
1000
SCALE
1000
AcRTDxfName
1000
SCALE
1000
AcRTDxfName
1000
SCALE
  0
SCALE
  5
17AF2
102
{ACAD_REACTORS
330
17AE6
102
}
330
17AE6
100
AcDbScale
 70
     0
300
1:100
140
1.0
141
100.0
290
     0
1001
ACAD
1000
AcRTDxfName
1000
SCALE
1000
AcRTDxfName
1000
SCALE
1000
AcRTDxfName
1000
SCALE
1000
AcRTDxfName
1000
SCALE
1000
AcRTDxfName
1000
SCALE
1000
AcRTDxfName
1000
SCALE
1000
AcRTDxfName
1000
SCALE
1000
AcRTDxfName
1000
SCALE
1000
AcRTDxfName
1000
SCALE
  0
SCALE
  5
17AF3
102
{ACAD_REACTORS
330
17AE6
102
}
330
17AE6
100
AcDbScale
 70
     0
300
2:1
140
2.0
141
1.0
290
     0
1001
ACAD
1000
AcRTDxfName
1000
SCALE
1000
AcRTDxfName
1000
SCALE
1000
AcRTDxfName
1000
SCALE
1000
AcRTDxfName
1000
SCALE
1000
AcRTDxfName
1000
SCALE
1000
AcRTDxfName
1000
SCALE
1000
AcRTDxfName
1000
SCALE
1000
AcRTDxfName
1000
SCALE
1000
AcRTDxfName
1000
SCALE
  0
SCALE
  5
17AF4
102
{ACAD_REACTORS
330
17AE6
102
}
330
17AE6
100
AcDbScale
 70
     0
300
4:1
140
4.0
141
1.0
290
     0
1001
ACAD
1000
AcRTDxfName
1000
SCALE
1000
AcRTDxfName
1000
SCALE
1000
AcRTDxfName
1000
SCALE
1000
AcRTDxfName
1000
SCALE
1000
AcRTDxfName
1000
SCALE
1000
AcRTDxfName
1000
SCALE
1000
AcRTDxfName
1000
SCALE
1000
AcRTDxfName
1000
SCALE
1000
AcRTDxfName
1000
SCALE
  0
SCALE
  5
17AF5
102
{ACAD_REACTORS
330
17AE6
102
}
330
17AE6
100
AcDbScale
 70
     0
300
8:1
140
8.0
141
1.0
290
     0
1001
ACAD
1000
AcRTDxfName
1000
SCALE
1000
AcRTDxfName
1000
SCALE
1000
AcRTDxfName
1000
SCALE
1000
AcRTDxfName
1000
SCALE
1000
AcRTDxfName
1000
SCALE
1000
AcRTDxfName
1000
SCALE
1000
AcRTDxfName
1000
SCALE
1000
AcRTDxfName
1000
SCALE
1000
AcRTDxfName
1000
SCALE
  0
SCALE
  5
17AF6
102
{ACAD_REACTORS
330
17AE6
102
}
330
17AE6
100
AcDbScale
 70
     0
300
10:1
140
10.0
141
1.0
290
     0
1001
ACAD
1000
AcRTDxfName
1000
SCALE
1000
AcRTDxfName
1000
SCALE
1000
AcRTDxfName
1000
SCALE
1000
AcRTDxfName
1000
SCALE
1000
AcRTDxfName
1000
SCALE
1000
AcRTDxfName
1000
SCALE
1000
AcRTDxfName
1000
SCALE
1000
AcRTDxfName
1000
SCALE
1000
AcRTDxfName
1000
SCALE
  0
SCALE
  5
17AF7
102
{ACAD_REACTORS
330
17AE6
102
}
330
17AE6
100
AcDbScale
 70
     0
300
100:1
140
100.0
141
1.0
290
     0
1001
ACAD
1000
AcRTDxfName
1000
SCALE
1000
AcRTDxfName
1000
SCALE
1000
AcRTDxfName
1000
SCALE
1000
AcRTDxfName
1000
SCALE
1000
AcRTDxfName
1000
SCALE
1000
AcRTDxfName
1000
SCALE
1000
AcRTDxfName
1000
SCALE
1000
AcRTDxfName
1000
SCALE
1000
AcRTDxfName
1000
SCALE
  0
SCALE
  5
17AF8
102
{ACAD_REACTORS
330
17AE6
102
}
330
17AE6
100
AcDbScale
 70
     0
300
1/128" = 1'-0"
140
0.0078125
141
12.0
290
     0
1001
ACAD
1000
AcRTDxfName
1000
SCALE
1000
AcRTDxfName
1000
SCALE
1000
AcRTDxfName
1000
SCALE
1000
AcRTDxfName
1000
SCALE
1000
AcRTDxfName
1000
SCALE
1000
AcRTDxfName
1000
SCALE
1000
AcRTDxfName
1000
SCALE
1000
AcRTDxfName
1000
SCALE
1000
AcRTDxfName
1000
SCALE
  0
SCALE
  5
17AF9
102
{ACAD_REACTORS
330
17AE6
102
}
330
17AE6
100
AcDbScale
 70
     0
300
1/64" = 1'-0"
140
0.015625
141
12.0
290
     0
1001
ACAD
1000
AcRTDxfName
1000
SCALE
1000
AcRTDxfName
1000
SCALE
1000
AcRTDxfName
1000
SCALE
1000
AcRTDxfName
1000
SCALE
1000
AcRTDxfName
1000
SCALE
1000
AcRTDxfName
1000
SCALE
1000
AcRTDxfName
1000
SCALE
1000
AcRTDxfName
1000
SCALE
1000
AcRTDxfName
1000
SCALE
  0
SCALE
  5
17AFA
102
{ACAD_REACTORS
330
17AE6
102
}
330
17AE6
100
AcDbScale
 70
     0
300
1/32" = 1'-0"
140
0.03125
141
12.0
290
     0
1001
ACAD
1000
AcRTDxfName
1000
SCALE
1000
AcRTDxfName
1000
SCALE
1000
AcRTDxfName
1000
SCALE
1000
AcRTDxfName
1000
SCALE
1000
AcRTDxfName
1000
SCALE
1000
AcRTDxfName
1000
SCALE
1000
AcRTDxfName
1000
SCALE
1000
AcRTDxfName
1000
SCALE
1000
AcRTDxfName
1000
SCALE
  0
SCALE
  5
17AFB
102
{ACAD_REACTORS
330
17AE6
102
}
330
17AE6
100
AcDbScale
 70
     0
300
1/16" = 1'-0"
140
0.0625
141
12.0
290
     0
1001
ACAD
1000
AcRTDxfName
1000
SCALE
1000
AcRTDxfName
1000
SCALE
1000
AcRTDxfName
1000
SCALE
1000
AcRTDxfName
1000
SCALE
1000
AcRTDxfName
1000
SCALE
1000
AcRTDxfName
1000
SCALE
1000
AcRTDxfName
1000
SCALE
1000
AcRTDxfName
1000
SCALE
1000
AcRTDxfName
1000
SCALE
  0
SCALE
  5
17AFC
102
{ACAD_REACTORS
330
17AE6
102
}
330
17AE6
100
AcDbScale
 70
     0
300
3/32" = 1'-0"
140
0.09375
141
12.0
290
     0
1001
ACAD
1000
AcRTDxfName
1000
SCALE
1000
AcRTDxfName
1000
SCALE
1000
AcRTDxfName
1000
SCALE
1000
AcRTDxfName
1000
SCALE
1000
AcRTDxfName
1000
SCALE
1000
AcRTDxfName
1000
SCALE
1000
AcRTDxfName
1000
SCALE
1000
AcRTDxfName
1000
SCALE
1000
AcRTDxfName
1000
SCALE
  0
SCALE
  5
17AFD
102
{ACAD_REACTORS
330
17AE6
102
}
330
17AE6
100
AcDbScale
 70
     0
300
1/8" = 1'-0"
140
0.125
141
12.0
290
     0
1001
ACAD
1000
AcRTDxfName
1000
SCALE
1000
AcRTDxfName
1000
SCALE
1000
AcRTDxfName
1000
SCALE
1000
AcRTDxfName
1000
SCALE
1000
AcRTDxfName
1000
SCALE
1000
AcRTDxfName
1000
SCALE
1000
AcRTDxfName
1000
SCALE
1000
AcRTDxfName
1000
SCALE
1000
AcRTDxfName
1000
SCALE
  0
SCALE
  5
17AFE
102
{ACAD_REACTORS
330
17AE6
102
}
330
17AE6
100
AcDbScale
 70
     0
300
3/16" = 1'-0"
140
0.1875
141
12.0
290
     0
1001
ACAD
1000
AcRTDxfName
1000
SCALE
1000
AcRTDxfName
1000
SCALE
1000
AcRTDxfName
1000
SCALE
1000
AcRTDxfName
1000
SCALE
1000
AcRTDxfName
1000
SCALE
1000
AcRTDxfName
1000
SCALE
1000
AcRTDxfName
1000
SCALE
1000
AcRTDxfName
1000
SCALE
1000
AcRTDxfName
1000
SCALE
  0
SCALE
  5
17AFF
102
{ACAD_REACTORS
330
17AE6
102
}
330
17AE6
100
AcDbScale
 70
     0
300
1/4" = 1'-0"
140
0.25
141
12.0
290
     0
1001
ACAD
1000
AcRTDxfName
1000
SCALE
1000
AcRTDxfName
1000
SCALE
1000
AcRTDxfName
1000
SCALE
1000
AcRTDxfName
1000
SCALE
1000
AcRTDxfName
1000
SCALE
1000
AcRTDxfName
1000
SCALE
1000
AcRTDxfName
1000
SCALE
1000
AcRTDxfName
1000
SCALE
1000
AcRTDxfName
1000
SCALE
  0
SCALE
  5
17B00
102
{ACAD_REACTORS
330
17AE6
102
}
330
17AE6
100
AcDbScale
 70
     0
300
3/8" = 1'-0"
140
0.375
141
12.0
290
     0
1001
ACAD
1000
AcRTDxfName
1000
SCALE
1000
AcRTDxfName
1000
SCALE
1000
AcRTDxfName
1000
SCALE
1000
AcRTDxfName
1000
SCALE
1000
AcRTDxfName
1000
SCALE
1000
AcRTDxfName
1000
SCALE
1000
AcRTDxfName
1000
SCALE
1000
AcRTDxfName
1000
SCALE
1000
AcRTDxfName
1000
SCALE
  0
SCALE
  5
17B01
102
{ACAD_REACTORS
330
17AE6
102
}
330
17AE6
100
AcDbScale
 70
     0
300
1/2" = 1'-0"
140
0.5
141
12.0
290
     0
1001
ACAD
1000
AcRTDxfName
1000
SCALE
1000
AcRTDxfName
1000
SCALE
1000
AcRTDxfName
1000
SCALE
1000
AcRTDxfName
1000
SCALE
1000
AcRTDxfName
1000
SCALE
1000
AcRTDxfName
1000
SCALE
1000
AcRTDxfName
1000
SCALE
1000
AcRTDxfName
1000
SCALE
1000
AcRTDxfName
1000
SCALE
  0
SCALE
  5
17B02
102
{ACAD_REACTORS
330
17AE6
102
}
330
17AE6
100
AcDbScale
 70
     0
300
3/4" = 1'-0"
140
0.75
141
12.0
290
     0
1001
ACAD
1000
AcRTDxfName
1000
SCALE
1000
AcRTDxfName
1000
SCALE
1000
AcRTDxfName
1000
SCALE
1000
AcRTDxfName
1000
SCALE
1000
AcRTDxfName
1000
SCALE
1000
AcRTDxfName
1000
SCALE
1000
AcRTDxfName
1000
SCALE
1000
AcRTDxfName
1000
SCALE
1000
AcRTDxfName
1000
SCALE
  0
SCALE
  5
17B03
102
{ACAD_REACTORS
330
17AE6
102
}
330
17AE6
100
AcDbScale
 70
     0
300
1" = 1'-0"
140
1.0
141
12.0
290
     0
1001
ACAD
1000
AcRTDxfName
1000
SCALE
1000
AcRTDxfName
1000
SCALE
1000
AcRTDxfName
1000
SCALE
1000
AcRTDxfName
1000
SCALE
1000
AcRTDxfName
1000
SCALE
1000
AcRTDxfName
1000
SCALE
1000
AcRTDxfName
1000
SCALE
1000
AcRTDxfName
1000
SCALE
1000
AcRTDxfName
1000
SCALE
  0
SCALE
  5
17B04
102
{ACAD_REACTORS
330
17AE6
102
}
330
17AE6
100
AcDbScale
 70
     0
300
1-1/2" = 1'-0"
140
1.5
141
12.0
290
     0
1001
ACAD
1000
AcRTDxfName
1000
SCALE
1000
AcRTDxfName
1000
SCALE
1000
AcRTDxfName
1000
SCALE
1000
AcRTDxfName
1000
SCALE
1000
AcRTDxfName
1000
SCALE
1000
AcRTDxfName
1000
SCALE
1000
AcRTDxfName
1000
SCALE
1000
AcRTDxfName
1000
SCALE
1000
AcRTDxfName
1000
SCALE
  0
SCALE
  5
17B05
102
{ACAD_REACTORS
330
17AE6
102
}
330
17AE6
100
AcDbScale
 70
     0
300
3" = 1'-0"
140
3.0
141
12.0
290
     0
1001
ACAD
1000
AcRTDxfName
1000
SCALE
1000
AcRTDxfName
1000
SCALE
1000
AcRTDxfName
1000
SCALE
1000
AcRTDxfName
1000
SCALE
1000
AcRTDxfName
1000
SCALE
1000
AcRTDxfName
1000
SCALE
1000
AcRTDxfName
1000
SCALE
1000
AcRTDxfName
1000
SCALE
1000
AcRTDxfName
1000
SCALE
  0
SCALE
  5
17B06
102
{ACAD_REACTORS
330
17AE6
102
}
330
17AE6
100
AcDbScale
 70
     0
300
6" = 1'-0"
140
6.0
141
12.0
290
     0
1001
ACAD
1000
AcRTDxfName
1000
SCALE
1000
AcRTDxfName
1000
SCALE
1000
AcRTDxfName
1000
SCALE
1000
AcRTDxfName
1000
SCALE
1000
AcRTDxfName
1000
SCALE
1000
AcRTDxfName
1000
SCALE
1000
AcRTDxfName
1000
SCALE
1000
AcRTDxfName
1000
SCALE
1000
AcRTDxfName
1000
SCALE
  0
SCALE
  5
17B07
102
{ACAD_REACTORS
330
17AE6
102
}
330
17AE6
100
AcDbScale
 70
     0
300
1'-0" = 1'-0"
140
12.0
141
12.0
290
     0
1001
ACAD
1000
AcRTDxfName
1000
SCALE
1000
AcRTDxfName
1000
SCALE
1000
AcRTDxfName
1000
SCALE
1000
AcRTDxfName
1000
SCALE
1000
AcRTDxfName
1000
SCALE
1000
AcRTDxfName
1000
SCALE
1000
AcRTDxfName
1000
SCALE
1000
AcRTDxfName
1000
SCALE
1000
AcRTDxfName
1000
SCALE
  0
DICTIONARYVAR
  5
73F2
102
{ACAD_REACTORS
330
6377
102
}
330
6377
100
DictionaryVariables
280
     0
  1
1
  0
DICTIONARYVAR
  5
17B6B
102
{ACAD_REACTORS
330
6377
102
}
330
6377
100
DictionaryVariables
280
     0
  1
0
  0
DICTIONARYVAR
  5
140E9
102
{ACAD_REACTORS
330
6377
102
}
330
6377
100
DictionaryVariables
280
     0
  1

  0
DICTIONARYVAR
  5
6378
102
{ACAD_REACTORS
330
6377
102
}
330
6377
100
DictionaryVariables
280
     0
  1
96
  0
ENDSEC
  0
EOF
