  0
SECTION
  2
HEADER
  9
$ACADVER
  1
AC1015
  9
$ACADMAINTVER
 70
     6
  9
$DWGCODEPAGE
  3
ANSI_932
  9
$INSBASE
 10
0.0
 20
0.0
 30
0.0
  9
$EXTMIN
 10
5739.555962491763
 20
476.933513275366
 30
0.0
  9
$EXTMAX
 10
5847.889295825096
 20
560.6528908340879
 30
0.0
  9
$LIMMIN
 10
0.0
 20
0.0
  9
$LIMMAX
 10
840.0
 20
594.0
  9
$ORTHOMODE
 70
     1
  9
$REGENMODE
 70
     1
  9
$FILLMODE
 70
     1
  9
$QTEXTMODE
 70
     0
  9
$MIRRTEXT
 70
     1
  9
$LTSCALE
 40
7.0
  9
$ATTMODE
 70
     0
  9
$TEXTSIZE
 40
6.0
  9
$TRACEWID
 40
1.0
  9
$TEXTSTYLE
  7
STANDARD
  9
$CLAYER
  8
寸法線
  9
$CELTYPE
  6
BYLAYER
  9
$CECOLOR
 62
   256
  9
$CELTSCALE
 40
1.0
  9
$DISPSILH
 70
     0
  9
$DIMSCALE
 40
1.0
  9
$DIMASZ
 40
6.0
  9
$DIMEXO
 40
3.0
  9
$DIMDLI
 40
7.149999999999999
  9
$DIMRND
 40
0.0
  9
$DIMDLE
 40
0.0
  9
$DIMEXE
 40
2.0
  9
$DIMTP
 40
0.0
  9
$DIMTM
 40
0.0
  9
$DIMTXT
 40
5.0
  9
$DIMCEN
 40
0.0
  9
$DIMTSZ
 40
0.0
  9
$DIMTOL
 70
     0
  9
$DIMLIM
 70
     0
  9
$DIMTIH
 70
     0
  9
$DIMTOH
 70
     0
  9
$DIMSE1
 70
     0
  9
$DIMSE2
 70
     0
  9
$DIMTAD
 70
     3
  9
$DIMZIN
 70
     8
  9
$DIMBLK
  1
Open30
  9
$DIMASO
 70
     1
  9
$DIMSHO
 70
     0
  9
$DIMPOST
  1

  9
$DIMAPOST
  1

  9
$DIMALT
 70
     0
  9
$DIMALTD
 70
     2
  9
$DIMALTF
 40
25.4
  9
$DIMLFAC
 40
1.0
  9
$DIMTOFL
 70
     0
  9
$DIMTVP
 40
0.0
  9
$DIMTIX
 70
     0
  9
$DIMSOXD
 70
     0
  9
$DIMSAH
 70
     0
  9
$DIMBLK1
  1

  9
$DIMBLK2
  1

  9
$DIMSTYLE
  2
STANDARD
  9
$DIMCLRD
 70
     0
  9
$DIMCLRE
 70
     0
  9
$DIMCLRT
 70
     0
  9
$DIMTFAC
 40
1.0
  9
$DIMGAP
 40
2.0
  9
$DIMJUST
 70
     0
  9
$DIMSD1
 70
     0
  9
$DIMSD2
 70
     0
  9
$DIMTOLJ
 70
     1
  9
$DIMTZIN
 70
     0
  9
$DIMALTZ
 70
     0
  9
$DIMALTTZ
 70
     0
  9
$DIMUPT
 70
     1
  9
$DIMDEC
 70
     2
  9
$DIMTDEC
 70
     2
  9
$DIMALTU
 70
     2
  9
$DIMALTTD
 70
     2
  9
$DIMTXSTY
  7
STANDARD
  9
$DIMAUNIT
 70
     0
  9
$DIMADEC
 70
     2
  9
$DIMALTRND
 40
0.0
  9
$DIMAZIN
 70
     2
  9
$DIMDSEP
 70
    46
  9
$DIMATFIT
 70
     3
  9
$DIMFRAC
 70
     0
  9
$DIMLDRBLK
  1
Open30
  9
$DIMLUNIT
 70
     2
  9
$DIMLWD
 70
    -2
  9
$DIMLWE
 70
    -2
  9
$DIMTMOVE
 70
     0
  9
$LUNITS
 70
     2
  9
$LUPREC
 70
     2
  9
$SKETCHINC
 40
0.1
  9
$FILLETRAD
 40
0.0
  9
$AUNITS
 70
     0
  9
$AUPREC
 70
     2
  9
$MENU
  1
ACAD
  9
$ELEVATION
 40
0.0
  9
$PELEVATION
 40
0.0
  9
$THICKNESS
 40
0.0
  9
$LIMCHECK
 70
     0
  9
$CHAMFERA
 40
0.0
  9
$CHAMFERB
 40
0.0
  9
$CHAMFERC
 40
0.0
  9
$CHAMFERD
 40
0.0
  9
$SKPOLY
 70
     0
  9
$TDCREATE
 40
2449505.922222222
  9
$TDUCREATE
 40
2449505.547222222
  9
$TDUPDATE
 40
2456821.600201678
  9
$TDUUPDATE
 40
2456821.225201678
  9
$TDINDWG
 40
2.8718893981
  9
$TDUSRTIMER
 40
2456821.225049722
  9
$USRTIMER
 70
     1
  9
$ANGBASE
 50
0.0
  9
$ANGDIR
 70
     0
  9
$PDMODE
 70
     3
  9
$PDSIZE
 40
0.0
  9
$PLINEWID
 40
0.0
  9
$SPLFRAME
 70
     0
  9
$SPLINETYPE
 70
     6
  9
$SPLINESEGS
 70
     8
  9
$HANDSEED
  5
2126C
  9
$SURFTAB1
 70
     6
  9
$SURFTAB2
 70
     6
  9
$SURFTYPE
 70
     6
  9
$SURFU
 70
     6
  9
$SURFV
 70
     6
  9
$UCSBASE
  2

  9
$UCSNAME
  2

  9
$UCSORG
 10
0.0
 20
0.0
 30
0.0
  9
$UCSXDIR
 10
1.0
 20
0.0
 30
0.0
  9
$UCSYDIR
 10
0.0
 20
1.0
 30
0.0
  9
$UCSORTHOREF
  2

  9
$UCSORTHOVIEW
 70
     0
  9
$UCSORGTOP
 10
0.0
 20
0.0
 30
0.0
  9
$UCSORGBOTTOM
 10
0.0
 20
0.0
 30
0.0
  9
$UCSORGLEFT
 10
0.0
 20
0.0
 30
0.0
  9
$UCSORGRIGHT
 10
0.0
 20
0.0
 30
0.0
  9
$UCSORGFRONT
 10
0.0
 20
0.0
 30
0.0
  9
$UCSORGBACK
 10
0.0
 20
0.0
 30
0.0
  9
$PUCSBASE
  2

  9
$PUCSNAME
  2

  9
$PUCSORG
 10
0.0
 20
0.0
 30
0.0
  9
$PUCSXDIR
 10
1.0
 20
0.0
 30
0.0
  9
$PUCSYDIR
 10
0.0
 20
1.0
 30
0.0
  9
$PUCSORTHOREF
  2

  9
$PUCSORTHOVIEW
 70
     0
  9
$PUCSORGTOP
 10
0.0
 20
0.0
 30
0.0
  9
$PUCSORGBOTTOM
 10
0.0
 20
0.0
 30
0.0
  9
$PUCSORGLEFT
 10
0.0
 20
0.0
 30
0.0
  9
$PUCSORGRIGHT
 10
0.0
 20
0.0
 30
0.0
  9
$PUCSORGFRONT
 10
0.0
 20
0.0
 30
0.0
  9
$PUCSORGBACK
 10
0.0
 20
0.0
 30
0.0
  9
$USERI1
 70
     0
  9
$USERI2
 70
     0
  9
$USERI3
 70
     0
  9
$USERI4
 70
     0
  9
$USERI5
 70
     0
  9
$USERR1
 40
0.0
  9
$USERR2
 40
0.0
  9
$USERR3
 40
0.0
  9
$USERR4
 40
0.0
  9
$USERR5
 40
0.0
  9
$WORLDVIEW
 70
     0
  9
$SHADEDGE
 70
     3
  9
$SHADEDIF
 70
    70
  9
$TILEMODE
 70
     1
  9
$MAXACTVP
 70
    16
  9
$PINSBASE
 10
0.0
 20
0.0
 30
0.0
  9
$PLIMCHECK
 70
     0
  9
$PEXTMIN
 10
1.000000000000000E+20
 20
1.000000000000000E+20
 30
1.000000000000000E+20
  9
$PEXTMAX
 10
-1.000000000000000E+20
 20
-1.000000000000000E+20
 30
-1.000000000000000E+20
  9
$PLIMMIN
 10
0.0
 20
0.0
  9
$PLIMMAX
 10
0.0
 20
0.0
  9
$UNITMODE
 70
     0
  9
$VISRETAIN
 70
     0
  9
$PLINEGEN
 70
     0
  9
$PSLTSCALE
 70
     0
  9
$TREEDEPTH
 70
  3020
  9
$CMLSTYLE
  2
STANDARD
  9
$CMLJUST
 70
     0
  9
$CMLSCALE
 40
1.0
  9
$PROXYGRAPHICS
 70
     1
  9
$MEASUREMENT
 70
     0
  9
$CELWEIGHT
370
    -1
  9
$ENDCAPS
280
     0
  9
$JOINSTYLE
280
     0
  9
$LWDISPLAY
290
     0
  9
$INSUNITS
 70
     0
  9
$HYPERLINKBASE
  1

  9
$STYLESHEET
  1
spax form.ctb
  9
$XEDIT
290
     1
  9
$CEPSNTYPE
380
     0
  9
$PSTYLEMODE
290
     1
  9
$FINGERPRINTGUID
  2
{C1CFCF3E-DF91-11D3-B30C-0060B0FA8DFC}
  9
$VERSIONGUID
  2
{52D8D08E-68F6-4AF6-8E0C-9AFF246203FB}
  9
$EXTNAMES
290
     1
  9
$PSVPSCALE
 40
0.0
  9
$OLESTARTUP
290
     0
  0
ENDSEC
  0
SECTION
  2
CLASSES
  0
CLASS
  1
LWPOLYLINE
  2
AcDbPolyline
  3
ObjectDBX Classes
 90
        0
280
     0
281
     1
  0
CLASS
  1
ACDBDICTIONARYWDFLT
  2
AcDbDictionaryWithDefault
  3
ObjectDBX Classes
 90
        0
280
     0
281
     0
  0
CLASS
  1
ACDBPLACEHOLDER
  2
AcDbPlaceHolder
  3
ObjectDBX Classes
 90
        0
280
     0
281
     0
  0
CLASS
  1
LAYOUT
  2
AcDbLayout
  3
ObjectDBX Classes
 90
        0
280
     0
281
     0
  0
CLASS
  1
DICTIONARYVAR
  2
AcDbDictionaryVar
  3
ObjectDBX Classes
 90
        0
280
     0
281
     0
  0
CLASS
  1
LONG_TRANSACTION
  2
AcDbLongTransaction
  3
ObjectDBX Classes
 90
        0
280
     0
281
     0
  0
CLASS
  1
LWPOLYLINE
  2
AcDbPolyline
  3
ObjectDBX Classes
 90
        0
280
     0
281
     1
  0
CLASS
  1
HATCH
  2
AcDbHatch
  3
ObjectDBX Classes
 90
        0
280
     0
281
     1
  0
CLASS
  1
XRECORD
  2
AcDbXrecord
  3
ObjectDBX Classes
 90
        0
280
     0
281
     0
  0
CLASS
  1
MATERIAL
  2
AcDbMaterial
  3
ObjectDBX Classes
 90
     1153
280
     0
281
     0
  0
CLASS
  1
VISUALSTYLE
  2
AcDbVisualStyle
  3
ObjectDBX Classes
 90
     4095
280
     0
281
     0
  0
CLASS
  1
TABLESTYLE
  2
AcDbTableStyle
  3
ObjectDBX Classes
 90
     4095
280
     0
281
     0
  0
CLASS
  1
SCALE
  2
AcDbScale
  3
ObjectDBX Classes
 90
     1153
280
     0
281
     0
  0
CLASS
  1
MLEADERSTYLE
  2
AcDbMLeaderStyle
  3
ACDB_MLEADERSTYLE_CLASS
 90
     4095
280
     0
281
     0
  0
CLASS
  1
CELLSTYLEMAP
  2
AcDbCellStyleMap
  3
ObjectDBX Classes
 90
     1152
280
     0
281
     0
  0
CLASS
  1
SORTENTSTABLE
  2
AcDbSortentsTable
  3
ObjectDBX Classes
 90
        0
280
     0
281
     0
  0
CLASS
  1
RASTERVARIABLES
  2
AcDbRasterVariables
  3
ISM
 90
        0
280
     0
281
     0
  0
CLASS
  1
SUN
  2
AcDbSun
  3
SCENEOE
 90
     1153
280
     0
281
     0
  0
ENDSEC
  0
SECTION
  2
TABLES
  0
TABLE
  2
VPORT
  5
8
330
0
100
AcDbSymbolTable
 70
     1
  0
VPORT
  5
20890
330
8
100
AcDbSymbolTableRecord
100
AcDbViewportTableRecord
  2
*Active
 70
     0
 10
0.0
 20
0.0
 11
1.0
 21
1.0
 12
5793.72262915843
 22
518.793202054727
 13
0.0
 23
0.0
 14
1.0
 24
1.0
 15
20.0
 25
20.0
 16
0.0
 26
0.0
 36
1.0
 17
0.0
 27
0.0
 37
0.0
 40
85.39376510989631
 41
1.731829573934837
 42
50.0
 43
0.0
 44
0.0
 50
0.0
 51
0.0
 71
    16
 72
  2000
 73
     1
 74
     0
 75
     0
 76
     0
 77
     0
 78
     0
281
     0
 65
     1
110
0.0
120
0.0
130
0.0
111
1.0
121
0.0
131
0.0
112
0.0
122
1.0
132
0.0
 79
     0
146
0.0
  0
ENDTAB
  0
TABLE
  2
LTYPE
  5
5
330
0
100
AcDbSymbolTable
 70
     5
  0
LTYPE
  5
12
330
5
100
AcDbSymbolTableRecord
100
AcDbLinetypeTableRecord
  2
BYBLOCK
 70
     0
  3

 72
    65
 73
     0
 40
0.0
  0
LTYPE
  5
13
330
5
100
AcDbSymbolTableRecord
100
AcDbLinetypeTableRecord
  2
BYLAYER
 70
     0
  3

 72
    65
 73
     0
 40
0.0
  0
LTYPE
  5
14
330
5
100
AcDbSymbolTableRecord
100
AcDbLinetypeTableRecord
  2
CONTINUOUS
 70
     0
  3
Solid line
 72
    65
 73
     0
 40
0.0
  0
LTYPE
  5
3D
330
5
100
AcDbSymbolTableRecord
100
AcDbLinetypeTableRecord
  2
PHANTOM
 70
     0
  3
_____ _ _ _____ _ _ _____ _ _ _____ _ _ ____
 72
    65
 73
     6
 40
2.5
 49
1.25
 74
     0
 49
-0.25
 74
     0
 49
0.25
 74
     0
 49
-0.25
 74
     0
 49
0.25
 74
     0
 49
-0.25
 74
     0
  0
LTYPE
  5
40D2
330
5
100
AcDbSymbolTableRecord
100
AcDbLinetypeTableRecord
  2
CENTER
 70
     0
  3
____ _ ____ _ ____ _ ____ _ ____ _ ____ _ ____ 
 72
    65
 73
     4
 40
2.0
 49
1.25
 74
     0
 49
-0.25
 74
     0
 49
0.25
 74
     0
 49
-0.25
 74
     0
  0
LTYPE
  5
A244
330
5
100
AcDbSymbolTableRecord
100
AcDbLinetypeTableRecord
  2
HIDDEN
 70
     0
  3
_ _ _ _ _ _ _ _ _ _ _ _ _ _ _ _ _ _ _ _ _ _ _
 72
    65
 73
     2
 40
0.375
 49
0.25
 74
     0
 49
-0.125
 74
     0
  0
ENDTAB
  0
TABLE
  2
LAYER
  5
2
102
{ACAD_XDICTIONARY
360
1841D
102
}
330
0
100
AcDbSymbolTable
 70
    24
  0
LAYER
  5
F
102
{ACAD_XDICTIONARY
360
1836A
102
}
330
2
100
AcDbSymbolTableRecord
100
AcDbLayerTableRecord
  2
0
 70
     0
 62
     7
  6
CONTINUOUS
370
    -3
390
40CA
  0
LAYER
  5
4C
102
{ACAD_XDICTIONARY
360
18372
102
}
330
2
100
AcDbSymbolTableRecord
100
AcDbLayerTableRecord
  2
寸法線
 70
     0
 62
     7
  6
CONTINUOUS
370
    -3
390
40CA
  0
LAYER
  5
4D
102
{ACAD_XDICTIONARY
360
18374
102
}
330
2
100
AcDbSymbolTableRecord
100
AcDbLayerTableRecord
  2
姿図
 70
     0
 62
     8
  6
CONTINUOUS
370
    -3
390
40CA
  0
LAYER
  5
40D4
102
{ACAD_XDICTIONARY
360
18378
102
}
330
2
100
AcDbSymbolTableRecord
100
AcDbLayerTableRecord
  2
文字
 70
     0
 62
     7
  6
CONTINUOUS
370
    -3
390
40CA
  0
ENDTAB
  0
TABLE
  2
STYLE
  5
3
330
0
100
AcDbSymbolTable
 70
     1
  0
STYLE
  5
10
330
3
100
AcDbSymbolTableRecord
100
AcDbTextStyleTableRecord
  2
STANDARD
 70
     0
 40
0.0
 41
1.0
 50
0.0
 71
     0
 42
6.0
  3
MONOTXT
  4
BIGFONT
  0
ENDTAB
  0
TABLE
  2
VIEW
  5
6
330
0
100
AcDbSymbolTable
 70
     1
  0
VIEW
  5
41
330
6
100
AcDbSymbolTableRecord
100
AcDbViewTableRecord
  2
CUT1
 70
     0
 40
612.7795527156796
 10
420.0000000000169
 20
306.3897763578398
 41
840.0000000000338
 11
0.0
 21
0.0
 31
1.0
 12
0.0
 22
0.0
 32
0.0
 42
50.0
 43
0.0
 44
0.0
 50
0.0
 71
     0
281
     0
 72
     0
  0
ENDTAB
  0
TABLE
  2
UCS
  5
7
330
0
100
AcDbSymbolTable
 70
     0
  0
ENDTAB
  0
TABLE
  2
APPID
  5
9
330
0
100
AcDbSymbolTable
 70
     7
  0
APPID
  5
11
330
9
100
AcDbSymbolTableRecord
100
AcDbRegAppTableRecord
  2
ACAD
 70
     0
  0
APPID
  5
18305
330
9
100
AcDbSymbolTableRecord
100
AcDbRegAppTableRecord
  2
ACAD_PSEXT
 70
     0
  0
APPID
  5
18366
330
9
100
AcDbSymbolTableRecord
100
AcDbRegAppTableRecord
  2
ACAD_MLEADERVER
 70
     0
  0
APPID
  5
1AA8C
330
9
100
AcDbSymbolTableRecord
100
AcDbRegAppTableRecord
  2
AcadAnnotative
 70
     0
  0
APPID
  5
1AA8D
330
9
100
AcDbSymbolTableRecord
100
AcDbRegAppTableRecord
  2
ACAD_DSTYLE_DIMJAG
 70
     0
  0
APPID
  5
1AA8E
330
9
100
AcDbSymbolTableRecord
100
AcDbRegAppTableRecord
  2
ACAD_DSTYLE_DIMTALN
 70
     0
  0
APPID
  5
1B469
330
9
100
AcDbSymbolTableRecord
100
AcDbRegAppTableRecord
  2
ACAD_EXEMPT_FROM_CAD_STANDARDS
 70
     0
  0
ENDTAB
  0
TABLE
  2
DIMSTYLE
  5
A
330
0
100
AcDbSymbolTable
 70
     3
100
AcDbDimStyleTable
  0
DIMSTYLE
105
1B3A
330
A
100
AcDbSymbolTableRecord
100
AcDbDimStyleTableRecord
  2
STANDARD
 70
     0
 41
4.0
 42
3.0
 43
7.149999999999999
 44
2.0
 73
     0
 74
     0
 77
     3
 78
     8
 79
     2
140
5.0
141
0.0
147
2.0
178
     0
179
     2
271
     2
272
     2
288
     1
340
10
341
49C3
342
49C3
  0
ENDTAB
  0
TABLE
  2
BLOCK_RECORD
  5
1
330
0
100
AcDbSymbolTable
 70
    60
  0
BLOCK_RECORD
  5
18
102
{ACAD_XDICTIONARY
360
9FD5
102
}
330
1
100
AcDbSymbolTableRecord
100
AcDbBlockTableRecord
  2
*MODEL_SPACE
340
40CD
  0
BLOCK_RECORD
  5
15
330
1
100
AcDbSymbolTableRecord
100
AcDbBlockTableRecord
  2
*PAPER_SPACE
340
40CE
  0
BLOCK_RECORD
  5
49C3
330
1
100
AcDbSymbolTableRecord
100
AcDbBlockTableRecord
  2
_OPEN
340
0
102
{BLKREFS
331
16E51
331
16E52
331
16E5A
331
16E5B
331
16E63
331
16E64
331
16E6B
331
16E6C
331
16EB2
331
16EB3
331
16F07
331
16F08
331
16F12
331
16F13
331
170F4
331
170F5
331
179AE
331
179AF
331
179B7
331
179B8
331
179CA
331
179CB
331
17A0F
331
17A10
331
17A25
331
17A26
331
17A2E
331
17A2F
331
18251
331
18252
331
18264
331
18265
331
18278
331
18279
331
18298
331
18299
331
182A1
331
182A2
331
182CC
331
182CD
102
}
  0
BLOCK_RECORD
  5
FD36
330
1
100
AcDbSymbolTableRecord
100
AcDbBlockTableRecord
  2
_Open30
340
0
102
{BLKREFS
331
195EF
331
195F0
331
195F8
331
195F9
331
19603
331
19604
331
1960E
331
1960F
331
19617
331
19618
331
1A08B
331
1A08C
331
1AA52
331
1AA53
331
1AA5B
331
1AA5C
331
1AA66
331
1AA67
331
1AA71
331
1AA72
331
1AA7A
331
1AA7B
331
1AA84
331
1AA85
331
1B43A
331
1B43B
331
1B443
331
1B444
331
1B44C
331
1B44D
331
1B457
331
1B458
331
1E173
331
1E174
331
1F4B3
331
1F4B4
331
1F4BC
331
1F4BD
331
1F4C7
331
1F4C8
331
1F4D2
331
1F4D3
331
1F4DB
331
1F4DC
331
1FE78
331
1FE79
331
1FE81
331
1FE82
331
1FE8C
331
1FE8D
331
1FE97
331
1FE98
331
1FEA0
331
1FEA1
331
20856
331
20857
331
2085F
331
20860
331
2086A
331
2086B
331
20875
331
20876
331
2087E
331
2087F
331
211EF
331
211F0
331
211F8
331
211F9
331
21203
331
21204
331
2120E
331
2120F
331
21217
331
21218
102
}
  0
ENDTAB
  0
ENDSEC
  0
SECTION
  2
BLOCKS
  0
BLOCK
  5
52
330
18
100
AcDbEntity
  8
0
100
AcDbBlockBegin
  2
*MODEL_SPACE
 70
     0
 10
0.0
 20
0.0
 30
0.0
  3
*MODEL_SPACE
  1
*MODEL_SPACE
  0
ENDBLK
  5
53
330
18
100
AcDbEntity
  8
0
100
AcDbBlockEnd
  0
BLOCK
  5
50
330
15
100
AcDbEntity
 67
     1
  8
0
100
AcDbBlockBegin
  2
*PAPER_SPACE
 70
     0
 10
0.0
 20
0.0
 30
0.0
  3
*PAPER_SPACE
  1
*PAPER_SPACE
  0
ENDBLK
  5
51
330
15
100
AcDbEntity
 67
     1
  8
0
100
AcDbBlockEnd
  0
BLOCK
  5
49C7
330
49C3
100
AcDbEntity
  8
0
100
AcDbBlockBegin
  2
_OPEN
 70
     0
 10
0.0
 20
0.0
 30
0.0
  3
_OPEN
  1
_OPEN
  0
LINE
  5
49C4
330
49C3
100
AcDbEntity
  8
0
  6
ByBlock
 62
     0
100
AcDbLine
 10
-1.0
 20
0.1666666666666667
 30
0.0
 11
0.0
 21
0.0
 31
0.0
  0
LINE
  5
49C5
330
49C3
100
AcDbEntity
  8
0
  6
ByBlock
 62
     0
100
AcDbLine
 10
0.0
 20
0.0
 30
0.0
 11
-1.0
 21
-0.1666666666666667
 31
0.0
  0
LINE
  5
49C6
330
49C3
100
AcDbEntity
  8
0
  6
ByBlock
 62
     0
100
AcDbLine
 10
0.0
 20
0.0
 30
0.0
 11
-1.0
 21
0.0
 31
0.0
  0
ENDBLK
  5
49C8
330
49C3
100
AcDbEntity
  8
0
100
AcDbBlockEnd
  0
BLOCK
  5
FD3A
330
FD36
100
AcDbEntity
  8
0
100
AcDbBlockBegin
  2
_Open30
 70
     0
 10
0.0
 20
0.0
 30
0.0
  3
_Open30
  1
_Open30
  0
LINE
  5
FD37
330
FD36
100
AcDbEntity
  8
寸法線
 62
     0
370
    -2
100
AcDbLine
 10
-1.0
 20
0.26794919
 30
0.0
 11
0.0
 21
0.0
 31
0.0
  0
LINE
  5
FD38
330
FD36
100
AcDbEntity
  8
寸法線
 62
     0
370
    -2
100
AcDbLine
 10
0.0
 20
0.0
 30
0.0
 11
-1.0
 21
-0.26794919
 31
0.0
  0
LINE
  5
FD39
330
FD36
100
AcDbEntity
  8
寸法線
 62
     0
370
    -2
100
AcDbLine
 10
0.0
 20
0.0
 30
0.0
 11
-1.0
 21
0.0
 31
0.0
  0
ENDBLK
  5
FD3B
330
FD36
100
AcDbEntity
  8
0
100
AcDbBlockEnd
  0
ENDSEC
  0
SECTION
  2
ENTITIES
  0
TEXT
  5
20F94
330
18
100
AcDbEntity
  8
文字
100
AcDbText
 10
5739.555962491763
 20
478.0168466086993
 30
0.0
 40
6.5
  1
SX-B050D/EZ/WC,NC
100
AcDbText
  0
SPLINE
  5
21014
330
18
100
AcDbEntity
  8
姿図
100
AcDbSpline
210
0.0
220
0.0
230
1.0
 70
     8
 71
     3
 72
     8
 73
     4
 74
     0
 42
0.000000001
 43
0.0000000001
 40
36.0
 40
36.0
 40
36.0
 40
36.0
 40
37.0
 40
37.0
 40
37.0
 40
37.0
 10
5808.683316628119
 20
529.3961534826703
 30
0.0
 10
5806.430224180204
 20
526.4435343962987
 30
0.0
 10
5804.72094005477
 20
524.4493408741632
 30
0.0
 10
5804.04759614201
 20
523.9055325516806
 30
0.0
  0
SPLINE
  5
21015
330
18
100
AcDbEntity
  8
姿図
100
AcDbSpline
210
0.0
220
0.0
230
1.0
 70
     8
 71
     3
 72
    12
 73
     8
 74
     6
 42
0.000000001
 43
0.0000000001
 44
0.0000000001
 40
0.0
 40
0.0
 40
0.0
 40
0.0
 40
2.344472056218261
 40
3.485069501827955
 40
4.152524498741347
 40
4.56533782623421
 40
5.186795096790065
 40
5.186795096790065
 40
5.186795096790065
 40
5.186795096790065
 10
5803.595683165424
 20
527.8601295214007
 30
0.0
 10
5803.756879858367
 20
527.0878317362842
 30
0.0
 10
5803.996499553079
 20
525.9398071948528
 30
0.0
 10
5803.817456167299
 20
524.5525050123262
 30
0.0
 10
5803.580000242998
 20
523.8443816739003
 30
0.0
 10
5803.25241056703
 20
523.371902365267
 30
0.0
 10
5802.973519217896
 20
523.1649538687287
 30
0.0
 10
5802.805943095223
 20
523.0406057067999
 30
0.0
 11
5803.595683165424
 21
527.8601295214007
 31
0.0
 11
5803.902830704515
 21
525.5358641295793
 31
0.0
 11
5803.751146628088
 21
524.4053976444989
 31
0.0
 11
5803.517479528015
 21
523.7801809946504
 31
0.0
 11
5803.279864264538
 21
523.4426105132411
 31
0.0
 11
5802.805943095223
 21
523.0406057067999
 31
0.0
  0
LINE
  5
21016
330
18
100
AcDbEntity
  8
姿図
100
AcDbLine
 10
5805.287064553767
 20
527.1408048127073
 30
0.0
 11
5803.903779318654
 21
525.6633674227869
 31
0.0
  0
LINE
  5
21017
330
18
100
AcDbEntity
  8
姿図
100
AcDbLine
 10
5805.244511110179
 20
527.7003862474439
 30
0.0
 11
5803.873116375196
 21
526.2415658845139
 31
0.0
  0
LINE
  5
21018
330
18
100
AcDbEntity
  8
姿図
100
AcDbLine
 10
5805.185407157844
 20
528.1462342385084
 30
0.0
 11
5803.799300021591
 21
526.803984313493
 31
0.0
  0
SPLINE
  5
21019
330
18
100
AcDbEntity
  8
姿図
100
AcDbSpline
210
0.0
220
0.0
230
1.0
 70
     8
 71
     3
 72
     8
 73
     4
 74
     0
 42
0.000000001
 43
0.0000000001
 40
0.0
 40
0.0
 40
0.0
 40
0.0
 40
0.9786274959647334
 40
0.9786274959647334
 40
0.9786274959647334
 40
0.9786274959647334
 10
5799.639596467529
 20
521.1425659718197
 30
0.0
 10
5798.603882367634
 20
527.0979220462218
 30
0.0
 10
5798.117189844801
 20
530.0125432322739
 30
0.0
 10
5797.022284044157
 20
531.4156327310611
 30
0.0
  0
SPLINE
  5
2101A
330
18
100
AcDbEntity
  8
姿図
100
AcDbSpline
210
0.0
220
0.0
230
1.0
 70
     8
 71
     3
 72
     8
 73
     4
 74
     0
 42
0.000000001
 43
0.0000000001
 40
0.0
 40
0.0
 40
0.0
 40
0.0
 40
1.0
 40
1.0
 40
1.0
 40
1.0
 10
5805.090108852842
 20
524.9614897325982
 30
0.0
 10
5806.262264697662
 20
530.0005985354805
 30
0.0
 10
5802.100944937582
 20
534.8093458926096
 30
0.0
 10
5800.454706059543
 20
536.5732347814987
 30
0.0
  0
SPLINE
  5
2101B
330
18
100
AcDbEntity
  8
姿図
100
AcDbSpline
210
0.0
220
0.0
230
1.0
 70
     8
 71
     3
 72
     8
 73
     4
 74
     0
 42
0.000000001
 43
0.0000000001
 40
0.0
 40
0.0
 40
0.0
 40
0.0
 40
1.0
 40
1.0
 40
1.0
 40
1.0
 10
5798.647408967529
 20
533.8866631940418
 30
0.0
 10
5800.587686745308
 20
532.2698798824099
 30
0.0
 10
5802.491274256158
 20
528.2348117943025
 30
0.0
 10
5802.410965355559
 20
526.6650175672889
 30
0.0
  0
SPLINE
  5
2101C
330
18
100
AcDbEntity
  8
姿図
100
AcDbSpline
210
0.0
220
0.0
230
1.0
 70
     8
 71
     3
 72
     8
 73
     4
 74
     0
 42
0.000000001
 43
0.0000000001
 40
4.0
 40
4.0
 40
4.0
 40
4.0
 40
5.0
 40
5.0
 40
5.0
 40
5.0
 10
5770.691751008546
 20
522.9319485673059
 30
0.0
 10
5770.24543888832
 20
524.178039604632
 30
0.0
 10
5769.261691872261
 20
526.8305908741636
 30
0.0
 10
5770.43870874509
 20
529.0054796545455
 30
0.0
  0
LINE
  5
2101D
330
18
100
AcDbEntity
  8
姿図
100
AcDbLine
 10
5791.157426871176
 20
525.4585815968198
 30
0.0
 11
5789.080292675212
 21
526.9081055226011
 31
0.0
  0
LINE
  5
2101E
330
18
100
AcDbEntity
  8
姿図
100
AcDbLine
 10
5793.730568689753
 20
514.1752048607086
 30
0.0
 11
5793.554179800863
 21
529.9179131940418
 31
0.0
  0
LINE
  5
2101F
330
18
100
AcDbEntity
  8
姿図
100
AcDbLine
 10
5795.450360356419
 20
529.697427082931
 30
0.0
 11
5795.803138134197
 21
516.644649305153
 31
0.0
  0
LINE
  5
21020
330
18
100
AcDbEntity
  8
姿図
100
AcDbLine
 10
5785.984099234457
 20
530.6014201384864
 30
0.0
 11
5785.883502446263
 21
522.054999511316
 31
0.0
  0
LINE
  5
21021
330
18
100
AcDbEntity
  8
姿図
100
AcDbLine
 10
5789.0709909174
 20
531.0129367943023
 30
0.0
 11
5789.236958392444
 21
521.6946425234692
 31
0.0
  0
SPLINE
  5
21022
330
18
100
AcDbEntity
  8
姿図
100
AcDbSpline
210
0.0
220
0.0
230
1.0
 70
     8
 71
     3
 72
     8
 73
     4
 74
     0
 42
0.000000001
 43
0.0000000001
 40
0.0
 40
0.0
 40
0.0
 40
0.0
 40
1.0
 40
1.0
 40
1.0
 40
1.0
 10
5770.691751008546
 20
522.9319485673059
 30
0.0
 10
5771.300240998779
 20
524.3999037539379
 30
0.0
 10
5772.490435361844
 20
526.7796034609692
 30
0.0
 10
5775.342027023085
 20
531.2187812495977
 30
0.0
  0
SPLINE
  5
21023
330
18
100
AcDbEntity
  8
姿図
100
AcDbSpline
210
0.0
220
0.0
230
1.0
 70
     8
 71
     3
 72
     8
 73
     4
 74
     0
 42
0.000000001
 43
0.0000000001
 40
0.0
 40
0.0
 40
0.0
 40
0.0
 40
1.0
 40
1.0
 40
1.0
 40
1.0
 10
5775.297929800863
 20
531.3290243051529
 30
0.0
 10
5772.884898795004
 20
531.3290243051529
 30
0.0
 10
5769.124318689752
 20
529.3446493051529
 30
0.0
 10
5770.932304800864
 20
523.744302082931
 30
0.0
  0
LINE
  5
21024
330
18
100
AcDbEntity
  8
姿図
100
AcDbLine
 10
5787.101257573216
 20
531.0129367943023
 30
0.0
 11
5787.307102028512
 21
518.1365479054134
 31
0.0
  0
LINE
  5
21025
330
18
100
AcDbEntity
  8
姿図
100
AcDbLine
 10
5787.454035350994
 20
531.3951701384863
 30
0.0
 11
5787.659879806289
 21
518.0778090273752
 31
0.0
  0
LINE
  5
21026
330
18
100
AcDbEntity
  8
姿図
100
AcDbLine
 10
5794.186182567791
 20
514.3147312278961
 30
0.0
 11
5793.951054800864
 21
530.0502048607086
 31
0.0
  0
LINE
  5
21027
330
18
100
AcDbEntity
  8
姿図
100
AcDbLine
 10
5796.04567285642
 20
528.7272881940416
 30
0.0
 11
5796.214827044787
 21
519.7633219939553
 31
0.0
  0
SPLINE
  5
21028
330
18
100
AcDbEntity
  8
姿図
100
AcDbSpline
210
0.0
220
0.0
230
1.0
 70
     8
 71
     3
 72
     8
 73
     4
 74
     0
 42
0.000000001
 43
0.0000000001
 40
0.0
 40
0.0
 40
0.0
 40
0.0
 40
1.0
 40
1.0
 40
1.0
 40
1.0
 10
5779.487165911974
 20
520.1357368160038
 30
0.0
 10
5773.401749245308
 20
519.7240479054135
 30
0.0
 10
5768.315840906549
 20
517.6955756831912
 30
0.0
 10
5768.404035350994
 20
517.3135145937813
 30
0.0
  0
SPLINE
  5
21029
330
18
100
AcDbEntity
  8
姿図
100
AcDbSpline
210
0.0
220
0.0
230
1.0
 70
     8
 71
     3
 72
     8
 73
     4
 74
     0
 42
0.000000001
 43
0.0000000001
 40
0.0
 40
0.0
 40
0.0
 40
0.0
 40
1.0
 40
1.0
 40
1.0
 40
1.0
 10
5769.301310470351
 20
519.3428480898751
 30
0.0
 10
5771.605131949301
 20
520.8638577469933
 30
0.0
 10
5775.811162900906
 20
521.8806776797192
 30
0.0
 10
5780.794579648953
 20
522.0999580074099
 30
0.0
  0
SPLINE
  5
2102A
330
18
100
AcDbEntity
  8
姿図
100
AcDbSpline
210
0.0
220
0.0
230
1.0
 70
     8
 71
     3
 72
     8
 73
     4
 74
     0
 42
0.000000001
 43
0.0000000001
 40
0.0
 40
0.0
 40
0.0
 40
0.0
 40
1.0
 40
1.0
 40
1.0
 40
1.0
 10
5767.799076583632
 20
516.6244954965591
 30
0.0
 10
5768.321783696262
 20
519.0948012148751
 30
0.0
 10
5773.689673100559
 20
521.0865831701703
 30
0.0
 10
5780.641445154596
 20
521.4877645395281
 30
0.0
  0
SPLINE
  5
2102B
330
18
100
AcDbEntity
  8
姿図
100
AcDbSpline
210
0.0
220
0.0
230
1.0
 70
     8
 71
     3
 72
    11
 73
     7
 74
     0
 42
0.000000001
 43
0.0000000001
 40
0.0
 40
0.0
 40
0.0
 40
0.0
 40
1.0
 40
1.0
 40
1.0
 40
2.0
 40
2.0
 40
2.0
 40
2.0
 10
5765.490087461453
 20
510.7852309023751
 30
0.0
 10
5769.120184575169
 20
512.8560777990765
 30
0.0
 10
5775.85672428871
 20
514.0472195633997
 30
0.0
 10
5783.561938725559
 20
514.0472195633997
 30
0.0
 10
5791.423215987929
 20
514.0472195633997
 30
0.0
 10
5797.85365896753
 20
512.8412638884865
 30
0.0
 10
5801.432596413276
 20
510.8591282005523
 30
0.0
  0
ELLIPSE
  5
2102C
330
18
100
AcDbEntity
  8
姿図
100
AcDbEllipse
 10
5783.56615896753
 20
506.4361423607088
 30
0.0
 11
17.21996527777777
 21
0.0
 31
0.0
210
0.0
220
0.0
230
1.0
 40
0.3329065300896287
 41
0.0
 42
6.283185307179586
  0
SPLINE
  5
2102D
330
18
100
AcDbEntity
  8
姿図
100
AcDbSpline
210
0.0
220
0.0
230
1.0
 70
    11
 71
     3
 72
    20
 73
    16
 74
     0
 42
0.000000001
 43
0.0000000001
 40
0.0
 40
0.0
 40
0.0
 40
0.0
 40
1.0
 40
1.0
 40
1.0
 40
2.0
 40
2.0
 40
2.0
 40
3.0
 40
3.0
 40
3.0
 40
4.0
 40
4.0
 40
4.0
 40
5.0
 40
5.0
 40
5.0
 40
5.0
 10
5768.272691085585
 20
507.9080594071497
 30
0.0
 10
5770.22063420082
 20
510.0648614362294
 30
0.0
 10
5776.340243440186
 20
511.6396145829308
 30
0.0
 10
5783.58820757864
 20
511.6396145829308
 30
0.0
 10
5792.404379182374
 20
511.6396145829308
 30
0.0
 10
5799.551402023086
 20
509.3096965056739
 30
0.0
 10
5799.551402023086
 20
506.4361423607088
 30
0.0
 10
5799.551402023086
 20
503.5625882157433
 30
0.0
 10
5792.404379182374
 20
501.2326701384864
 30
0.0
 10
5783.58820757864
 20
501.2326701384864
 30
0.0
 10
5774.771949847521
 20
501.2326701384864
 30
0.0
 10
5767.625013134197
 20
503.5625882157433
 30
0.0
 10
5767.625013134197
 20
506.4361423607088
 30
0.0
 10
5767.625013134197
 20
506.9473945308473
 30
0.0
 10
5767.85118365286
 20
507.4414212235561
 30
0.0
 10
5768.272691085585
 20
507.9080594071497
 30
0.0
  0
ELLIPSE
  5
2102E
330
18
100
AcDbEntity
  8
姿図
100
AcDbEllipse
 10
5783.456045103055
 20
506.9563517791112
 30
0.0
 11
20.74330749511719
 21
0.0
 31
0.0
210
0.0
220
0.0
230
1.0
 40
0.3248236933025159
 41
0.0
 42
6.283185307179586
  0
SPLINE
  5
2102F
330
18
100
AcDbEntity
  8
姿図
100
AcDbSpline
210
0.0
220
0.0
230
1.0
 70
     8
 71
     3
 72
     8
 73
     4
 74
     0
 42
0.000000001
 43
0.0000000001
 40
3.0
 40
3.0
 40
3.0
 40
3.0
 40
4.0
 40
4.0
 40
4.0
 40
4.0
 10
5769.315521489231
 20
519.3611070959519
 30
0.0
 10
5769.315521489231
 20
519.3611070959519
 30
0.0
 10
5770.375577370308
 20
522.504067707931
 30
0.0
 10
5770.691751008546
 20
522.9319485673059
 30
0.0
  0
SPLINE
  5
21030
330
18
100
AcDbEntity
  8
姿図
100
AcDbSpline
210
0.0
220
0.0
230
1.0
 70
     8
 71
     3
 72
     8
 73
     4
 74
     0
 42
0.000000001
 43
0.0000000001
 40
48.0
 40
48.0
 40
48.0
 40
48.0
 40
49.0
 40
49.0
 40
49.0
 40
49.0
 10
5765.521610085151
 20
510.8243327361424
 30
0.0
 10
5765.558903243788
 20
511.8659573563682
 30
0.0
 10
5765.596024147651
 20
513.9860691185213
 30
0.0
 10
5765.614627663276
 20
514.2651218528963
 30
0.0
  0
LINE
  5
21031
330
18
100
AcDbEntity
  8
姿図
100
AcDbLine
 10
5766.340767664362
 20
515.745479383278
 30
0.0
 11
5766.174283424995
 21
511.1948527556738
 31
0.0
  0
LINE
  5
21032
330
18
100
AcDbEntity
  8
姿図
100
AcDbLine
 10
5766.804908153728
 20
515.8086968854482
 30
0.0
 11
5766.618270105768
 21
511.4444499236424
 31
0.0
  0
LINE
  5
21033
330
18
100
AcDbEntity
  8
姿図
100
AcDbLine
 10
5768.394130701471
 20
517.2716566836252
 30
0.0
 11
5768.172180424778
 21
512.0271878251183
 31
0.0
  0
SPLINE
  5
21034
330
18
100
AcDbEntity
  8
姿図
100
AcDbSpline
210
0.0
220
0.0
230
1.0
 70
    24
 71
     3
 72
     8
 73
     4
 74
     0
 42
0.000000001
 43
0.0000000001
 40
51.0
 40
51.0
 40
51.0
 40
51.0
 40
52.0
 40
52.0
 40
52.0
 40
52.0
 10
5766.804908153728
 20
515.8086968854482
 30
0.0
 10
5766.804908153728
 20
515.8086968854482
 30
0.0
 10
5767.30668631128
 20
516.2041938472539
 30
0.0
 10
5767.30668631128
 20
516.2041938472539
 30
0.0
  0
SPLINE
  5
21035
330
18
100
AcDbEntity
  8
姿図
100
AcDbSpline
210
0.0
220
0.0
230
1.0
 70
     8
 71
     3
 72
     8
 73
     4
 74
     0
 42
0.000000001
 43
0.0000000001
 40
50.0
 40
50.0
 40
50.0
 40
50.0
 40
51.0
 40
51.0
 40
51.0
 40
51.0
 10
5766.33990639049
 20
515.8086968854482
 30
0.0
 10
5766.656080028728
 20
515.827300401073
 30
0.0
 10
5766.804908153728
 20
515.8086968854482
 30
0.0
 10
5766.804908153728
 20
515.8086968854482
 30
0.0
  0
SPLINE
  5
21036
330
18
100
AcDbEntity
  8
姿図
100
AcDbSpline
210
0.0
220
0.0
230
1.0
 70
     8
 71
     3
 72
     8
 73
     4
 74
     0
 42
0.000000001
 43
0.0000000001
 40
49.0
 40
49.0
 40
49.0
 40
49.0
 40
50.0
 40
50.0
 40
50.0
 40
50.0
 10
5765.614627663276
 20
514.2651218528963
 30
0.0
 10
5765.633231178902
 20
514.5440023324968
 30
0.0
 10
5766.023818879639
 20
515.7900933698234
 30
0.0
 10
5766.33990639049
 20
515.8086968854482
 30
0.0
  0
SPLINE
  5
21037
330
18
100
AcDbEntity
  8
姿図
100
AcDbSpline
210
0.0
220
0.0
230
1.0
 70
     8
 71
     3
 72
     8
 73
     4
 74
     0
 42
0.000000001
 43
0.0000000001
 40
2.0
 40
2.0
 40
2.0
 40
2.0
 40
3.0
 40
3.0
 40
3.0
 40
3.0
 10
5767.864964034804
 20
517.91037738675
 30
0.0
 10
5768.441500764405
 20
518.7657945959518
 30
0.0
 10
5769.315521489231
 20
519.3611070959519
 30
0.0
 10
5769.315521489231
 20
519.3611070959519
 30
0.0
  0
SPLINE
  5
21038
330
18
100
AcDbEntity
  8
姿図
100
AcDbSpline
210
0.0
220
0.0
230
1.0
 70
     8
 71
     3
 72
     8
 73
     4
 74
     0
 42
0.000000001
 43
0.0000000001
 40
1.0
 40
1.0
 40
1.0
 40
1.0
 40
2.0
 40
2.0
 40
2.0
 40
2.0
 10
5767.418651914579
 20
516.292388291698
 30
0.0
 10
5767.418651914579
 20
516.292388291698
 30
0.0
 10
5767.288427305203
 20
517.0547879227747
 30
0.0
 10
5767.864964034804
 20
517.91037738675
 30
0.0
  0
SPLINE
  5
21039
330
18
100
AcDbEntity
  8
姿図
100
AcDbSpline
210
0.0
220
0.0
230
1.0
 70
    24
 71
     3
 72
     8
 73
     4
 74
     0
 42
0.000000001
 43
0.0000000001
 40
0.0
 40
0.0
 40
0.0
 40
0.0
 40
1.0
 40
1.0
 40
1.0
 40
1.0
 10
5767.343376578207
 20
516.2331326493372
 30
0.0
 10
5767.343376578207
 20
516.2331326493372
 30
0.0
 10
5767.418651914579
 20
516.292388291698
 30
0.0
 10
5767.418651914579
 20
516.292388291698
 30
0.0
  0
LINE
  5
2103A
330
18
100
AcDbEntity
  8
姿図
100
AcDbLine
 10
5767.30668631128
 20
516.2041938472535
 30
0.0
 11
5767.343376578207
 21
516.2331326493372
 31
0.0
  0
LINE
  5
2103B
330
18
100
AcDbEntity
  8
姿図
100
AcDbLine
 10
5767.418651914579
 20
516.292388291698
 30
0.0
 11
5768.338664664145
 21
516.9664212235557
 31
0.0
  0
SPLINE
  5
2103C
330
18
100
AcDbEntity
  8
姿図
100
AcDbSpline
210
0.0
220
0.0
230
1.0
 70
     8
 71
     3
 72
     8
 73
     4
 74
     0
 42
0.000000001
 43
0.0000000001
 40
47.57323863493616
 40
47.57323863493616
 40
47.57323863493616
 40
47.57323863493616
 40
48.0
 40
48.0
 40
48.0
 40
48.0
 10
5762.712737607938
 20
506.9563517791112
 30
0.0
 10
5762.666158249892
 20
508.1840441428976
 30
0.0
 10
5763.368783703742
 20
509.5127372948118
 30
0.0
 10
5765.521610085151
 20
510.8243327361424
 30
0.0
  0
LINE
  5
2103D
330
18
100
AcDbEntity
  8
姿図
100
AcDbLine
 10
5805.207903038227
 20
525.5797754912301
 30
0.0
 11
5803.269695967389
 21
523.2963477943972
 31
0.0
  0
SPLINE
  5
2103E
330
18
100
AcDbEntity
  8
姿図
100
AcDbSpline
210
0.0
220
0.0
230
1.0
 70
     8
 71
     3
 72
     8
 73
     4
 74
     0
 42
0.000000001
 43
0.0000000001
 40
0.0
 40
0.0
 40
0.0
 40
0.0
 40
1.0
 40
1.0
 40
1.0
 40
1.0
 10
5799.205165959689
 20
523.6309479341944
 30
0.0
 10
5800.571360539096
 20
523.3777697066525
 30
0.0
 10
5802.902722706739
 20
523.6913945505248
 30
0.0
 10
5802.410965355559
 20
526.6650175672889
 30
0.0
  0
SPLINE
  5
2103F
330
18
100
AcDbEntity
  8
姿図
100
AcDbSpline
210
0.0
220
0.0
230
1.0
 70
     8
 71
     3
 72
     8
 73
     4
 74
     0
 42
0.000000001
 43
0.0000000001
 40
0.0
 40
0.0
 40
0.0
 40
0.0
 40
1.0
 40
1.0
 40
1.0
 40
1.0
 10
5799.672669384197
 20
521.0512709414379
 30
0.0
 10
5798.965391280898
 20
522.0165866966463
 30
0.0
 10
5797.946848800429
 20
522.6203396805872
 30
0.0
 10
5796.332304800863
 20
522.9285034718196
 30
0.0
  0
SPLINE
  5
21040
330
18
100
AcDbEntity
  8
姿図
100
AcDbSpline
210
0.0
220
0.0
230
1.0
 70
     8
 71
     3
 72
     8
 73
     4
 74
     0
 42
0.000000001
 43
0.0000000001
 40
0.0
 40
0.0
 40
0.0
 40
0.0
 40
1.0
 40
1.0
 40
1.0
 40
1.0
 10
5799.927606450168
 20
522.4241414926532
 30
0.0
 10
5799.678181536975
 20
522.6997491315419
 30
0.0
 10
5799.496280495307
 20
522.8651137148754
 30
0.0
 10
5799.339356395915
 20
522.9536526688685
 30
0.0
  0
SPLINE
  5
21041
330
18
100
AcDbEntity
  8
姿図
100
AcDbSpline
210
0.0
220
0.0
230
1.0
 70
     8
 71
     3
 72
     8
 73
     4
 74
     0
 42
0.000000001
 43
0.0000000001
 40
37.0
 40
37.0
 40
37.0
 40
37.0
 40
38.0
 40
38.0
 40
38.0
 40
38.0
 10
5804.04759614201
 20
523.9055325516806
 30
0.0
 10
5802.503675085165
 20
522.4495472641943
 30
0.0
 10
5800.935068897407
 20
522.5316090250913
 30
0.0
 10
5799.54399506779
 20
522.788804849858
 30
0.0
  0
SPLINE
  5
21042
330
18
100
AcDbEntity
  8
姿図
100
AcDbSpline
210
0.0
220
0.0
230
1.0
 70
     8
 71
     3
 72
     8
 73
     4
 74
     0
 42
0.000000001
 43
0.0000000001
 40
38.0
 40
38.0
 40
38.0
 40
38.0
 40
39.0
 40
39.0
 40
39.0
 40
39.0
 10
5799.919854985325
 20
522.4461901037644
 30
0.0
 10
5800.437825091662
 20
521.8505330942157
 30
0.0
 10
5800.567188427165
 20
521.3844116749447
 30
0.0
 10
5800.619037114231
 20
520.8404310976875
 30
0.0
  0
LINE
  5
21043
330
18
100
AcDbEntity
  8
姿図
100
AcDbLine
 10
5805.269389908812
 20
526.1175920360838
 30
0.0
 11
5803.720634084296
 21
524.2929820661061
 31
0.0
  0
LINE
  5
21044
330
18
100
AcDbEntity
  8
姿図
100
AcDbLine
 10
5805.2740645389
 20
526.6601112816666
 30
0.0
 11
5803.863972273677
 21
524.9988627071739
 31
0.0
  0
SPLINE
  5
21045
330
18
100
AcDbEntity
  8
姿図
100
AcDbSpline
210
0.0
220
0.0
230
1.0
 70
     8
 71
     3
 72
    11
 73
     7
 74
     0
 42
0.000000001
 43
0.0000000001
 40
41.0
 40
41.0
 40
41.0
 40
41.0
 40
42.0
 40
42.0
 40
42.0
 40
43.0
 40
43.0
 40
43.0
 40
43.0
 10
5800.437825091662
 20
516.0233263342329
 30
0.0
 10
5801.111169004423
 20
515.4016588537643
 30
0.0
 10
5801.266542810846
 20
515.0132243377052
 30
0.0
 10
5801.266542810846
 20
514.314042208799
 30
0.0
 10
5801.266542810846
 20
513.6146878251184
 30
0.0
 10
5801.432596413276
 20
510.8591282005523
 30
0.0
 10
5801.432596413276
 20
510.8591282005523
 30
0.0
  0
SPLINE
  5
21046
330
18
100
AcDbEntity
  8
姿図
100
AcDbSpline
210
0.0
220
0.0
230
1.0
 70
    27
 71
     3
 72
     8
 73
     4
 74
     0
 42
0.000000001
 43
0.0000000001
 40
43.0
 40
43.0
 40
43.0
 40
43.0
 40
44.0
 40
44.0
 40
44.0
 40
44.0
 10
5801.432596413276
 20
510.8591282005523
 30
0.0
 10
5801.432596413276
 20
510.8591282005523
 30
0.0
 10
5801.432596413276
 20
510.8591282005523
 30
0.0
 10
5801.432596413276
 20
510.8591282005523
 30
0.0
  0
SPLINE
  5
21047
330
18
100
AcDbEntity
  8
姿図
100
AcDbSpline
210
0.0
220
0.0
230
1.0
 70
     8
 71
     3
 72
     8
 73
     4
 74
     0
 42
0.000000001
 43
0.0000000001
 40
1.0
 40
1.0
 40
1.0
 40
1.0
 40
2.0
 40
2.0
 40
2.0
 40
2.0
 10
5797.478832578641
 20
517.8940131831914
 30
0.0
 10
5798.375418678901
 20
517.4383993051529
 30
0.0
 10
5799.610140901123
 20
516.9386882048925
 30
0.0
 10
5800.437825091662
 20
516.0233263342329
 30
0.0
  0
LINE
  5
21048
330
18
100
AcDbEntity
  8
姿図
100
AcDbLine
 10
5796.214827044787
 20
519.7633219939553
 30
0.0
 11
5796.222061745308
 21
519.3786770829306
 31
0.0
  0
SPLINE
  5
21049
330
18
100
AcDbEntity
  8
姿図
100
AcDbSpline
210
0.0
220
0.0
230
1.0
 70
     8
 71
     3
 72
     8
 73
     4
 74
     0
 42
0.000000001
 43
0.0000000001
 40
0.0
 40
0.0
 40
0.0
 40
0.0
 40
1.0
 40
1.0
 40
1.0
 40
1.0
 10
5797.478832578641
 20
517.8940131831914
 30
0.0
 10
5796.772071239665
 20
518.2032105030698
 30
0.0
 10
5796.222061745308
 20
518.5499593637469
 30
0.0
 10
5796.222061745308
 20
519.3786770829311
 30
0.0
  0
SPLINE
  5
2104A
330
18
100
AcDbEntity
  8
姿図
100
AcDbSpline
210
0.0
220
0.0
230
1.0
 70
     8
 71
     3
 72
     8
 73
     4
 74
     0
 42
0.000000001
 43
0.0000000001
 40
0.0
 40
0.0
 40
0.0
 40
0.0
 40
0.9455772662780577
 40
0.9455772662780577
 40
0.9455772662780577
 40
0.9455772662780577
 10
5796.223784293051
 20
519.7531589622708
 30
0.0
 10
5798.085016322352
 20
518.8851703839787
 30
0.0
 10
5799.314475487078
 20
517.8377533836406
 30
0.0
 10
5799.654972405762
 20
516.7084826416544
 30
0.0
  0
SPLINE
  5
2104B
330
18
100
AcDbEntity
  8
姿図
100
AcDbSpline
210
0.0
220
0.0
230
1.0
 70
     8
 71
     3
 72
     8
 73
     4
 74
     0
 42
0.000000001
 43
0.0000000001
 40
0.0
 40
0.0
 40
0.0
 40
0.0
 40
1.0
 40
1.0
 40
1.0
 40
1.0
 10
5796.233947324735
 20
519.191091633712
 30
0.0
 10
5797.310022899822
 20
518.649350368521
 30
0.0
 10
5798.108596033502
 20
518.0375014101878
 30
0.0
 10
5798.558870013537
 20
517.3803494462122
 30
0.0
  0
SPLINE
  5
2104C
330
18
100
AcDbEntity
  8
姿図
100
AcDbSpline
210
0.0
220
0.0
230
1.0
 70
     8
 71
     3
 72
    11
 73
     7
 74
     0
 42
0.000000001
 43
0.0000000001
 40
39.0
 40
39.0
 40
39.0
 40
39.0
 40
40.0
 40
40.0
 40
40.0
 40
41.0
 40
41.0
 40
41.0
 40
41.0
 10
5800.619037114231
 20
520.8404310976875
 30
0.0
 10
5800.670885801297
 20
520.2966227752054
 30
0.0
 10
5800.722734488363
 20
517.0334283307607
 30
0.0
 10
5800.722734488363
 20
516.8520440534171
 30
0.0
 10
5800.722734488363
 20
516.6708320308476
 30
0.0
 10
5800.593198898086
 20
516.230376572948
 30
0.0
 10
5800.437825091662
 20
516.0233263342329
 30
0.0
  0
SPLINE
  5
2104D
330
18
100
AcDbEntity
  8
姿図
100
AcDbSpline
210
0.0
220
0.0
230
1.0
 70
     8
 71
     3
 72
     8
 73
     4
 74
     0
 42
0.000000001
 43
0.0000000001
 40
0.0
 40
0.0
 40
0.0
 40
0.0
 40
1.0
 40
1.0
 40
1.0
 40
1.0
 10
5799.992374245307
 20
516.4548245438682
 30
0.0
 10
5799.992374245307
 20
518.8677694223406
 30
0.0
 10
5799.993924538277
 20
521.0958849279828
 30
0.0
 10
5799.573622888971
 20
521.087961208365
 30
0.0
  0
SPLINE
  5
2104E
330
18
100
AcDbEntity
  8
姿図
100
AcDbSpline
210
0.0
220
0.0
230
1.0
 70
     8
 71
     3
 72
     8
 73
     4
 74
     0
 42
0.000000001
 43
0.0000000001
 40
44.0
 40
44.0
 40
44.0
 40
44.0
 40
44.97482086101027
 40
44.97482086101027
 40
44.97482086101027
 40
44.97482086101027
 10
5801.432596413276
 20
510.8591282005523
 30
0.0
 10
5801.432596413276
 20
510.8591282005523
 30
0.0
 10
5804.220025510669
 20
509.6084458638275
 30
0.0
 10
5804.199352598172
 20
506.9563517791112
 30
0.0
  0
LINE
  5
2104F
330
18
100
AcDbEntity
  8
姿図
100
AcDbLine
 10
5787.601140928251
 20
524.3101590165247
 30
0.0
 11
5789.100446483806
 21
523.9866645503785
 31
0.0
  0
LINE
  5
21050
330
18
100
AcDbEntity
  8
姿図
100
AcDbLine
 10
5787.630510367269
 20
523.6633423390072
 30
0.0
 11
5789.129815922825
 21
523.3398478728614
 31
0.0
  0
LINE
  5
21051
330
18
100
AcDbEntity
  8
姿図
100
AcDbLine
 10
5787.630510367269
 20
523.0459812278959
 30
0.0
 11
5789.129815922825
 21
522.7224867617501
 31
0.0
  0
LINE
  5
21052
330
18
100
AcDbEntity
  8
姿図
100
AcDbLine
 10
5787.601140928251
 20
522.3991645503788
 30
0.0
 11
5789.100446483806
 21
522.075670084233
 31
0.0
  0
LINE
  5
21053
330
18
100
AcDbEntity
  8
姿図
100
AcDbLine
 10
5787.630510367269
 20
521.811259005674
 30
0.0
 11
5789.129815922825
 21
521.4877645395281
 31
0.0
  0
LINE
  5
21054
330
18
100
AcDbEntity
  8
姿図
100
AcDbLine
 10
5787.659965933676
 20
520.5177979054133
 30
0.0
 11
5789.159271489231
 21
520.1943034392675
 31
0.0
  0
LINE
  5
21055
330
18
100
AcDbEntity
  8
姿図
100
AcDbLine
 10
5787.630510367269
 20
521.1938978945627
 30
0.0
 11
5789.129815922825
 21
520.8704034284169
 31
0.0
  0
LINE
  5
21056
330
18
100
AcDbEntity
  8
姿図
100
AcDbLine
 10
5787.542315922826
 20
526.6914090165246
 30
0.0
 11
5789.041621478381
 21
526.3679145503788
 31
0.0
  0
LINE
  5
21057
330
18
100
AcDbEntity
  8
姿図
100
AcDbLine
 10
5787.571685361844
 20
526.1033312170453
 30
0.0
 11
5789.0709909174
 21
525.7798367508994
 31
0.0
  0
LINE
  5
21058
330
18
100
AcDbEntity
  8
姿図
100
AcDbLine
 10
5787.601140928251
 20
525.4566867943022
 30
0.0
 11
5789.100446483806
 21
525.1331923281564
 31
0.0
  0
LINE
  5
21059
330
18
100
AcDbEntity
  8
姿図
100
AcDbLine
 10
5787.601140928251
 20
524.8980645612291
 30
0.0
 11
5789.100446483806
 21
524.5745700950833
 31
0.0
  0
LINE
  5
2105A
330
18
100
AcDbEntity
  8
姿図
100
AcDbLine
 10
5787.395296472956
 20
518.0778090273752
 30
0.0
 11
5789.129729795438
 21
517.842509005674
 31
0.0
  0
LINE
  5
2105B
330
18
100
AcDbEntity
  8
姿図
100
AcDbLine
 10
5787.659965933676
 20
519.3123589948232
 30
0.0
 11
5789.159271489231
 21
518.9888645286774
 31
0.0
  0
LINE
  5
2105C
330
18
100
AcDbEntity
  8
姿図
100
AcDbLine
 10
5787.659965933676
 20
518.6362590056738
 30
0.0
 11
5789.159271489231
 21
518.312764539528
 31
0.0
  0
LINE
  5
2105D
330
18
100
AcDbEntity
  8
姿図
100
AcDbLine
 10
5787.659965933676
 20
519.9591756723403
 30
0.0
 11
5789.159271489231
 21
519.6356812061945
 31
0.0
  0
SPLINE
  5
2105E
330
18
100
AcDbEntity
  8
姿図
100
AcDbSpline
210
0.0
220
0.0
230
1.0
 70
     8
 71
     3
 72
     8
 73
     4
 74
     0
 42
0.000000001
 43
0.0000000001
 40
0.0
 40
0.0
 40
0.0
 40
0.0
 40
1.0
 40
1.0
 40
1.0
 40
1.0
 10
5784.249665911974
 20
521.8996257048925
 30
0.0
 10
5784.249665911974
 20
522.0782539058473
 30
0.0
 10
5784.078789175863
 20
522.2229479162643
 30
0.0
 10
5783.867518695178
 20
522.2229479162643
 30
0.0
  0
SPLINE
  5
2105F
330
18
100
AcDbEntity
  8
姿図
100
AcDbSpline
210
0.0
220
0.0
230
1.0
 70
     8
 71
     3
 72
     8
 73
     4
 74
     0
 42
0.000000001
 43
0.0000000001
 40
0.0
 40
0.0
 40
0.0
 40
0.0
 40
1.0
 40
1.0
 40
1.0
 40
1.0
 10
5784.146829811713
 20
522.1263129878789
 30
0.0
 10
5784.758162005724
 20
522.1094320199968
 30
0.0
 10
5785.360795333632
 20
522.0804932179135
 30
0.0
 10
5785.952921120308
 20
522.0400133459516
 30
0.0
  0
SPLINE
  5
21060
330
18
100
AcDbEntity
  8
姿図
100
AcDbSpline
210
0.0
220
0.0
230
1.0
 70
     8
 71
     3
 72
     8
 73
     4
 74
     0
 42
0.000000001
 43
0.0000000001
 40
0.0
 40
0.0
 40
0.0
 40
0.0
 40
1.0
 40
1.0
 40
1.0
 40
1.0
 10
5784.219865836019
 20
521.5511542964723
 30
0.0
 10
5784.770219839926
 20
521.5392687170456
 30
0.0
 10
5785.312908506375
 20
521.5177368702571
 30
0.0
 10
5785.846467669787
 20
521.486558756108
 30
0.0
  0
LINE
  5
21061
330
18
100
AcDbEntity
  8
姿図
100
AcDbLine
 10
5785.278543678902
 20
520.2532145720802
 30
0.0
 11
5785.601952017661
 21
520.3119534501184
 31
0.0
  0
SPLINE
  5
21062
330
18
100
AcDbEntity
  8
姿図
100
AcDbSpline
210
0.0
220
0.0
230
1.0
 70
     8
 71
     3
 72
     8
 73
     4
 74
     0
 42
0.000000001
 43
0.0000000001
 40
0.0
 40
0.0
 40
0.0
 40
0.0
 40
1.0
 40
1.0
 40
1.0
 40
1.0
 10
5785.866535350993
 20
520.6059923498578
 30
0.0
 10
5785.866535350993
 20
520.4597480464727
 30
0.0
 10
5785.731918244874
 20
520.3119534501184
 30
0.0
 10
5785.601952017661
 20
520.3119534501184
 30
0.0
  0
LINE
  5
21063
330
18
100
AcDbEntity
  8
姿図
100
AcDbLine
 10
5785.883502446263
 20
522.054999511316
 30
0.0
 11
5785.866535350994
 21
520.6059923498578
 31
0.0
  0
LINE
  5
21064
330
18
100
AcDbEntity
  8
姿図
100
AcDbLine
 10
5780.692518695178
 20
521.8701701384862
 30
0.0
 11
5780.708366134414
 21
521.5039564883127
 31
0.0
  0
SPLINE
  5
21065
330
18
100
AcDbEntity
  8
姿図
100
AcDbSpline
210
0.0
220
0.0
230
1.0
 70
     8
 71
     3
 72
     8
 73
     4
 74
     0
 42
0.000000001
 43
0.0000000001
 40
0.0
 40
0.0
 40
0.0
 40
0.0
 40
1.0
 40
1.0
 40
1.0
 40
1.0
 10
5780.692518695178
 20
521.8701701384862
 30
0.0
 10
5780.692518695178
 20
522.0487983394414
 30
0.0
 10
5780.850304068442
 20
522.1934923498579
 30
0.0
 10
5781.045296472955
 20
522.1934923498579
 30
0.0
  0
SPLINE
  5
21066
330
18
100
AcDbEntity
  8
姿図
100
AcDbSpline
210
0.0
220
0.0
230
1.0
 70
     8
 71
     3
 72
     8
 73
     4
 74
     0
 42
0.000000001
 43
0.0000000001
 40
0.0
 40
0.0
 40
0.0
 40
0.0
 40
1.0
 40
1.0
 40
1.0
 40
1.0
 10
5779.663554800863
 20
519.9593479271148
 30
0.0
 10
5779.663554800863
 20
520.0568441293717
 30
0.0
 10
5779.584662114232
 20
520.1357368160038
 30
0.0
 10
5779.487165911974
 20
520.1357368160038
 30
0.0
  0
LINE
  5
21067
330
18
100
AcDbEntity
  8
姿図
100
AcDbLine
 10
5781.045296472956
 20
522.1934923498579
 30
0.0
 11
5783.867518695178
 21
522.2229479162643
 31
0.0
  0
LINE
  5
21068
330
18
100
AcDbEntity
  8
姿図
100
AcDbLine
 10
5784.132102028511
 20
516.8725423715591
 30
0.0
 11
5784.132102028511
 21
514.0796034609689
 31
0.0
  0
LINE
  5
21069
330
18
100
AcDbEntity
  8
姿図
100
AcDbLine
 10
5784.367229795438
 20
519.4889201384863
 30
0.0
 11
5784.073277023086
 21
516.8725423715591
 31
0.0
  0
LINE
  5
2106A
330
18
100
AcDbEntity
  8
姿図
100
AcDbLine
 10
5784.896396462105
 20
519.8709812278962
 30
0.0
 11
5784.690638134197
 21
517.3427979054136
 31
0.0
  0
SPLINE
  5
2106B
330
18
100
AcDbEntity
  8
姿図
100
AcDbSpline
210
0.0
220
0.0
230
1.0
 70
     8
 71
     3
 72
     8
 73
     4
 74
     0
 42
0.000000001
 43
0.0000000001
 40
0.0
 40
0.0
 40
0.0
 40
0.0
 40
1.0
 40
1.0
 40
1.0
 40
1.0
 10
5784.690638134197
 20
517.3427979054136
 30
0.0
 10
5784.690638134197
 20
517.1154216033301
 30
0.0
 10
5784.519761398085
 20
516.9312812495973
 30
0.0
 10
5784.308490917399
 20
516.9312812495973
 30
0.0
  0
LINE
  5
2106C
330
18
100
AcDbEntity
  8
姿図
100
AcDbLine
 10
5784.3084909174
 20
516.9312812495973
 30
0.0
 11
5784.190840906549
 21
514.1383423390071
 31
0.0
  0
LINE
  5
2106D
330
18
100
AcDbEntity
  8
姿図
100
AcDbLine
 10
5780.251546472956
 20
516.8430868051528
 30
0.0
 11
5780.3397409174
 21
514.0208645829307
 31
0.0
  0
LINE
  5
2106E
330
18
100
AcDbEntity
  8
姿図
100
AcDbLine
 10
5780.545499245308
 20
516.901825683191
 30
0.0
 11
5780.398479795438
 21
514.050320149337
 31
0.0
  0
LINE
  5
2106F
330
18
100
AcDbEntity
  8
姿図
100
AcDbLine
 10
5780.780713139622
 20
519.9004367943021
 30
0.0
 11
5780.486674239883
 21
516.9312812495973
 31
0.0
  0
CIRCLE
  5
21070
330
18
100
AcDbEntity
  8
姿図
100
AcDbCircle
 10
5782.32713037595
 20
515.0351006940418
 30
0.0
 40
0.7760938856336805
  0
LINE
  5
21071
330
18
100
AcDbEntity
  8
姿図
100
AcDbLine
 10
5780.868907584067
 20
519.8416979162639
 30
0.0
 11
5784.249665911974
 21
519.8709812278962
 31
0.0
  0
LINE
  5
21072
330
18
100
AcDbEntity
  8
姿図
100
AcDbLine
 10
5780.545499245308
 20
516.901825683191
 30
0.0
 11
5784.073277023086
 21
516.8725423715591
 31
0.0
  0
SPLINE
  5
21073
330
18
100
AcDbEntity
  8
姿図
100
AcDbSpline
210
0.0
220
0.0
230
1.0
 70
     8
 71
     3
 72
     8
 73
     4
 74
     0
 42
0.000000001
 43
0.0000000001
 40
0.0
 40
0.0
 40
0.0
 40
0.0
 40
1.0
 40
1.0
 40
1.0
 40
1.0
 10
5784.896396462104
 20
519.8709812278962
 30
0.0
 10
5784.896396462104
 20
520.0823378359692
 30
0.0
 10
5785.067273198216
 20
520.2532145720802
 30
0.0
 10
5785.278543678902
 20
520.2532145720802
 30
0.0
  0
LINE
  5
21074
330
18
100
AcDbEntity
  8
姿図
100
AcDbLine
 10
5784.249665911974
 20
521.8996257048925
 30
0.0
 11
5784.367229795438
 21
519.4889201384863
 31
0.0
  0
SPLINE
  5
21075
330
18
100
AcDbEntity
  8
姿図
100
AcDbSpline
210
0.0
220
0.0
230
1.0
 70
     8
 71
     3
 72
     8
 73
     4
 74
     0
 42
0.000000001
 43
0.0000000001
 40
0.0
 40
0.0
 40
0.0
 40
0.0
 40
1.0
 40
1.0
 40
1.0
 40
1.0
 10
5780.251546472956
 20
516.8430868051532
 30
0.0
 10
5780.315797503771
 20
516.8430868051532
 30
0.0
 10
5779.722293678901
 20
516.8727146263336
 30
0.0
 10
5779.692924239883
 20
520.0475423715593
 30
0.0
  0
LINE
  5
21076
330
18
100
AcDbEntity
  8
姿図
100
AcDbLine
 10
5780.708366134414
 20
521.5039564883127
 30
0.0
 11
5780.780713139622
 21
519.8416979162639
 31
0.0
  0
LINE
  5
21077
330
18
100
AcDbEntity
  8
姿図
100
AcDbLine
 10
5795.516506189752
 20
523.9206909718196
 30
0.0
 11
5794.06129785642
 21
524.2293715273754
 31
0.0
  0
LINE
  5
21078
330
18
100
AcDbEntity
  8
姿図
100
AcDbLine
 10
5789.236958392444
 20
521.6946425234692
 30
0.0
 11
5789.246518532417
 21
521.1584134110558
 31
0.0
  0
LINE
  5
21079
330
18
100
AcDbEntity
  8
姿図
100
AcDbLine
 10
5795.560603411975
 20
521.4953437495974
 30
0.0
 11
5794.105395078642
 21
521.8040243051528
 31
0.0
  0
LINE
  5
2107A
330
18
100
AcDbEntity
  8
姿図
100
AcDbLine
 10
5795.560603411975
 20
522.1568020829309
 30
0.0
 11
5794.105395078642
 21
522.4654826384863
 31
0.0
  0
LINE
  5
2107B
330
18
100
AcDbEntity
  8
姿図
100
AcDbLine
 10
5795.604700634197
 20
522.7741631940416
 30
0.0
 11
5794.149492300863
 21
523.0828437495975
 31
0.0
  0
LINE
  5
2107C
330
18
100
AcDbEntity
  8
姿図
100
AcDbLine
 10
5795.604700634197
 20
523.3033298607083
 30
0.0
 11
5794.149492300863
 21
523.6120104162642
 31
0.0
  0
LINE
  5
2107D
330
18
100
AcDbEntity
  8
姿図
100
AcDbLine
 10
5795.560603411975
 20
520.2606215273754
 30
0.0
 11
5794.105395078642
 21
520.5693020829308
 31
0.0
  0
LINE
  5
2107E
330
18
100
AcDbEntity
  8
姿図
100
AcDbLine
 10
5795.560603411975
 20
520.8779826384862
 30
0.0
 11
5794.105395078642
 21
521.186663194042
 31
0.0
  0
SPLINE
  5
2107F
330
18
100
AcDbEntity
  8
姿図
100
AcDbSpline
210
0.0
220
0.0
230
1.0
 70
     8
 71
     3
 72
     8
 73
     4
 74
     0
 42
0.000000001
 43
0.0000000001
 40
0.0
 40
0.0
 40
0.0
 40
0.0
 40
1.0
 40
1.0
 40
1.0
 40
1.0
 10
5789.146180126384
 20
521.6994656571496
 30
0.0
 10
5790.787423615968
 20
521.4579644635733
 30
0.0
 10
5792.303437884631
 20
521.125168239615
 30
0.0
 10
5793.645474831245
 20
520.7198527556739
 30
0.0
  0
SPLINE
  5
21080
330
18
100
AcDbEntity
  8
姿図
100
AcDbSpline
210
0.0
220
0.0
230
1.0
 70
     8
 71
     3
 72
     8
 73
     4
 74
     0
 42
0.000000001
 43
0.0000000001
 40
0.0
 40
0.0
 40
0.0
 40
0.0
 40
1.0
 40
1.0
 40
1.0
 40
1.0
 10
5789.245398876385
 20
521.1496284175664
 30
0.0
 10
5790.86356022621
 20
520.9181180008995
 30
0.0
 10
5792.346329323433
 20
520.5960015729484
 30
0.0
 10
5793.64047944279
 20
520.2020549041113
 30
0.0
  0
LINE
  5
21081
330
18
100
AcDbEntity
  8
姿図
100
AcDbLine
 10
5795.516506189752
 20
524.4939548607085
 30
0.0
 11
5794.06129785642
 21
524.8026354162639
 31
0.0
  0
LINE
  5
21082
330
18
100
AcDbEntity
  8
姿図
100
AcDbLine
 10
5795.516506189752
 20
525.0672187495975
 30
0.0
 11
5794.06129785642
 21
525.3758993051529
 31
0.0
  0
LINE
  5
21083
330
18
100
AcDbEntity
  8
姿図
100
AcDbLine
 10
5795.516506189752
 20
525.728677082931
 30
0.0
 11
5794.06129785642
 21
526.0373576384864
 31
0.0
  0
LINE
  5
21084
330
18
100
AcDbEntity
  8
姿図
100
AcDbLine
 10
5795.560603411975
 20
526.2578437495972
 30
0.0
 11
5794.105395078642
 21
526.566524305153
 31
0.0
  0
SPLINE
  5
21085
330
18
100
AcDbEntity
  8
姿図
100
AcDbSpline
210
0.0
220
0.0
230
1.0
 70
     8
 71
     3
 72
     8
 73
     4
 74
     0
 42
0.000000001
 43
0.0000000001
 40
0.0
 40
0.0
 40
0.0
 40
0.0
 40
1.0
 40
1.0
 40
1.0
 40
1.0
 10
5793.566926654162
 20
526.003251193174
 30
0.0
 10
5793.566926654162
 20
525.5807102318022
 30
0.0
 10
5792.313256406766
 20
524.648639648035
 30
0.0
 10
5791.157426871176
 20
525.4585815968198
 30
0.0
  0
LINE
  5
21086
330
18
100
AcDbEntity
  8
姿図
100
AcDbLine
 10
5791.193083609457
 20
524.8923801536771
 30
0.0
 11
5789.115949413494
 21
526.3419040794583
 31
0.0
  0
SPLINE
  5
21087
330
18
100
AcDbEntity
  8
姿図
100
AcDbSpline
210
0.0
220
0.0
230
1.0
 70
     8
 71
     3
 72
     8
 73
     4
 74
     0
 42
0.000000001
 43
0.0000000001
 40
0.0
 40
0.0
 40
0.0
 40
0.0
 40
1.0
 40
1.0
 40
1.0
 40
1.0
 10
5791.092056184327
 20
524.9559421653962
 30
0.0
 10
5792.247971847304
 20
524.1460002166114
 30
0.0
 10
5793.583635367269
 20
525.0710083546323
 30
0.0
 10
5793.583635367269
 20
525.4935493160037
 30
0.0
  0
LINE
  5
21088
330
18
100
AcDbEntity
  8
姿図
100
AcDbLine
 10
5789.159185361845
 20
517.8719645720803
 30
0.0
 11
5789.217924239882
 21
515.2261312387468
 31
0.0
  0
SPLINE
  5
21089
330
18
100
AcDbEntity
  8
姿図
100
AcDbSpline
210
0.0
220
0.0
230
1.0
 70
     8
 71
     3
 72
     8
 73
     4
 74
     0
 42
0.000000001
 43
0.0000000001
 40
0.0
 40
0.0
 40
0.0
 40
0.0
 40
1.0
 40
1.0
 40
1.0
 40
1.0
 10
5789.247379806288
 20
515.2555868051531
 30
0.0
 10
5789.247379806288
 20
515.0118462995106
 30
0.0
 10
5789.365718836237
 20
514.814614582931
 30
0.0
 10
5789.511963139622
 20
514.814614582931
 30
0.0
  0
SPLINE
  5
2108A
330
18
100
AcDbEntity
  8
姿図
100
AcDbSpline
210
0.0
220
0.0
230
1.0
 70
     8
 71
     3
 72
     8
 73
     4
 74
     0
 42
0.000000001
 43
0.0000000001
 40
0.0
 40
0.0
 40
0.0
 40
0.0
 40
1.0
 40
1.0
 40
1.0
 40
1.0
 10
5789.511963139622
 20
514.814614582931
 30
0.0
 10
5790.011674239882
 20
514.6969645720801
 30
0.0
 10
5792.569399256158
 20
514.520575683191
 30
0.0
 10
5793.774665911975
 20
514.0796034609689
 30
0.0
  0
SPLINE
  5
2108B
330
18
100
AcDbEntity
  8
姿図
100
AcDbSpline
210
0.0
220
0.0
230
1.0
 70
     8
 71
     3
 72
     8
 73
     4
 74
     0
 42
0.000000001
 43
0.0000000001
 40
0.0
 40
0.0
 40
0.0
 40
0.0
 40
1.0
 40
1.0
 40
1.0
 40
1.0
 10
5794.186182567791
 20
514.3147312278961
 30
0.0
 10
5794.186182567791
 20
514.2010430768546
 30
0.0
 10
5794.035287385498
 20
514.0076009653094
 30
0.0
 10
5793.686471467529
 20
514.1090590273752
 30
0.0
  0
LINE
  5
2108C
330
18
100
AcDbEntity
  8
姿図
100
AcDbLine
 10
5795.692895078641
 20
516.6887465273753
 30
0.0
 11
5794.237686745308
 21
516.9974270829307
 31
0.0
  0
LINE
  5
2108D
330
18
100
AcDbEntity
  8
姿図
100
AcDbLine
 10
5795.692895078641
 20
517.2620104162643
 30
0.0
 11
5794.237686745308
 21
517.5706909718197
 31
0.0
  0
LINE
  5
2108E
330
18
100
AcDbEntity
  8
姿図
100
AcDbLine
 10
5795.648797856419
 20
517.879371527375
 30
0.0
 11
5794.193589523085
 21
518.1880520829309
 31
0.0
  0
LINE
  5
2108F
330
18
100
AcDbEntity
  8
姿図
100
AcDbLine
 10
5795.648797856419
 20
518.4967326384863
 30
0.0
 11
5794.193589523085
 21
518.8054131940416
 31
0.0
  0
LINE
  5
21090
330
18
100
AcDbEntity
  8
姿図
100
AcDbLine
 10
5795.604700634197
 20
519.0699965273752
 30
0.0
 11
5794.149492300863
 21
519.3786770829306
 31
0.0
  0
LINE
  5
21091
330
18
100
AcDbEntity
  8
姿図
100
AcDbLine
 10
5795.560603411975
 20
519.6432604162642
 30
0.0
 11
5794.105395078642
 21
519.9519409718196
 31
0.0
  0
LINE
  5
21092
330
18
100
AcDbEntity
  8
姿図
100
AcDbLine
 10
5789.246518532417
 20
521.1584134110558
 30
0.0
 11
5789.306118684327
 21
517.8132256940416
 31
0.0
  0
SPLINE
  5
21093
330
18
100
AcDbEntity
  8
姿図
100
AcDbSpline
210
0.0
220
0.0
230
1.0
 70
     8
 71
     3
 72
     8
 73
     4
 74
     0
 42
0.000000001
 43
0.0000000001
 40
0.0
 40
0.0
 40
0.0
 40
0.0
 40
1.0
 40
1.0
 40
1.0
 40
1.0
 10
5775.297929800863
 20
531.3290243051529
 30
0.0
 10
5779.222582578642
 20
531.769996527375
 30
0.0
 10
5783.632304800863
 20
529.785621527375
 30
0.0
 10
5785.837165911974
 20
528.4186076384863
 30
0.0
  0
SPLINE
  5
21094
330
18
100
AcDbEntity
  8
姿図
100
AcDbSpline
210
0.0
220
0.0
230
1.0
 70
     8
 71
     3
 72
     8
 73
     4
 74
     0
 42
0.000000001
 43
0.0000000001
 40
0.0
 40
0.0
 40
0.0
 40
0.0
 40
1.0
 40
1.0
 40
1.0
 40
1.0
 10
5785.925360356419
 20
529.0580173607086
 30
0.0
 10
5785.820198816706
 20
529.0580173607086
 30
0.0
 10
5776.236029301732
 20
534.8853102480784
 30
0.0
 10
5771.167518695177
 20
530.0574395612293
 30
0.0
  0
SPLINE
  5
21095
330
18
100
AcDbEntity
  8
姿図
100
AcDbSpline
210
0.0
220
0.0
230
1.0
 70
     8
 71
     3
 72
     8
 73
     4
 74
     0
 42
0.000000001
 43
0.0000000001
 40
6.0
 40
6.0
 40
6.0
 40
6.0
 40
7.0
 40
7.0
 40
7.0
 40
7.0
 10
5772.995227977946
 20
532.3718547087988
 30
0.0
 10
5774.499012157634
 20
534.3147163081912
 30
0.0
 10
5776.751846223389
 20
536.8614170189117
 30
0.0
 10
5779.018030034153
 20
539.728080972905
 30
0.0
  0
SPLINE
  5
21096
330
18
100
AcDbEntity
  8
姿図
100
AcDbSpline
210
0.0
220
0.0
230
1.0
 70
     8
 71
     3
 72
     8
 73
     4
 74
     0
 42
0.000000001
 43
0.0000000001
 40
5.0
 40
5.0
 40
5.0
 40
5.0
 40
6.0
 40
6.0
 40
6.0
 40
6.0
 10
5770.43870874509
 20
529.0054796545455
 30
0.0
 10
5771.312987852079
 20
530.555600368521
 30
0.0
 10
5772.581385882678
 20
531.9060777990767
 30
0.0
 10
5772.995227977946
 20
532.3718547087988
 30
0.0
  0
SPLINE
  5
21097
330
18
100
AcDbEntity
  8
姿図
100
AcDbSpline
210
0.0
220
0.0
230
1.0
 70
     8
 71
     3
 72
     8
 73
     4
 74
     0
 42
0.000000001
 43
0.0000000001
 40
27.0
 40
27.0
 40
27.0
 40
27.0
 40
28.0
 40
28.0
 40
28.0
 40
28.0
 10
5814.907053878555
 20
556.2975260955177
 30
0.0
 10
5814.763910161106
 20
555.9876397565417
 30
0.0
 10
5814.550314240967
 20
555.7035916337122
 30
0.0
 10
5814.550314240967
 20
555.7035916337122
 30
0.0
  0
LINE
  5
21098
330
18
100
AcDbEntity
  8
姿図
100
AcDbLine
 10
5810.773456059544
 20
557.3723958871842
 30
0.0
 11
5809.701302470667
 21
555.8109373047264
 31
0.0
  0
LINE
  5
21099
330
18
100
AcDbEntity
  8
姿図
100
AcDbLine
 10
5810.296482589492
 20
555.3694173715594
 30
0.0
 11
5809.385082578641
 21
556.0455173607083
 31
0.0
  0
SPLINE
  5
2109A
330
18
100
AcDbEntity
  8
姿図
100
AcDbSpline
210
0.0
220
0.0
230
1.0
 70
     8
 71
     3
 72
     8
 73
     4
 74
     0
 42
0.000000001
 43
0.0000000001
 40
0.0
 40
0.0
 40
0.0
 40
0.0
 40
1.0
 40
1.0
 40
1.0
 40
1.0
 10
5801.843768559544
 20
557.4826389427399
 30
0.0
 10
5800.675192170655
 20
556.931423664962
 30
0.0
 10
5799.264081059544
 20
555.4100694982953
 30
0.0
 10
5798.624671337322
 20
554.7927083871841
 30
0.0
  0
SPLINE
  5
2109B
330
18
100
AcDbEntity
  8
姿図
100
AcDbSpline
210
0.0
220
0.0
230
1.0
 70
     8
 71
     3
 72
     8
 73
     4
 74
     0
 42
0.000000001
 43
0.0000000001
 40
0.0
 40
0.0
 40
0.0
 40
0.0
 40
1.0
 40
1.0
 40
1.0
 40
1.0
 10
5814.058699115099
 20
554.6163194982955
 30
0.0
 10
5815.117032448432
 20
556.0274306094066
 30
0.0
 10
5812.449150503988
 20
559.2906250538508
 30
0.0
 10
5810.773456059544
 20
557.3723958871842
 30
0.0
  0
LINE
  5
2109C
330
18
100
AcDbEntity
  8
姿図
100
AcDbLine
 10
5808.591332578641
 20
555.8691284718197
 30
0.0
 11
5804.887165911975
 21
550.0189256994672
 31
0.0
  0
LINE
  5
2109D
330
18
100
AcDbEntity
  8
姿図
100
AcDbLine
 10
5808.379975970567
 20
556.0786764047625
 30
0.0
 11
5804.229152674127
 21
549.6069784067154
 31
0.0
  0
ELLIPSE
  5
2109E
330
18
100
AcDbEntity
  8
姿図
100
AcDbEllipse
 10
5807.400018559543
 20
548.37931863024
 30
0.0
 11
-1.128268771701389
 21
0.946798366970486
 31
0.0
210
0.0
220
0.0
230
1.0
 40
0.7417511887598579
 41
0.0
 42
6.283185307179586
  0
SPLINE
  5
2109F
330
18
100
AcDbEntity
  8
姿図
100
AcDbSpline
210
0.0
220
0.0
230
1.0
 70
     8
 71
     3
 72
     8
 73
     4
 74
     0
 42
0.000000001
 43
0.0000000001
 40
0.0
 40
0.0
 40
0.0
 40
0.0
 40
1.0
 40
1.0
 40
1.0
 40
1.0
 10
5807.047929800863
 20
545.7102309023753
 30
0.0
 10
5806.345991595568
 20
545.9472534718197
 30
0.0
 10
5805.934474939752
 20
545.4015503468195
 30
0.0
 10
5805.769110356419
 20
545.1241340328006
 30
0.0
  0
SPLINE
  5
210A0
330
18
100
AcDbEntity
  8
姿図
100
AcDbSpline
210
0.0
220
0.0
230
1.0
 70
     8
 71
     3
 72
     8
 73
     4
 74
     0
 42
0.000000001
 43
0.0000000001
 40
0.0
 40
0.0
 40
0.0
 40
0.0
 40
1.0
 40
1.0
 40
1.0
 40
1.0
 10
5806.855278146948
 20
545.3041529821503
 30
0.0
 10
5806.147554095568
 20
545.5062812495976
 30
0.0
 10
5805.736037439752
 20
544.9605781245973
 30
0.0
 10
5805.520804766753
 20
544.7349760253537
 30
0.0
  0
LINE
  5
210A1
330
18
100
AcDbEntity
  8
姿図
100
AcDbLine
 10
5805.589233113661
 20
541.6515273689865
 30
0.0
 11
5807.240575197206
 21
545.1861385860179
 31
0.0
  0
SPLINE
  5
210A2
330
18
100
AcDbEntity
  8
姿図
100
AcDbSpline
210
0.0
220
0.0
230
1.0
 70
     8
 71
     3
 72
     8
 73
     4
 74
     0
 42
0.000000001
 43
0.0000000001
 40
0.0
 40
0.0
 40
0.0
 40
0.0
 40
1.0
 40
1.0
 40
1.0
 40
1.0
 10
5806.540122726211
 20
552.9333042259432
 30
0.0
 10
5805.658178281767
 20
553.535937553851
 30
0.0
 10
5803.232831059544
 20
554.9250000538509
 30
0.0
 10
5799.719694937582
 20
554.75593199287
 30
0.0
  0
SPLINE
  5
210A3
330
18
100
AcDbEntity
  8
姿図
100
AcDbSpline
210
0.0
220
0.0
230
1.0
 70
     8
 71
     3
 72
     8
 73
     4
 74
     0
 42
0.000000001
 43
0.0000000001
 40
0.0
 40
0.0
 40
0.0
 40
0.0
 40
1.0
 40
1.0
 40
1.0
 40
1.0
 10
5803.475365781766
 20
551.9484375538509
 30
0.0
 10
5801.557136615099
 20
550.0081597760732
 30
0.0
 10
5800.146025503988
 20
547.75920144274
 30
0.0
 10
5799.79324772621
 20
547.0756944982954
 30
0.0
  0
SPLINE
  5
210A4
330
18
100
AcDbEntity
  8
姿図
100
AcDbSpline
210
0.0
220
0.0
230
1.0
 70
     8
 71
     3
 72
     8
 73
     4
 74
     0
 42
0.000000001
 43
0.0000000001
 40
0.0
 40
0.0
 40
0.0
 40
0.0
 40
1.0
 40
1.0
 40
1.0
 40
1.0
 10
5800.212171337322
 20
546.9434028316286
 30
0.0
 10
5801.513039392878
 20
548.8616319982953
 30
0.0
 10
5801.931963003988
 20
549.390798664962
 30
0.0
 10
5802.991329865968
 20
550.7578125538512
 30
0.0
  0
LINE
  5
210A5
330
18
100
AcDbEntity
  8
姿図
100
AcDbLine
 10
5799.419110356419
 20
543.6541979162639
 30
0.0
 11
5802.946888134197
 21
549.0340590273754
 31
0.0
  0
SPLINE
  5
210A6
330
18
100
AcDbEntity
  8
姿図
100
AcDbSpline
210
0.0
220
0.0
230
1.0
 70
     8
 71
     3
 72
     8
 73
     4
 74
     0
 42
0.000000001
 43
0.0000000001
 40
1.0
 40
1.0
 40
1.0
 40
1.0
 40
2.0
 40
2.0
 40
2.0
 40
2.0
 10
5802.991329865968
 20
550.7578125538512
 30
0.0
 10
5803.56356022621
 20
551.6397569982955
 30
0.0
 10
5804.247067170655
 20
552.6760417205178
 30
0.0
 10
5805.900713003988
 20
553.2713542205174
 30
0.0
  0
SPLINE
  5
210A7
330
18
100
AcDbEntity
  8
姿図
100
AcDbSpline
210
0.0
220
0.0
230
1.0
 70
     8
 71
     3
 72
     8
 73
     4
 74
     0
 42
0.000000001
 43
0.0000000001
 40
0.0
 40
0.0
 40
0.0
 40
0.0
 40
1.0
 40
1.0
 40
1.0
 40
1.0
 10
5804.887165911974
 20
550.0189256994672
 30
0.0
 10
5804.79897146753
 20
549.7249729271148
 30
0.0
 10
5804.240521489231
 20
549.4897590328005
 30
0.0
 10
5803.917027023085
 20
549.577953477245
 30
0.0
  0
SPLINE
  5
210A8
330
18
100
AcDbEntity
  8
姿図
100
AcDbSpline
210
0.0
220
0.0
230
1.0
 70
     8
 71
     3
 72
     8
 73
     4
 74
     0
 42
0.000000001
 43
0.0000000001
 40
0.0
 40
0.0
 40
0.0
 40
0.0
 40
1.0
 40
1.0
 40
1.0
 40
1.0
 10
5802.946888134196
 20
549.0781562495977
 30
0.0
 10
5803.21147146753
 20
549.4309340273753
 30
0.0
 10
5803.380797910672
 20
549.577953477245
 30
0.0
 10
5803.917027023085
 20
549.577953477245
 30
0.0
  0
SPLINE
  5
210A9
330
18
100
AcDbEntity
  8
姿図
100
AcDbSpline
210
0.0
220
0.0
230
1.0
 70
     8
 71
     3
 72
     8
 73
     4
 74
     0
 42
0.000000001
 43
0.0000000001
 40
0.0
 40
0.0
 40
0.0
 40
0.0
 40
1.0
 40
1.0
 40
1.0
 40
1.0
 10
5805.790469948432
 20
553.3375000538508
 30
0.0
 10
5804.511650503989
 20
553.1390625538511
 30
0.0
 10
5804.048629670655
 20
552.4776042205176
 30
0.0
 10
5803.475365781766
 20
551.9484375538509
 30
0.0
  0
SPLINE
  5
210AA
330
18
100
AcDbEntity
  8
姿図
100
AcDbSpline
210
0.0
220
0.0
230
1.0
 70
     8
 71
     3
 72
     8
 73
     4
 74
     0
 42
0.000000001
 43
0.0000000001
 40
0.0
 40
0.0
 40
0.0
 40
0.0
 40
1.0
 40
1.0
 40
1.0
 40
1.0
 10
5796.463907448432
 20
548.575000053851
 30
0.0
 10
5797.632483837321
 20
550.2065972760734
 30
0.0
 10
5798.3821366151
 20
551.0003472760732
 30
0.0
 10
5799.242032448433
 20
551.8822917205175
 30
0.0
  0
SPLINE
  5
210AB
330
18
100
AcDbEntity
  8
姿図
100
AcDbSpline
210
0.0
220
0.0
230
1.0
 70
     8
 71
     3
 72
     8
 73
     4
 74
     0
 42
0.000000001
 43
0.0000000001
 40
0.0
 40
0.0
 40
0.0
 40
0.0
 40
1.0
 40
1.0
 40
1.0
 40
1.0
 10
5803.717900503988
 20
554.10920144274
 30
0.0
 10
5802.813907448432
 20
553.9107639427398
 30
0.0
 10
5800.101928281766
 20
552.7642361649619
 30
0.0
 10
5799.242032448433
 20
551.8822917205175
 30
0.0
  0
SPLINE
  5
210AC
330
18
100
AcDbEntity
  8
姿図
100
AcDbSpline
210
0.0
220
0.0
230
1.0
 70
     8
 71
     3
 72
     8
 73
     4
 74
     0
 42
0.000000001
 43
0.0000000001
 40
0.0
 40
0.0
 40
0.0
 40
0.0
 40
1.0
 40
1.0
 40
1.0
 40
1.0
 10
5803.585608837322
 20
554.2635417205174
 30
0.0
 10
5800.917726892877
 20
553.6461806094067
 30
0.0
 10
5799.616858837322
 20
552.5657986649621
 30
0.0
 10
5798.756963003988
 20
552.0366319982954
 30
0.0
  0
SPLINE
  5
210AD
330
18
100
AcDbEntity
  8
姿図
100
AcDbSpline
210
0.0
220
0.0
230
1.0
 70
     8
 71
     3
 72
     8
 73
     4
 74
     0
 42
0.000000001
 43
0.0000000001
 40
0.134000468148693
 40
0.134000468148693
 40
0.134000468148693
 40
0.134000468148693
 40
1.0
 40
1.0
 40
1.0
 40
1.0
 10
5805.589233113661
 20
541.651527368987
 30
0.0
 10
5805.491853105957
 20
541.4990972701771
 30
0.0
 10
5805.442857167075
 20
541.3286034319071
 30
0.0
 10
5805.525886615099
 20
541.2658854705178
 30
0.0
  0
LINE
  5
210AE
330
18
100
AcDbEntity
  8
姿図
100
AcDbLine
 10
5814.565817170655
 20
555.7407986649619
 30
0.0
 11
5814.301233837321
 21
555.3880208871842
 31
0.0
  0
LINE
  5
210AF
330
18
100
AcDbEntity
  8
姿図
100
AcDbLine
 10
5810.120093700603
 20
555.0753784718195
 30
0.0
 11
5810.267027023085
 21
555.3105923661337
 31
0.0
  0
SPLINE
  5
210B0
330
18
100
AcDbEntity
  8
姿図
100
AcDbSpline
210
0.0
220
0.0
230
1.0
 70
     8
 71
     3
 72
     8
 73
     4
 74
     0
 42
0.000000001
 43
0.0000000001
 40
32.0
 40
32.0
 40
32.0
 40
32.0
 40
33.0
 40
33.0
 40
33.0
 40
33.0
 10
5816.100262700169
 20
552.651926052115
 30
0.0
 10
5816.100262700169
 20
552.651926052115
 30
0.0
 10
5817.081770404162
 20
552.2206862246408
 30
0.0
 10
5816.98651351397
 20
551.7200277231218
 30
0.0
  0
SPLINE
  5
210B1
330
18
100
AcDbEntity
  8
姿図
100
AcDbSpline
210
0.0
220
0.0
230
1.0
 70
    24
 71
     3
 72
     8
 73
     4
 74
     0
 42
0.000000001
 43
0.0000000001
 40
31.0
 40
31.0
 40
31.0
 40
31.0
 40
32.0
 40
32.0
 40
32.0
 40
32.0
 10
5815.504088926296
 20
553.3671278750317
 30
0.0
 10
5815.504088926296
 20
553.3671278750317
 30
0.0
 10
5816.100262700169
 20
552.651926052115
 30
0.0
 10
5816.100262700169
 20
552.651926052115
 30
0.0
  0
SPLINE
  5
210B2
330
18
100
AcDbEntity
  8
姿図
100
AcDbSpline
210
0.0
220
0.0
230
1.0
 70
     8
 71
     3
 72
     8
 73
     4
 74
     0
 42
0.000000001
 43
0.0000000001
 40
30.0
 40
30.0
 40
30.0
 40
30.0
 40
31.0
 40
31.0
 40
31.0
 40
31.0
 10
5815.933347823866
 20
553.9631293941288
 30
0.0
 10
5815.790204106419
 20
553.7485860727311
 30
0.0
 10
5815.504088926296
 20
553.3671278750317
 30
0.0
 10
5815.504088926296
 20
553.3671278750317
 30
0.0
  0
SPLINE
  5
210B3
330
18
100
AcDbEntity
  8
姿図
100
AcDbSpline
210
0.0
220
0.0
230
1.0
 70
     8
 71
     3
 72
     8
 73
     4
 74
     0
 42
0.000000001
 43
0.0000000001
 40
0.0
 40
0.0
 40
0.0
 40
0.0
 40
1.0
 40
1.0
 40
1.0
 40
1.0
 10
5816.06512272621
 20
552.6539931094067
 30
0.0
 10
5815.86668522621
 20
552.7642361649619
 30
0.0
 10
5815.425713003988
 20
553.0067708871843
 30
0.0
 10
5815.006789392877
 20
553.0508681094066
 30
0.0
  0
SPLINE
  5
210B4
330
18
100
AcDbEntity
  8
姿図
100
AcDbSpline
210
0.0
220
0.0
230
1.0
 70
     8
 71
     3
 72
     8
 73
     4
 74
     0
 42
0.000000001
 43
0.0000000001
 40
0.0
 40
0.0
 40
0.0
 40
0.0
 40
1.0
 40
1.0
 40
1.0
 40
1.0
 10
5815.006789392877
 20
553.0508681094066
 30
0.0
 10
5814.742206059544
 20
553.8446181094064
 30
0.0
 10
5814.411476892876
 20
554.0430556094066
 30
0.0
 10
5813.970504670655
 20
554.4399306094065
 30
0.0
  0
LINE
  5
210B5
330
18
100
AcDbEntity
  8
姿図
100
AcDbLine
 10
5809.796771489231
 20
546.0795451384861
 30
0.0
 11
5813.383288145047
 21
551.8416395937816
 31
0.0
  0
SPLINE
  5
210B6
330
18
100
AcDbEntity
  8
姿図
100
AcDbSpline
210
0.0
220
0.0
230
1.0
 70
     8
 71
     3
 72
     8
 73
     4
 74
     0
 42
0.000000001
 43
0.0000000001
 40
0.0
 40
0.0
 40
0.0
 40
0.0
 40
1.0
 40
1.0
 40
1.0
 40
1.0
 10
5812.008178281765
 20
546.7890625538512
 30
0.0
 10
5812.008178281765
 20
547.6828064503352
 30
0.0
 10
5811.655400503987
 20
548.1340278316288
 30
0.0
 10
5811.243883848172
 20
548.4060181202572
 30
0.0
  0
SPLINE
  5
210B7
330
18
100
AcDbEntity
  8
姿図
100
AcDbSpline
210
0.0
220
0.0
230
1.0
 70
     8
 71
     3
 72
     8
 73
     4
 74
     0
 42
0.000000001
 43
0.0000000001
 40
0.0
 40
0.0
 40
0.0
 40
0.0
 40
1.0
 40
1.0
 40
1.0
 40
1.0
 10
5811.060088003987
 20
547.9135417205175
 30
0.0
 10
5811.324671337321
 20
547.4284722760731
 30
0.0
 10
5810.90574772621
 20
545.8630208871841
 30
0.0
 10
5810.861650503988
 20
545.6645833871844
 30
0.0
  0
SPLINE
  5
210B8
330
18
100
AcDbEntity
  8
姿図
100
AcDbSpline
210
0.0
220
0.0
230
1.0
 70
     8
 71
     3
 72
     8
 73
     4
 74
     0
 42
0.000000001
 43
0.0000000001
 40
0.0
 40
0.0
 40
0.0
 40
0.0
 40
1.0
 40
1.0
 40
1.0
 40
1.0
 10
5811.060088003987
 20
547.9135417205175
 30
0.0
 10
5811.060088003987
 20
547.0536458871843
 30
0.0
 10
5810.685261615099
 20
546.2598958871845
 30
0.0
 10
5810.398629670655
 20
545.5543403316287
 30
0.0
  0
SPLINE
  5
210B9
330
18
100
AcDbEntity
  8
姿図
100
AcDbSpline
210
0.0
220
0.0
230
1.0
 70
     8
 71
     3
 72
     8
 73
     4
 74
     0
 42
0.000000001
 43
0.0000000001
 40
0.0
 40
0.0
 40
0.0
 40
0.0
 40
1.0
 40
1.0
 40
1.0
 40
1.0
 10
5809.796771489231
 20
546.0795451384865
 30
0.0
 10
5809.267604822564
 20
544.9036479216893
 30
0.0
 10
5807.584847932372
 20
545.3373854433908
 30
0.0
 10
5807.047929800863
 20
545.7102309023753
 30
0.0
  0
SPLINE
  5
210BA
330
18
100
AcDbEntity
  8
姿図
100
AcDbSpline
210
0.0
220
0.0
230
1.0
 70
     8
 71
     3
 72
     8
 73
     4
 74
     0
 42
0.000000001
 43
0.0000000001
 40
0.0
 40
0.0
 40
0.0
 40
0.0
 40
0.8940086046754551
 40
0.8940086046754551
 40
0.8940086046754551
 40
0.8940086046754551
 10
5809.533991429744
 20
545.695941543679
 30
0.0
 10
5809.003860723948
 20
544.8166102815931
 30
0.0
 10
5807.713829272891
 20
545.0023380146672
 30
0.0
 10
5806.855278146948
 20
545.3041529821503
 30
0.0
  0
SPLINE
  5
210BB
330
18
100
AcDbEntity
  8
姿図
100
AcDbSpline
210
0.0
220
0.0
230
1.0
 70
     8
 71
     3
 72
     8
 73
     4
 74
     0
 42
0.000000001
 43
0.0000000001
 40
1.0
 40
1.0
 40
1.0
 40
1.0
 40
2.0
 40
2.0
 40
2.0
 40
2.0
 10
5809.998434563735
 20
552.3071977824238
 30
0.0
 10
5810.605977152711
 20
551.7974097778665
 30
0.0
 10
5810.802519850193
 20
551.0253638794293
 30
0.0
 10
5810.452498148805
 20
550.5587256958352
 30
0.0
  0
SPLINE
  5
210BC
330
18
100
AcDbEntity
  8
姿図
100
AcDbSpline
210
0.0
220
0.0
230
1.0
 70
     8
 71
     3
 72
     8
 73
     4
 74
     0
 42
0.000000001
 43
0.0000000001
 40
0.0
 40
0.0
 40
0.0
 40
0.0
 40
1.0
 40
1.0
 40
1.0
 40
1.0
 10
5808.21749245219
 20
552.4710982001757
 30
0.0
 10
5808.622118917034
 20
552.8743466268252
 30
0.0
 10
5809.400710496895
 20
552.8087175578144
 30
0.0
 10
5809.998434563735
 20
552.3071977824238
 30
0.0
  0
SPLINE
  5
210BD
330
18
100
AcDbEntity
  8
姿図
100
AcDbSpline
210
0.0
220
0.0
230
1.0
 70
     8
 71
     3
 72
     8
 73
     4
 74
     0
 42
0.000000001
 43
0.0000000001
 40
0.0
 40
0.0
 40
0.0
 40
0.0
 40
1.0
 40
1.0
 40
1.0
 40
1.0
 10
5813.353832578639
 20
552.7823229162641
 30
0.0
 10
5813.386388730984
 20
552.7823229162641
 30
0.0
 10
5813.677327044787
 20
552.2826118160037
 30
0.0
 10
5813.383288145047
 20
551.8121840273752
 30
0.0
  0
LINE
  5
210BE
330
18
100
AcDbEntity
  8
姿図
100
AcDbLine
 10
5813.353832578641
 20
552.8117784826704
 30
0.0
 11
5812.324954811715
 21
553.6937229271148
 31
0.0
  0
LINE
  5
210BF
330
18
100
AcDbEntity
  8
姿図
100
AcDbLine
 10
5812.030915911973
 20
553.3996840273753
 30
0.0
 11
5812.324954811715
 21
553.6937229271148
 31
0.0
  0
ELLIPSE
  5
210C0
330
18
100
AcDbEntity
  8
姿図
100
AcDbEllipse
 10
5809.574304448215
 20
551.7750200598189
 30
0.0
 11
-1.159877522786458
 21
0.9731964111328123
 31
0.0
210
0.0
220
0.0
230
1.0
 40
0.7351229721554962
 41
0.0
 42
6.283185307179586
  0
ELLIPSE
  5
210C1
330
18
100
AcDbEntity
  8
姿図
100
AcDbEllipse
 10
5807.35200674372
 20
548.4034807649482
 30
0.0
 11
-0.6214952256944444
 21
0.5215874565972224
 31
0.0
210
0.0
220
0.0
230
1.0
 40
0.7351581471724161
 41
0.0
 42
6.283185307179586
  0
LINE
  5
210C2
330
18
100
AcDbEntity
  8
姿図
100
AcDbLine
 10
5814.058699115099
 20
554.6163194982955
 30
0.0
 11
5813.044247668349
 21
553.0771517859844
 31
0.0
  0
SPLINE
  5
210C3
330
18
100
AcDbEntity
  8
姿図
100
AcDbSpline
210
0.0
220
0.0
230
1.0
 70
     8
 71
     3
 72
     8
 73
     4
 74
     0
 42
0.000000001
 43
0.0000000001
 40
0.0
 40
0.0
 40
0.0
 40
0.0
 40
1.0
 40
1.0
 40
1.0
 40
1.0
 10
5812.405053281766
 20
547.8473958871841
 30
0.0
 10
5813.375192170653
 20
549.4569444982953
 30
0.0
 10
5814.124844948432
 20
550.382986164962
 30
0.0
 10
5814.852449115098
 20
552.5217014427399
 30
0.0
  0
SPLINE
  5
210C4
330
18
100
AcDbEntity
  8
姿図
100
AcDbSpline
210
0.0
220
0.0
230
1.0
 70
     8
 71
     3
 72
     8
 73
     4
 74
     0
 42
0.000000001
 43
0.0000000001
 40
0.0
 40
0.0
 40
0.0
 40
0.0
 40
1.0
 40
1.0
 40
1.0
 40
1.0
 10
5812.008178281765
 20
546.7890625538512
 30
0.0
 10
5812.008178281765
 20
541.7802382265941
 30
0.0
 10
5809.384393559543
 20
537.660937553851
 30
0.0
 10
5809.296199115099
 20
537.7270833871844
 30
0.0
  0
SPLINE
  5
210C5
330
18
100
AcDbEntity
  8
姿図
100
AcDbSpline
210
0.0
220
0.0
230
1.0
 70
     8
 71
     3
 72
     8
 73
     4
 74
     0
 42
0.000000001
 43
0.0000000001
 40
0.0
 40
0.0
 40
0.0
 40
0.0
 40
1.0
 40
1.0
 40
1.0
 40
1.0
 10
5807.576407448432
 20
540.6154514427399
 30
0.0
 10
5808.612692170655
 20
541.8942708871841
 30
0.0
 10
5810.023803281765
 20
543.3494792205174
 30
0.0
 10
5810.861650503988
 20
545.6645833871844
 30
0.0
  0
SPLINE
  5
210C6
330
18
100
AcDbEntity
  8
姿図
100
AcDbSpline
210
0.0
220
0.0
230
1.0
 70
     8
 71
     3
 72
     8
 73
     4
 74
     0
 42
0.000000001
 43
0.0000000001
 40
0.0
 40
0.0
 40
0.0
 40
0.0
 40
1.0
 40
1.0
 40
1.0
 40
1.0
 10
5807.267726892876
 20
541.0123264427398
 30
0.0
 10
5808.52449772621
 20
542.2250000538511
 30
0.0
 10
5810.310435226209
 20
545.0692708871843
 30
0.0
 10
5810.376581059543
 20
545.6204861649621
 30
0.0
  0
LINE
  5
210C7
330
18
100
AcDbEntity
  8
姿図
100
AcDbLine
 10
5812.030915911973
 20
553.3996840273753
 30
0.0
 11
5810.120093700603
 21
555.0753784718195
 31
0.0
  0
SPLINE
  5
210C8
330
18
100
AcDbEntity
  8
姿図
100
AcDbSpline
210
0.0
220
0.0
230
1.0
 70
     8
 71
     3
 72
    11
 73
     7
 74
     0
 42
0.000000001
 43
0.0000000001
 40
28.0
 40
28.0
 40
28.0
 40
28.0
 40
29.0
 40
29.0
 40
29.0
 40
30.0
 40
30.0
 40
30.0
 40
30.0
 10
5814.550314240967
 20
555.7035916337122
 30
0.0
 10
5814.550314240967
 20
555.7035916337122
 30
0.0
 10
5815.504088926296
 20
554.7737603620108
 30
0.0
 10
5815.718718375081
 20
554.6068454857086
 30
0.0
 10
5815.933347823866
 20
554.4399306094065
 30
0.0
 10
5816.07631928654
 20
554.1777588429136
 30
0.0
 10
5815.933347823866
 20
553.9631293941288
 30
0.0
  0
LINE
  5
210C9
330
18
100
AcDbEntity
  8
姿図
100
AcDbLine
 10
5806.286391443658
 20
559.9203023813247
 30
0.0
 11
5804.930574115099
 21
558.3645833871842
 31
0.0
  0
SPLINE
  5
210CA
330
18
100
AcDbEntity
  8
姿図
100
AcDbSpline
210
0.0
220
0.0
230
1.0
 70
     8
 71
     3
 72
     8
 73
     4
 74
     0
 42
0.000000001
 43
0.0000000001
 40
0.0
 40
0.0
 40
0.0
 40
0.0
 40
1.0
 40
1.0
 40
1.0
 40
1.0
 10
5803.916338003988
 20
558.320486164962
 30
0.0
 10
5807.499237309543
 20
558.320486164962
 30
0.0
 10
5809.538733837322
 20
557.5708333871844
 30
0.0
 10
5810.481937038141
 20
556.9478346278256
 30
0.0
  0
SPLINE
  5
210CB
330
18
100
AcDbEntity
  8
姿図
100
AcDbSpline
210
0.0
220
0.0
230
1.0
 70
     8
 71
     3
 72
     8
 73
     4
 74
     0
 42
0.000000001
 43
0.0000000001
 40
16.0
 40
16.0
 40
16.0
 40
16.0
 40
17.0
 40
17.0
 40
17.0
 40
17.0
 10
5805.952733945829
 20
560.1587029889638
 30
0.0
 10
5806.095705408502
 20
560.0395026851443
 30
0.0
 10
5806.286391443658
 20
559.9203023813247
 30
0.0
 10
5806.286391443658
 20
559.9203023813247
 30
0.0
  0
SPLINE
  5
210CC
330
18
100
AcDbEntity
  8
姿図
100
AcDbSpline
210
0.0
220
0.0
230
1.0
 70
     8
 71
     3
 72
    11
 73
     7
 74
     0
 42
0.000000001
 43
0.0000000001
 40
14.0
 40
14.0
 40
14.0
 40
14.0
 40
15.0
 40
15.0
 40
15.0
 40
16.0
 40
16.0
 40
16.0
 40
16.0
 10
5803.932185443225
 20
558.294992458365
 30
0.0
 10
5804.456701230985
 20
558.9148512637034
 30
0.0
 10
5805.398073572564
 20
560.0654270286773
 30
0.0
 10
5805.517273876384
 20
560.1607700462555
 30
0.0
 10
5805.636474180204
 20
560.2561130638337
 30
0.0
 10
5805.80959022838
 20
560.2779032927833
 30
0.0
 10
5805.952733945829
 20
560.1587029889638
 30
0.0
  0
SPLINE
  5
210CD
330
18
100
AcDbEntity
  8
姿図
100
AcDbSpline
210
0.0
220
0.0
230
1.0
 70
     8
 71
     3
 72
     8
 73
     4
 74
     0
 42
0.000000001
 43
0.0000000001
 40
13.0
 40
13.0
 40
13.0
 40
13.0
 40
14.0
 40
14.0
 40
14.0
 40
14.0
 10
5802.157616758329
 20
557.9031128468196
 30
0.0
 10
5802.467503097304
 20
557.9508274193022
 30
0.0
 10
5803.526869959283
 20
558.2711351721236
 30
0.0
 10
5803.932185443225
 20
558.294992458365
 30
0.0
  0
SPLINE
  5
210CE
330
18
100
AcDbEntity
  8
姿図
100
AcDbSpline
210
0.0
220
0.0
230
1.0
 70
     8
 71
     3
 72
     8
 73
     4
 74
     0
 42
0.000000001
 43
0.0000000001
 40
11.0
 40
11.0
 40
11.0
 40
11.0
 40
12.0
 40
12.0
 40
12.0
 40
12.0
 10
5799.776711267877
 20
557.8588433698233
 30
0.0
 10
5800.515684249648
 20
558.1448724225575
 30
0.0
 10
5800.583897140273
 20
558.2368564720368
 30
0.0
 10
5800.798526589057
 20
558.1892280269412
 30
0.0
  0
SPLINE
  5
210CF
330
18
100
AcDbEntity
  8
姿図
100
AcDbSpline
210
0.0
220
0.0
230
1.0
 70
     8
 71
     3
 72
     8
 73
     4
 74
     0
 42
0.000000001
 43
0.0000000001
 40
12.0
 40
12.0
 40
12.0
 40
12.0
 40
13.0
 40
13.0
 40
13.0
 40
13.0
 10
5800.798526589057
 20
558.1892280269412
 30
0.0
 10
5801.013156037842
 20
558.1415134544586
 30
0.0
 10
5801.847558164579
 20
557.855398274337
 30
0.0
 10
5802.157616758329
 20
557.9031128468196
 30
0.0
  0
SPLINE
  5
210D0
330
18
100
AcDbEntity
  8
姿図
100
AcDbSpline
210
0.0
220
0.0
230
1.0
 70
     8
 71
     3
 72
     8
 73
     4
 74
     0
 42
0.000000001
 43
0.0000000001
 40
25.0
 40
25.0
 40
25.0
 40
25.0
 40
26.0
 40
26.0
 40
26.0
 40
26.0
 10
5811.74635102482
 20
559.3719293073232
 30
0.0
 10
5812.151666508762
 20
559.1812432721667
 30
0.0
 10
5812.951962190185
 20
558.6816182992939
 30
0.0
 10
5813.5002491368
 20
558.2286743702571
 30
0.0
  0
LINE
  5
210D1
330
18
100
AcDbEntity
  8
姿図
100
AcDbLine
 10
5807.979311365532
 20
559.8964450950834
 30
0.0
 11
5806.584219948433
 21
558.166145887184
 31
0.0
  0
LINE
  5
210D2
330
18
100
AcDbEntity
  8
姿図
100
AcDbLine
 10
5810.50646115937
 20
558.9666999507695
 30
0.0
 11
5809.296199115099
 21
557.6149306094067
 31
0.0
  0
SPLINE
  5
210D3
330
18
100
AcDbEntity
  8
姿図
100
AcDbSpline
210
0.0
220
0.0
230
1.0
 70
     8
 71
     3
 72
     8
 73
     4
 74
     0
 42
0.000000001
 43
0.0000000001
 40
0.0
 40
0.0
 40
0.0
 40
0.0
 40
1.0
 40
1.0
 40
1.0
 40
1.0
 10
5808.591332578641
 20
555.8691284718197
 30
0.0
 10
5808.973565922824
 20
556.5159451493373
 30
0.0
 10
5809.385082578641
 20
555.9480211584519
 30
0.0
 10
5809.385082578641
 20
556.0455173607088
 30
0.0
  0
SPLINE
  5
210D4
330
18
100
AcDbEntity
  8
姿図
100
AcDbSpline
210
0.0
220
0.0
230
1.0
 70
     8
 71
     3
 72
     8
 73
     4
 74
     0
 42
0.000000001
 43
0.0000000001
 40
0.0
 40
0.0
 40
0.0
 40
0.0
 40
1.0
 40
1.0
 40
1.0
 40
1.0
 10
5808.379975970567
 20
556.0786764047625
 30
0.0
 10
5808.762037059976
 20
556.6958652610992
 30
0.0
 10
5809.173553715793
 20
556.1279412702138
 30
0.0
 10
5809.173553715793
 20
556.2254374724707
 30
0.0
  0
SPLINE
  5
210D5
330
18
100
AcDbEntity
  8
姿図
100
AcDbSpline
210
0.0
220
0.0
230
1.0
 70
     8
 71
     3
 72
     8
 73
     4
 74
     0
 42
0.000000001
 43
0.0000000001
 40
24.0
 40
24.0
 40
24.0
 40
24.0
 40
25.0
 40
25.0
 40
25.0
 40
25.0
 10
5810.935720056939
 20
559.3719293073232
 30
0.0
 10
5811.174120664578
 20
559.5865587561079
 30
0.0
 10
5811.34103554088
 20
559.5627014698666
 30
0.0
 10
5811.74635102482
 20
559.3719293073232
 30
0.0
  0
SPLINE
  5
210D6
330
18
100
AcDbEntity
  8
姿図
100
AcDbSpline
210
0.0
220
0.0
230
1.0
 70
     8
 71
     3
 72
     8
 73
     4
 74
     0
 42
0.000000001
 43
0.0000000001
 40
23.0
 40
23.0
 40
23.0
 40
23.0
 40
24.0
 40
24.0
 40
24.0
 40
24.0
 10
5810.50646115937
 20
558.9666999507695
 30
0.0
 10
5810.50646115937
 20
558.9666999507695
 30
0.0
 10
5810.797227218398
 20
559.2473891055001
 30
0.0
 10
5810.935720056939
 20
559.3719293073232
 30
0.0
  0
SPLINE
  5
210D7
330
18
100
AcDbEntity
  8
姿図
100
AcDbSpline
210
0.0
220
0.0
230
1.0
 70
     8
 71
     3
 72
    14
 73
    10
 74
     0
 42
0.000000001
 43
0.0000000001
 40
20.0
 40
20.0
 40
20.0
 40
20.0
 40
21.0
 40
21.0
 40
21.0
 40
22.0
 40
22.0
 40
22.0
 40
23.0
 40
23.0
 40
23.0
 40
23.0
 10
5807.979311365532
 20
559.8964450950834
 30
0.0
 10
5807.979311365532
 20
559.8964450950834
 30
0.0
 10
5808.122282828206
 20
560.0871311302399
 30
0.0
 10
5808.289197704509
 20
560.2779032927833
 30
0.0
 10
5808.45611258081
 20
560.4686754553268
 30
0.0
 10
5808.551541725776
 20
560.6593614904828
 30
0.0
 10
5808.909142637234
 20
560.4209608828442
 30
0.0
 10
5809.266743548693
 20
560.1825602752051
 30
0.0
 10
5810.50646115937
 20
558.9666999507695
 30
0.0
 10
5810.50646115937
 20
558.9666999507695
 30
0.0
  0
SPLINE
  5
210D8
330
18
100
AcDbEntity
  8
姿図
100
AcDbSpline
210
0.0
220
0.0
230
1.0
 70
     8
 71
     3
 72
     8
 73
     4
 74
     0
 42
0.000000001
 43
0.0000000001
 40
19.0
 40
19.0
 40
19.0
 40
19.0
 40
20.0
 40
20.0
 40
20.0
 40
20.0
 10
5807.144736984023
 20
560.564018472905
 30
0.0
 10
5807.335423019178
 20
560.3733324377486
 30
0.0
 10
5807.979311365532
 20
559.8964450950834
 30
0.0
 10
5807.979311365532
 20
559.8964450950834
 30
0.0
  0
SPLINE
  5
210D9
330
18
100
AcDbEntity
  8
姿図
100
AcDbSpline
210
0.0
220
0.0
230
1.0
 70
     8
 71
     3
 72
     8
 73
     4
 74
     0
 42
0.000000001
 43
0.0000000001
 40
18.0
 40
18.0
 40
18.0
 40
18.0
 40
19.0
 40
19.0
 40
19.0
 40
19.0
 10
5806.715650341228
 20
560.4209608828442
 30
0.0
 10
5806.8586218039
 20
560.6117330453876
 30
0.0
 10
5806.954050948867
 20
560.754790635448
 30
0.0
 10
5807.144736984023
 20
560.564018472905
 30
0.0
  0
SPLINE
  5
210DA
330
18
100
AcDbEntity
  8
姿図
100
AcDbSpline
210
0.0
220
0.0
230
1.0
 70
     8
 71
     3
 72
     8
 73
     4
 74
     0
 42
0.000000001
 43
0.0000000001
 40
17.0
 40
17.0
 40
17.0
 40
17.0
 40
18.0
 40
18.0
 40
18.0
 40
18.0
 10
5806.286391443658
 20
559.9203023813247
 30
0.0
 10
5806.286391443658
 20
559.9203023813247
 30
0.0
 10
5806.57250662378
 20
560.2302748476877
 30
0.0
 10
5806.715650341228
 20
560.4209608828442
 30
0.0
  0
SPLINE
  5
210DB
330
18
100
AcDbEntity
  8
姿図
100
AcDbSpline
210
0.0
220
0.0
230
1.0
 70
     8
 71
     3
 72
     8
 73
     4
 74
     0
 42
0.000000001
 43
0.0000000001
 40
26.0
 40
26.0
 40
26.0
 40
26.0
 40
27.0
 40
27.0
 40
27.0
 40
27.0
 10
5813.5002491368
 20
558.2286743702571
 30
0.0
 10
5814.048708338189
 20
557.7756443138337
 30
0.0
 10
5815.050025341227
 20
556.6074124344932
 30
0.0
 10
5814.907053878555
 20
556.2975260955177
 30
0.0
  0
SPLINE
  5
210DC
330
18
100
AcDbEntity
  8
姿図
100
AcDbSpline
210
0.0
220
0.0
230
1.0
 70
     8
 71
     3
 72
     8
 73
     4
 74
     0
 42
0.000000001
 43
0.0000000001
 40
9.0
 40
9.0
 40
9.0
 40
9.0
 40
10.0
 40
10.0
 40
10.0
 40
10.0
 10
5786.359442387668
 20
547.1091980518977
 30
0.0
 10
5787.14621606931
 20
548.0151720373578
 30
0.0
 10
5789.754583989231
 20
550.6830539818025
 30
0.0
 10
5791.896055343398
 20
552.4946574431738
 30
0.0
  0
SPLINE
  5
210DD
330
18
100
AcDbEntity
  8
姿図
100
AcDbSpline
210
0.0
220
0.0
230
1.0
 70
     8
 71
     3
 72
     8
 73
     4
 74
     0
 42
0.000000001
 43
0.0000000001
 40
0.0
 40
0.0
 40
0.0
 40
0.0
 40
1.0
 40
1.0
 40
1.0
 40
1.0
 10
5785.8805741151
 20
546.4803819982953
 30
0.0
 10
5786.519983837322
 20
547.16388894274
 30
0.0
 10
5787.820851892877
 20
548.3104167205174
 30
0.0
 10
5789.981615781766
 20
548.575000053851
 30
0.0
  0
SPLINE
  5
210DE
330
18
100
AcDbEntity
  8
姿図
100
AcDbSpline
210
0.0
220
0.0
230
1.0
 70
     8
 71
     3
 72
     8
 73
     4
 74
     0
 42
0.000000001
 43
0.0000000001
 40
0.0
 40
0.0
 40
0.0
 40
0.0
 40
1.0
 40
1.0
 40
1.0
 40
1.0
 10
5786.916858837322
 20
547.75920144274
 30
0.0
 10
5787.644463003988
 20
548.3324653316286
 30
0.0
 10
5788.526407448432
 20
548.8616319982953
 30
0.0
 10
5790.312344948433
 20
549.3026042205174
 30
0.0
  0
SPLINE
  5
210DF
330
18
100
AcDbEntity
  8
姿図
100
AcDbSpline
210
0.0
220
0.0
230
1.0
 70
     8
 71
     3
 72
     8
 73
     4
 74
     0
 42
0.000000001
 43
0.0000000001
 40
8.718707976915393
 40
8.718707976915393
 40
8.718707976915393
 40
8.718707976915393
 40
9.0
 40
9.0
 40
9.0
 40
9.0
 10
5785.717955506782
 20
546.2654208279364
 30
0.0
 10
5786.019266202046
 20
546.6900037161481
 30
0.0
 10
5786.258852103828
 20
547.0086077680567
 30
0.0
 10
5786.359442387668
 20
547.1091980518977
 30
0.0
  0
SPLINE
  5
210E0
330
18
100
AcDbEntity
  8
姿図
100
AcDbSpline
210
0.0
220
0.0
230
1.0
 70
     8
 71
     3
 72
     8
 73
     4
 74
     0
 42
0.000000001
 43
0.0000000001
 40
7.0
 40
7.0
 40
7.0
 40
7.0
 40
8.0
 40
8.0
 40
8.0
 40
8.0
 10
5779.018030034153
 20
539.728080972905
 30
0.0
 10
5781.489024771567
 20
542.8539022348405
 30
0.0
 10
5783.877164962539
 20
546.1182163353178
 30
0.0
 10
5785.627790233806
 20
546.2397420785906
 30
0.0
  0
SPLINE
  5
210E1
330
18
100
AcDbEntity
  8
姿図
100
AcDbSpline
210
0.0
220
0.0
230
1.0
 70
     8
 71
     3
 72
     8
 73
     4
 74
     0
 42
0.000000001
 43
0.0000000001
 40
0.0
 40
0.0
 40
0.0
 40
0.0
 40
1.0
 40
1.0
 40
1.0
 40
1.0
 10
5795.978838003988
 20
548.7293403316289
 30
0.0
 10
5795.978838003988
 20
548.7440681148319
 30
0.0
 10
5795.978838003988
 20
548.7587958980348
 30
0.0
 10
5795.979010258763
 20
548.7734375538507
 30
0.0
  0
SPLINE
  5
210E2
330
18
100
AcDbEntity
  8
姿図
100
AcDbSpline
210
0.0
220
0.0
230
1.0
 70
     8
 71
     3
 72
     8
 73
     4
 74
     0
 42
0.000000001
 43
0.0000000001
 40
0.0
 40
0.0
 40
0.0
 40
0.0
 40
1.0
 40
1.0
 40
1.0
 40
1.0
 10
5793.134567170655
 20
549.2364583871845
 30
0.0
 10
5793.884219948432
 20
550.2727431094063
 30
0.0
 10
5794.325192170655
 20
551.1105903316288
 30
0.0
 10
5795.383525503988
 20
551.8602431094064
 30
0.0
  0
SPLINE
  5
210E3
330
18
100
AcDbEntity
  8
姿図
100
AcDbSpline
210
0.0
220
0.0
230
1.0
 70
     8
 71
     3
 72
     8
 73
     4
 74
     0
 42
0.000000001
 43
0.0000000001
 40
0.0
 40
0.0
 40
0.0
 40
0.0
 40
1.0
 40
1.0
 40
1.0
 40
1.0
 10
5792.693594948433
 20
549.3687500538508
 30
0.0
 10
5793.333004670655
 20
550.2286458871845
 30
0.0
 10
5793.994463003988
 20
551.3090278316286
 30
0.0
 10
5795.03074772621
 20
551.9484375538509
 30
0.0
  0
SPLINE
  5
210E4
330
18
100
AcDbEntity
  8
姿図
100
AcDbSpline
210
0.0
220
0.0
230
1.0
 70
     8
 71
     3
 72
     8
 73
     4
 74
     0
 42
0.000000001
 43
0.0000000001
 40
0.0
 40
0.0
 40
0.0
 40
0.0
 40
1.0
 40
1.0
 40
1.0
 40
1.0
 10
5799.419110356419
 20
543.6541979162639
 30
0.0
 10
5794.57306679088
 20
546.4521322153091
 30
0.0
 10
5788.438988150472
 20
547.0655314666114
 30
0.0
 10
5785.627790233806
 20
546.2397420785906
 30
0.0
  0
SPLINE
  5
210E5
330
18
100
AcDbEntity
  8
姿図
100
AcDbSpline
210
0.0
220
0.0
230
1.0
 70
     8
 71
     3
 72
     8
 73
     4
 74
     0
 42
0.000000001
 43
0.0000000001
 40
10.0
 40
10.0
 40
10.0
 40
10.0
 40
11.0
 40
11.0
 40
11.0
 40
11.0
 10
5791.896055343398
 20
552.4946574431738
 30
0.0
 10
5795.22074474227
 20
555.3071472706479
 30
0.0
 10
5799.037566031332
 20
557.5727281897016
 30
0.0
 10
5799.776711267877
 20
557.8588433698233
 30
0.0
  0
SPLINE
  5
210E6
330
18
100
AcDbEntity
  8
姿図
100
AcDbSpline
210
0.0
220
0.0
230
1.0
 70
     8
 71
     3
 72
     8
 73
     4
 74
     0
 42
0.000000001
 43
0.0000000001
 40
1.0
 40
1.0
 40
1.0
 40
1.0
 40
2.0
 40
2.0
 40
2.0
 40
2.0
 10
5795.979010258763
 20
548.7734375538507
 30
0.0
 10
5796.794636615099
 20
549.986111164962
 30
0.0
 10
5797.566338003988
 20
551.0003472760732
 30
0.0
 10
5798.756963003988
 20
552.0366319982954
 30
0.0
  0
SPLINE
  5
210E7
330
18
100
AcDbEntity
  8
姿図
100
AcDbSpline
210
0.0
220
0.0
230
1.0
 70
     8
 71
     3
 72
     8
 73
     4
 74
     0
 42
0.000000001
 43
0.0000000001
 40
0.0
 40
0.0
 40
0.0
 40
0.0
 40
1.0
 40
1.0
 40
1.0
 40
1.0
 10
5790.312344948433
 20
549.3026042205174
 30
0.0
 10
5794.016511615099
 20
552.367361164962
 30
0.0
 10
5798.293942170655
 20
554.6824653316289
 30
0.0
 10
5799.719694937582
 20
554.75593199287
 30
0.0
  0
SPLINE
  5
210E8
330
18
100
AcDbEntity
  8
姿図
100
AcDbSpline
210
0.0
220
0.0
230
1.0
 70
     8
 71
     3
 72
     8
 73
     4
 74
     0
 42
0.000000001
 43
0.0000000001
 40
0.0106763948050698
 40
0.0106763948050698
 40
0.0106763948050698
 40
0.0106763948050698
 40
1.0
 40
1.0
 40
1.0
 40
1.0
 10
5800.620395273921
 20
545.4861574154543
 30
0.0
 10
5798.893205140605
 20
546.7973404953004
 30
0.0
 10
5793.973433474185
 20
549.2075831854363
 30
0.0
 10
5789.981615781766
 20
548.575000053851
 30
0.0
  0
SPLINE
  5
210E9
330
18
100
AcDbEntity
  8
姿図
100
AcDbSpline
210
0.0
220
0.0
230
1.0
 70
     8
 71
     3
 72
     8
 73
     4
 74
     0
 42
0.000000001
 43
0.0000000001
 40
0.0
 40
0.0
 40
0.0
 40
0.0
 40
0.9548759970193254
 40
0.9548759970193254
 40
0.9548759970193254
 40
0.9548759970193254
 10
5790.312344948433
 20
549.3026042205174
 30
0.0
 10
5796.228431702882
 20
549.5552484947289
 30
0.0
 10
5799.631560611198
 20
547.1341056206547
 30
0.0
 10
5801.116823329322
 20
546.2432101999416
 30
0.0
  0
SPLINE
  5
210EA
330
18
100
AcDbEntity
  8
姿図
100
AcDbSpline
210
0.0
220
0.0
230
1.0
 70
     8
 71
     3
 72
     8
 73
     4
 74
     0
 42
0.000000001
 43
0.0000000001
 40
0.0
 40
0.0
 40
0.0
 40
0.0
 40
1.0
 40
1.0
 40
1.0
 40
1.0
 10
5801.998108837322
 20
554.6163194982955
 30
0.0
 10
5798.338039392877
 20
553.5579861649621
 30
0.0
 10
5795.604011615099
 20
552.0586806094066
 30
0.0
 10
5795.383525503988
 20
551.8602431094064
 30
0.0
  0
SPLINE
  5
210EB
330
18
100
AcDbEntity
  8
姿図
100
AcDbSpline
210
0.0
220
0.0
230
1.0
 70
     8
 71
     3
 72
     8
 73
     4
 74
     0
 42
0.000000001
 43
0.0000000001
 40
0.0
 40
0.0
 40
0.0
 40
0.0
 40
1.0
 40
1.0
 40
1.0
 40
1.0
 10
5801.887865781766
 20
554.6383681094067
 30
0.0
 10
5798.183699115099
 20
553.8005208871841
 30
0.0
 10
5795.295331059544
 20
552.1909722760734
 30
0.0
 10
5795.03074772621
 20
551.9484375538509
 30
0.0
  0
LINE
  5
210EC
330
18
100
AcDbEntity
  8
姿図
100
AcDbLine
 10
5805.083344906896
 20
528.6933962337603
 30
0.0
 11
5803.701954932875
 21
527.341414007848
 31
0.0
  0
LINE
  5
210ED
330
18
100
AcDbEntity
  8
姿図
100
AcDbLine
 10
5804.970248158763
 20
529.1642106241507
 30
0.0
 11
5803.596331601124
 21
527.8758317849092
 31
0.0
  0
LINE
  5
210EE
330
18
100
AcDbEntity
  8
姿図
100
AcDbLine
 10
5804.802790119274
 20
529.7347986097434
 30
0.0
 11
5803.406058779206
 21
528.5382758546675
 31
0.0
  0
LINE
  5
210EF
330
18
100
AcDbEntity
  8
姿図
100
AcDbLine
 10
5804.608407580714
 20
530.2909735509147
 30
0.0
 11
5803.217562921978
 21
529.0616290704766
 31
0.0
  0
LINE
  5
210F0
330
18
100
AcDbEntity
  8
姿図
100
AcDbLine
 10
5804.387290385453
 20
530.8397324255948
 30
0.0
 11
5802.97013673472
 21
529.6408616978238
 31
0.0
  0
SPLINE
  5
210F1
330
18
100
AcDbEntity
  8
姿図
100
AcDbSpline
210
0.0
220
0.0
230
1.0
 70
     8
 71
     3
 72
     8
 73
     4
 74
     0
 42
0.000000001
 43
0.0000000001
 40
35.0
 40
35.0
 40
35.0
 40
35.0
 40
36.0
 40
36.0
 40
36.0
 40
36.0
 10
5810.107691356852
 20
535.2751228023317
 30
0.0
 10
5810.263065163275
 20
534.472329426681
 30
0.0
 10
5810.988257763103
 20
531.9083171111424
 30
0.0
 10
5808.683316628119
 20
529.3961534826703
 30
0.0
  0
SPLINE
  5
210F2
330
18
100
AcDbEntity
  8
姿図
100
AcDbSpline
210
0.0
220
0.0
230
1.0
 70
     8
 71
     3
 72
     8
 73
     4
 74
     0
 42
0.000000001
 43
0.0000000001
 40
0.3748330610719267
 40
0.3748330610719267
 40
0.3748330610719267
 40
0.3748330610719267
 40
0.9335741083362055
 40
0.9335741083362055
 40
0.9335741083362055
 40
0.9335741083362055
 10
5803.595683165424
 20
527.8601295214007
 30
0.0
 10
5802.941974859007
 20
530.6920164151798
 30
0.0
 10
5800.470898618533
 20
533.580868522652
 30
0.0
 10
5799.263100719907
 20
534.9275623407102
 30
0.0
  0
LINE
  5
210F3
330
18
100
AcDbEntity
  8
姿図
100
AcDbLine
 10
5800.845308162066
 20
536.1472330393658
 30
0.0
 11
5799.581644620162
 21
534.5687365600261
 31
0.0
  0
LINE
  5
210F4
330
18
100
AcDbEntity
  8
姿図
100
AcDbLine
 10
5802.512969238543
 20
534.0890554022021
 30
0.0
 11
5801.157003586774
 21
532.6259169289915
 31
0.0
  0
LINE
  5
210F5
330
18
100
AcDbEntity
  8
姿図
100
AcDbLine
 10
5802.2039370888
 20
534.5330612654288
 30
0.0
 11
5800.808775820388
 21
533.0862298572806
 31
0.0
  0
LINE
  5
210F6
330
18
100
AcDbEntity
  8
姿図
100
AcDbLine
 10
5801.797206515042
 20
535.0289244284177
 30
0.0
 11
5800.436117017923
 21
533.5568568015206
 31
0.0
  0
LINE
  5
210F7
330
18
100
AcDbEntity
  8
姿図
100
AcDbLine
 10
5801.343827380574
 20
535.577536739354
 30
0.0
 11
5800.022009990748
 21
534.057557177352
 31
0.0
  0
LINE
  5
210F8
330
18
100
AcDbEntity
  8
姿図
100
AcDbLine
 10
5803.255086149721
 20
532.9854765579944
 30
0.0
 11
5801.846029901222
 21
531.6390974249789
 31
0.0
  0
LINE
  5
210F9
330
18
100
AcDbEntity
  8
姿図
100
AcDbLine
 10
5802.867730363274
 20
533.5811793117396
 30
0.0
 11
5801.487434553283
 21
532.1670519198806
 31
0.0
  0
LINE
  5
210FA
330
18
100
AcDbEntity
  8
姿図
100
AcDbLine
 10
5804.189600752591
 20
531.279377687089
 30
0.0
 11
5802.753248252985
 21
530.0882064872176
 31
0.0
  0
LINE
  5
210FB
330
18
100
AcDbEntity
  8
姿図
100
AcDbLine
 10
5803.890293184083
 20
531.8806093376556
 30
0.0
 11
5802.465028404163
 21
530.6256548071651
 31
0.0
  0
LINE
  5
210FC
330
18
100
AcDbEntity
  8
姿図
100
AcDbLine
 10
5803.592727681058
 20
532.4219000702224
 30
0.0
 11
5802.200752717277
 21
531.0775192495903
 31
0.0
  0
SPLINE
  5
210FD
330
18
100
AcDbEntity
  8
姿図
100
AcDbSpline
210
0.0
220
0.0
230
1.0
 70
     8
 71
     3
 72
     8
 73
     4
 74
     0
 42
0.000000001
 43
0.0000000001
 40
34.0
 40
34.0
 40
34.0
 40
34.0
 40
35.0
 40
35.0
 40
35.0
 40
35.0
 10
5810.425156905898
 20
536.3717828229483
 30
0.0
 10
5810.187100807807
 20
536.1025486107087
 30
0.0
 10
5809.952317550429
 20
536.0780884327573
 30
0.0
 10
5810.107691356852
 20
535.2751228023317
 30
0.0
  0
LINE
  5
210FE
330
18
100
AcDbEntity
  8
姿図
100
AcDbLine
 10
5787.4834909174
 20
529.6900201276358
 30
0.0
 11
5788.982796472956
 21
529.36652566149
 31
0.0
  0
LINE
  5
210FF
330
18
100
AcDbEntity
  8
姿図
100
AcDbLine
 10
5787.4834909174
 20
529.1608534609691
 30
0.0
 11
5788.982796472956
 21
528.8373589948233
 31
0.0
  0
LINE
  5
21100
330
18
100
AcDbEntity
  8
姿図
100
AcDbLine
 10
5787.4834909174
 20
528.5434923498578
 30
0.0
 11
5788.982796472956
 21
528.219997883712
 31
0.0
  0
LINE
  5
21101
330
18
100
AcDbEntity
  8
姿図
100
AcDbLine
 10
5787.601140928251
 20
527.8966756723403
 30
0.0
 11
5789.100446483806
 21
527.5731812061945
 31
0.0
  0
LINE
  5
21102
330
18
100
AcDbEntity
  8
姿図
100
AcDbLine
 10
5787.601140928251
 20
527.3087701276354
 30
0.0
 11
5789.100446483806
 21
526.9852756614896
 31
0.0
  0
LINE
  5
21103
330
18
100
AcDbEntity
  8
姿図
100
AcDbLine
 10
5795.560603411975
 20
526.9193020829307
 30
0.0
 11
5794.105395078642
 21
527.2279826384861
 31
0.0
  0
LINE
  5
21104
330
18
100
AcDbEntity
  8
姿図
100
AcDbLine
 10
5795.47240896753
 20
527.5807604162642
 30
0.0
 11
5794.017200634197
 21
527.8894409718196
 31
0.0
  0
LINE
  5
21105
330
18
100
AcDbEntity
  8
姿図
100
AcDbLine
 10
5795.428311745308
 20
528.1981215273754
 30
0.0
 11
5793.973103411975
 21
528.5068020829308
 31
0.0
  0
LINE
  5
21106
330
18
100
AcDbEntity
  8
姿図
100
AcDbLine
 10
5795.428311745308
 20
528.7713854162639
 30
0.0
 11
5793.973103411975
 21
529.0800659718197
 31
0.0
  0
LINE
  5
21107
330
18
100
AcDbEntity
  8
姿図
100
AcDbLine
 10
5795.422605749388
 20
529.2828811036065
 30
0.0
 11
5793.967397416054
 21
529.5915616591619
 31
0.0
  0
SPLINE
  5
21108
330
18
100
AcDbEntity
  8
姿図
100
AcDbSpline
210
0.0
220
0.0
230
1.0
 70
     8
 71
     3
 72
     8
 73
     4
 74
     0
 42
0.000000001
 43
0.0000000001
 40
0.0
 40
0.0
 40
0.0
 40
0.0
 40
1.0
 40
1.0
 40
1.0
 40
1.0
 10
5796.045672856419
 20
528.7272881940421
 30
0.0
 10
5796.045672856419
 20
529.0442369787643
 30
0.0
 10
5795.818813318659
 20
529.3005520829311
 30
0.0
 10
5795.538554800863
 20
529.3005520829311
 30
0.0
  0
LINE
  5
21109
330
18
100
AcDbEntity
  8
姿図
100
AcDbLine
 10
5793.967246749648
 20
530.0679471024619
 30
0.0
 11
5795.378357860759
 21
529.7592665469065
 31
0.0
  0
SPLINE
  5
2110A
330
18
100
AcDbEntity
  8
姿図
100
AcDbSpline
210
0.0
220
0.0
230
1.0
 70
     8
 71
     3
 72
     8
 73
     4
 74
     0
 42
0.000000001
 43
0.0000000001
 40
0.0
 40
0.0
 40
0.0
 40
0.0
 40
1.0
 40
1.0
 40
1.0
 40
1.0
 10
5793.556612885972
 20
529.9180950769278
 30
0.0
 10
5793.596748248386
 20
530.1192886533167
 30
0.0
 10
5793.88854783606
 20
530.1695870474141
 30
0.0
 10
5793.959000038751
 20
530.0991348447228
 30
0.0
  0
LINE
  5
2110B
330
18
100
AcDbEntity
  8
姿図
100
AcDbLine
 10
5787.512860356419
 20
531.3657145720799
 30
0.0
 11
5789.012165911975
 21
531.0423923607086
 31
0.0
  0
LINE
  5
2110C
330
18
100
AcDbEntity
  8
姿図
100
AcDbLine
 10
5787.4834909174
 20
530.3073812387465
 30
0.0
 11
5788.982796472956
 21
529.9838867726007
 31
0.0
  0
LINE
  5
2110D
330
18
100
AcDbEntity
  8
姿図
100
AcDbLine
 10
5787.4834909174
 20
530.8952867834514
 30
0.0
 11
5788.982796472956
 21
530.5717923173056
 31
0.0
  0
SPLINE
  5
2110E
330
18
100
AcDbEntity
  8
姿図
100
AcDbSpline
210
0.0
220
0.0
230
1.0
 70
     8
 71
     3
 72
     8
 73
     4
 74
     0
 42
0.000000001
 43
0.0000000001
 40
0.0
 40
0.0
 40
0.0
 40
0.0
 40
1.0
 40
1.0
 40
1.0
 40
1.0
 10
5785.984099234457
 20
530.6014201384864
 30
0.0
 10
5785.984099234457
 20
530.8451606441286
 30
0.0
 10
5786.207685931506
 20
531.0423923607086
 30
0.0
 10
5786.483896462104
 20
531.0423923607086
 30
0.0
  0
LINE
  5
2110F
330
18
100
AcDbEntity
  8
姿図
100
AcDbLine
 10
5786.483896462105
 20
531.0423923607086
 30
0.0
 11
5787.013063128771
 21
531.0423923607086
 31
0.0
  0
SPLINE
  5
21110
330
18
100
AcDbEntity
  8
姿図
100
AcDbSpline
210
0.0
220
0.0
230
1.0
 70
     8
 71
     3
 72
     8
 73
     4
 74
     0
 42
0.000000001
 43
0.0000000001
 40
0.0
 40
0.0
 40
0.0
 40
0.0
 40
1.0
 40
1.0
 40
1.0
 40
1.0
 10
5787.013063128771
 20
531.0423923607086
 30
0.0
 10
5787.013063128771
 20
531.1886366640938
 30
0.0
 10
5787.210294845351
 20
531.3069756940417
 30
0.0
 10
5787.454035350994
 20
531.3069756940417
 30
0.0
  0
LINE
  5
21111
330
18
100
AcDbEntity
  8
姿図
100
AcDbLine
 10
5805.769110356419
 20
545.1241340328006
 30
0.0
 11
5795.714943689753
 21
529.366697916264
 31
0.0
  0
SPLINE
  5
21112
330
18
100
AcDbEntity
  8
姿図
100
AcDbSpline
210
0.0
220
0.0
230
1.0
 70
     8
 71
     3
 72
     8
 73
     4
 74
     0
 42
0.000000001
 43
0.0000000001
 40
0.0
 40
0.0
 40
0.0
 40
0.0
 40
0.9866995420590119
 40
0.9866995420590119
 40
0.9866995420590119
 40
0.9866995420590119
 10
5810.023803281765
 20
535.5737264535906
 30
0.0
 10
5809.617759985922
 20
537.2561122065854
 30
0.0
 10
5808.295722293486
 20
539.9116791172937
 30
0.0
 10
5805.88472894504
 20
542.2840207152076
 30
0.0
  0
SPLINE
  5
21113
330
18
100
AcDbEntity
  8
姿図
100
AcDbSpline
210
0.0
220
0.0
230
1.0
 70
     8
 71
     3
 72
     8
 73
     4
 74
     0
 42
0.000000001
 43
0.0000000001
 40
0.0
 40
0.0
 40
0.0
 40
0.0
 40
1.0
 40
1.0
 40
1.0
 40
1.0
 10
5809.318247726211
 20
530.219531303851
 30
0.0
 10
5810.9829178651
 20
534.0559896371842
 30
0.0
 10
5807.962258142876
 20
539.4138021371841
 30
0.0
 10
5805.525886615099
 20
541.2658854705178
 30
0.0
  0
SPLINE
  5
21114
330
18
100
AcDbEntity
  8
姿図
100
AcDbSpline
210
0.0
220
0.0
230
1.0
 70
     8
 71
     3
 72
     8
 73
     4
 74
     0
 42
0.000000001
 43
0.0000000001
 40
33.0
 40
33.0
 40
33.0
 40
33.0
 40
34.0
 40
34.0
 40
34.0
 40
34.0
 10
5816.98651351397
 20
551.7200277231218
 30
0.0
 10
5817.020619959283
 20
550.7273234587988
 30
0.0
 10
5814.918939457981
 20
543.1196052242067
 30
0.0
 10
5810.425156905898
 20
536.3717828229483
 30
0.0
  0
ENDSEC
  0
SECTION
  2
OBJECTS
  0
DICTIONARY
  5
C
330
0
100
AcDbDictionary
281
     1
  3
ACAD_GROUP
350
D
  3
ACAD_IMAGE_VARS
350
21247
  3
ACAD_LAYOUT
350
40CB
  3
ACAD_MLINESTYLE
350
E
  3
ACAD_PLOTSETTINGS
350
40CC
  3
ACAD_PLOTSTYLENAME
350
40C9
  3
ACAD_SCALELIST
350
18342
  3
AcDbVariableDictionary
350
6377
  3
APPDATA
350
21246
  3
DWGPROPS
350
2126B
  0
DICTIONARY
  5
1841D
330
2
100
AcDbDictionary
280
     1
281
     1
  3
ACAD_LAYERFILTERS
360
19627
  3
ACAD_LAYERSTATES
360
1841E
  0
DICTIONARY
  5
1836A
330
F
100
AcDbDictionary
280
     1
281
     1
  3
ADSK_XREC_LAYER_RECONCILED
360
1836B
  0
DICTIONARY
  5
18372
330
4C
100
AcDbDictionary
280
     1
281
     1
  3
ADSK_XREC_LAYER_RECONCILED
360
18373
  0
DICTIONARY
  5
18374
330
4D
100
AcDbDictionary
280
     1
281
     1
  3
ADSK_XREC_LAYER_RECONCILED
360
18375
  0
DICTIONARY
  5
18378
330
40D4
100
AcDbDictionary
280
     1
281
     1
  3
ADSK_XREC_LAYER_RECONCILED
360
18379
  0
DICTIONARY
  5
9FD5
330
18
100
AcDbDictionary
280
     1
281
     1
  3
ACAD_SORTENTS
360
1E180
  0
DICTIONARY
  5
D
102
{ACAD_REACTORS
330
C
102
}
330
C
100
AcDbDictionary
281
     1
  0
RASTERVARIABLES
  5
21247
102
{ACAD_REACTORS
330
C
102
}
330
C
100
AcDbRasterVariables
 90
        0
 70
     1
 71
     1
 72
     0
  0
DICTIONARY
  5
40CB
102
{ACAD_REACTORS
330
C
102
}
330
C
100
AcDbDictionary
281
     1
  3
Model
350
40CD
  3
ﾚｲｱｳﾄ1
350
40CE
  0
DICTIONARY
  5
E
102
{ACAD_REACTORS
330
C
102
}
330
C
100
AcDbDictionary
281
     1
  3
STANDARD
350
1B
  0
DICTIONARY
  5
40CC
102
{ACAD_REACTORS
330
C
102
}
330
C
100
AcDbDictionary
281
     1
  0
ACDBDICTIONARYWDFLT
  5
40C9
102
{ACAD_REACTORS
330
C
102
}
330
C
100
AcDbDictionary
281
     1
  3
Normal
350
40CA
100
AcDbDictionaryWithDefault
340
40CA
  0
DICTIONARY
  5
18342
102
{ACAD_REACTORS
330
C
102
}
330
C
100
AcDbDictionary
281
     1
  3
A0
350
18343
  3
A1
350
18344
  3
A2
350
18345
  3
A3
350
18346
  3
A4
350
18347
  3
A5
350
18348
  3
A6
350
18349
  3
A7
350
1834A
  3
A8
350
1834B
  3
A9
350
1834C
  3
B0
350
1834D
  3
B1
350
1834E
  3
B2
350
1834F
  3
B3
350
18350
  3
B4
350
18351
  3
B5
350
18352
  3
B6
350
18353
  3
B7
350
18354
  3
B8
350
18355
  3
B9
350
18356
  3
C0
350
18357
  3
C1
350
18358
  3
C2
350
18359
  3
C3
350
1835A
  3
C4
350
1835B
  3
C5
350
1835C
  3
C6
350
1835D
  3
C7
350
1835E
  3
C8
350
1835F
  3
C9
350
18360
  3
D0
350
18361
  3
D1
350
18362
  3
D2
350
18363
  0
DICTIONARY
  5
6377
102
{ACAD_REACTORS
330
C
102
}
330
C
100
AcDbDictionary
281
     1
  3
DIMASSOC
350
73F2
  3
INDEXCTL
350
18340
  3
PROJECTNAME
350
13DDD
  3
SORTENTS
350
6378
  0
DICTIONARY
  5
21246
102
{ACAD_REACTORS
330
C
102
}
330
C
100
AcDbDictionary
281
     1
  0
XRECORD
  5
2126B
102
{ACAD_REACTORS
330
C
102
}
330
C
100
AcDbXrecord
280
     1
  1
DWGPROPS COOKIE
  2

  3

  4

  6

  7

  8
SPAX
  9

300
=
301
=
302
=
303
=
304
=
305
=
306
=
307
=
308
=
309
=
 40
0.0
 41
2449505.547222222
 42
2456821.225201678
  1

 90
        0
  0
DICTIONARY
  5
19627
102
{ACAD_REACTORS
330
1841D
102
}
330
1841D
100
AcDbDictionary
281
     1
  0
DICTIONARY
  5
1841E
102
{ACAD_REACTORS
330
1841D
102
}
330
1841D
100
AcDbDictionary
281
     1
  0
XRECORD
  5
1836B
102
{ACAD_REACTORS
330
1836A
102
}
330
1836A
100
AcDbXrecord
280
     1
290
     1
  0
XRECORD
  5
18373
102
{ACAD_REACTORS
330
18372
102
}
330
18372
100
AcDbXrecord
280
     1
290
     1
  0
XRECORD
  5
18375
102
{ACAD_REACTORS
330
18374
102
}
330
18374
100
AcDbXrecord
280
     1
290
     1
  0
XRECORD
  5
18379
102
{ACAD_REACTORS
330
18378
102
}
330
18378
100
AcDbXrecord
280
     1
290
     1
  0
SORTENTSTABLE
  5
1E180
102
{ACAD_REACTORS
330
9FD5
102
}
330
9FD5
100
AcDbSortentsTable
330
18
331
0
  5
14B18
  0
LAYOUT
  5
40CD
102
{ACAD_REACTORS
330
40CB
102
}
330
40CB
100
AcDbPlotSettings
  1

  2
JUST PDF 2
  4
A4
  6
CUT1
 40
3.174999952316284
 41
3.174999952316284
 42
3.175003051757812
 43
3.17498779296875
 44
209.8886566162109
 45
297.0530090332031
 46
14.27171755861536
 47
9.85517307462581
 48
5750.03412101874
 49
73.60158898495649
140
6100.024558008552
141
615.5869392622894
142
1.0
143
2.0
 70
 11940
 72
     1
 73
     0
 74
     4
  7
spax form.ctb
 75
     0
147
0.5
148
-5750.03412101874
149
-73.60158898495649
100
AcDbLayout
  1
Model
 70
     1
 71
     0
 10
0.0
 20
0.0
 11
12.0
 21
9.0
 12
0.0
 22
0.0
 32
0.0
 14
5739.555962491763
 24
476.933513275366
 34
0.0
 15
5847.889295825096
 25
560.6528908340879
 35
0.0
146
0.0
 13
0.0
 23
0.0
 33
0.0
 16
1.0
 26
0.0
 36
0.0
 17
0.0
 27
1.0
 37
0.0
 76
     0
330
18
331
20890
1001
ACAD_PSEXT
1000
JUST PDF 2
1000
JUST PDF 2
1000
JUST PDF 2 Port:
1000

1070
     0
  0
LAYOUT
  5
40CE
102
{ACAD_REACTORS
330
40CB
102
}
330
40CB
100
AcDbPlotSettings
  1

  2
なし
  4

  6

 40
0.0
 41
0.0
 42
0.0
 43
0.0
 44
0.0
 45
0.0
 46
0.0
 47
0.0
 48
0.0
 49
0.0
140
0.0
141
0.0
142
1.0
143
1.0
 70
   688
 72
     0
 73
     0
 74
     5
  7
spax form.ctb
 75
    16
147
1.0
148
0.0
149
0.0
100
AcDbLayout
  1
ﾚｲｱｳﾄ1
 70
     0
 71
     1
 10
0.0
 20
0.0
 11
12.0
 21
9.0
 12
0.0
 22
0.0
 32
0.0
 14
1.000000000000000E+20
 24
1.000000000000000E+20
 34
1.000000000000000E+20
 15
-1.000000000000000E+20
 25
-1.000000000000000E+20
 35
-1.000000000000000E+20
146
0.0
 13
0.0
 23
0.0
 33
0.0
 16
1.0
 26
0.0
 36
0.0
 17
0.0
 27
1.0
 37
0.0
 76
     0
330
15
  0
MLINESTYLE
  5
1B
102
{ACAD_REACTORS
330
E
102
}
330
E
100
AcDbMlineStyle
  2
STANDARD
 70
     0
  3

 62
     0
 51
90.0
 52
90.0
 71
     2
 49
0.5
 62
   256
  6
BYLAYER
 49
-0.5
 62
   256
  6
BYLAYER
  0
ACDBPLACEHOLDER
  5
40CA
102
{ACAD_REACTORS
330
40C9
102
}
330
40C9
  0
SCALE
  5
18343
102
{ACAD_REACTORS
330
18342
102
}
330
18342
100
AcDbScale
 70
     0
300
1:1
140
1.0
141
1.0
290
     1
1001
ACAD
1000
AcRTDxfName
1000
SCALE
1000
AcRTDxfName
1000
SCALE
1000
AcRTDxfName
1000
SCALE
1000
AcRTDxfName
1000
SCALE
1000
AcRTDxfName
1000
SCALE
1000
AcRTDxfName
1000
SCALE
1000
AcRTDxfName
1000
SCALE
  0
SCALE
  5
18344
102
{ACAD_REACTORS
330
18342
102
}
330
18342
100
AcDbScale
 70
     0
300
1:2
140
1.0
141
2.0
290
     0
1001
ACAD
1000
AcRTDxfName
1000
SCALE
1000
AcRTDxfName
1000
SCALE
1000
AcRTDxfName
1000
SCALE
1000
AcRTDxfName
1000
SCALE
1000
AcRTDxfName
1000
SCALE
1000
AcRTDxfName
1000
SCALE
1000
AcRTDxfName
1000
SCALE
  0
SCALE
  5
18345
102
{ACAD_REACTORS
330
18342
102
}
330
18342
100
AcDbScale
 70
     0
300
1:4
140
1.0
141
4.0
290
     0
1001
ACAD
1000
AcRTDxfName
1000
SCALE
1000
AcRTDxfName
1000
SCALE
1000
AcRTDxfName
1000
SCALE
1000
AcRTDxfName
1000
SCALE
1000
AcRTDxfName
1000
SCALE
1000
AcRTDxfName
1000
SCALE
1000
AcRTDxfName
1000
SCALE
  0
SCALE
  5
18346
102
{ACAD_REACTORS
330
18342
102
}
330
18342
100
AcDbScale
 70
     0
300
1:5
140
1.0
141
5.0
290
     0
1001
ACAD
1000
AcRTDxfName
1000
SCALE
1000
AcRTDxfName
1000
SCALE
1000
AcRTDxfName
1000
SCALE
1000
AcRTDxfName
1000
SCALE
1000
AcRTDxfName
1000
SCALE
1000
AcRTDxfName
1000
SCALE
1000
AcRTDxfName
1000
SCALE
  0
SCALE
  5
18347
102
{ACAD_REACTORS
330
18342
102
}
330
18342
100
AcDbScale
 70
     0
300
1:8
140
1.0
141
8.0
290
     0
1001
ACAD
1000
AcRTDxfName
1000
SCALE
1000
AcRTDxfName
1000
SCALE
1000
AcRTDxfName
1000
SCALE
1000
AcRTDxfName
1000
SCALE
1000
AcRTDxfName
1000
SCALE
1000
AcRTDxfName
1000
SCALE
1000
AcRTDxfName
1000
SCALE
  0
SCALE
  5
18348
102
{ACAD_REACTORS
330
18342
102
}
330
18342
100
AcDbScale
 70
     0
300
1:10
140
1.0
141
10.0
290
     0
1001
ACAD
1000
AcRTDxfName
1000
SCALE
1000
AcRTDxfName
1000
SCALE
1000
AcRTDxfName
1000
SCALE
1000
AcRTDxfName
1000
SCALE
1000
AcRTDxfName
1000
SCALE
1000
AcRTDxfName
1000
SCALE
1000
AcRTDxfName
1000
SCALE
  0
SCALE
  5
18349
102
{ACAD_REACTORS
330
18342
102
}
330
18342
100
AcDbScale
 70
     0
300
1:16
140
1.0
141
16.0
290
     0
1001
ACAD
1000
AcRTDxfName
1000
SCALE
1000
AcRTDxfName
1000
SCALE
1000
AcRTDxfName
1000
SCALE
1000
AcRTDxfName
1000
SCALE
1000
AcRTDxfName
1000
SCALE
1000
AcRTDxfName
1000
SCALE
1000
AcRTDxfName
1000
SCALE
  0
SCALE
  5
1834A
102
{ACAD_REACTORS
330
18342
102
}
330
18342
100
AcDbScale
 70
     0
300
1:20
140
1.0
141
20.0
290
     0
1001
ACAD
1000
AcRTDxfName
1000
SCALE
1000
AcRTDxfName
1000
SCALE
1000
AcRTDxfName
1000
SCALE
1000
AcRTDxfName
1000
SCALE
1000
AcRTDxfName
1000
SCALE
1000
AcRTDxfName
1000
SCALE
1000
AcRTDxfName
1000
SCALE
  0
SCALE
  5
1834B
102
{ACAD_REACTORS
330
18342
102
}
330
18342
100
AcDbScale
 70
     0
300
1:30
140
1.0
141
30.0
290
     0
1001
ACAD
1000
AcRTDxfName
1000
SCALE
1000
AcRTDxfName
1000
SCALE
1000
AcRTDxfName
1000
SCALE
1000
AcRTDxfName
1000
SCALE
1000
AcRTDxfName
1000
SCALE
1000
AcRTDxfName
1000
SCALE
1000
AcRTDxfName
1000
SCALE
  0
SCALE
  5
1834C
102
{ACAD_REACTORS
330
18342
102
}
330
18342
100
AcDbScale
 70
     0
300
1:40
140
1.0
141
40.0
290
     0
1001
ACAD
1000
AcRTDxfName
1000
SCALE
1000
AcRTDxfName
1000
SCALE
1000
AcRTDxfName
1000
SCALE
1000
AcRTDxfName
1000
SCALE
1000
AcRTDxfName
1000
SCALE
1000
AcRTDxfName
1000
SCALE
1000
AcRTDxfName
1000
SCALE
  0
SCALE
  5
1834D
102
{ACAD_REACTORS
330
18342
102
}
330
18342
100
AcDbScale
 70
     0
300
1:50
140
1.0
141
50.0
290
     0
1001
ACAD
1000
AcRTDxfName
1000
SCALE
1000
AcRTDxfName
1000
SCALE
1000
AcRTDxfName
1000
SCALE
1000
AcRTDxfName
1000
SCALE
1000
AcRTDxfName
1000
SCALE
1000
AcRTDxfName
1000
SCALE
1000
AcRTDxfName
1000
SCALE
  0
SCALE
  5
1834E
102
{ACAD_REACTORS
330
18342
102
}
330
18342
100
AcDbScale
 70
     0
300
1:100
140
1.0
141
100.0
290
     0
1001
ACAD
1000
AcRTDxfName
1000
SCALE
1000
AcRTDxfName
1000
SCALE
1000
AcRTDxfName
1000
SCALE
1000
AcRTDxfName
1000
SCALE
1000
AcRTDxfName
1000
SCALE
1000
AcRTDxfName
1000
SCALE
1000
AcRTDxfName
1000
SCALE
  0
SCALE
  5
1834F
102
{ACAD_REACTORS
330
18342
102
}
330
18342
100
AcDbScale
 70
     0
300
2:1
140
2.0
141
1.0
290
     0
1001
ACAD
1000
AcRTDxfName
1000
SCALE
1000
AcRTDxfName
1000
SCALE
1000
AcRTDxfName
1000
SCALE
1000
AcRTDxfName
1000
SCALE
1000
AcRTDxfName
1000
SCALE
1000
AcRTDxfName
1000
SCALE
1000
AcRTDxfName
1000
SCALE
  0
SCALE
  5
18350
102
{ACAD_REACTORS
330
18342
102
}
330
18342
100
AcDbScale
 70
     0
300
4:1
140
4.0
141
1.0
290
     0
1001
ACAD
1000
AcRTDxfName
1000
SCALE
1000
AcRTDxfName
1000
SCALE
1000
AcRTDxfName
1000
SCALE
1000
AcRTDxfName
1000
SCALE
1000
AcRTDxfName
1000
SCALE
1000
AcRTDxfName
1000
SCALE
1000
AcRTDxfName
1000
SCALE
  0
SCALE
  5
18351
102
{ACAD_REACTORS
330
18342
102
}
330
18342
100
AcDbScale
 70
     0
300
8:1
140
8.0
141
1.0
290
     0
1001
ACAD
1000
AcRTDxfName
1000
SCALE
1000
AcRTDxfName
1000
SCALE
1000
AcRTDxfName
1000
SCALE
1000
AcRTDxfName
1000
SCALE
1000
AcRTDxfName
1000
SCALE
1000
AcRTDxfName
1000
SCALE
1000
AcRTDxfName
1000
SCALE
  0
SCALE
  5
18352
102
{ACAD_REACTORS
330
18342
102
}
330
18342
100
AcDbScale
 70
     0
300
10:1
140
10.0
141
1.0
290
     0
1001
ACAD
1000
AcRTDxfName
1000
SCALE
1000
AcRTDxfName
1000
SCALE
1000
AcRTDxfName
1000
SCALE
1000
AcRTDxfName
1000
SCALE
1000
AcRTDxfName
1000
SCALE
1000
AcRTDxfName
1000
SCALE
1000
AcRTDxfName
1000
SCALE
  0
SCALE
  5
18353
102
{ACAD_REACTORS
330
18342
102
}
330
18342
100
AcDbScale
 70
     0
300
100:1
140
100.0
141
1.0
290
     0
1001
ACAD
1000
AcRTDxfName
1000
SCALE
1000
AcRTDxfName
1000
SCALE
1000
AcRTDxfName
1000
SCALE
1000
AcRTDxfName
1000
SCALE
1000
AcRTDxfName
1000
SCALE
1000
AcRTDxfName
1000
SCALE
1000
AcRTDxfName
1000
SCALE
  0
SCALE
  5
18354
102
{ACAD_REACTORS
330
18342
102
}
330
18342
100
AcDbScale
 70
     0
300
1/128" = 1'-0"
140
0.0078125
141
12.0
290
     0
1001
ACAD
1000
AcRTDxfName
1000
SCALE
1000
AcRTDxfName
1000
SCALE
1000
AcRTDxfName
1000
SCALE
1000
AcRTDxfName
1000
SCALE
1000
AcRTDxfName
1000
SCALE
1000
AcRTDxfName
1000
SCALE
1000
AcRTDxfName
1000
SCALE
  0
SCALE
  5
18355
102
{ACAD_REACTORS
330
18342
102
}
330
18342
100
AcDbScale
 70
     0
300
1/64" = 1'-0"
140
0.015625
141
12.0
290
     0
1001
ACAD
1000
AcRTDxfName
1000
SCALE
1000
AcRTDxfName
1000
SCALE
1000
AcRTDxfName
1000
SCALE
1000
AcRTDxfName
1000
SCALE
1000
AcRTDxfName
1000
SCALE
1000
AcRTDxfName
1000
SCALE
1000
AcRTDxfName
1000
SCALE
  0
SCALE
  5
18356
102
{ACAD_REACTORS
330
18342
102
}
330
18342
100
AcDbScale
 70
     0
300
1/32" = 1'-0"
140
0.03125
141
12.0
290
     0
1001
ACAD
1000
AcRTDxfName
1000
SCALE
1000
AcRTDxfName
1000
SCALE
1000
AcRTDxfName
1000
SCALE
1000
AcRTDxfName
1000
SCALE
1000
AcRTDxfName
1000
SCALE
1000
AcRTDxfName
1000
SCALE
1000
AcRTDxfName
1000
SCALE
  0
SCALE
  5
18357
102
{ACAD_REACTORS
330
18342
102
}
330
18342
100
AcDbScale
 70
     0
300
1/16" = 1'-0"
140
0.0625
141
12.0
290
     0
1001
ACAD
1000
AcRTDxfName
1000
SCALE
1000
AcRTDxfName
1000
SCALE
1000
AcRTDxfName
1000
SCALE
1000
AcRTDxfName
1000
SCALE
1000
AcRTDxfName
1000
SCALE
1000
AcRTDxfName
1000
SCALE
1000
AcRTDxfName
1000
SCALE
  0
SCALE
  5
18358
102
{ACAD_REACTORS
330
18342
102
}
330
18342
100
AcDbScale
 70
     0
300
3/32" = 1'-0"
140
0.09375
141
12.0
290
     0
1001
ACAD
1000
AcRTDxfName
1000
SCALE
1000
AcRTDxfName
1000
SCALE
1000
AcRTDxfName
1000
SCALE
1000
AcRTDxfName
1000
SCALE
1000
AcRTDxfName
1000
SCALE
1000
AcRTDxfName
1000
SCALE
1000
AcRTDxfName
1000
SCALE
  0
SCALE
  5
18359
102
{ACAD_REACTORS
330
18342
102
}
330
18342
100
AcDbScale
 70
     0
300
1/8" = 1'-0"
140
0.125
141
12.0
290
     0
1001
ACAD
1000
AcRTDxfName
1000
SCALE
1000
AcRTDxfName
1000
SCALE
1000
AcRTDxfName
1000
SCALE
1000
AcRTDxfName
1000
SCALE
1000
AcRTDxfName
1000
SCALE
1000
AcRTDxfName
1000
SCALE
1000
AcRTDxfName
1000
SCALE
  0
SCALE
  5
1835A
102
{ACAD_REACTORS
330
18342
102
}
330
18342
100
AcDbScale
 70
     0
300
3/16" = 1'-0"
140
0.1875
141
12.0
290
     0
1001
ACAD
1000
AcRTDxfName
1000
SCALE
1000
AcRTDxfName
1000
SCALE
1000
AcRTDxfName
1000
SCALE
1000
AcRTDxfName
1000
SCALE
1000
AcRTDxfName
1000
SCALE
1000
AcRTDxfName
1000
SCALE
1000
AcRTDxfName
1000
SCALE
  0
SCALE
  5
1835B
102
{ACAD_REACTORS
330
18342
102
}
330
18342
100
AcDbScale
 70
     0
300
1/4" = 1'-0"
140
0.25
141
12.0
290
     0
1001
ACAD
1000
AcRTDxfName
1000
SCALE
1000
AcRTDxfName
1000
SCALE
1000
AcRTDxfName
1000
SCALE
1000
AcRTDxfName
1000
SCALE
1000
AcRTDxfName
1000
SCALE
1000
AcRTDxfName
1000
SCALE
1000
AcRTDxfName
1000
SCALE
  0
SCALE
  5
1835C
102
{ACAD_REACTORS
330
18342
102
}
330
18342
100
AcDbScale
 70
     0
300
3/8" = 1'-0"
140
0.375
141
12.0
290
     0
1001
ACAD
1000
AcRTDxfName
1000
SCALE
1000
AcRTDxfName
1000
SCALE
1000
AcRTDxfName
1000
SCALE
1000
AcRTDxfName
1000
SCALE
1000
AcRTDxfName
1000
SCALE
1000
AcRTDxfName
1000
SCALE
1000
AcRTDxfName
1000
SCALE
  0
SCALE
  5
1835D
102
{ACAD_REACTORS
330
18342
102
}
330
18342
100
AcDbScale
 70
     0
300
1/2" = 1'-0"
140
0.5
141
12.0
290
     0
1001
ACAD
1000
AcRTDxfName
1000
SCALE
1000
AcRTDxfName
1000
SCALE
1000
AcRTDxfName
1000
SCALE
1000
AcRTDxfName
1000
SCALE
1000
AcRTDxfName
1000
SCALE
1000
AcRTDxfName
1000
SCALE
1000
AcRTDxfName
1000
SCALE
  0
SCALE
  5
1835E
102
{ACAD_REACTORS
330
18342
102
}
330
18342
100
AcDbScale
 70
     0
300
3/4" = 1'-0"
140
0.75
141
12.0
290
     0
1001
ACAD
1000
AcRTDxfName
1000
SCALE
1000
AcRTDxfName
1000
SCALE
1000
AcRTDxfName
1000
SCALE
1000
AcRTDxfName
1000
SCALE
1000
AcRTDxfName
1000
SCALE
1000
AcRTDxfName
1000
SCALE
1000
AcRTDxfName
1000
SCALE
  0
SCALE
  5
1835F
102
{ACAD_REACTORS
330
18342
102
}
330
18342
100
AcDbScale
 70
     0
300
1" = 1'-0"
140
1.0
141
12.0
290
     0
1001
ACAD
1000
AcRTDxfName
1000
SCALE
1000
AcRTDxfName
1000
SCALE
1000
AcRTDxfName
1000
SCALE
1000
AcRTDxfName
1000
SCALE
1000
AcRTDxfName
1000
SCALE
1000
AcRTDxfName
1000
SCALE
1000
AcRTDxfName
1000
SCALE
  0
SCALE
  5
18360
102
{ACAD_REACTORS
330
18342
102
}
330
18342
100
AcDbScale
 70
     0
300
1-1/2" = 1'-0"
140
1.5
141
12.0
290
     0
1001
ACAD
1000
AcRTDxfName
1000
SCALE
1000
AcRTDxfName
1000
SCALE
1000
AcRTDxfName
1000
SCALE
1000
AcRTDxfName
1000
SCALE
1000
AcRTDxfName
1000
SCALE
1000
AcRTDxfName
1000
SCALE
1000
AcRTDxfName
1000
SCALE
  0
SCALE
  5
18361
102
{ACAD_REACTORS
330
18342
102
}
330
18342
100
AcDbScale
 70
     0
300
3" = 1'-0"
140
3.0
141
12.0
290
     0
1001
ACAD
1000
AcRTDxfName
1000
SCALE
1000
AcRTDxfName
1000
SCALE
1000
AcRTDxfName
1000
SCALE
1000
AcRTDxfName
1000
SCALE
1000
AcRTDxfName
1000
SCALE
1000
AcRTDxfName
1000
SCALE
1000
AcRTDxfName
1000
SCALE
  0
SCALE
  5
18362
102
{ACAD_REACTORS
330
18342
102
}
330
18342
100
AcDbScale
 70
     0
300
6" = 1'-0"
140
6.0
141
12.0
290
     0
1001
ACAD
1000
AcRTDxfName
1000
SCALE
1000
AcRTDxfName
1000
SCALE
1000
AcRTDxfName
1000
SCALE
1000
AcRTDxfName
1000
SCALE
1000
AcRTDxfName
1000
SCALE
1000
AcRTDxfName
1000
SCALE
1000
AcRTDxfName
1000
SCALE
  0
SCALE
  5
18363
102
{ACAD_REACTORS
330
18342
102
}
330
18342
100
AcDbScale
 70
     0
300
1'-0" = 1'-0"
140
12.0
141
12.0
290
     0
1001
ACAD
1000
AcRTDxfName
1000
SCALE
1000
AcRTDxfName
1000
SCALE
1000
AcRTDxfName
1000
SCALE
1000
AcRTDxfName
1000
SCALE
1000
AcRTDxfName
1000
SCALE
1000
AcRTDxfName
1000
SCALE
1000
AcRTDxfName
1000
SCALE
  0
DICTIONARYVAR
  5
73F2
102
{ACAD_REACTORS
330
6377
102
}
330
6377
100
DictionaryVariables
280
     0
  1
1
  0
DICTIONARYVAR
  5
18340
102
{ACAD_REACTORS
330
6377
102
}
330
6377
100
DictionaryVariables
280
     0
  1
0
  0
DICTIONARYVAR
  5
13DDD
102
{ACAD_REACTORS
330
6377
102
}
330
6377
100
DictionaryVariables
280
     0
  1

  0
DICTIONARYVAR
  5
6378
102
{ACAD_REACTORS
330
6377
102
}
330
6377
100
DictionaryVariables
280
     0
  1
96
  0
ENDSEC
  0
EOF
