  0
SECTION
  2
HEADER
  9
$ACADVER
  1
AC1015
  9
$ACADMAINTVER
 70
     6
  9
$DWGCODEPAGE
  3
ANSI_932
  9
$INSBASE
 10
0.0
 20
0.0
 30
0.0
  9
$EXTMIN
 10
2346.728861838367
 20
-191.8216615487869
 30
0.0
  9
$EXTMAX
 10
2430.728861838367
 20
-109.3255691710473
 30
0.0
  9
$LIMMIN
 10
0.0
 20
0.0
  9
$LIMMAX
 10
420.0
 20
297.0
  9
$ORTHOMODE
 70
     1
  9
$REGENMODE
 70
     1
  9
$FILLMODE
 70
     1
  9
$QTEXTMODE
 70
     0
  9
$MIRRTEXT
 70
     1
  9
$LTSCALE
 40
7.0
  9
$ATTMODE
 70
     0
  9
$TEXTSIZE
 40
3.5
  9
$TRACEWID
 40
1.0
  9
$TEXTSTYLE
  7
STANDARD
  9
$CLAYER
  8
寸法線
  9
$CELTYPE
  6
BYLAYER
  9
$CECOLOR
 62
   256
  9
$CELTSCALE
 40
1.0
  9
$DISPSILH
 70
     0
  9
$DIMSCALE
 40
1.0
  9
$DIMASZ
 40
2.5
  9
$DIMEXO
 40
1.5
  9
$DIMDLI
 40
5.0
  9
$DIMRND
 40
0.0
  9
$DIMDLE
 40
0.0
  9
$DIMEXE
 40
1.0
  9
$DIMTP
 40
0.0
  9
$DIMTM
 40
0.0
  9
$DIMTXT
 40
3.0
  9
$DIMCEN
 40
0.0
  9
$DIMTSZ
 40
0.0
  9
$DIMTOL
 70
     0
  9
$DIMLIM
 70
     0
  9
$DIMTIH
 70
     0
  9
$DIMTOH
 70
     0
  9
$DIMSE1
 70
     0
  9
$DIMSE2
 70
     0
  9
$DIMTAD
 70
     3
  9
$DIMZIN
 70
     8
  9
$DIMBLK
  1
Open30
  9
$DIMASO
 70
     1
  9
$DIMSHO
 70
     0
  9
$DIMPOST
  1

  9
$DIMAPOST
  1

  9
$DIMALT
 70
     0
  9
$DIMALTD
 70
     0
  9
$DIMALTF
 40
25.4
  9
$DIMLFAC
 40
1.0
  9
$DIMTOFL
 70
     1
  9
$DIMTVP
 40
0.0
  9
$DIMTIX
 70
     0
  9
$DIMSOXD
 70
     0
  9
$DIMSAH
 70
     0
  9
$DIMBLK1
  1

  9
$DIMBLK2
  1

  9
$DIMSTYLE
  2
STANDARD
  9
$DIMCLRD
 70
     8
  9
$DIMCLRE
 70
     8
  9
$DIMCLRT
 70
   256
  9
$DIMTFAC
 40
1.0
  9
$DIMGAP
 40
1.0
  9
$DIMJUST
 70
     0
  9
$DIMSD1
 70
     0
  9
$DIMSD2
 70
     0
  9
$DIMTOLJ
 70
     1
  9
$DIMTZIN
 70
     0
  9
$DIMALTZ
 70
     0
  9
$DIMALTTZ
 70
     0
  9
$DIMUPT
 70
     0
  9
$DIMDEC
 70
     2
  9
$DIMTDEC
 70
     2
  9
$DIMALTU
 70
     2
  9
$DIMALTTD
 70
     0
  9
$DIMTXSTY
  7
STANDARD
  9
$DIMAUNIT
 70
     0
  9
$DIMADEC
 70
     2
  9
$DIMALTRND
 40
0.0
  9
$DIMAZIN
 70
     2
  9
$DIMDSEP
 70
    46
  9
$DIMATFIT
 70
     3
  9
$DIMFRAC
 70
     0
  9
$DIMLDRBLK
  1
Open30
  9
$DIMLUNIT
 70
     2
  9
$DIMLWD
 70
    -2
  9
$DIMLWE
 70
    -2
  9
$DIMTMOVE
 70
     0
  9
$LUNITS
 70
     2
  9
$LUPREC
 70
     2
  9
$SKETCHINC
 40
0.1
  9
$FILLETRAD
 40
0.0
  9
$AUNITS
 70
     0
  9
$AUPREC
 70
     1
  9
$MENU
  1
FM
  9
$ELEVATION
 40
0.0
  9
$PELEVATION
 40
0.0
  9
$THICKNESS
 40
0.0
  9
$LIMCHECK
 70
     0
  9
$CHAMFERA
 40
0.0
  9
$CHAMFERB
 40
0.0
  9
$CHAMFERC
 40
0.0
  9
$CHAMFERD
 40
0.0
  9
$SKPOLY
 70
     0
  9
$TDCREATE
 40
2448636.619629629
  9
$TDUCREATE
 40
2448636.244629629
  9
$TDUPDATE
 40
2456821.575482465
  9
$TDUUPDATE
 40
2456821.200482465
  9
$TDINDWG
 40
2.1990571991
  9
$TDUSRTIMER
 40
2456821.200343553
  9
$USRTIMER
 70
     1
  9
$ANGBASE
 50
0.0
  9
$ANGDIR
 70
     0
  9
$PDMODE
 70
     3
  9
$PDSIZE
 40
0.0
  9
$PLINEWID
 40
0.0
  9
$SPLFRAME
 70
     0
  9
$SPLINETYPE
 70
     6
  9
$SPLINESEGS
 70
     8
  9
$HANDSEED
  5
1C12F
  9
$SURFTAB1
 70
     6
  9
$SURFTAB2
 70
     6
  9
$SURFTYPE
 70
     6
  9
$SURFU
 70
     6
  9
$SURFV
 70
     6
  9
$UCSBASE
  2

  9
$UCSNAME
  2

  9
$UCSORG
 10
0.0
 20
0.0
 30
0.0
  9
$UCSXDIR
 10
1.0
 20
0.0
 30
0.0
  9
$UCSYDIR
 10
0.0
 20
1.0
 30
0.0
  9
$UCSORTHOREF
  2

  9
$UCSORTHOVIEW
 70
     0
  9
$UCSORGTOP
 10
0.0
 20
0.0
 30
0.0
  9
$UCSORGBOTTOM
 10
0.0
 20
0.0
 30
0.0
  9
$UCSORGLEFT
 10
0.0
 20
0.0
 30
0.0
  9
$UCSORGRIGHT
 10
0.0
 20
0.0
 30
0.0
  9
$UCSORGFRONT
 10
0.0
 20
0.0
 30
0.0
  9
$UCSORGBACK
 10
0.0
 20
0.0
 30
0.0
  9
$PUCSBASE
  2

  9
$PUCSNAME
  2

  9
$PUCSORG
 10
0.0
 20
0.0
 30
0.0
  9
$PUCSXDIR
 10
1.0
 20
0.0
 30
0.0
  9
$PUCSYDIR
 10
0.0
 20
1.0
 30
0.0
  9
$PUCSORTHOREF
  2

  9
$PUCSORTHOVIEW
 70
     0
  9
$PUCSORGTOP
 10
0.0
 20
0.0
 30
0.0
  9
$PUCSORGBOTTOM
 10
0.0
 20
0.0
 30
0.0
  9
$PUCSORGLEFT
 10
0.0
 20
0.0
 30
0.0
  9
$PUCSORGRIGHT
 10
0.0
 20
0.0
 30
0.0
  9
$PUCSORGFRONT
 10
0.0
 20
0.0
 30
0.0
  9
$PUCSORGBACK
 10
0.0
 20
0.0
 30
0.0
  9
$USERI1
 70
     0
  9
$USERI2
 70
     0
  9
$USERI3
 70
     0
  9
$USERI4
 70
     0
  9
$USERI5
 70
     0
  9
$USERR1
 40
0.0
  9
$USERR2
 40
0.0
  9
$USERR3
 40
0.0
  9
$USERR4
 40
0.0
  9
$USERR5
 40
0.0
  9
$WORLDVIEW
 70
     0
  9
$SHADEDGE
 70
     3
  9
$SHADEDIF
 70
    70
  9
$TILEMODE
 70
     1
  9
$MAXACTVP
 70
    16
  9
$PINSBASE
 10
0.0
 20
0.0
 30
0.0
  9
$PLIMCHECK
 70
     0
  9
$PEXTMIN
 10
1.000000000000000E+20
 20
1.000000000000000E+20
 30
1.000000000000000E+20
  9
$PEXTMAX
 10
-1.000000000000000E+20
 20
-1.000000000000000E+20
 30
-1.000000000000000E+20
  9
$PLIMMIN
 10
0.0
 20
0.0
  9
$PLIMMAX
 10
0.0
 20
0.0
  9
$UNITMODE
 70
     0
  9
$VISRETAIN
 70
     0
  9
$PLINEGEN
 70
     0
  9
$PSLTSCALE
 70
     0
  9
$TREEDEPTH
 70
  3020
  9
$CMLSTYLE
  2
STANDARD
  9
$CMLJUST
 70
     0
  9
$CMLSCALE
 40
1.0
  9
$PROXYGRAPHICS
 70
     1
  9
$MEASUREMENT
 70
     0
  9
$CELWEIGHT
370
    -1
  9
$ENDCAPS
280
     0
  9
$JOINSTYLE
280
     0
  9
$LWDISPLAY
290
     0
  9
$INSUNITS
 70
     0
  9
$HYPERLINKBASE
  1

  9
$STYLESHEET
  1
spax form.ctb
  9
$XEDIT
290
     1
  9
$CEPSNTYPE
380
     0
  9
$PSTYLEMODE
290
     1
  9
$FINGERPRINTGUID
  2
{BBAEEBA6-8B94-11D3-9160-00E0294F7E09}
  9
$VERSIONGUID
  2
{9D43FB4C-294D-4C6F-8863-BB60AC7800F4}
  9
$EXTNAMES
290
     1
  9
$PSVPSCALE
 40
0.0
  9
$OLESTARTUP
290
     0
  0
ENDSEC
  0
SECTION
  2
CLASSES
  0
CLASS
  1
LWPOLYLINE
  2
AcDbPolyline
  3
ObjectDBX Classes
 90
        0
280
     0
281
     1
  0
CLASS
  1
ACDBDICTIONARYWDFLT
  2
AcDbDictionaryWithDefault
  3
ObjectDBX Classes
 90
        0
280
     0
281
     0
  0
CLASS
  1
ACDBPLACEHOLDER
  2
AcDbPlaceHolder
  3
ObjectDBX Classes
 90
        0
280
     0
281
     0
  0
CLASS
  1
LAYOUT
  2
AcDbLayout
  3
ObjectDBX Classes
 90
        0
280
     0
281
     0
  0
CLASS
  1
DICTIONARYVAR
  2
AcDbDictionaryVar
  3
ObjectDBX Classes
 90
        0
280
     0
281
     0
  0
CLASS
  1
MATERIAL
  2
AcDbMaterial
  3
ObjectDBX Classes
 90
     1153
280
     0
281
     0
  0
CLASS
  1
VISUALSTYLE
  2
AcDbVisualStyle
  3
ObjectDBX Classes
 90
     4095
280
     0
281
     0
  0
CLASS
  1
TABLESTYLE
  2
AcDbTableStyle
  3
ObjectDBX Classes
 90
     4095
280
     0
281
     0
  0
CLASS
  1
SCALE
  2
AcDbScale
  3
ObjectDBX Classes
 90
     1153
280
     0
281
     0
  0
CLASS
  1
MLEADERSTYLE
  2
AcDbMLeaderStyle
  3
ACDB_MLEADERSTYLE_CLASS
 90
     4095
280
     0
281
     0
  0
CLASS
  1
CELLSTYLEMAP
  2
AcDbCellStyleMap
  3
ObjectDBX Classes
 90
     1152
280
     0
281
     0
  0
CLASS
  1
SORTENTSTABLE
  2
AcDbSortentsTable
  3
ObjectDBX Classes
 90
        0
280
     0
281
     0
  0
CLASS
  1
RASTERVARIABLES
  2
AcDbRasterVariables
  3
ISM
 90
        0
280
     0
281
     0
  0
CLASS
  1
SUN
  2
AcDbSun
  3
SCENEOE
 90
     1153
280
     0
281
     0
  0
ENDSEC
  0
SECTION
  2
TABLES
  0
TABLE
  2
VPORT
  5
8
330
0
100
AcDbSymbolTable
 70
     1
  0
VPORT
  5
1B5BF
330
8
100
AcDbSymbolTableRecord
100
AcDbViewportTableRecord
  2
*Active
 70
     0
 10
0.0
 20
0.0
 11
1.0
 21
1.0
 12
2388.728861838367
 22
-150.5736153599171
 13
0.0
 23
0.0
 14
1.0
 24
1.0
 15
20.0
 25
20.0
 16
0.0
 26
0.0
 36
1.0
 17
0.0
 27
0.0
 37
0.0
 40
84.14601422529438
 41
1.731829573934837
 42
50.0
 43
0.0
 44
0.0
 50
0.0
 51
0.0
 71
    16
 72
   100
 73
     1
 74
     0
 75
     0
 76
     0
 77
     0
 78
     0
281
     0
 65
     1
110
0.0
120
0.0
130
0.0
111
1.0
121
0.0
131
0.0
112
0.0
122
1.0
132
0.0
 79
     0
146
0.0
  0
ENDTAB
  0
TABLE
  2
LTYPE
  5
5
330
0
100
AcDbSymbolTable
 70
     5
  0
LTYPE
  5
12
330
5
100
AcDbSymbolTableRecord
100
AcDbLinetypeTableRecord
  2
BYBLOCK
 70
     0
  3

 72
    65
 73
     0
 40
0.0
  0
LTYPE
  5
13
330
5
100
AcDbSymbolTableRecord
100
AcDbLinetypeTableRecord
  2
BYLAYER
 70
     0
  3

 72
    65
 73
     0
 40
0.0
  0
LTYPE
  5
14
330
5
100
AcDbSymbolTableRecord
100
AcDbLinetypeTableRecord
  2
CONTINUOUS
 70
     0
  3
Solid line
 72
    65
 73
     0
 40
0.0
  0
LTYPE
  5
26
330
5
100
AcDbSymbolTableRecord
100
AcDbLinetypeTableRecord
  2
PHANTOM
 70
     0
  3
_____ _ _ _____ _ _ _____ _ _ _____ _ _ ____
 72
    65
 73
     6
 40
2.5
 49
1.25
 74
     0
 49
-0.25
 74
     0
 49
0.25
 74
     0
 49
-0.25
 74
     0
 49
0.25
 74
     0
 49
-0.25
 74
     0
  0
LTYPE
  5
514
330
5
100
AcDbSymbolTableRecord
100
AcDbLinetypeTableRecord
  2
CENTER
 70
     0
  3
Center ____ _ ____ _ ____ _ ____ _ ____ _ ____
 72
    65
 73
     4
 40
2.0
 49
1.25
 74
     0
 49
-0.25
 74
     0
 49
0.25
 74
     0
 49
-0.25
 74
     0
  0
ENDTAB
  0
TABLE
  2
LAYER
  5
2
102
{ACAD_XDICTIONARY
360
117A8
102
}
330
0
100
AcDbSymbolTable
 70
    10
  0
LAYER
  5
F
102
{ACAD_XDICTIONARY
360
11762
102
}
330
2
100
AcDbSymbolTableRecord
100
AcDbLayerTableRecord
  2
0
 70
     0
 62
     7
  6
CONTINUOUS
370
    -3
390
616
  0
LAYER
  5
34
102
{ACAD_XDICTIONARY
360
11766
102
}
330
2
100
AcDbSymbolTableRecord
100
AcDbLayerTableRecord
  2
寸法線
 70
     0
 62
     7
  6
CONTINUOUS
370
    -3
390
616
  0
LAYER
  5
2F4
102
{ACAD_XDICTIONARY
360
1176E
102
}
330
2
100
AcDbSymbolTableRecord
100
AcDbLayerTableRecord
  2
文字
 70
     0
 62
     7
  6
CONTINUOUS
370
    -3
390
616
  0
LAYER
  5
305
102
{ACAD_XDICTIONARY
360
11772
102
}
330
2
100
AcDbSymbolTableRecord
100
AcDbLayerTableRecord
  2
姿図
 70
     0
 62
     8
  6
CONTINUOUS
370
    -3
390
616
  0
ENDTAB
  0
TABLE
  2
STYLE
  5
3
330
0
100
AcDbSymbolTable
 70
     1
  0
STYLE
  5
10
330
3
100
AcDbSymbolTableRecord
100
AcDbTextStyleTableRecord
  2
STANDARD
 70
     0
 40
0.0
 41
1.0
 50
0.0
 71
     0
 42
3.5
  3
MONOTXT
  4
BIGFONT
  0
ENDTAB
  0
TABLE
  2
VIEW
  5
6
330
0
100
AcDbSymbolTable
 70
     0
  0
ENDTAB
  0
TABLE
  2
UCS
  5
7
330
0
100
AcDbSymbolTable
 70
     0
  0
ENDTAB
  0
TABLE
  2
APPID
  5
9
330
0
100
AcDbSymbolTable
 70
     8
  0
APPID
  5
11
330
9
100
AcDbSymbolTableRecord
100
AcDbRegAppTableRecord
  2
ACAD
 70
     0
  0
APPID
  5
E61B
330
9
100
AcDbSymbolTableRecord
100
AcDbRegAppTableRecord
  2
DCO15
 70
     0
  0
APPID
  5
10CCB
330
9
100
AcDbSymbolTableRecord
100
AcDbRegAppTableRecord
  2
ACAD_MLEADERVER
 70
     0
  0
APPID
  5
117A4
330
9
100
AcDbSymbolTableRecord
100
AcDbRegAppTableRecord
  2
ACAD_PSEXT
 70
     0
  0
APPID
  5
117A5
330
9
100
AcDbSymbolTableRecord
100
AcDbRegAppTableRecord
  2
AcadAnnotative
 70
     0
  0
APPID
  5
117A6
330
9
100
AcDbSymbolTableRecord
100
AcDbRegAppTableRecord
  2
ACAD_DSTYLE_DIMJAG
 70
     0
  0
APPID
  5
117A7
330
9
100
AcDbSymbolTableRecord
100
AcDbRegAppTableRecord
  2
ACAD_DSTYLE_DIMTALN
 70
     0
  0
APPID
  5
12CC5
330
9
100
AcDbSymbolTableRecord
100
AcDbRegAppTableRecord
  2
ACAD_EXEMPT_FROM_CAD_STANDARDS
 70
     0
  0
ENDTAB
  0
TABLE
  2
DIMSTYLE
  5
A
330
0
100
AcDbSymbolTable
 70
     2
100
AcDbDimStyleTable
  0
DIMSTYLE
105
1CC
330
A
100
AcDbSymbolTableRecord
100
AcDbDimStyleTableRecord
  2
STANDARD
 70
     0
 41
2.5
 42
1.5
 43
5.0
 44
1.0
 73
     0
 74
     0
 77
     3
 78
     8
 79
     2
140
3.0
141
0.0
147
1.0
171
     0
172
     1
176
     8
177
     8
271
     2
178
   256
179
     2
271
     2
272
     2
274
     0
340
10
341
10BC6
342
10BC6
343
10BC6
344
608
  0
ENDTAB
  0
TABLE
  2
BLOCK_RECORD
  5
1
330
0
100
AcDbSymbolTable
 70
    47
  0
BLOCK_RECORD
  5
18
102
{ACAD_XDICTIONARY
360
13827
102
}
330
1
100
AcDbSymbolTableRecord
100
AcDbBlockTableRecord
  2
*MODEL_SPACE
340
619
  0
BLOCK_RECORD
  5
15
330
1
100
AcDbSymbolTableRecord
100
AcDbBlockTableRecord
  2
*PAPER_SPACE
340
61A
  0
BLOCK_RECORD
  5
608
330
1
100
AcDbSymbolTableRecord
100
AcDbBlockTableRecord
  2
_OPEN
340
0
  0
BLOCK_RECORD
  5
10BC6
330
1
100
AcDbSymbolTableRecord
100
AcDbBlockTableRecord
  2
_Open30
340
0
102
{BLKREFS
331
10BCF
331
10BD0
331
10BDA
331
10BDB
331
10BE3
331
10BE4
331
10BED
331
10BEE
331
10BF6
331
10BF7
331
10BFF
331
10C00
331
10C08
331
10C09
331
10C12
331
10C13
331
10C1B
331
10C1C
331
10C26
331
10C27
331
11737
331
11738
331
11740
331
11741
331
1174A
331
1174B
331
11753
331
11754
331
1175C
331
1175D
331
12C85
331
12C86
331
12C8E
331
12C8F
331
12C98
331
12C99
331
12CA1
331
12CA2
331
12CAA
331
12CAB
331
19D43
331
19D44
331
19D4C
331
19D4D
331
19D55
331
19D56
331
19D5E
331
19D5F
331
19DE2
331
19DE3
331
19DEB
331
19DEC
331
19DF4
331
19DF5
331
19DFD
331
19DFE
331
1AA3D
331
1AA3E
331
1AA46
331
1AA47
331
1AA4F
331
1AA50
331
1AA59
331
1AA5A
331
1B585
331
1B586
331
1B58E
331
1B58F
331
1B597
331
1B598
331
1C0C7
331
1C0C8
331
1C0D0
331
1C0D1
331
1C0D9
331
1C0DA
102
}
  0
ENDTAB
  0
ENDSEC
  0
SECTION
  2
BLOCKS
  0
BLOCK
  5
39
330
18
100
AcDbEntity
  8
0
100
AcDbBlockBegin
  2
*MODEL_SPACE
 70
     0
 10
0.0
 20
0.0
 30
0.0
  3
*MODEL_SPACE
  1
*MODEL_SPACE
  0
ENDBLK
  5
3A
330
18
100
AcDbEntity
  8
0
100
AcDbBlockEnd
  0
BLOCK
  5
37
330
15
100
AcDbEntity
 67
     1
  8
0
100
AcDbBlockBegin
  2
*PAPER_SPACE
 70
     0
 10
0.0
 20
0.0
 30
0.0
  3
*PAPER_SPACE
  1
*PAPER_SPACE
  0
ENDBLK
  5
38
330
15
100
AcDbEntity
 67
     1
  8
0
100
AcDbBlockEnd
  0
BLOCK
  5
609
330
608
100
AcDbEntity
  8
0
100
AcDbBlockBegin
  2
_OPEN
 70
     0
 10
0.0
 20
0.0
 30
0.0
  3
_OPEN
  1
_OPEN
  0
LINE
  5
60A
330
608
100
AcDbEntity
  8
0
  6
ByBlock
 62
     0
100
AcDbLine
 10
-1.0
 20
0.1666666666666667
 30
0.0
 11
0.0
 21
0.0
 31
0.0
  0
LINE
  5
60B
330
608
100
AcDbEntity
  8
0
  6
ByBlock
 62
     0
100
AcDbLine
 10
0.0
 20
0.0
 30
0.0
 11
-1.0
 21
-0.1666666666666667
 31
0.0
  0
LINE
  5
60C
330
608
100
AcDbEntity
  8
0
  6
ByBlock
 62
     0
100
AcDbLine
 10
0.0
 20
0.0
 30
0.0
 11
-1.0
 21
0.0
 31
0.0
  0
ENDBLK
  5
60D
330
608
100
AcDbEntity
  8
0
100
AcDbBlockEnd
  0
BLOCK
  5
10BCA
330
10BC6
100
AcDbEntity
  8
0
100
AcDbBlockBegin
  2
_Open30
 70
     0
 10
0.0
 20
0.0
 30
0.0
  3
_Open30
  1
_Open30
  0
LINE
  5
10BC7
330
10BC6
100
AcDbEntity
  8
0
  6
ByBlock
 62
     0
370
    -2
100
AcDbLine
 10
-1.0
 20
0.26794919
 30
0.0
 11
0.0
 21
0.0
 31
0.0
  0
LINE
  5
10BC8
330
10BC6
100
AcDbEntity
  8
0
  6
ByBlock
 62
     0
370
    -2
100
AcDbLine
 10
0.0
 20
0.0
 30
0.0
 11
-1.0
 21
-0.26794919
 31
0.0
  0
LINE
  5
10BC9
330
10BC6
100
AcDbEntity
  8
0
  6
ByBlock
 62
     0
370
    -2
100
AcDbLine
 10
0.0
 20
0.0
 30
0.0
 11
-1.0
 21
0.0
 31
0.0
  0
ENDBLK
  5
10BCB
330
10BC6
100
AcDbEntity
  8
0
100
AcDbBlockEnd
  0
ENDSEC
  0
SECTION
  2
ENTITIES
  0
TEXT
  5
32B5
330
18
100
AcDbEntity
  8
文字
100
AcDbText
 10
1374.596143903034
 20
555.4379644620986
 30
0.0
 40
3.44
  1

100
AcDbText
  0
TEXT
  5
3E99
330
18
100
AcDbEntity
  8
文字
100
AcDbText
 10
1374.596143903034
 20
1131.857473480285
 30
0.0
 40
3.44
  1

100
AcDbText
  0
TEXT
  5
5BEB
330
18
100
AcDbEntity
  8
文字
100
AcDbText
 10
1374.596143903034
 20
-20.9815445560879
 30
0.0
 40
3.44
  1

100
AcDbText
  0
TEXT
  5
ABCE
330
18
100
AcDbEntity
  8
文字
100
AcDbText
 10
1374.596143903034
 20
1714.758882494316
 30
0.0
 40
3.44
  1

100
AcDbText
  0
LINE
  5
1B5C8
330
18
100
AcDbEntity
  8
姿図
100
AcDbLine
 10
2371.863104946236
 20
-153.7697925854142
 30
0.0
 11
2372.003951485107
 21
-154.1209347182277
 31
0.0
  0
ARC
  5
1B5C9
330
18
100
AcDbEntity
  8
姿図
100
AcDbCircle
 10
2390.751813689144
 20
-121.0093453877508
 30
0.0
 40
10.22278598436362
100
AcDbArc
 50
62.76850285566758
 51
70.88433192248098
  0
ARC
  5
1B5CA
330
18
100
AcDbEntity
  8
姿図
100
AcDbCircle
 10
2391.357171796304
 20
-118.3653635006223
 30
0.0
 40
7.49820056416878
100
AcDbArc
 50
72.48901557824543
 51
83.37017240574154
  0
ARC
  5
1B5CB
330
18
100
AcDbEntity
  8
姿図
100
AcDbCircle
 10
2390.518908496716
 20
-123.3455388954773
 30
0.0
 40
12.5183471768788
100
AcDbArc
 50
84.45978160156841
 51
90.80287533103944
  0
ARC
  5
1B5CC
330
18
100
AcDbEntity
  8
姿図
100
AcDbCircle
 10
2390.220366537517
 20
-116.9613604039893
 30
0.0
 40
6.141332273846576
100
AcDbArc
 50
93.24365212844822
 51
106.6502285820087
  0
ARC
  5
1B5CD
330
18
100
AcDbEntity
  8
姿図
100
AcDbCircle
 10
2388.776683097276
 20
-114.8934188865579
 30
0.0
 40
3.805988655204647
100
AcDbArc
 50
103.2376313139145
 51
125.145184101796
  0
LINE
  5
1B5CE
330
18
100
AcDbEntity
  8
姿図
100
AcDbLine
 10
2376.40020596582
 20
-135.1053661094694
 30
0.0
 11
2376.962271255637
 21
-134.3982054199843
 31
0.0
  0
LINE
  5
1B5CF
330
18
100
AcDbEntity
  8
姿図
100
AcDbLine
 10
2376.515676094482
 20
-129.7004718276027
 30
0.0
 11
2376.384018560797
 21
-135.863061747814
 31
0.0
  0
ARC
  5
1B5D0
330
18
100
AcDbEntity
  8
姿図
100
AcDbCircle
 10
2402.11093559682
 20
-133.5504298762017
 30
0.0
 40
1.607862445810594
100
AcDbArc
 50
42.69636713774147
 51
56.12973347161681
  0
ARC
  5
1B5D1
330
18
100
AcDbEntity
  8
姿図
100
AcDbCircle
 10
2390.94183161995
 20
-135.9931004995634
 30
0.0
 40
17.04720475928148
100
AcDbArc
 50
69.64678306275299
 51
110.8157935129394
  0
LINE
  5
1B5D2
330
18
100
AcDbEntity
  8
姿図
100
AcDbLine
 10
2404.896889473389
 20
-130.2032628432277
 30
0.0
 11
2404.962397812592
 21
-136.4001438269607
 31
0.0
  0
ARC
  5
1B5D3
330
18
100
AcDbEntity
  8
姿図
100
AcDbCircle
 10
2401.566229851083
 20
-144.2635144607203
 30
0.0
 40
3.450845033596016
100
AcDbArc
 50
12.81913927438651
 51
48.80510402841248
  0
ARC
  5
1B5D4
330
18
100
AcDbEntity
  8
姿図
100
AcDbCircle
 10
2395.050943090736
 20
-150.2754261946594
 30
0.0
 40
12.30249718714882
100
AcDbArc
 50
44.34359490364449
 51
79.22366257855555
  0
ARC
  5
1B5D5
330
18
100
AcDbEntity
  8
姿図
100
AcDbCircle
 10
2390.568592416789
 20
-163.3746739607019
 30
0.0
 40
26.08263536002879
100
AcDbArc
 50
74.89723041577766
 51
103.6002725992903
  0
ARC
  5
1B5D6
330
18
100
AcDbEntity
  8
姿図
100
AcDbCircle
 10
2386.855571249883
 20
-151.7363962089527
 30
0.0
 40
13.92529216795379
100
AcDbArc
 50
99.96213688778852
 51
131.4432276129797
  0
ARC
  5
1B5D7
330
18
100
AcDbEntity
  8
姿図
100
AcDbCircle
 10
2381.117627665582
 20
-144.9162793685783
 30
0.0
 40
5.019717803373259
100
AcDbArc
 50
133.9639200721463
 51
164.6147139170572
  0
LINE
  5
1B5D8
330
18
100
AcDbEntity
  8
姿図
100
AcDbLine
 10
2404.685475765244
 20
-133.998578965001
 30
0.0
 11
2404.72268007446
 21
-134.6774971334154
 31
0.0
  0
LINE
  5
1B5D9
330
18
100
AcDbEntity
  8
姿図
100
AcDbLine
 10
2376.789910545905
 20
-133.5705481470983
 30
0.0
 11
2376.718774282795
 21
-134.041798523088
 31
0.0
  0
ARC
  5
1B5DA
330
18
100
AcDbEntity
  8
姿図
100
AcDbCircle
 10
2398.545321477809
 20
-139.6983417865964
 30
0.0
 40
7.215052215152664
100
AcDbArc
 50
27.20189775310349
 51
35.00004946461229
  0
LINE
  5
1B5DB
330
18
100
AcDbEntity
  8
姿図
100
AcDbLine
 10
2404.448936187849
 20
-135.2951326001349
 30
0.0
 11
2404.436256929968
 21
-135.5344762184023
 31
0.0
  0
ARC
  5
1B5DC
330
18
100
AcDbEntity
  8
姿図
100
AcDbCircle
 10
2398.802437677798
 20
-139.1877981105946
 30
0.0
 40
6.858264372298297
100
AcDbArc
 50
34.58216941684866
 51
53.25955639035265
  0
ARC
  5
1B5DD
330
18
100
AcDbEntity
  8
姿図
100
AcDbCircle
 10
2392.724148407221
 20
-147.9816269419863
 30
0.0
 40
17.54544594868594
100
AcDbArc
 50
54.50611444873768
 51
66.66077417707012
  0
ARC
  5
1B5DE
330
18
100
AcDbEntity
  8
姿図
100
AcDbCircle
 10
2392.436487444567
 20
-148.0999291494987
 30
0.0
 40
17.76933376856992
100
AcDbArc
 50
65.97414726762403
 51
82.24955976118801
  0
ARC
  5
1B5DF
330
18
100
AcDbEntity
  8
姿図
100
AcDbCircle
 10
2390.441760061129
 20
-156.7676755602289
 30
0.0
 40
26.6389859756891
100
AcDbArc
 50
80.53548983359407
 51
101.9272810341425
  0
ARC
  5
1B5E0
330
18
100
AcDbEntity
  8
姿図
100
AcDbCircle
 10
2388.575841377927
 20
-148.9530620640536
 30
0.0
 40
18.60862403315867
100
AcDbArc
 50
101.2911751080493
 51
116.7488075271049
  0
ARC
  5
1B5E1
330
18
100
AcDbEntity
  8
姿図
100
AcDbCircle
 10
2383.440816241092
 20
-139.670997051349
 30
0.0
 40
8.01865105716256
100
AcDbArc
 50
113.9969872917203
 51
151.6481519903174
  0
LINE
  5
1B5E2
330
18
100
AcDbEntity
  8
姿図
100
AcDbLine
 10
2376.410690254639
 20
-148.3890675307276
 30
0.0
 11
2376.481888395002
 21
-148.5624602722042
 31
0.0
  0
ARC
  5
1B5E3
330
18
100
AcDbEntity
  8
姿図
100
AcDbCircle
 10
2390.79999450652
 20
-169.4094045394055
 30
0.0
 40
30.00706843485315
100
AcDbArc
 50
94.31332792512131
 51
106.4527785740698
  0
ARC
  5
1B5E4
330
18
100
AcDbEntity
  8
姿図
100
AcDbCircle
 10
2390.307027426621
 20
-166.7445374299679
 30
0.0
 40
27.31411363335211
100
AcDbArc
 50
71.67295501632032
 51
85.1162516158091
  0
LINE
  5
1B5E5
330
18
100
AcDbEntity
  8
姿図
100
AcDbLine
 10
2372.412394766749
 20
-154.3775506357844
 30
0.0
 11
2372.186327949951
 21
-155.0874493666653
 31
0.0
  0
LINE
  5
1B5E6
330
18
100
AcDbEntity
  8
姿図
100
AcDbLine
 10
2372.886336695474
 20
-141.6713104469592
 30
0.0
 11
2372.412394766749
 21
-154.3775506357844
 31
0.0
  0
ARC
  5
1B5E7
330
18
100
AcDbEntity
  8
姿図
100
AcDbCircle
 10
2402.204893353373
 20
-163.6946270695317
 30
0.0
 40
10.0254455530582
100
AcDbArc
 50
13.70046046632382
 51
22.70437974689424
  0
ARC
  5
1B5E8
330
18
100
AcDbEntity
  8
姿図
100
AcDbCircle
 10
2402.492937967217
 20
-165.0194632021067
 30
0.0
 40
10.35726125910092
100
AcDbArc
 50
30.10092971952032
 51
67.77350120351123
  0
ARC
  5
1B5E9
330
18
100
AcDbEntity
  8
姿図
100
AcDbCircle
 10
2380.596913403547
 20
-168.5394168218123
 30
0.0
 40
14.65849270865605
100
AcDbArc
 50
124.0118240638753
 51
138.6946390210262
  0
ARC
  5
1B5EA
330
18
100
AcDbEntity
  8
姿図
100
AcDbCircle
 10
2391.241776738939
 20
-189.7648880496739
 30
0.0
 40
37.53478236001548
100
AcDbArc
 50
66.16327990533664
 51
91.29781924383234
  0
ARC
  5
1B5EB
330
18
100
AcDbEntity
  8
姿図
100
AcDbCircle
 10
2388.985291445852
 20
-187.2468343708621
 30
0.0
 40
35.03401110430546
100
AcDbArc
 50
87.76797878117556
 51
118.2602568684162
  0
SPLINE
  5
1B5EC
330
18
100
AcDbEntity
  8
姿図
100
AcDbSpline
210
0.0
220
0.0
230
1.0
 70
    11
 71
     3
 72
    70
 73
    66
 74
     0
 42
0.000000001
 43
0.0000000001
 40
0.0
 40
0.0
 40
0.0
 40
0.0
 40
0.1325511003420694
 40
0.1325511003420694
 40
0.2651022006841388
 40
0.2651022006841388
 40
0.3976533010262082
 40
0.3976533010262082
 40
0.5302044013682776
 40
0.5302044013682776
 40
0.7397248520178367
 40
0.7397248520178367
 40
0.9492453026673957
 40
0.9492453026673957
 40
1.158765753316955
 40
1.158765753316955
 40
1.368286203966514
 40
1.368286203966514
 40
1.660455600340546
 40
1.660455600340546
 40
1.952624996714579
 40
1.952624996714579
 40
2.244794393088612
 40
2.244794393088612
 40
2.469780447170401
 40
2.469780447170401
 40
2.69476650125219
 40
2.69476650125219
 40
2.851074505126578
 40
2.851074505126578
 40
3.007382509000966
 40
3.007382509000966
 40
3.163690512875355
 40
3.163690512875355
 40
3.319998516749743
 40
3.319998516749743
 40
3.476306520624131
 40
3.476306520624131
 40
3.632614524498519
 40
3.632614524498519
 40
3.788922528372907
 40
3.788922528372907
 40
3.945230532247295
 40
3.945230532247295
 40
4.1996485318078
 40
4.1996485318078
 40
4.454066531368306
 40
4.454066531368306
 40
4.708484530928811
 40
4.708484530928811
 40
4.962902530489317
 40
4.962902530489317
 40
5.217320530049823
 40
5.217320530049823
 40
5.471738529610328
 40
5.471738529610328
 40
5.726156529170834
 40
5.726156529170834
 40
5.897880152543986
 40
5.897880152543986
 40
6.069603775917138
 40
6.069603775917138
 40
6.20406405414118
 40
6.20406405414118
 40
6.283185307179586
 40
6.283185307179586
 40
6.283185307179586
 40
6.283185307179586
 10
2373.722853130486
 20
-162.0052732427413
 30
0.0
 10
2373.716582826758
 20
-162.229177618981
 30
0.0
 10
2373.743098258375
 20
-162.4545079425494
 30
0.0
 10
2373.871434493769
 20
-162.9271037114728
 30
0.0
 10
2373.974023000539
 20
-163.1745146275804
 30
0.0
 10
2374.272059970765
 20
-163.6913049197525
 30
0.0
 10
2374.467713758717
 20
-163.960220092693
 30
0.0
 10
2374.95904738941
 20
-164.5067700584683
 30
0.0
 10
2375.254589574274
 20
-164.7841739059014
 30
0.0
 10
2376.142870417344
 20
-165.4933571021514
 30
0.0
 10
2376.808693932164
 20
-165.9207434587748
 30
0.0
 10
2378.350827318344
 20
-166.7212048465213
 30
0.0
 10
2379.226800848199
 20
-167.0944723928297
 30
0.0
 10
2381.143619140087
 20
-167.7604886275927
 30
0.0
 10
2382.184366351904
 20
-168.053347025659
 30
0.0
 10
2384.379444464438
 20
-168.5412126252985
 30
0.0
 10
2385.533713202789
 20
-168.7362594238526
 30
0.0
 10
2388.367564663596
 20
-169.0734895469094
 30
0.0
 10
2390.07468346915
 20
-169.1640250959796
 30
0.0
 10
2393.447442880467
 20
-169.1245890902186
 30
0.0
 10
2395.112744210376
 20
-168.9945821164969
 30
0.0
 10
2398.248662742469
 20
-168.5285236429144
 30
0.0
 10
2399.718961181913
 20
-168.1922684085208
 30
0.0
 10
2402.024507409141
 20
-167.4506942820286
 30
0.0
 10
2402.928038052804
 20
-167.0791337168235
 30
0.0
 10
2404.481604351108
 20
-166.2722401618399
 30
0.0
 10
2405.130893106204
 20
-165.8366554132627
 30
0.0
 10
2405.986510363536
 20
-165.0910971744366
 30
0.0
 10
2406.267558015711
 20
-164.783919849012
 30
0.0
 10
2406.69526103531
 20
-164.1886360428163
 30
0.0
 10
2406.842101048726
 20
-163.9015384491919
 30
0.0
 10
2407.026685659627
 20
-163.3531017806996
 30
0.0
 10
2407.066120225056
 20
-163.0915309835456
 30
0.0
 10
2407.054469086193
 20
-162.5619549165382
 30
0.0
 10
2407.0029617111
 20
-162.2918007971363
 30
0.0
 10
2406.786744857247
 20
-161.716658185942
 30
0.0
 10
2406.620604542263
 20
-161.4120940907566
 30
0.0
 10
2406.151400640516
 20
-160.7806004997198
 30
0.0
 10
2405.848416213875
 20
-160.4545124110147
 30
0.0
 10
2405.104608667794
 20
-159.8041875840028
 30
0.0
 10
2404.664092216633
 20
-159.4801242063128
 30
0.0
 10
2403.65682225752
 20
-158.8531365538043
 30
0.0
 10
2403.090206753624
 20
-158.5501786830038
 30
0.0
 10
2401.457412059803
 20
-157.8001267374153
 30
0.0
 10
2400.300673550877
 20
-157.3823285135251
 30
0.0
 10
2397.782131045877
 20
-156.6806355249352
 30
0.0
 10
2396.42051499043
 20
-156.3965616543547
 30
0.0
 10
2393.588802303228
 20
-155.9854244119462
 30
0.0
 10
2392.118870370885
 20
-155.8583181275031
 30
0.0
 10
2389.172584191785
 20
-155.770723676792
 30
0.0
 10
2387.69640169894
 20
-155.8102397933704
 30
0.0
 10
2384.84013723564
 20
-156.0523258071004
 30
0.0
 10
2383.460217727445
 20
-156.2549455695308
 30
0.0
 10
2380.89439254877
 20
-156.8057549230549
 30
0.0
 10
2379.708661939754
 20
-157.154127025549
 30
0.0
 10
2377.619660576184
 20
-157.9620116496582
 30
0.0
 10
2376.71694295288
 20
-158.4220128460385
 30
0.0
 10
2375.500386354049
 20
-159.234602057402
 30
0.0
 10
2375.090587770595
 20
-159.5730959871099
 30
0.0
 10
2374.439413445389
 20
-160.2435980210295
 30
0.0
 10
2374.198507990074
 20
-160.5746790918334
 30
0.0
 10
2373.90293378877
 20
-161.1363263232225
 30
0.0
 10
2373.818396369731
 20
-161.3728772902974
 30
0.0
 10
2373.742194695613
 20
-161.738261458892
 30
0.0
 10
2373.726595945797
 20
-161.8716221846727
 30
0.0
 10
2373.722853130486
 20
-162.0052732427413
 30
0.0
  0
ARC
  5
1B5ED
330
18
100
AcDbEntity
  8
姿図
100
AcDbCircle
 10
2393.370971058242
 20
-113.7946142692259
 30
0.0
 40
2.304033628122458
100
AcDbArc
 50
71.54136661980193
 51
83.70799580804429
  0
ARC
  5
1B5EE
330
18
100
AcDbEntity
  8
姿図
100
AcDbCircle
 10
2391.460164236568
 20
-114.1818428165017
 30
0.0
 40
3.037997754302832
100
AcDbArc
 50
75.66568337680155
 51
84.95818041633483
  0
ARC
  5
1B5EF
330
18
100
AcDbEntity
  8
姿図
100
AcDbCircle
 10
2390.567273308223
 20
-122.1705831558294
 30
0.0
 40
11.03172668071826
100
AcDbArc
 50
91.08276367018674
 51
93.63957692302081
  0
ARC
  5
1B5F0
330
18
100
AcDbEntity
  8
姿図
100
AcDbCircle
 10
2388.708280153423
 20
-113.4223542791307
 30
0.0
 40
2.060179311386563
100
AcDbArc
 50
96.54474250754198
 51
112.5115656931379
  0
LINE
  5
1B5F1
330
18
100
AcDbEntity
  8
姿図
100
AcDbLine
 10
2395.508179801491
 20
-112.0742640265995
 30
0.0
 11
2395.940909004639
 21
-112.0847408705714
 31
0.0
  0
LINE
  5
1B5F2
330
18
100
AcDbEntity
  8
姿図
100
AcDbLine
 10
2386.063682442139
 20
-111.9018063002587
 30
0.0
 11
2386.606400955735
 21
-111.8882977960703
 31
0.0
  0
LINE
  5
1B5F3
330
18
100
AcDbEntity
  8
姿図
100
AcDbLine
 10
2375.070894780512
 20
-131.305540331021
 30
0.0
 11
2375.590011051593
 21
-131.3231524701092
 31
0.0
  0
LINE
  5
1B5F4
330
18
100
AcDbEntity
  8
姿図
100
AcDbLine
 10
2405.791916459701
 20
-131.8644201334115
 30
0.0
 11
2406.302573797993
 21
-131.8833248205366
 31
0.0
  0
LINE
  5
1B5F5
330
18
100
AcDbEntity
  8
姿図
100
AcDbLine
 10
2405.725720152033
 20
-132.1007284780895
 30
0.0
 11
2406.362785210422
 21
-132.1810381484994
 31
0.0
  0
LINE
  5
1B5F6
330
18
100
AcDbEntity
  8
姿図
100
AcDbLine
 10
2405.725720152033
 20
-131.4579697675305
 30
0.0
 11
2405.725720152033
 21
-132.1007284780895
 31
0.0
  0
LINE
  5
1B5F7
330
18
100
AcDbEntity
  8
姿図
100
AcDbLine
 10
2406.382805055525
 20
-131.4682147586392
 30
0.0
 11
2405.725720152033
 21
-131.4579697675305
 31
0.0
  0
LINE
  5
1B5F8
330
18
100
AcDbEntity
  8
姿図
100
AcDbLine
 10
2406.392364082764
 20
-131.1278575697903
 30
0.0
 11
2406.324399239013
 21
-133.5478028822901
 31
0.0
  0
LINE
  5
1B5F9
330
18
100
AcDbEntity
  8
姿図
100
AcDbLine
 10
2404.689408428184
 20
-133.1156172812499
 30
0.0
 11
2404.685475765244
 21
-133.998578965001
 31
0.0
  0
ARC
  5
1B5FA
330
18
100
AcDbEntity
  8
姿図
100
AcDbCircle
 10
2389.010717186911
 20
-146.4102657763307
 30
0.0
 40
19.99369965743132
100
AcDbArc
 50
38.3731090674805
 51
42.37078970394073
  0
LINE
  5
1B5FB
330
18
100
AcDbEntity
  8
姿図
100
AcDbLine
 10
2404.493997201384
 20
-133.0847768220507
 30
0.0
 11
2404.689408428184
 21
-133.1156172812499
 31
0.0
  0
LINE
  5
1B5FC
330
18
100
AcDbEntity
  8
姿図
100
AcDbLine
 10
2404.257446821852
 20
-133.1772980367197
 30
0.0
 11
2404.493997201384
 21
-133.0847768220507
 31
0.0
  0
LINE
  5
1B5FD
330
18
100
AcDbEntity
  8
姿図
100
AcDbLine
 10
2403.963127700279
 20
-133.1425012686537
 30
0.0
 11
2404.257446821852
 21
-133.1772980367197
 31
0.0
  0
LINE
  5
1B5FE
330
18
100
AcDbEntity
  8
姿図
100
AcDbLine
 10
2404.624906074951
 20
-131.481324366665
 30
0.0
 11
2404.689408428184
 21
-133.1156172812499
 31
0.0
  0
LINE
  5
1B5FF
330
18
100
AcDbEntity
  8
姿図
100
AcDbLine
 10
2405.603823067139
 20
-131.03260756979
 30
0.0
 11
2405.535858223388
 21
-133.6021251479152
 31
0.0
  0
LINE
  5
1B600
330
18
100
AcDbEntity
  8
姿図
100
AcDbLine
 10
2388.963090597809
 20
-123.6948104028394
 30
0.0
 11
2389.443853555791
 21
-123.3547606302465
 31
0.0
  0
LINE
  5
1B601
330
18
100
AcDbEntity
  8
姿図
100
AcDbLine
 10
2393.221255125424
 20
-123.622629724594
 30
0.0
 11
2393.434753714577
 21
-123.7729469775778
 31
0.0
  0
ARC
  5
1B602
330
18
100
AcDbEntity
  8
姿図
100
AcDbCircle
 10
2391.400650296514
 20
-126.641003975502
 30
0.0
 40
3.576283893433354
100
AcDbArc
 50
54.80213643771551
 51
92.576480809209
  0
ARC
  5
1B603
330
18
100
AcDbEntity
  8
姿図
100
AcDbCircle
 10
2390.876125404388
 20
-126.5616027949656
 30
0.0
 40
3.512155935847192
100
AcDbArc
 50
84.05510899897504
 51
126.4514804045786
  0
ARC
  5
1B604
330
18
100
AcDbEntity
  8
姿図
100
AcDbCircle
 10
2391.057606927567
 20
-130.7173324717361
 30
0.0
 40
9.055480311453088
100
AcDbArc
 50
113.479996230463
 51
120.6671343438475
  0
ARC
  5
1B605
330
18
100
AcDbEntity
  8
姿図
100
AcDbCircle
 10
2388.284700433471
 20
-122.1015606564134
 30
0.0
 40
0.9127834094668069
100
AcDbArc
 50
232.8158063709365
 51
301.708005943709
  0
LINE
  5
1B606
330
18
100
AcDbEntity
  8
姿図
100
AcDbLine
 10
2387.896655190598
 20
-123.2353502700267
 30
0.0
 11
2388.000015514897
 21
-122.9684574258796
 31
0.0
  0
ARC
  5
1B607
330
18
100
AcDbEntity
  8
姿図
100
AcDbCircle
 10
2388.232575679098
 20
-122.6337566134608
 30
0.0
 40
0.6890264887612664
100
AcDbArc
 50
240.8216921979882
 51
334.1651458234196
  0
ARC
  5
1B608
330
18
100
AcDbEntity
  8
姿図
100
AcDbCircle
 10
2388.268263461137
 20
-122.8587028614758
 30
0.0
 40
1.032349362678307
100
AcDbArc
 50
80.4636561566025
 51
137.3425886584108
  0
LINE
  5
1B609
330
18
100
AcDbEntity
  8
姿図
100
AcDbLine
 10
2387.449642140306
 20
-122.4116528628784
 30
0.0
 11
2387.896655190598
 21
-123.2353502700267
 31
0.0
  0
LINE
  5
1B60A
330
18
100
AcDbEntity
  8
姿図
100
AcDbLine
 10
2387.509054665608
 20
-122.1591692944372
 30
0.0
 11
2387.449642140306
 21
-122.4116528628784
 31
0.0
  0
LINE
  5
1B60B
330
18
100
AcDbEntity
  8
姿図
100
AcDbLine
 10
2388.447909332017
 20
-122.3399677778449
 30
0.0
 11
2388.852736619609
 21
-122.9340196815839
 31
0.0
  0
LINE
  5
1B60C
330
18
100
AcDbEntity
  8
姿図
100
AcDbLine
 10
2388.439296076375
 20
-121.8406198338467
 30
0.0
 11
2388.447909332017
 21
-122.3399677778449
 31
0.0
  0
ARC
  5
1B60D
330
18
100
AcDbEntity
  8
姿図
100
AcDbCircle
 10
2391.057606927567
 20
-130.7173324717361
 30
0.0
 40
9.055480311453088
100
AcDbArc
 50
60.34291278487574
 51
106.7829454507744
  0
ARC
  5
1B60E
330
18
100
AcDbEntity
  8
姿図
100
AcDbCircle
 10
2390.923190763233
 20
-121.5541128956648
 30
0.0
 40
2.442594144222008
100
AcDbArc
 50
64.66453895353716
 51
111.9618139013409
  0
LINE
  5
1B60F
330
18
100
AcDbEntity
  8
姿図
100
AcDbLine
 10
2391.95933068666
 20
-118.9762886432219
 30
0.0
 11
2391.974294613806
 21
-119.585756030721
 31
0.0
  0
LINE
  5
1B610
330
18
100
AcDbEntity
  8
姿図
100
AcDbLine
 10
2390.000331546028
 20
-119.5883267071218
 30
0.0
 11
2390.019618714529
 21
-118.9708587711085
 31
0.0
  0
ARC
  5
1B611
330
18
100
AcDbEntity
  8
姿図
100
AcDbCircle
 10
2392.176906160878
 20
-123.6442777333951
 30
0.0
 40
4.06357599290132
100
AcDbArc
 50
36.95215183162513
 51
92.85797582242934
  0
ARC
  5
1B612
330
18
100
AcDbEntity
  8
姿図
100
AcDbCircle
 10
2389.959658421463
 20
-124.1510086822396
 30
0.0
 40
4.56286325777215
100
AcDbArc
 50
89.48926165254159
 51
137.5831759731869
  0
ARC
  5
1B613
330
18
100
AcDbEntity
  8
姿図
100
AcDbCircle
 10
2390.509006143371
 20
-123.8864447813422
 30
0.0
 40
5.085182540573665
100
AcDbArc
 50
351.417225785025
 51
8.065037385838528
  0
ARC
  5
1B614
330
18
100
AcDbEntity
  8
姿図
100
AcDbCircle
 10
2402.063207213477
 20
-121.7097105211393
 30
0.0
 40
15.68863784102488
100
AcDbArc
 50
185.2576811854621
 51
190.5437002023272
  0
LINE
  5
1B615
330
18
100
AcDbEntity
  8
姿図
100
AcDbLine
 10
2395.482061993459
 20
-119.5616216172367
 30
0.0
 11
2395.543893447606
 21
-123.1730085160676
 31
0.0
  0
LINE
  5
1B616
330
18
100
AcDbEntity
  8
姿図
100
AcDbLine
 10
2386.426819652286
 20
-121.3895016437783
 30
0.0
 11
2386.440576935602
 21
-123.1473406918273
 31
0.0
  0
LINE
  5
1B617
330
18
100
AcDbEntity
  8
姿図
100
AcDbLine
 10
2386.591091265786
 20
-121.0732698325606
 30
0.0
 11
2386.426819652286
 21
-121.3895016437783
 31
0.0
  0
LINE
  5
1B618
330
18
100
AcDbEntity
  8
姿図
100
AcDbLine
 10
2386.635462901186
 20
-119.4987869775365
 30
0.0
 11
2386.591091265786
 21
-121.0732698325606
 31
0.0
  0
ARC
  5
1B619
330
18
100
AcDbEntity
  8
姿図
100
AcDbCircle
 10
2394.617017702061
 20
-126.8684875585301
 30
0.0
 40
2.21239093574927
100
AcDbArc
 50
14.15502751960981
 51
35.05628734041766
  0
ARC
  5
1B61A
330
18
100
AcDbEntity
  8
姿図
100
AcDbCircle
 10
2393.134279734427
 20
-127.7857623132855
 30
0.0
 40
3.954292400972742
100
AcDbArc
 50
33.59578748635622
 51
69.39470577446778
  0
ARC
  5
1B61B
330
18
100
AcDbEntity
  8
姿図
100
AcDbCircle
 10
2391.032765265113
 20
-134.254016952677
 30
0.0
 40
10.75278458513335
100
AcDbArc
 50
71.04295375030347
 51
92.69225774055056
  0
ARC
  5
1B61C
330
18
100
AcDbEntity
  8
姿図
100
AcDbCircle
 10
2390.582812985378
 20
-130.8145389206585
 30
0.0
 40
7.301646032248016
100
AcDbArc
 50
90.4325434324148
 51
124.3684461405219
  0
ARC
  5
1B61D
330
18
100
AcDbEntity
  8
姿図
100
AcDbCircle
 10
2387.60781840443
 20
-126.6868946115134
 30
0.0
 40
2.218719332907516
100
AcDbArc
 50
121.1251399641634
 51
174.1952847466578
  0
LINE
  5
1B61E
330
18
100
AcDbEntity
  8
姿図
100
AcDbLine
 10
2396.762235133481
 20
-126.3274553741686
 30
0.0
 11
2396.717667793701
 21
-127.8662892104149
 31
0.0
  0
LINE
  5
1B61F
330
18
100
AcDbEntity
  8
姿図
100
AcDbLine
 10
2385.464959297607
 20
-127.7273829604152
 30
0.0
 11
2385.400475801489
 21
-126.4624973934789
 31
0.0
  0
ARC
  5
1B620
330
18
100
AcDbEntity
  8
姿図
100
AcDbCircle
 10
2395.08474770289
 20
-121.4641773946397
 30
0.0
 40
6.23813699003056
100
AcDbArc
 50
285.7123076237912
 51
311.5945141074648
  0
ARC
  5
1B621
330
18
100
AcDbEntity
  8
姿図
100
AcDbCircle
 10
2386.917062796443
 20
-122.0225564913036
 30
0.0
 40
5.354064230733493
100
AcDbArc
 50
217.8962279342437
 51
254.2401560289841
  0
ARC
  5
1B622
330
18
100
AcDbEntity
  8
姿図
100
AcDbCircle
 10
2393.372263273473
 20
-113.0618372299288
 30
0.0
 40
2.353176628855195
100
AcDbArc
 50
24.81417256257181
 51
33.26335909417685
  0
ARC
  5
1B623
330
18
100
AcDbEntity
  8
姿図
100
AcDbCircle
 10
2386.92198148434
 20
-111.7719460020954
 30
0.0
 40
0.3363462650242364
100
AcDbArc
 50
157.0047897508268
 51
200.2384915194921
  0
ARC
  5
1B624
330
18
100
AcDbEntity
  8
姿図
100
AcDbCircle
 10
2405.758702557527
 20
-118.2044079789586
 30
0.0
 40
20.64606372466649
100
AcDbArc
 50
164.9003244817234
 51
183.4293730746027
  0
ARC
  5
1B625
330
18
100
AcDbEntity
  8
姿図
100
AcDbCircle
 10
2393.447612153175
 20
-111.2129860068382
 30
0.0
 40
0.3170251650578048
100
AcDbArc
 50
59.73516729332591
 51
73.62991183404229
  0
ARC
  5
1B626
330
18
100
AcDbEntity
  8
姿図
100
AcDbCircle
 10
2414.22822535097
 20
-110.6350731209801
 30
0.0
 40
20.62307542250036
100
AcDbArc
 50
178.95190729556
 51
182.4160770027973
  0
ARC
  5
1B627
330
18
100
AcDbEntity
  8
姿図
100
AcDbCircle
 10
2333.873264837151
 20
-109.1589717040453
 30
0.0
 40
58.37609345540698
100
AcDbArc
 50
357.958597241784
 51
358.5388039584512
  0
ARC
  5
1B628
330
18
100
AcDbEntity
  8
姿図
100
AcDbCircle
 10
2395.732487411315
 20
-111.0255788821183
 30
0.0
 40
4.007445133883937
100
AcDbArc
 50
174.1392337818267
 51
181.8592762369348
  0
ARC
  5
1B629
330
18
100
AcDbEntity
  8
姿図
100
AcDbCircle
 10
2394.404322064164
 20
-110.7859447887487
 30
0.0
 40
4.061047289207732
100
AcDbArc
 50
176.9402153515003
 51
185.0132830992028
  0
ARC
  5
1B62A
330
18
100
AcDbEntity
  8
姿図
100
AcDbCircle
 10
2454.820680332961
 20
-112.1516145688121
 30
0.0
 40
64.961251727473
100
AcDbArc
 50
178.6041508399601
 51
179.1263384126918
  0
ARC
  5
1B62B
330
18
100
AcDbEntity
  8
姿図
100
AcDbCircle
 10
2380.604332455133
 20
-111.5632078037466
 30
0.0
 40
7.871366429208836
100
AcDbArc
 50
1.365722849775118
 51
5.341181684552102
  0
ARC
  5
1B62C
330
18
100
AcDbEntity
  8
姿図
100
AcDbCircle
 10
2391.202802040167
 20
-111.2110230821301
 30
0.0
 40
3.297729771971056
100
AcDbArc
 50
174.7419248563001
 51
185.3614170438373
  0
ARC
  5
1B62D
330
18
100
AcDbEntity
  8
姿図
100
AcDbCircle
 10
2390.224095466756
 20
-122.2370100068875
 30
0.0
 40
10.96282618659023
100
AcDbArc
 50
102.1351952757498
 51
109.2685643810331
  0
ARC
  5
1B62E
330
18
100
AcDbEntity
  8
姿図
100
AcDbCircle
 10
2389.995729793332
 20
-116.63147095857
 30
0.0
 40
5.471879688903019
100
AcDbArc
 50
91.34825162537344
 51
106.1526956119195
  0
ARC
  5
1B62F
330
18
100
AcDbEntity
  8
姿図
100
AcDbCircle
 10
2390.877428875441
 20
-126.4820570480443
 30
0.0
 40
15.34999435262498
100
AcDbArc
 50
86.82667943648595
 51
91.93617680841405
  0
ARC
  5
1B630
330
18
100
AcDbEntity
  8
姿図
100
AcDbCircle
 10
2392.030631099298
 20
-116.0779206280887
 30
0.0
 40
4.842904449114553
100
AcDbArc
 50
70.79771794575369
 51
87.85007887216375
  0
ARC
  5
1B631
330
18
100
AcDbEntity
  8
姿図
100
AcDbCircle
 10
2388.8794026862
 20
-111.4986451337164
 30
0.0
 40
5.222239874812963
100
AcDbArc
 50
358.7878634453281
 51
4.468807970965628
  0
ARC
  5
1B632
330
18
100
AcDbEntity
  8
姿図
100
AcDbCircle
 10
2392.61623649955
 20
-118.4636623043199
 30
0.0
 40
7.013397636878466
100
AcDbArc
 50
65.64773604258194
 51
77.78217439901394
  0
ARC
  5
1B633
330
18
100
AcDbEntity
  8
姿図
100
AcDbCircle
 10
2369.851565008692
 20
-121.6468605628821
 30
0.0
 40
27.58178528774918
100
AcDbArc
 50
4.590443487710444
 51
18.65099996680028
  0
ARC
  5
1B634
330
18
100
AcDbEntity
  8
姿図
100
AcDbCircle
 10
2390.94183161995
 20
-135.9931004995634
 30
0.0
 40
17.33520475928148
100
AcDbArc
 50
71.35276458398913
 51
109.4717975942518
  0
ARC
  5
1B635
330
18
100
AcDbEntity
  8
姿図
100
AcDbCircle
 10
2393.836397179435
 20
-125.8710133411602
 30
0.0
 40
10.67389565927747
100
AcDbArc
 50
144.34635914812
 51
155.8581663282539
  0
ARC
  5
1B636
330
18
100
AcDbEntity
  8
姿図
100
AcDbCircle
 10
2410.047258409636
 20
-133.2413396844332
 30
0.0
 40
28.48148714661508
100
AcDbArc
 50
155.6660590133419
 51
165.0660546530638
  0
ARC
  5
1B637
330
18
100
AcDbEntity
  8
姿図
100
AcDbCircle
 10
2389.722971470823
 20
-125.8641517498592
 30
0.0
 40
9.239174097593345
100
AcDbArc
 50
28.27476313280771
 51
42.958848014924
  0
ARC
  5
1B638
330
18
100
AcDbEntity
  8
姿図
100
AcDbCircle
 10
2379.492137346057
 20
-129.415424324042
 30
0.0
 40
20.0055389844919
100
AcDbArc
 50
8.50335465973293
 51
23.34607013286019
  0
ARC
  5
1B639
330
18
100
AcDbEntity
  8
姿図
100
AcDbCircle
 10
2403.480047659597
 20
-131.2302713922287
 30
0.0
 40
1.89922636815973
100
AcDbArc
 50
174.9394242146408
 51
180.7612721143542
  0
ARC
  5
1B63A
330
18
100
AcDbEntity
  8
姿図
100
AcDbCircle
 10
2340.125463689571
 20
-131.9854512320572
 30
0.0
 40
61.46968647557878
100
AcDbArc
 50
0.8600872037795718
 51
6.115015456986646
  0
ARC
  5
1B63B
330
18
100
AcDbEntity
  8
姿図
100
AcDbCircle
 10
2401.335446952032
 20
-131.5004039290321
 30
0.0
 40
0.5054145232443293
100
AcDbArc
 50
10.76860951313733
 51
59.99080121585629
  0
ARC
  5
1B63C
330
18
100
AcDbEntity
  8
姿図
100
AcDbCircle
 10
2396.224732454566
 20
-140.4741193825772
 30
0.0
 40
10.66172277543556
100
AcDbArc
 50
52.63587060392677
 51
70.78208324591264
  0
ARC
  5
1B63D
330
18
100
AcDbEntity
  8
姿図
100
AcDbCircle
 10
2390.559420903903
 20
-155.2163617606344
 30
0.0
 40
26.58464639976069
100
AcDbArc
 50
76.60595789986839
 51
100.9608874613386
  0
ARC
  5
1B63E
330
18
100
AcDbEntity
  8
姿図
100
AcDbCircle
 10
2439.54399123917
 20
-131.9096349181683
 30
0.0
 40
59.34637850583563
100
AcDbArc
 50
173.1011023855523
 51
178.4510389818608
  0
ARC
  5
1B63F
330
18
100
AcDbEntity
  8
姿図
100
AcDbCircle
 10
2382.039433483159
 20
-130.3493715045985
 30
0.0
 40
1.820665326432491
100
AcDbArc
 50
178.6171177586085
 51
192.6231261899798
  0
ARC
  5
1B640
330
18
100
AcDbEntity
  8
姿図
100
AcDbCircle
 10
2383.952404871211
 20
-138.5513950150254
 30
0.0
 40
8.632379147507207
100
AcDbArc
 50
104.3475444510905
 51
115.3037709219122
  0
ARC
  5
1B641
330
18
100
AcDbEntity
  8
姿図
100
AcDbCircle
 10
2381.034379042624
 20
-133.0689188582611
 30
0.0
 40
2.446527445037582
100
AcDbArc
 50
108.3841773672833
 51
118.9609150740113
  0
ARC
  5
1B642
330
18
100
AcDbEntity
  8
姿図
100
AcDbCircle
 10
2378.922143563708
 20
-129.9569177483928
 30
0.0
 40
1.343157947365103
100
AcDbArc
 50
313.678242703041
 51
344.9611396808183
  0
ARC
  5
1B643
330
18
100
AcDbEntity
  8
姿図
100
AcDbCircle
 10
2385.944425177291
 20
-141.4582963553036
 30
0.0
 40
12.16656936040578
100
AcDbArc
 50
120.062018806845
 51
126.7889442656376
  0
ARC
  5
1B644
330
18
100
AcDbEntity
  8
姿図
100
AcDbCircle
 10
2379.781358353839
 20
-133.6357201295237
 30
0.0
 40
2.174074389492293
100
AcDbArc
 50
124.584626569553
 51
135.7229484199916
  0
LINE
  5
1B645
330
18
100
AcDbEntity
  8
姿図
100
AcDbLine
 10
2376.804402656982
 20
-130.934132960415
 30
0.0
 11
2376.734682115496
 21
-132.5989690011539
 31
0.0
  0
LINE
  5
1B646
330
18
100
AcDbEntity
  8
姿図
100
AcDbLine
 10
2375.687176775086
 20
-130.9375960027725
 30
0.0
 11
2375.011771145427
 21
-130.9073693850634
 31
0.0
  0
LINE
  5
1B647
330
18
100
AcDbEntity
  8
姿図
100
AcDbLine
 10
2375.664097565869
 20
-131.6516491677577
 30
0.0
 11
2375.687176775086
 21
-130.9375960027725
 31
0.0
  0
LINE
  5
1B648
330
18
100
AcDbEntity
  8
姿図
100
AcDbLine
 10
2374.996422287768
 20
-131.628385144879
 30
0.0
 11
2375.664097565869
 21
-131.6516491677577
 31
0.0
  0
LINE
  5
1B649
330
18
100
AcDbEntity
  8
姿図
100
AcDbLine
 10
2375.01958136792
 20
-130.5404825697902
 30
0.0
 11
2374.967057442139
 21
-133.0078048354154
 31
0.0
  0
LINE
  5
1B64A
330
18
100
AcDbEntity
  8
姿図
100
AcDbLine
 10
2375.807006172608
 20
-130.5141896010401
 30
0.0
 11
2375.780713203857
 21
-133.1127286635402
 31
0.0
  0
ARC
  5
1B64B
330
18
100
AcDbEntity
  8
姿図
100
AcDbCircle
 10
2400.030604215745
 20
-137.7951963989118
 30
0.0
 40
5.369747723572417
100
AcDbArc
 50
23.51302691711168
 51
54.872597977952
  0
ARC
  5
1B64C
330
18
100
AcDbEntity
  8
姿図
100
AcDbCircle
 10
2392.724148407221
 20
-147.9816269419863
 30
0.0
 40
17.90544594868594
100
AcDbArc
 50
54.50611444873768
 51
66.66077417707012
  0
ARC
  5
1B64D
330
18
100
AcDbEntity
  8
姿図
100
AcDbCircle
 10
2392.436487444567
 20
-148.0999291494987
 30
0.0
 40
18.12933376856992
100
AcDbArc
 50
65.97414726762403
 51
82.24955976118801
  0
ARC
  5
1B64E
330
18
100
AcDbEntity
  8
姿図
100
AcDbCircle
 10
2390.441760061129
 20
-156.7676755602289
 30
0.0
 40
26.99898597568909
100
AcDbArc
 50
80.53548983359407
 51
101.9272810341425
  0
ARC
  5
1B64F
330
18
100
AcDbEntity
  8
姿図
100
AcDbCircle
 10
2388.575841377927
 20
-148.9530620640536
 30
0.0
 40
18.96862403315867
100
AcDbArc
 50
101.2911751080493
 51
116.7488075271049
  0
ARC
  5
1B650
330
18
100
AcDbEntity
  8
姿図
100
AcDbCircle
 10
2383.054141495838
 20
-139.0824292673484
 30
0.0
 40
7.684584313784696
100
AcDbArc
 50
113.1060635940719
 51
142.4422239073757
  0
ARC
  5
1B651
330
18
100
AcDbEntity
  8
姿図
100
AcDbCircle
 10
2401.504682158027
 20
-145.4852204188679
 30
0.0
 40
3.098683840935339
100
AcDbArc
 50
9.47192765075534
 51
44.14231619189
  0
ARC
  5
1B652
330
18
100
AcDbEntity
  8
姿図
100
AcDbCircle
 10
2397.351953619045
 20
-148.6500787990459
 30
0.0
 40
8.306122265047806
100
AcDbArc
 50
39.85466092805797
 51
66.39763958290234
  0
ARC
  5
1B653
330
18
100
AcDbEntity
  8
姿図
100
AcDbCircle
 10
2400.69406446911
 20
-141.1439328647872
 30
0.0
 40
0.1064169349669472
100
AcDbArc
 50
98.89207980329883
 51
158.4095215871708
  0
LINE
  5
1B654
330
18
100
AcDbEntity
  8
姿図
100
AcDbLine
 10
2404.372958833725
 20
-144.9656873947334
 30
0.0
 11
2404.561119625037
 21
-144.9752875249202
 31
0.0
  0
LINE
  5
1B655
330
18
100
AcDbEntity
  8
姿図
100
AcDbLine
 10
2404.533119004589
 20
-146.2969113978826
 30
0.0
 11
2404.561119625037
 21
-144.9752875249202
 31
0.0
  0
LINE
  5
1B656
330
18
100
AcDbEntity
  8
姿図
100
AcDbLine
 10
2404.372958833725
 20
-144.9656873947334
 30
0.0
 11
2404.352153787991
 21
-145.9215290491421
 31
0.0
  0
ARC
  5
1B657
330
18
100
AcDbEntity
  8
姿図
100
AcDbCircle
 10
2402.402394644043
 20
-145.3718428387866
 30
0.0
 40
2.011985454815605
100
AcDbArc
 50
11.64621484543111
 51
34.90029506551846
  0
ARC
  5
1B658
330
18
100
AcDbEntity
  8
姿図
100
AcDbCircle
 10
2398.524500918119
 20
-147.5357086374798
 30
0.0
 40
6.445804968387948
100
AcDbArc
 50
30.95011755230412
 51
71.2624584385337
  0
ARC
  5
1B659
330
18
100
AcDbEntity
  8
姿図
100
AcDbCircle
 10
2398.056840360867
 20
-149.187699983068
 30
0.0
 40
7.092167772646583
100
AcDbArc
 50
24.0543452545477
 51
69.02899391902139
  0
LINE
  5
1B65A
330
18
100
AcDbEntity
  8
姿図
100
AcDbLine
 10
2400.595113996475
 20
-141.1047746215546
 30
0.0
 11
2400.5950951164
 21
-142.5653056644416
 31
0.0
  0
ARC
  5
1B65B
330
18
100
AcDbEntity
  8
姿図
100
AcDbCircle
 10
2382.382499821867
 20
-147.6811624243652
 30
0.0
 40
5.690408274763003
100
AcDbArc
 50
109.0089422507594
 51
132.6441520739014
  0
ARC
  5
1B65C
330
18
100
AcDbEntity
  8
姿図
100
AcDbCircle
 10
2383.858689998081
 20
-149.8849425848208
 30
0.0
 40
8.321452490610396
100
AcDbArc
 50
129.8401163892012
 51
151.4081270048886
  0
LINE
  5
1B65D
330
18
100
AcDbEntity
  8
姿図
100
AcDbLine
 10
2376.552031434971
 20
-144.699931879809
 30
0.0
 11
2376.801247585311
 21
-144.7225776380452
 31
0.0
  0
ARC
  5
1B65E
330
18
100
AcDbEntity
  8
姿図
100
AcDbCircle
 10
2382.383147043407
 20
-146.9313707022062
 30
0.0
 40
6.243494891248547
100
AcDbArc
 50
107.0981770184415
 51
159.0592581893389
  0
ARC
  5
1B65F
330
18
100
AcDbEntity
  8
姿図
100
AcDbCircle
 10
2382.632803316021
 20
-147.4560889364576
 30
0.0
 40
6.440429043078867
100
AcDbArc
 50
108.9438959803135
 51
154.8854103977316
  0
LINE
  5
1B660
330
18
100
AcDbEntity
  8
姿図
100
AcDbLine
 10
2376.801247585311
 20
-144.7225776380452
 30
0.0
 11
2376.812558215955
 21
-145.4579121509529
 31
0.0
  0
LINE
  5
1B661
330
18
100
AcDbEntity
  8
姿図
100
AcDbLine
 10
2376.552031434971
 20
-144.699931879809
 30
0.0
 11
2376.552031434971
 21
-145.9025673895859
 31
0.0
  0
LINE
  5
1B662
330
18
100
AcDbEntity
  8
姿図
100
AcDbLine
 10
2380.5474976437
 20
-140.9638234892883
 30
0.0
 11
2380.52904439811
 21
-142.3010649042791
 31
0.0
  0
LINE
  5
1B663
330
18
100
AcDbEntity
  8
姿図
100
AcDbLine
 10
2398.897340442645
 20
-140.4408491993719
 30
0.0
 11
2398.891441959945
 21
-141.7835456752442
 31
0.0
  0
LINE
  5
1B664
330
18
100
AcDbEntity
  8
姿図
100
AcDbLine
 10
2399.024812089242
 20
-140.4883709651164
 30
0.0
 11
2399.049401968062
 21
-141.8429379536934
 31
0.0
  0
ARC
  5
1B665
330
18
100
AcDbEntity
  8
姿図
100
AcDbCircle
 10
2391.526328017511
 20
-161.6115922215473
 30
0.0
 40
21.15174539434977
100
AcDbArc
 50
69.16539260965735
 51
86.95759899233144
  0
ARC
  5
1B666
330
18
100
AcDbEntity
  8
姿図
100
AcDbCircle
 10
2391.425975077064
 20
-160.6766485191553
 30
0.0
 40
21.57101932075856
100
AcDbArc
 50
69.37373870164478
 51
86.60023055440318
  0
ARC
  5
1B667
330
18
100
AcDbEntity
  8
姿図
100
AcDbCircle
 10
2392.680681904974
 20
-139.1956366251358
 30
0.0
 40
0.05752461702122
100
AcDbArc
 50
64.78605873797282
 51
201.0373661889489
  0
ARC
  5
1B668
330
18
100
AcDbEntity
  8
姿図
100
AcDbCircle
 10
2389.538626086334
 20
-159.0795849346442
 30
0.0
 40
19.98643454519643
100
AcDbArc
 50
92.82796783640627
 51
99.69259792308071
  0
ARC
  5
1B669
330
18
100
AcDbEntity
  8
姿図
100
AcDbCircle
 10
2389.37710051906
 20
-162.5133327092236
 30
0.0
 40
23.35561321167296
100
AcDbArc
 50
97.8834796779995
 51
103.259381772706
  0
ARC
  5
1B66A
330
18
100
AcDbEntity
  8
姿図
100
AcDbCircle
 10
2386.98711693125
 20
-154.1682989453103
 30
0.0
 40
14.69066322907383
100
AcDbArc
 50
101.6513119512536
 51
109.130528385932
  0
ARC
  5
1B66B
330
18
100
AcDbEntity
  8
姿図
100
AcDbCircle
 10
2383.141266859176
 20
-100.6394749005395
 30
0.0
 40
40.13533750000914
100
AcDbArc
 50
274.7050686475696
 51
277.7010870989157
  0
ARC
  5
1B66C
330
18
100
AcDbEntity
  8
姿図
100
AcDbCircle
 10
2390.051162674259
 20
-166.262478042955
 30
0.0
 40
25.87705149707777
100
AcDbArc
 50
98.03653202735242
 51
104.029597447634
  0
ARC
  5
1B66D
330
18
100
AcDbEntity
  8
姿図
100
AcDbCircle
 10
2386.522979164669
 20
-154.5073033814866
 30
0.0
 40
13.62927251268403
100
AcDbArc
 50
101.6191646447122
 51
108.7268299157164
  0
LINE
  5
1B66E
330
18
100
AcDbEntity
  8
姿図
100
AcDbLine
 10
2382.308966365862
 20
-140.2424060332697
 30
0.0
 11
2382.283002267805
 21
-141.5486658187775
 31
0.0
  0
LINE
  5
1B66F
330
18
100
AcDbEntity
  8
姿図
100
AcDbLine
 10
2382.172673077795
 20
-140.2889359739057
 30
0.0
 11
2382.147212553481
 21
-141.5995640058483
 31
0.0
  0
LINE
  5
1B670
330
18
100
AcDbEntity
  8
姿図
100
AcDbLine
 10
2392.626991504228
 20
-139.2162866234695
 30
0.0
 11
2392.648956160603
 21
-140.4896595618749
 31
0.0
  0
LINE
  5
1B671
330
18
100
AcDbEntity
  8
姿図
100
AcDbLine
 10
2388.552549128902
 20
-139.1174904036726
 30
0.0
 11
2388.519602269999
 21
-140.4128180394856
 31
0.0
  0
ARC
  5
1B672
330
18
100
AcDbEntity
  8
姿図
100
AcDbCircle
 10
2401.566229851083
 20
-144.2635144607203
 30
0.0
 40
3.270845033596017
100
AcDbArc
 50
355.347082042647
 51
48.80510402841248
  0
ARC
  5
1B673
330
18
100
AcDbEntity
  8
姿図
100
AcDbCircle
 10
2395.050943090736
 20
-150.2754261946594
 30
0.0
 40
12.12249718714882
100
AcDbArc
 50
44.34359490364449
 51
79.22366257855555
  0
ARC
  5
1B674
330
18
100
AcDbEntity
  8
姿図
100
AcDbCircle
 10
2390.568592416789
 20
-163.3746739607019
 30
0.0
 40
25.90263536002879
100
AcDbArc
 50
74.89723041577766
 51
103.6002725992903
  0
ARC
  5
1B675
330
18
100
AcDbEntity
  8
姿図
100
AcDbCircle
 10
2386.855571249883
 20
-151.7363962089527
 30
0.0
 40
13.74529216795379
100
AcDbArc
 50
99.96213688778852
 51
131.4432276129797
  0
ARC
  5
1B676
330
18
100
AcDbEntity
  8
姿図
100
AcDbCircle
 10
2381.117627665582
 20
-144.9162793685783
 30
0.0
 40
4.83971780337326
100
AcDbArc
 50
133.9639200721463
 51
170.8405462653719
  0
ARC
  5
1B677
330
18
100
AcDbEntity
  8
姿図
100
AcDbCircle
 10
2390.321720583785
 20
-182.520786349011
 30
0.0
 40
36.78910288174948
100
AcDbArc
 50
86.04057786562518
 51
94.08972909079873
  0
ARC
  5
1B678
330
18
100
AcDbEntity
  8
姿図
100
AcDbCircle
 10
2398.329787297209
 20
-156.6283174680876
 30
0.0
 40
10.04024401412024
100
AcDbArc
 50
56.13483083251674
 51
68.39505492549316
  0
ARC
  5
1B679
330
18
100
AcDbEntity
  8
姿図
100
AcDbCircle
 10
2391.901245446898
 20
-171.2771721458006
 30
0.0
 40
26.03349063872002
100
AcDbArc
 50
67.11157932920247
 51
82.27270771510668
  0
ARC
  5
1B67A
330
18
100
AcDbEntity
  8
姿図
100
AcDbCircle
 10
2390.315524758629
 20
-182.9326869158182
 30
0.0
 40
37.7963781601366
100
AcDbArc
 50
82.26642964453974
 51
95.15078153007981
  0
ARC
  5
1B67B
330
18
100
AcDbEntity
  8
姿図
100
AcDbCircle
 10
2388.841651781788
 20
-172.8704539232239
 30
0.0
 40
27.64822228658136
100
AcDbArc
 50
93.98074746306625
 51
107.8070272858377
  0
ARC
  5
1B67C
330
18
100
AcDbEntity
  8
姿図
100
AcDbCircle
 10
2384.790850993204
 20
-160.6574002797848
 30
0.0
 40
14.78199121542972
100
AcDbArc
 50
107.3347820979617
 51
120.9193392715409
  0
ARC
  5
1B67D
330
18
100
AcDbEntity
  8
姿図
100
AcDbCircle
 10
2400.968304383638
 20
-147.8917254986237
 30
0.0
 40
3.541557972086268
100
AcDbArc
 50
4.009409755519523
 51
37.93819005737866
  0
ARC
  5
1B67E
330
18
100
AcDbEntity
  8
姿図
100
AcDbCircle
 10
2393.573137982073
 20
-155.493732778975
 30
0.0
 40
14.12225554600108
100
AcDbArc
 50
43.82683793536584
 51
81.83462171421155
  0
ARC
  5
1B67F
330
18
100
AcDbEntity
  8
姿図
100
AcDbCircle
 10
2390.66696312592
 20
-164.8721830798505
 30
0.0
 40
23.86843151733634
100
AcDbArc
 50
78.12404047176967
 51
94.74995000107518
  0
ARC
  5
1B680
330
18
100
AcDbEntity
  8
姿図
100
AcDbCircle
 10
2388.934687080141
 20
-160.561850923311
 30
0.0
 40
19.47765596462921
100
AcDbArc
 50
90.7183767634397
 51
112.124256567402
  0
ARC
  5
1B681
330
18
100
AcDbEntity
  8
姿図
100
AcDbCircle
 10
2385.036708130709
 20
-152.5994958911734
 30
0.0
 40
10.65114100617826
100
AcDbArc
 50
108.829153338785
 51
134.9849815097675
  0
ARC
  5
1B682
330
18
100
AcDbEntity
  8
姿図
100
AcDbCircle
 10
2380.590514451381
 20
-147.9258529888385
 30
0.0
 40
4.205412943753292
100
AcDbArc
 50
137.1536766610032
 51
186.3238021850829
  0
LINE
  5
1B683
330
18
100
AcDbEntity
  8
姿図
100
AcDbLine
 10
2403.921849280174
 20
-148.1424858164756
 30
0.0
 11
2403.927385116484
 21
-148.440291948593
 31
0.0
  0
ARC
  5
1B684
330
18
100
AcDbEntity
  8
姿図
100
AcDbCircle
 10
2401.565804814095
 20
-147.9235547345053
 30
0.0
 40
2.366194485834573
100
AcDbArc
 50
354.6911406082323
 51
39.74457932271434
  0
ARC
  5
1B685
330
18
100
AcDbEntity
  8
姿図
100
AcDbCircle
 10
2395.903020894996
 20
-151.7883113396284
 30
0.0
 40
9.214199751715508
100
AcDbArc
 50
35.70579080945123
 51
59.43891704340126
  0
ARC
  5
1B686
330
18
100
AcDbEntity
  8
姿図
100
AcDbCircle
 10
2392.96820441306
 20
-156.9716799138583
 30
0.0
 40
15.1701482379715
100
AcDbArc
 50
59.84827434686323
 51
82.10167315235667
  0
ARC
  5
1B687
330
18
100
AcDbEntity
  8
姿図
100
AcDbCircle
 10
2390.229279912429
 20
-169.8889547126252
 30
0.0
 40
28.35676898832303
100
AcDbArc
 50
80.20625711297684
 51
96.4259007215808
  0
ARC
  5
1B688
330
18
100
AcDbEntity
  8
姿図
100
AcDbCircle
 10
2388.064380618753
 20
-157.5958100898275
 30
0.0
 40
15.91746646332639
100
AcDbArc
 50
93.63344175986113
 51
121.9914343462467
  0
ARC
  5
1B689
330
18
100
AcDbEntity
  8
姿図
100
AcDbCircle
 10
2382.442190552737
 20
-149.1632508048143
 30
0.0
 40
5.794802346187666
100
AcDbArc
 50
119.0156920924102
 51
147.9017269466867
  0
ARC
  5
1B68A
330
18
100
AcDbEntity
  8
姿図
100
AcDbCircle
 10
2379.280033671302
 20
-147.3720739224347
 30
0.0
 40
2.170359004562714
100
AcDbArc
 50
143.5969539955341
 51
199.2391027668
  0
LINE
  5
1B68B
330
18
100
AcDbEntity
  8
姿図
100
AcDbLine
 10
2374.980029925536
 20
-150.4841708121049
 30
0.0
 11
2375.564733543421
 21
-150.0800491400051
 31
0.0
  0
LINE
  5
1B68C
330
18
100
AcDbEntity
  8
姿図
100
AcDbLine
 10
2374.928365644004
 20
-150.878850604399
 30
0.0
 11
2375.511591780204
 21
-150.4866744962816
 31
0.0
  0
LINE
  5
1B68D
330
18
100
AcDbEntity
  8
姿図
100
AcDbLine
 10
2405.633649684967
 20
-150.7809709972781
 30
0.0
 11
2405.150393520263
 21
-150.5135534096027
 31
0.0
  0
ARC
  5
1B68E
330
18
100
AcDbEntity
  8
姿図
100
AcDbCircle
 10
2404.353675865042
 20
-152.4412840651736
 30
0.0
 40
1.300324703262524
100
AcDbArc
 50
335.5055713375835
 51
2.732481191940486
  0
ARC
  5
1B68F
330
18
100
AcDbEntity
  8
姿図
100
AcDbCircle
 10
2404.302809024131
 20
-152.3792940529103
 30
0.0
 40
1.34971308750572
100
AcDbArc
 50
0.0
 51
46.24047802661396
  0
ARC
  5
1B690
330
18
100
AcDbEntity
  8
姿図
100
AcDbCircle
 10
2404.823711944917
 20
-152.5461751367121
 30
0.0
 40
1.017275177931906
100
AcDbArc
 50
315.709122936959
 51
18.31062691735449
  0
ARC
  5
1B691
330
18
100
AcDbEntity
  8
姿図
100
AcDbCircle
 10
2404.327401855124
 20
-152.4417958568489
 30
0.0
 40
1.477832762554764
100
AcDbArc
 50
8.373754848851895
 51
52.69836353273221
  0
LINE
  5
1B692
330
18
100
AcDbEntity
  8
姿図
100
AcDbLine
 10
2407.173029997036
 20
-154.7456509760174
 30
0.0
 11
2407.194580013835
 21
-155.381244549155
 31
0.0
  0
LINE
  5
1B693
330
18
100
AcDbEntity
  8
姿図
100
AcDbLine
 10
2407.470299243892
 20
-154.0916804386685
 30
0.0
 11
2407.173029997036
 21
-154.7456509760174
 31
0.0
  0
ARC
  5
1B694
330
18
100
AcDbEntity
  8
姿図
100
AcDbCircle
 10
2406.095253214888
 20
-153.5906880941112
 30
0.0
 40
1.46347016067377
100
AcDbArc
 50
339.9809974842927
 51
7.86862372115956
  0
ARC
  5
1B695
330
18
100
AcDbEntity
  8
姿図
100
AcDbCircle
 10
2406.990147531923
 20
-153.4192469950177
 30
0.0
 40
0.5555494422758752
100
AcDbArc
 50
2.983045740790953
 51
50.01933376897131
  0
LINE
  5
1B696
330
18
100
AcDbEntity
  8
姿図
100
AcDbLine
 10
2405.665298937776
 20
-150.8457685831564
 30
0.0
 11
2407.347104204323
 21
-152.9935509569319
 31
0.0
  0
ARC
  5
1B697
330
18
100
AcDbEntity
  8
姿図
100
AcDbCircle
 10
2405.999167757807
 20
-150.6425681138604
 30
0.0
 40
0.3908437279925873
100
AcDbArc
 50
158.2947226871449
 51
211.3256838175451
  0
LINE
  5
1B698
330
18
100
AcDbEntity
  8
姿図
100
AcDbLine
 10
2405.636035431893
 20
-150.4980214653793
 30
0.0
 11
2405.109952684064
 21
-150.0942275083581
 31
0.0
  0
LINE
  5
1B699
330
18
100
AcDbEntity
  8
姿図
100
AcDbLine
 10
2405.862163887451
 20
-150.0121622572902
 30
0.0
 11
2405.636035431893
 21
-150.4980214653793
 31
0.0
  0
LINE
  5
1B69A
330
18
100
AcDbEntity
  8
姿図
100
AcDbLine
 10
2405.032819160889
 20
-147.1843038588528
 30
0.0
 11
2404.214652074978
 21
-148.6704013903883
 31
0.0
  0
LINE
  5
1B69B
330
18
100
AcDbEntity
  8
姿図
100
AcDbLine
 10
2404.620707460568
 20
-147.4214513292264
 30
0.0
 11
2404.007638832481
 21
-148.5635727693804
 31
0.0
  0
ARC
  5
1B69C
330
18
100
AcDbEntity
  8
姿図
100
AcDbCircle
 10
2404.996788324439
 20
-147.5626697330305
 30
0.0
 40
0.401720616527179
100
AcDbArc
 50
119.0435180761533
 51
159.4188376883763
  0
LINE
  5
1B69D
330
18
100
AcDbEntity
  8
姿図
100
AcDbLine
 10
2407.072136543701
 20
-145.7023478041648
 30
0.0
 11
2407.006324709872
 21
-151.4518371777714
 31
0.0
  0
LINE
  5
1B69E
330
18
100
AcDbEntity
  8
姿図
100
AcDbLine
 10
2408.779753358481
 20
-155.4164144423077
 30
0.0
 11
2408.785272285889
 21
-156.429382960415
 31
0.0
  0
LINE
  5
1B69F
330
18
100
AcDbEntity
  8
姿図
100
AcDbLine
 10
2408.95720220762
 20
-155.0997903007075
 30
0.0
 11
2408.779753358481
 21
-155.4164144423077
 31
0.0
  0
LINE
  5
1B6A0
330
18
100
AcDbEntity
  8
姿図
100
AcDbLine
 10
2408.459344872919
 20
-154.547075974887
 30
0.0
 11
2408.779753358481
 21
-155.4164144423077
 31
0.0
  0
LINE
  5
1B6A1
330
18
100
AcDbEntity
  8
姿図
100
AcDbLine
 10
2407.643725708677
 20
-151.3820420175499
 30
0.0
 11
2407.587735728698
 21
-155.6090056528266
 31
0.0
  0
LINE
  5
1B6A2
330
18
100
AcDbEntity
  8
姿図
100
AcDbLine
 10
2408.133533427785
 20
-151.5339463405659
 30
0.0
 11
2407.953812844894
 21
-141.2951623501327
 31
0.0
  0
ARC
  5
1B6A3
330
18
100
AcDbEntity
  8
姿図
100
AcDbCircle
 10
2408.042244051636
 20
-151.5339463405659
 30
0.0
 40
0.0912893761486698
100
AcDbArc
 50
236.6032503128487
 51
1.861606254971562
  0
LINE
  5
1B6A4
330
18
100
AcDbEntity
  8
姿図
100
AcDbLine
 10
2407.643725708677
 20
-151.3820420175499
 30
0.0
 11
2407.991995331819
 21
-151.6101619318475
 31
0.0
  0
LINE
  5
1B6A5
330
18
100
AcDbEntity
  8
姿図
100
AcDbLine
 10
2406.868242012451
 20
-151.4669571791652
 30
0.0
 11
2407.643725708677
 21
-151.3820420175499
 31
0.0
  0
LINE
  5
1B6A6
330
18
100
AcDbEntity
  8
姿図
100
AcDbLine
 10
2408.200656677198
 20
-141.4922103239775
 30
0.0
 11
2408.207855249832
 21
-141.6322665680124
 31
0.0
  0
ARC
  5
1B6A7
330
18
100
AcDbEntity
  8
姿図
100
AcDbCircle
 10
2408.305688382692
 20
-141.636504169118
 30
0.0
 40
0.0979248648104742
100
AcDbArc
 50
177.5198076457987
 51
256.1941115744296
  0
ARC
  5
1B6A8
330
18
100
AcDbEntity
  8
姿図
100
AcDbCircle
 10
2407.865790084433
 20
-141.6585650530197
 30
0.0
 40
0.3739111269068246
100
AcDbArc
 50
26.4172264847
 51
85.03314972789963
  0
LINE
  5
1B6A9
330
18
100
AcDbEntity
  8
姿図
100
AcDbLine
 10
2407.167396132644
 20
-141.264982043651
 30
0.0
 11
2407.898163069725
 21
-141.2860579783916
 31
0.0
  0
LINE
  5
1B6AA
330
18
100
AcDbEntity
  8
姿図
100
AcDbLine
 10
2408.484051435779
 20
-141.7256710148255
 30
0.0
 11
2408.730825996826
 21
-141.5692667494778
 31
0.0
  0
LINE
  5
1B6AB
330
18
100
AcDbEntity
  8
姿図
100
AcDbLine
 10
2408.282320252758
 20
-141.7315999610943
 30
0.0
 11
2408.484051435779
 21
-141.7256710148255
 31
0.0
  0
LINE
  5
1B6AC
330
18
100
AcDbEntity
  8
姿図
100
AcDbLine
 10
2408.484051435779
 20
-141.7256710148255
 30
0.0
 11
2408.484051435779
 21
-141.7256710148255
 31
0.0
  0
LINE
  5
1B6AD
330
18
100
AcDbEntity
  8
姿図
100
AcDbLine
 10
2408.459344872919
 20
-154.547075974887
 30
0.0
 11
2408.282320252758
 21
-141.7315999610943
 31
0.0
  0
LINE
  5
1B6AE
330
18
100
AcDbEntity
  8
姿図
100
AcDbLine
 10
2408.716772696411
 20
-154.5470531649809
 30
0.0
 11
2408.459344872919
 21
-154.547075974887
 31
0.0
  0
LINE
  5
1B6AF
330
18
100
AcDbEntity
  8
姿図
100
AcDbLine
 10
2408.716772696411
 20
-154.5470531649809
 30
0.0
 11
2408.484051435779
 21
-141.7256710148255
 31
0.0
  0
LINE
  5
1B6B0
330
18
100
AcDbEntity
  8
姿図
100
AcDbLine
 10
2408.95720220762
 20
-155.0997903007075
 30
0.0
 11
2408.716772696411
 21
-154.5470531649809
 31
0.0
  0
LINE
  5
1B6B1
330
18
100
AcDbEntity
  8
姿図
100
AcDbLine
 10
2408.870972481201
 20
-146.1396544447899
 30
0.0
 11
2408.95720220762
 21
-155.0997903007075
 31
0.0
  0
LINE
  5
1B6B2
330
18
100
AcDbEntity
  8
姿図
100
AcDbLine
 10
2372.213489082764
 20
-146.1389103041653
 30
0.0
 11
2372.051749871634
 21
-152.5627037673559
 31
0.0
  0
LINE
  5
1B6B3
330
18
100
AcDbEntity
  8
姿図
100
AcDbLine
 10
2408.826075996826
 20
-142.384968897915
 30
0.0
 11
2408.870972481201
 21
-146.1396544447899
 31
0.0
  0
LINE
  5
1B6B4
330
18
100
AcDbEntity
  8
姿図
100
AcDbLine
 10
2372.289763496826
 20
-142.6669981947899
 30
0.0
 11
2372.224155098389
 21
-144.7662188979153
 31
0.0
  0
LINE
  5
1B6B5
330
18
100
AcDbEntity
  8
姿図
100
AcDbLine
 10
2371.863104946236
 20
-153.7697925854142
 30
0.0
 11
2372.053056486832
 21
-153.1779058305339
 31
0.0
  0
LINE
  5
1B6B6
330
18
100
AcDbEntity
  8
姿図
100
AcDbLine
 10
2372.004107550047
 20
-152.6336676657648
 30
0.0
 11
2372.051749871634
 21
-152.5627037673559
 31
0.0
  0
LINE
  5
1B6B7
330
18
100
AcDbEntity
  8
姿図
100
AcDbLine
 10
2371.99779513344
 20
-152.7408292556416
 30
0.0
 11
2372.004107550047
 21
-152.6336676657648
 31
0.0
  0
LINE
  5
1B6B8
330
18
100
AcDbEntity
  8
姿図
100
AcDbLine
 10
2372.053056486832
 20
-153.1779058305339
 30
0.0
 11
2371.99779513344
 21
-152.7408292556416
 31
0.0
  0
LINE
  5
1B6B9
330
18
100
AcDbEntity
  8
姿図
100
AcDbLine
 10
2373.266209821702
 20
-154.4149268016146
 30
0.0
 11
2373.265798206576
 21
-155.2824815175255
 31
0.0
  0
LINE
  5
1B6BA
330
18
100
AcDbEntity
  8
姿図
100
AcDbLine
 10
2373.267731866383
 20
-151.2069372125239
 30
0.0
 11
2373.266821823805
 21
-153.1250196155721
 31
0.0
  0
LINE
  5
1B6BB
330
18
100
AcDbEntity
  8
姿図
100
AcDbLine
 10
2372.376241541317
 20
-141.6721450178226
 30
0.0
 11
2372.886336695474
 21
-141.6713104469592
 31
0.0
  0
LINE
  5
1B6BC
330
18
100
AcDbEntity
  8
姿図
100
AcDbLine
 10
2373.183624701753
 20
-141.283519235859
 30
0.0
 11
2373.943324249122
 21
-141.1520209428382
 31
0.0
  0
LINE
  5
1B6BD
330
18
100
AcDbEntity
  8
姿図
100
AcDbLine
 10
2372.886336695474
 20
-141.6713104469592
 30
0.0
 11
2373.183624701753
 21
-141.283519235859
 31
0.0
  0
LINE
  5
1B6BE
330
18
100
AcDbEntity
  8
姿図
100
AcDbLine
 10
2372.889356311094
 20
-151.3812078267039
 30
0.0
 11
2373.183624701753
 21
-141.283519235859
 31
0.0
  0
LINE
  5
1B6BF
330
18
100
AcDbEntity
  8
姿図
100
AcDbLine
 10
2373.267731866383
 20
-151.2069372125239
 30
0.0
 11
2373.900760290926
 21
-151.3119675377385
 31
0.0
  0
LINE
  5
1B6C0
330
18
100
AcDbEntity
  8
姿図
100
AcDbLine
 10
2373.082253579089
 20
-151.2254766152984
 30
0.0
 11
2373.267731866383
 21
-151.2069372125239
 31
0.0
  0
LINE
  5
1B6C1
330
18
100
AcDbEntity
  8
姿図
100
AcDbLine
 10
2372.889356311094
 20
-151.3812078267039
 30
0.0
 11
2373.082253579089
 21
-151.2254766152984
 31
0.0
  0
LINE
  5
1B6C2
330
18
100
AcDbEntity
  8
姿図
100
AcDbLine
 10
2374.153613703731
 20
-151.3902498363515
 30
0.0
 11
2374.149734572054
 21
-152.0845432932853
 31
0.0
  0
LINE
  5
1B6C3
330
18
100
AcDbEntity
  8
姿図
100
AcDbLine
 10
2373.900760290926
 20
-151.3119675377385
 30
0.0
 11
2374.153613703731
 21
-151.3902498363515
 31
0.0
  0
LINE
  5
1B6C4
330
18
100
AcDbEntity
  8
姿図
100
AcDbLine
 10
2373.86467511792
 20
-145.0555655776026
 30
0.0
 11
2373.900760290926
 21
-151.3119675377385
 31
0.0
  0
LINE
  5
1B6C5
330
18
100
AcDbEntity
  8
姿図
100
AcDbLine
 10
2374.056049655193
 20
-148.3732975836375
 30
0.0
 11
2374.416184088837
 21
-148.1027287166268
 31
0.0
  0
ARC
  5
1B6C6
330
18
100
AcDbEntity
  8
姿図
100
AcDbCircle
 10
2374.583765472918
 20
-148.5995409006601
 30
0.0
 40
0.5741689845109768
100
AcDbArc
 50
156.7941273154152
 51
207.5593620770948
  0
LINE
  5
1B6C7
330
18
100
AcDbEntity
  8
姿図
100
AcDbLine
 10
2374.07474631988
 20
-148.8651901517688
 30
0.0
 11
2374.936369581506
 21
-150.3530457379198
 31
0.0
  0
ARC
  5
1B6C8
330
18
100
AcDbEntity
  8
姿図
100
AcDbCircle
 10
2374.390310245073
 20
-150.6076968338854
 30
0.0
 40
0.6025180325782685
100
AcDbArc
 50
333.2541164958415
 51
25.00167590419459
  0
LINE
  5
1B6C9
330
18
100
AcDbEntity
  8
姿図
100
AcDbLine
 10
2374.244639218655
 20
-151.9922729875817
 30
0.0
 11
2374.928365644004
 21
-150.878850604399
 31
0.0
  0
ARC
  5
1B6CA
330
18
100
AcDbEntity
  8
姿図
100
AcDbCircle
 10
2370.700854862663
 20
-149.8188625437193
 30
0.0
 40
4.157176989167163
100
AcDbArc
 50
310.4864322614105
 51
328.479122477336
  0
ARC
  5
1B6CB
330
18
100
AcDbEntity
  8
姿図
100
AcDbCircle
 10
2373.921410610267
 20
-153.5951433561141
 30
0.0
 40
0.8059173721818391
100
AcDbArc
 50
130.316294996619
 51
179.4608858840927
  0
ARC
  5
1B6CC
330
18
100
AcDbEntity
  8
姿図
100
AcDbCircle
 10
2376.105420777636
 20
-153.4704422000206
 30
0.0
 40
2.992184822990797
100
AcDbArc
 50
182.2432068658968
 51
215.2678058197682
  0
ARC
  5
1B6CD
330
18
100
AcDbEntity
  8
姿図
100
AcDbCircle
 10
2376.433421997162
 20
-152.4787569207034
 30
0.0
 40
1.681899462714203
100
AcDbArc
 50
126.737371488006
 51
170.7587812734879
  0
ARC
  5
1B6CE
330
18
100
AcDbEntity
  8
姿図
100
AcDbCircle
 10
2376.705814213446
 20
-152.2413024857607
 30
0.0
 40
1.932737988582935
100
AcDbArc
 50
179.0322273053239
 51
212.0901701310354
  0
ARC
  5
1B6CF
330
18
100
AcDbEntity
  8
姿図
100
AcDbCircle
 10
2376.232413148758
 20
-152.3088441189381
 30
0.0
 40
1.289209111054253
100
AcDbArc
 50
130.0785474406307
 51
171.8327998775875
  0
ARC
  5
1B6D0
330
18
100
AcDbEntity
  8
姿図
100
AcDbCircle
 10
2376.026591475412
 20
-152.3479242552122
 30
0.0
 40
1.093139033588491
100
AcDbArc
 50
168.2703751251379
 51
210.7658796791061
  0
ELLIPSE
  5
1B6D1
330
18
100
AcDbEntity
  8
姿図
100
AcDbEllipse
 10
2390.147282277404
 20
-151.303857317556
 30
0.0
 11
0.4335286067598152
 21
-0.008685463249465578
 31
0.0
210
0.0
220
0.0
230
1.0
 40
0.6207444020835624
 41
0.0
 42
6.283185307179586
  0
ELLIPSE
  5
1B6D2
330
18
100
AcDbEntity
  8
姿図
100
AcDbEllipse
 10
2390.151009988489
 20
-151.1235599189037
 30
0.0
 11
-0.5161332283555157
 21
0.0
 31
0.0
210
0.0
220
0.0
230
1.0
 40
0.8782894644009034
 41
0.0
 42
6.283185307179586
  0
LINE
  5
1B6D3
330
18
100
AcDbEntity
  8
姿図
100
AcDbLine
 10
2392.8472388937
 20
-151.7097629424871
 30
0.0
 11
2392.862006818241
 21
-145.8194915940441
 31
0.0
  0
LINE
  5
1B6D4
330
18
100
AcDbEntity
  8
姿図
100
AcDbLine
 10
2392.674010048373
 20
-146.0308921731336
 30
0.0
 11
2392.551724517873
 21
-151.699520052393
 31
0.0
  0
LINE
  5
1B6D5
330
18
100
AcDbEntity
  8
姿図
100
AcDbLine
 10
2387.703181314536
 20
-151.6812452231067
 30
0.0
 11
2387.697971771091
 21
-145.8253638414036
 31
0.0
  0
LINE
  5
1B6D6
330
18
100
AcDbEntity
  8
姿図
100
AcDbLine
 10
2387.909468011534
 20
-146.0191476784145
 30
0.0
 11
2387.961138297282
 21
-151.6738021485309
 31
0.0
  0
ARC
  5
1B6D7
330
18
100
AcDbEntity
  8
姿図
100
AcDbCircle
 10
2392.584680103016
 20
-170.9530515566058
 30
0.0
 40
25.13508994411331
100
AcDbArc
 50
60.36132191100523
 51
89.36781715224015
  0
ARC
  5
1B6D8
330
18
100
AcDbEntity
  8
姿図
100
AcDbCircle
 10
2388.232603157067
 20
-172.3653793734012
 30
0.0
 40
26.54539988693985
100
AcDbArc
 50
91.15403020509665
 51
118.1443348443559
  0
LINE
  5
1B6D9
330
18
100
AcDbEntity
  8
姿図
100
AcDbLine
 10
2392.674010048373
 20
-146.0308921731336
 30
0.0
 11
2392.862006818241
 21
-145.8194915940441
 31
0.0
  0
LINE
  5
1B6DA
330
18
100
AcDbEntity
  8
姿図
100
AcDbLine
 10
2387.697971771091
 20
-145.8253638414036
 30
0.0
 11
2387.909468011534
 21
-146.0191476784145
 31
0.0
  0
ARC
  5
1B6DB
330
18
100
AcDbEntity
  8
姿図
100
AcDbCircle
 10
2389.672136946764
 20
-397.3870616358664
 30
0.0
 40
251.3740940691706
100
AcDbArc
 50
89.31576581817518
 51
90.40176899971661
  0
LINE
  5
1B6DC
330
18
100
AcDbEntity
  8
姿図
100
AcDbLine
 10
2405.313485444483
 20
-152.2046328861444
 30
0.0
 11
2405.014703840565
 21
-149.1066043309667
 31
0.0
  0
LINE
  5
1B6DD
330
18
100
AcDbEntity
  8
姿図
100
AcDbLine
 10
2405.519135719138
 20
-152.6500067272547
 30
0.0
 11
2405.313485444483
 21
-152.2046328861444
 31
0.0
  0
LINE
  5
1B6DE
330
18
100
AcDbEntity
  8
姿図
100
AcDbLine
 10
2405.620990633735
 20
-154.5366112788194
 30
0.0
 11
2405.519135719138
 21
-152.6500067272547
 31
0.0
  0
LINE
  5
1B6DF
330
18
100
AcDbEntity
  8
姿図
100
AcDbLine
 10
2375.287919808216
 20
-152.1981475410981
 30
0.0
 11
2375.711288802583
 21
-148.9586508110043
 31
0.0
  0
LINE
  5
1B6E0
330
18
100
AcDbEntity
  8
姿図
100
AcDbLine
 10
2375.10366520036
 20
-152.594823699351
 30
0.0
 11
2375.287919808216
 21
-152.1981475410981
 31
0.0
  0
LINE
  5
1B6E1
330
18
100
AcDbEntity
  8
姿図
100
AcDbLine
 10
2375.004198283749
 20
-154.4923224519581
 30
0.0
 11
2375.10366520036
 21
-152.594823699351
 31
0.0
  0
ARC
  5
1B6E2
330
18
100
AcDbEntity
  8
姿図
100
AcDbCircle
 10
2401.066712314691
 20
-166.4122302336347
 30
0.0
 40
12.6187720365096
100
AcDbArc
 50
52.28944218343053
 51
63.78077132056887
  0
ARC
  5
1B6E3
330
18
100
AcDbEntity
  8
姿図
100
AcDbCircle
 10
2391.471029272805
 20
-187.146333308494
 30
0.0
 40
35.46328343830577
100
AcDbArc
 50
64.67277808722136
 51
91.7711464803476
  0
ARC
  5
1B6E4
330
18
100
AcDbEntity
  8
姿図
100
AcDbCircle
 10
2388.80305390183
 20
-185.3261065387002
 30
0.0
 40
33.66283429323502
100
AcDbArc
 50
87.32358175999758
 51
119.6892030509315
  0
ELLIPSE
  5
1B6E5
330
18
100
AcDbEntity
  8
姿図
100
AcDbEllipse
 10
2390.391406828035
 20
-162.4720657911886
 30
0.0
 11
-17.9280599133497
 21
0.5020642418964099
 31
0.0
210
0.0
220
0.0
230
1.0
 40
0.4417103177870492
 41
0.0
 42
6.283185307179586
  0
SPLINE
  5
1B6E6
330
18
100
AcDbEntity
  8
姿図
100
AcDbSpline
210
0.0
220
0.0
230
1.0
 70
    24
 71
     3
 72
     8
 73
     4
 74
     0
 42
0.000000001
 43
0.0000000001
 40
175.0
 40
175.0
 40
175.0
 40
175.0
 40
176.0
 40
176.0
 40
176.0
 40
176.0
 10
2371.985720039795
 20
-154.5768448744776
 30
0.0
 10
2371.985720039795
 20
-154.5768448744776
 30
0.0
 10
2372.003951485107
 20
-154.1209347182277
 30
0.0
 10
2372.003951485107
 20
-154.1209347182277
 30
0.0
  0
SPLINE
  5
1B6E7
330
18
100
AcDbEntity
  8
姿図
100
AcDbSpline
210
0.0
220
0.0
230
1.0
 70
    24
 71
     3
 72
     8
 73
     4
 74
     0
 42
0.000000001
 43
0.0000000001
 40
174.0
 40
174.0
 40
174.0
 40
174.0
 40
175.0
 40
175.0
 40
175.0
 40
175.0
 10
2372.186327949951
 20
-155.0874493666653
 30
0.0
 10
2372.186327949951
 20
-155.0874493666653
 30
0.0
 10
2371.985720039795
 20
-154.5768448744776
 30
0.0
 10
2371.985720039795
 20
-154.5768448744776
 30
0.0
  0
SPLINE
  5
1B6E8
330
18
100
AcDbEntity
  8
姿図
100
AcDbSpline
210
0.0
220
0.0
230
1.0
 70
     8
 71
     3
 72
     8
 73
     4
 74
     0
 42
0.000000001
 43
0.0000000001
 40
173.0
 40
173.0
 40
173.0
 40
173.0
 40
174.0
 40
174.0
 40
174.0
 40
174.0
 10
2372.130021309326
 20
-156.08236538229
 30
0.0
 10
2372.13231574292
 20
-155.7248058119777
 30
0.0
 10
2372.186327949951
 20
-155.0874493666653
 30
0.0
 10
2372.186327949951
 20
-155.0874493666653
 30
0.0
  0
SPLINE
  5
1B6E9
330
18
100
AcDbEntity
  8
姿図
100
AcDbSpline
210
0.0
220
0.0
230
1.0
 70
     8
 71
     3
 72
    11
 73
     7
 74
     0
 42
0.000000001
 43
0.0000000001
 40
171.0
 40
171.0
 40
171.0
 40
171.0
 40
172.0
 40
172.0
 40
172.0
 40
173.0
 40
173.0
 40
173.0
 40
173.0
 10
2376.36151496167
 20
-168.6985255385401
 30
0.0
 10
2369.07389777417
 20
-165.8384210463524
 30
0.0
 10
2368.95632355542
 20
-162.3512540541652
 30
0.0
 10
2368.95632355542
 20
-161.2934581557275
 30
0.0
 10
2368.95632355542
 20
-160.2355382338525
 30
0.0
 10
2369.19147199292
 20
-158.3548468276027
 30
0.0
 10
2372.130021309326
 20
-156.08236538229
 30
0.0
  0
SPLINE
  5
1B6EA
330
18
100
AcDbEntity
  8
姿図
100
AcDbSpline
210
0.0
220
0.0
230
1.0
 70
     8
 71
     3
 72
     8
 73
     4
 74
     0
 42
0.000000001
 43
0.0000000001
 40
170.0
 40
170.0
 40
170.0
 40
170.0
 40
171.0
 40
171.0
 40
171.0
 40
171.0
 10
2404.101527168701
 20
-169.0120567885402
 30
0.0
 10
2395.700675606201
 20
-171.8242882338524
 30
0.0
 10
2383.649194160889
 20
-171.5588780776026
 30
0.0
 10
2376.36151496167
 20
-168.6985255385401
 30
0.0
  0
SPLINE
  5
1B6EB
330
18
100
AcDbEntity
  8
姿図
100
AcDbSpline
210
0.0
220
0.0
230
1.0
 70
     8
 71
     3
 72
     8
 73
     4
 74
     0
 42
0.000000001
 43
0.0000000001
 40
169.0
 40
169.0
 40
169.0
 40
169.0
 40
170.0
 40
170.0
 40
170.0
 40
170.0
 10
2411.450039864014
 20
-159.3796524916653
 30
0.0
 10
2412.224938301514
 20
-160.9295733901027
 30
0.0
 10
2413.348218574951
 20
-165.9168038588526
 30
0.0
 10
2404.101527168701
 20
-169.0120567885402
 30
0.0
  0
SPLINE
  5
1B6EC
330
18
100
AcDbEntity
  8
姿図
100
AcDbSpline
210
0.0
220
0.0
230
1.0
 70
     8
 71
     3
 72
     8
 73
     4
 74
     0
 42
0.000000001
 43
0.0000000001
 40
168.0
 40
168.0
 40
168.0
 40
168.0
 40
169.0
 40
169.0
 40
169.0
 40
169.0
 10
2408.785272285889
 20
-156.429382960415
 30
0.0
 10
2408.785272285889
 20
-156.429382960415
 30
0.0
 10
2410.675017403076
 20
-157.8297315932278
 30
0.0
 10
2411.450039864014
 20
-159.3796524916653
 30
0.0
  0
SPLINE
  5
1B6ED
330
18
100
AcDbEntity
  8
姿図
100
AcDbSpline
210
0.0
220
0.0
230
1.0
 70
     8
 71
     3
 72
     8
 73
     4
 74
     0
 42
0.000000001
 43
0.0000000001
 40
141.0
 40
141.0
 40
141.0
 40
141.0
 40
142.0
 40
142.0
 40
142.0
 40
142.0
 10
2408.730825996826
 20
-141.5692667494778
 30
0.0
 10
2408.744468574951
 20
-141.8004464369775
 30
0.0
 10
2408.826075996826
 20
-142.384968897915
 30
0.0
 10
2408.826075996826
 20
-142.384968897915
 30
0.0
  0
SPLINE
  5
1B6EE
330
18
100
AcDbEntity
  8
姿図
100
AcDbSpline
210
0.0
220
0.0
230
1.0
 70
     8
 71
     3
 72
    11
 73
     7
 74
     0
 42
0.000000001
 43
0.0000000001
 40
139.0
 40
139.0
 40
139.0
 40
139.0
 40
140.0
 40
140.0
 40
140.0
 40
141.0
 40
141.0
 40
141.0
 40
141.0
 10
2407.792712715576
 20
-141.1341925307275
 30
0.0
 10
2407.792712715576
 20
-141.1341925307275
 30
0.0
 10
2408.322912910889
 20
-141.1205499526028
 30
0.0
 10
2408.445324043701
 20
-141.1613536635401
 30
0.0
 10
2408.567735176513
 20
-141.2021573744775
 30
0.0
 10
2408.717307442139
 20
-141.3380870619777
 30
0.0
 10
2408.730825996826
 20
-141.5692667494778
 30
0.0
  0
SPLINE
  5
1B6EF
330
18
100
AcDbEntity
  8
姿図
100
AcDbSpline
210
0.0
220
0.0
230
1.0
 70
     8
 71
     3
 72
    14
 73
    10
 74
     0
 42
0.000000001
 43
0.0000000001
 40
136.0
 40
136.0
 40
136.0
 40
136.0
 40
137.0
 40
137.0
 40
137.0
 40
138.0
 40
138.0
 40
138.0
 40
139.0
 40
139.0
 40
139.0
 40
139.0
 10
2407.072136543701
 20
-145.7023478041652
 30
0.0
 10
2407.099297676514
 20
-145.1313438979151
 30
0.0
 10
2407.167386543701
 20
-141.5284630385401
 30
0.0
 10
2407.167386543701
 20
-141.3517296401025
 30
0.0
 10
2407.167386543701
 20
-141.1749962416653
 30
0.0
 10
2407.153743965576
 20
-140.88949428854
 30
0.0
 10
2407.398442207764
 20
-140.88949428854
 30
0.0
 10
2407.643140449951
 20
-140.88949428854
 30
0.0
 10
2407.792712715576
 20
-141.1341925307275
 30
0.0
 10
2407.792712715576
 20
-141.1341925307275
 30
0.0
  0
SPLINE
  5
1B6F0
330
18
100
AcDbEntity
  8
姿図
100
AcDbSpline
210
0.0
220
0.0
230
1.0
 70
     8
 71
     3
 72
     8
 73
     4
 74
     0
 42
0.000000001
 43
0.0000000001
 40
133.0
 40
133.0
 40
133.0
 40
133.0
 40
134.0
 40
134.0
 40
134.0
 40
134.0
 10
2406.773116035889
 20
-151.45331460104
 30
0.0
 10
2406.827438301514
 20
-151.5212794447899
 30
0.0
 10
2406.868242012451
 20
-151.4669571791652
 30
0.0
 10
2406.868242012451
 20
-151.4669571791652
 30
0.0
  0
SPLINE
  5
1B6F1
330
18
100
AcDbEntity
  8
姿図
100
AcDbSpline
210
0.0
220
0.0
230
1.0
 70
     8
 71
     3
 72
     8
 73
     4
 74
     0
 42
0.000000001
 43
0.0000000001
 40
132.0
 40
132.0
 40
132.0
 40
132.0
 40
133.0
 40
133.0
 40
133.0
 40
133.0
 10
2405.862163887451
 20
-150.0121622572902
 30
0.0
 10
2405.862163887451
 20
-150.0121622572902
 30
0.0
 10
2406.419525215576
 20
-150.5015587416652
 30
0.0
 10
2406.773116035889
 20
-151.45331460104
 30
0.0
  0
SPLINE
  5
1B6F2
330
18
100
AcDbEntity
  8
姿図
100
AcDbSpline
210
0.0
220
0.0
230
1.0
 70
     8
 71
     3
 72
     8
 73
     4
 74
     0
 42
0.000000001
 43
0.0000000001
 40
131.0
 40
131.0
 40
131.0
 40
131.0
 40
132.0
 40
132.0
 40
132.0
 40
132.0
 10
2406.514775215576
 20
-148.7342247572902
 30
0.0
 10
2406.351684395264
 20
-149.1284952651027
 30
0.0
 10
2405.862163887451
 20
-150.0121622572902
 30
0.0
 10
2405.862163887451
 20
-150.0121622572902
 30
0.0
  0
SPLINE
  5
1B6F3
330
18
100
AcDbEntity
  8
姿図
100
AcDbSpline
210
0.0
220
0.0
230
1.0
 70
     8
 71
     3
 72
     8
 73
     4
 74
     0
 42
0.000000001
 43
0.0000000001
 40
130.0
 40
130.0
 40
130.0
 40
130.0
 40
131.0
 40
131.0
 40
131.0
 40
131.0
 10
2406.392364082764
 20
-148.0951319838524
 30
0.0
 10
2406.569097481201
 20
-148.23118569479
 30
0.0
 10
2406.677990059326
 20
-148.3398302260404
 30
0.0
 10
2406.514775215576
 20
-148.7342247572902
 30
0.0
  0
SPLINE
  5
1B6F4
330
18
100
AcDbEntity
  8
姿図
100
AcDbSpline
210
0.0
220
0.0
230
1.0
 70
     8
 71
     3
 72
     8
 73
     4
 74
     0
 42
0.000000001
 43
0.0000000001
 40
129.0
 40
129.0
 40
129.0
 40
129.0
 40
130.0
 40
130.0
 40
130.0
 40
130.0
 10
2405.032819160889
 20
-147.1843038588528
 30
0.0
 10
2405.168872871826
 20
-147.2522687026027
 30
0.0
 10
2406.215630684326
 20
-147.9592022963526
 30
0.0
 10
2406.392364082764
 20
-148.0951319838524
 30
0.0
  0
SPLINE
  5
1B6F5
330
18
100
AcDbEntity
  8
姿図
100
AcDbSpline
210
0.0
220
0.0
230
1.0
 70
     8
 71
     3
 72
     8
 73
     4
 74
     0
 42
0.000000001
 43
0.0000000001
 40
128.0
 40
128.0
 40
128.0
 40
128.0
 40
129.0
 40
129.0
 40
129.0
 40
129.0
 10
2404.801763496826
 20
-147.2114649916649
 30
0.0
 10
2404.801763496826
 20
-147.2114649916649
 30
0.0
 10
2404.896889473389
 20
-147.1162149916651
 30
0.0
 10
2405.032819160889
 20
-147.1843038588528
 30
0.0
  0
SPLINE
  5
1B6F6
330
18
100
AcDbEntity
  8
姿図
100
AcDbSpline
210
0.0
220
0.0
230
1.0
 70
     8
 71
     3
 72
     8
 73
     4
 74
     0
 42
0.000000001
 43
0.0000000001
 40
127.0
 40
127.0
 40
127.0
 40
127.0
 40
128.0
 40
128.0
 40
128.0
 40
128.0
 10
2404.788120918701
 20
-144.77787710104
 30
0.0
 10
2404.788120918701
 20
-145.1721476088525
 30
0.0
 10
2404.801763496826
 20
-147.2114649916649
 30
0.0
 10
2404.801763496826
 20
-147.2114649916649
 30
0.0
  0
SPLINE
  5
1B6F7
330
18
100
AcDbEntity
  8
姿図
100
AcDbSpline
210
0.0
220
0.0
230
1.0
 70
     8
 71
     3
 72
     8
 73
     4
 74
     0
 42
0.000000001
 43
0.0000000001
 40
126.0
 40
126.0
 40
126.0
 40
126.0
 40
127.0
 40
127.0
 40
127.0
 40
127.0
 10
2405.304678535889
 20
-138.7549269057278
 30
0.0
 10
2405.209552559326
 20
-140.4000978041651
 30
0.0
 10
2404.856085762451
 20
-144.5875011244776
 30
0.0
 10
2404.788120918701
 20
-144.77787710104
 30
0.0
  0
SPLINE
  5
1B6F8
330
18
100
AcDbEntity
  8
姿図
100
AcDbSpline
210
0.0
220
0.0
230
1.0
 70
     8
 71
     3
 72
     8
 73
     4
 74
     0
 42
0.000000001
 43
0.0000000001
 40
125.0
 40
125.0
 40
125.0
 40
125.0
 40
126.0
 40
126.0
 40
126.0
 40
126.0
 10
2405.318321114014
 20
-134.5267198744779
 30
0.0
 10
2405.318321114014
 20
-134.5267198744779
 30
0.0
 10
2405.399928535889
 20
-137.10975600729
 30
0.0
 10
2405.304678535889
 20
-138.7549269057278
 30
0.0
  0
SPLINE
  5
1B6F9
330
18
100
AcDbEntity
  8
姿図
100
AcDbSpline
210
0.0
220
0.0
230
1.0
 70
     8
 71
     3
 72
     8
 73
     4
 74
     0
 42
0.000000001
 43
0.0000000001
 40
124.0
 40
124.0
 40
124.0
 40
124.0
 40
125.0
 40
125.0
 40
125.0
 40
125.0
 10
2405.481411934326
 20
-134.4995587416653
 30
0.0
 10
2405.399928535889
 20
-134.5811661635399
 30
0.0
 10
2405.318321114014
 20
-134.5267198744779
 30
0.0
 10
2405.318321114014
 20
-134.5267198744779
 30
0.0
  0
SPLINE
  5
1B6FA
330
18
100
AcDbEntity
  8
姿図
100
AcDbSpline
210
0.0
220
0.0
230
1.0
 70
     8
 71
     3
 72
     8
 73
     4
 74
     0
 42
0.000000001
 43
0.0000000001
 40
123.0
 40
123.0
 40
123.0
 40
123.0
 40
124.0
 40
124.0
 40
124.0
 40
124.0
 10
2405.535858223389
 20
-133.6021251479152
 30
0.0
 10
2405.535858223389
 20
-133.6021251479152
 30
0.0
 10
2405.563019356201
 20
-134.4179513197902
 30
0.0
 10
2405.481411934326
 20
-134.4995587416653
 30
0.0
  0
SPLINE
  5
1B6FB
330
18
100
AcDbEntity
  8
姿図
100
AcDbSpline
210
0.0
220
0.0
230
1.0
 70
     8
 71
     3
 72
     8
 73
     4
 74
     0
 42
0.000000001
 43
0.0000000001
 40
122.0
 40
122.0
 40
122.0
 40
122.0
 40
123.0
 40
123.0
 40
123.0
 40
123.0
 10
2406.324399239013
 20
-133.5478028822901
 30
0.0
 10
2406.188469551514
 20
-133.5478028822901
 30
0.0
 10
2405.535858223389
 20
-133.6021251479152
 30
0.0
 10
2405.535858223389
 20
-133.6021251479152
 30
0.0
  0
SPLINE
  5
1B6FC
330
18
100
AcDbEntity
  8
姿図
100
AcDbSpline
210
0.0
220
0.0
230
1.0
 70
     8
 71
     3
 72
     8
 73
     4
 74
     0
 42
0.000000001
 43
0.0000000001
 40
121.0
 40
121.0
 40
121.0
 40
121.0
 40
122.0
 40
122.0
 40
122.0
 40
122.0
 10
2406.541936348389
 20
-133.738054835415
 30
0.0
 10
2406.433167793701
 20
-133.7653399916654
 30
0.0
 10
2406.338041817139
 20
-133.738054835415
 30
0.0
 10
2406.324399239013
 20
-133.5478028822901
 30
0.0
  0
SPLINE
  5
1B6FD
330
18
100
AcDbEntity
  8
姿図
100
AcDbSpline
210
0.0
220
0.0
230
1.0
 70
     8
 71
     3
 72
     8
 73
     4
 74
     0
 42
0.000000001
 43
0.0000000001
 40
120.0
 40
120.0
 40
120.0
 40
120.0
 40
121.0
 40
121.0
 40
121.0
 40
121.0
 10
2406.813795723388
 20
-133.1806935072901
 30
0.0
 10
2406.759473457764
 20
-133.3710694838525
 30
0.0
 10
2406.650704903076
 20
-133.7108937026024
 30
0.0
 10
2406.541936348389
 20
-133.738054835415
 30
0.0
  0
SPLINE
  5
1B6FE
330
18
100
AcDbEntity
  8
姿図
100
AcDbSpline
210
0.0
220
0.0
230
1.0
 70
     8
 71
     3
 72
     8
 73
     4
 74
     0
 42
0.000000001
 43
0.0000000001
 40
119.0
 40
119.0
 40
119.0
 40
119.0
 40
120.0
 40
120.0
 40
120.0
 40
120.0
 10
2406.854599434326
 20
-131.4133595229151
 30
0.0
 10
2406.868242012451
 20
-131.7123800307278
 30
0.0
 10
2406.868242012451
 20
-132.9904415541652
 30
0.0
 10
2406.813795723388
 20
-133.1806935072901
 30
0.0
  0
SPLINE
  5
1B6FF
330
18
100
AcDbEntity
  8
姿図
100
AcDbSpline
210
0.0
220
0.0
230
1.0
 70
     8
 71
     3
 72
    11
 73
     7
 74
     0
 42
0.000000001
 43
0.0000000001
 40
117.0
 40
117.0
 40
117.0
 40
117.0
 40
118.0
 40
118.0
 40
118.0
 40
119.0
 40
119.0
 40
119.0
 40
119.0
 10
2406.392364082764
 20
-131.1278575697903
 30
0.0
 10
2406.406006660889
 20
-130.9646427260401
 30
0.0
 10
2406.365202949951
 20
-130.8966778822902
 30
0.0
 10
2406.501132637452
 20
-130.8966778822902
 30
0.0
 10
2406.637186348389
 20
-130.8966778822902
 30
0.0
 10
2406.841080879639
 20
-131.1142149916651
 30
0.0
 10
2406.854599434326
 20
-131.4133595229151
 30
0.0
  0
SPLINE
  5
1B700
330
18
100
AcDbEntity
  8
姿図
100
AcDbSpline
210
0.0
220
0.0
230
1.0
 70
     8
 71
     3
 72
     8
 73
     4
 74
     0
 42
0.000000001
 43
0.0000000001
 40
116.0
 40
116.0
 40
116.0
 40
116.0
 40
117.0
 40
117.0
 40
117.0
 40
117.0
 10
2405.603823067139
 20
-131.03260756979
 30
0.0
 10
2405.603823067139
 20
-131.03260756979
 30
0.0
 10
2406.297238106201
 20
-131.0053224135401
 30
0.0
 10
2406.392364082764
 20
-131.1278575697903
 30
0.0
  0
SPLINE
  5
1B701
330
18
100
AcDbEntity
  8
姿図
100
AcDbSpline
210
0.0
220
0.0
230
1.0
 70
     8
 71
     3
 72
    14
 73
    10
 74
     0
 42
0.000000001
 43
0.0000000001
 40
113.0
 40
113.0
 40
113.0
 40
113.0
 40
114.0
 40
114.0
 40
114.0
 40
115.0
 40
115.0
 40
115.0
 40
116.0
 40
116.0
 40
116.0
 40
116.0
 10
2404.896889473389
 20
-130.2032628432277
 30
0.0
 10
2404.896889473389
 20
-130.2032628432277
 30
0.0
 10
2404.924050606201
 20
-130.0672091322905
 30
0.0
 10
2405.128069160889
 20
-130.0672091322905
 30
0.0
 10
2405.331963692139
 20
-130.0672091322905
 30
0.0
 10
2405.576661934326
 20
-130.0672091322905
 30
0.0
 10
2405.576661934326
 20
-130.2713517104154
 30
0.0
 10
2405.576661934326
 20
-130.4752462416651
 30
0.0
 10
2405.603823067139
 20
-131.03260756979
 30
0.0
 10
2405.603823067139
 20
-131.03260756979
 30
0.0
  0
SPLINE
  5
1B702
330
18
100
AcDbEntity
  8
姿図
100
AcDbSpline
210
0.0
220
0.0
230
1.0
 70
     8
 71
     3
 72
    11
 73
     7
 74
     0
 42
0.000000001
 43
0.0000000001
 40
111.0
 40
111.0
 40
111.0
 40
111.0
 40
112.0
 40
112.0
 40
112.0
 40
113.0
 40
113.0
 40
113.0
 40
113.0
 10
2404.624906074951
 20
-130.1352979994778
 30
0.0
 10
2404.624906074951
 20
-130.1352979994778
 30
0.0
 10
2404.665709785889
 20
-130.0265294447901
 30
0.0
 10
2404.747317207764
 20
-130.0265294447901
 30
0.0
 10
2404.828800606201
 20
-130.0265294447901
 30
0.0
 10
2404.896889473389
 20
-130.2032628432277
 30
0.0
 10
2404.896889473389
 20
-130.2032628432277
 30
0.0
  0
SPLINE
  5
1B703
330
18
100
AcDbEntity
  8
姿図
100
AcDbSpline
210
0.0
220
0.0
230
1.0
 70
    24
 71
     3
 72
     8
 73
     4
 74
     0
 42
0.000000001
 43
0.0000000001
 40
110.0
 40
110.0
 40
110.0
 40
110.0
 40
111.0
 40
111.0
 40
111.0
 40
111.0
 10
2404.624906074951
 20
-131.481324366665
 30
0.0
 10
2404.624906074951
 20
-131.481324366665
 30
0.0
 10
2404.624906074951
 20
-130.1352979994778
 30
0.0
 10
2404.624906074951
 20
-130.1352979994778
 30
0.0
  0
SPLINE
  5
1B704
330
18
100
AcDbEntity
  8
姿図
100
AcDbSpline
210
0.0
220
0.0
230
1.0
 70
     8
 71
     3
 72
    11
 73
     7
 74
     0
 42
0.000000001
 43
0.0000000001
 40
108.0
 40
108.0
 40
108.0
 40
108.0
 40
109.0
 40
109.0
 40
109.0
 40
110.0
 40
110.0
 40
110.0
 40
110.0
 10
2403.958776192139
 20
-131.5492892104149
 30
0.0
 10
2404.026741035889
 20
-131.4403966322903
 30
0.0
 10
2404.135509590576
 20
-131.37243178854
 30
0.0
 10
2404.325885567139
 20
-131.37243178854
 30
0.0
 10
2404.516261543701
 20
-131.37243178854
 30
0.0
 10
2404.624906074951
 20
-131.481324366665
 30
0.0
 10
2404.624906074951
 20
-131.481324366665
 30
0.0
  0
SPLINE
  5
1B705
330
18
100
AcDbEntity
  8
姿図
100
AcDbSpline
210
0.0
220
0.0
230
1.0
 70
     8
 71
     3
 72
     8
 73
     4
 74
     0
 42
0.000000001
 43
0.0000000001
 40
107.0
 40
107.0
 40
107.0
 40
107.0
 40
108.0
 40
108.0
 40
108.0
 40
108.0
 10
2403.917972481201
 20
-131.8891134291649
 30
0.0
 10
2403.917972481201
 20
-131.8891134291649
 30
0.0
 10
2403.890687324951
 20
-131.6579337416653
 30
0.0
 10
2403.958776192139
 20
-131.5492892104149
 30
0.0
  0
SPLINE
  5
1B706
330
18
100
AcDbEntity
  8
姿図
100
AcDbSpline
210
0.0
220
0.0
230
1.0
 70
     8
 71
     3
 72
    11
 73
     7
 74
     0
 42
0.000000001
 43
0.0000000001
 40
105.0
 40
105.0
 40
105.0
 40
105.0
 40
106.0
 40
106.0
 40
106.0
 40
107.0
 40
107.0
 40
107.0
 40
107.0
 10
2403.822846504639
 20
-132.4737599135402
 30
0.0
 10
2403.700435371826
 20
-132.4194376479151
 30
0.0
 10
2403.673274239014
 20
-132.3514728041652
 30
0.0
 10
2403.673274239014
 20
-132.2562228041653
 30
0.0
 10
2403.673274239014
 20
-132.1610968276024
 30
0.0
 10
2403.917972481201
 20
-131.8891134291649
 30
0.0
 10
2403.917972481201
 20
-131.8891134291649
 30
0.0
  0
SPLINE
  5
1B707
330
18
100
AcDbEntity
  8
姿図
100
AcDbSpline
210
0.0
220
0.0
230
1.0
 70
     8
 71
     3
 72
     8
 73
     4
 74
     0
 42
0.000000001
 43
0.0000000001
 40
104.0
 40
104.0
 40
104.0
 40
104.0
 40
105.0
 40
105.0
 40
105.0
 40
105.0
 10
2403.782042793701
 20
-132.9359952651026
 30
0.0
 10
2403.782042793701
 20
-132.9359952651026
 30
0.0
 10
2403.727596504639
 20
-132.5825284682279
 30
0.0
 10
2403.822846504639
 20
-132.4737599135402
 30
0.0
  0
SPLINE
  5
1B708
330
18
100
AcDbEntity
  8
姿図
100
AcDbSpline
210
0.0
220
0.0
230
1.0
 70
    24
 71
     3
 72
     8
 73
     4
 74
     0
 42
0.000000001
 43
0.0000000001
 40
103.0
 40
103.0
 40
103.0
 40
103.0
 40
104.0
 40
104.0
 40
104.0
 40
104.0
 10
2403.292646309326
 20
-132.460117335415
 30
0.0
 10
2403.292646309326
 20
-132.460117335415
 30
0.0
 10
2403.782042793701
 20
-132.9359952651026
 30
0.0
 10
2403.782042793701
 20
-132.9359952651026
 30
0.0
  0
SPLINE
  5
1B709
330
18
100
AcDbEntity
  8
姿図
100
AcDbSpline
210
0.0
220
0.0
230
1.0
 70
    24
 71
     3
 72
     8
 73
     4
 74
     0
 42
0.000000001
 43
0.0000000001
 40
102.0
 40
102.0
 40
102.0
 40
102.0
 40
103.0
 40
103.0
 40
103.0
 40
103.0
 10
2403.414933418701
 20
-132.3921524916651
 30
0.0
 10
2403.414933418701
 20
-132.3921524916651
 30
0.0
 10
2403.292646309326
 20
-132.460117335415
 30
0.0
 10
2403.292646309326
 20
-132.460117335415
 30
0.0
  0
SPLINE
  5
1B70A
330
18
100
AcDbEntity
  8
姿図
100
AcDbSpline
210
0.0
220
0.0
230
1.0
 70
     8
 71
     3
 72
    11
 73
     7
 74
     0
 42
0.000000001
 43
0.0000000001
 40
100.0
 40
100.0
 40
100.0
 40
100.0
 40
101.0
 40
101.0
 40
101.0
 40
102.0
 40
102.0
 40
102.0
 40
102.0
 10
2403.333325996826
 20
-131.9027560072901
 30
0.0
 10
2403.333325996826
 20
-131.9027560072901
 30
0.0
 10
2403.455737129639
 20
-131.8754708510402
 30
0.0
 10
2403.455737129639
 20
-131.97072085104
 30
0.0
 10
2403.455737129639
 20
-132.0659708510403
 30
0.0
 10
2403.414933418701
 20
-132.3921524916651
 30
0.0
 10
2403.414933418701
 20
-132.3921524916651
 30
0.0
  0
SPLINE
  5
1B70B
330
18
100
AcDbEntity
  8
姿図
100
AcDbSpline
210
0.0
220
0.0
230
1.0
 70
    24
 71
     3
 72
     8
 73
     4
 74
     0
 42
0.000000001
 43
0.0000000001
 40
99.0
 40
99.0
 40
99.0
 40
99.0
 40
100.0
 40
100.0
 40
100.0
 40
100.0
 10
2403.007020332764
 20
-132.2154190932275
 30
0.0
 10
2403.007020332764
 20
-132.2154190932275
 30
0.0
 10
2403.333325996826
 20
-131.9027560072901
 30
0.0
 10
2403.333325996826
 20
-131.9027560072901
 30
0.0
  0
SPLINE
  5
1B70C
330
18
100
AcDbEntity
  8
姿図
100
AcDbSpline
210
0.0
220
0.0
230
1.0
 70
    24
 71
     3
 72
     8
 73
     4
 74
     0
 42
0.000000001
 43
0.0000000001
 40
98.0
 40
98.0
 40
98.0
 40
98.0
 40
99.0
 40
99.0
 40
99.0
 40
99.0
 10
2402.695101387451
 20
-132.0002384291653
 30
0.0
 10
2402.695101387451
 20
-132.0002384291653
 30
0.0
 10
2403.007020332764
 20
-132.2154190932275
 30
0.0
 10
2403.007020332764
 20
-132.2154190932275
 30
0.0
  0
SPLINE
  5
1B70D
330
18
100
AcDbEntity
  8
姿図
100
AcDbSpline
210
0.0
220
0.0
230
1.0
 70
     8
 71
     3
 72
     8
 73
     4
 74
     0
 42
0.000000001
 43
0.0000000001
 40
94.0
 40
94.0
 40
94.0
 40
94.0
 40
95.0
 40
95.0
 40
95.0
 40
95.0
 10
2400.409225410889
 20
-120.0805938979153
 30
0.0
 10
2400.957905098388
 20
-123.37292006979
 30
0.0
 10
2401.245391426514
 20
-125.2283106947899
 30
0.0
 10
2401.245391426514
 20
-125.4374142104149
 30
0.0
  0
SPLINE
  5
1B70E
330
18
100
AcDbEntity
  8
姿図
100
AcDbSpline
210
0.0
220
0.0
230
1.0
 70
     8
 71
     3
 72
     8
 73
     4
 74
     0
 42
0.000000001
 43
0.0000000001
 40
93.0
 40
93.0
 40
93.0
 40
93.0
 40
94.0
 40
94.0
 40
94.0
 40
94.0
 10
2398.423362129639
 20
-112.4766549330712
 30
0.0
 10
2398.606172676514
 20
-113.0515655776027
 30
0.0
 10
2399.860545723389
 20
-116.7881437026027
 30
0.0
 10
2400.409225410889
 20
-120.0805938979153
 30
0.0
  0
SPLINE
  5
1B70F
330
18
100
AcDbEntity
  8
姿図
100
AcDbSpline
210
0.0
220
0.0
230
1.0
 70
     8
 71
     3
 72
     8
 73
     4
 74
     0
 42
0.000000001
 43
0.0000000001
 40
92.0
 40
92.0
 40
92.0
 40
92.0
 40
93.0
 40
93.0
 40
93.0
 40
93.0
 10
2397.378092598389
 20
-111.8756993666649
 30
0.0
 10
2397.743837715576
 20
-111.8495304213526
 30
0.0
 10
2398.240427559326
 20
-111.9018063002587
 30
0.0
 10
2398.423362129639
 20
-112.4766549330712
 30
0.0
  0
SPLINE
  5
1B710
330
18
100
AcDbEntity
  8
姿図
100
AcDbSpline
210
0.0
220
0.0
230
1.0
 70
     8
 71
     3
 72
     8
 73
     4
 74
     0
 42
0.000000001
 43
0.0000000001
 40
91.0
 40
91.0
 40
91.0
 40
91.0
 40
92.0
 40
92.0
 40
92.0
 40
92.0
 10
2395.940909004639
 20
-112.0847408705714
 30
0.0
 10
2395.940909004639
 20
-112.0847408705714
 30
0.0
 10
2397.012347481201
 20
-111.9018063002587
 30
0.0
 10
2397.378092598389
 20
-111.8756993666649
 30
0.0
  0
SPLINE
  5
1B711
330
18
100
AcDbEntity
  8
姿図
100
AcDbSpline
210
0.0
220
0.0
230
1.0
 70
     8
 71
     3
 72
     8
 73
     4
 74
     0
 42
0.000000001
 43
0.0000000001
 40
90.0
 40
90.0
 40
90.0
 40
90.0
 40
91.0
 40
91.0
 40
91.0
 40
91.0
 10
2395.862526192139
 20
-110.6214503432276
 30
0.0
 10
2395.888695137451
 20
-110.7782159682275
 30
0.0
 10
2395.940909004639
 20
-112.0847408705714
 30
0.0
 10
2395.940909004639
 20
-112.0847408705714
 30
0.0
  0
SPLINE
  5
1B712
330
18
100
AcDbEntity
  8
姿図
100
AcDbSpline
210
0.0
220
0.0
230
1.0
 70
     8
 71
     3
 72
    11
 73
     7
 74
     0
 42
0.000000001
 43
0.0000000001
 40
88.0
 40
88.0
 40
88.0
 40
88.0
 40
89.0
 40
89.0
 40
89.0
 40
90.0
 40
90.0
 40
90.0
 40
90.0
 10
2395.470612129639
 20
-110.5691744643215
 30
0.0
 10
2395.470612129639
 20
-110.5691744643215
 30
0.0
 10
2395.496781074951
 20
-110.3601329604154
 30
0.0
 10
2395.653422676514
 20
-110.3601329604154
 30
0.0
 10
2395.810312324951
 20
-110.3601329604154
 30
0.0
 10
2395.836357246826
 20
-110.4646227065087
 30
0.0
 10
2395.862526192139
 20
-110.6214503432276
 30
0.0
  0
SPLINE
  5
1B713
330
18
100
AcDbEntity
  8
姿図
100
AcDbSpline
210
0.0
220
0.0
230
1.0
 70
     8
 71
     3
 72
     8
 73
     4
 74
     0
 42
0.000000001
 43
0.0000000001
 40
87.0
 40
87.0
 40
87.0
 40
87.0
 40
88.0
 40
88.0
 40
88.0
 40
88.0
 10
2395.339891426514
 20
-111.7711476088526
 30
0.0
 10
2395.444443184326
 20
-111.2485748549462
 30
0.0
 10
2395.470612129639
 20
-110.5691744643215
 30
0.0
 10
2395.470612129639
 20
-110.5691744643215
 30
0.0
  0
SPLINE
  5
1B714
330
18
100
AcDbEntity
  8
姿図
100
AcDbSpline
210
0.0
220
0.0
230
1.0
 70
     8
 71
     3
 72
     8
 73
     4
 74
     0
 42
0.000000001
 43
0.0000000001
 40
86.0
 40
86.0
 40
86.0
 40
86.0
 40
87.0
 40
87.0
 40
87.0
 40
87.0
 10
2394.085766426514
 20
-111.0917472182274
 30
0.0
 10
2394.085766426514
 20
-111.0917472182274
 30
0.0
 10
2395.130911934326
 20
-111.5098922377589
 30
0.0
 10
2395.339891426514
 20
-111.7711476088526
 30
0.0
  0
SPLINE
  5
1B715
330
18
100
AcDbEntity
  8
姿図
100
AcDbSpline
210
0.0
220
0.0
230
1.0
 70
     8
 71
     3
 72
    17
 73
    13
 74
     0
 42
0.000000001
 43
0.0000000001
 40
82.0
 40
82.0
 40
82.0
 40
82.0
 40
83.0
 40
83.0
 40
83.0
 40
84.0
 40
84.0
 40
84.0
 40
85.0
 40
85.0
 40
85.0
 40
86.0
 40
86.0
 40
86.0
 40
86.0
 10
2393.536962715576
 20
-110.9088126479152
 30
0.0
 10
2393.615345528076
 20
-110.3339640151027
 30
0.0
 10
2393.615345528076
 20
-110.1511534682278
 30
0.0
 10
2393.615345528076
 20
-110.0466017104151
 30
0.0
 10
2393.615345528076
 20
-109.9420499526024
 30
0.0
 10
2393.536962715576
 20
-109.6807325697902
 30
0.0
 10
2393.850493965576
 20
-109.6807325697902
 30
0.0
 10
2394.164025215576
 20
-109.6807325697902
 30
0.0
 10
2394.059597481201
 20
-109.915943019009
 30
0.0
 10
2394.059597481201
 20
-110.0466017104151
 30
0.0
 10
2394.059597481201
 20
-110.1772604018216
 30
0.0
 10
2394.085766426514
 20
-111.0917472182274
 30
0.0
 10
2394.085766426514
 20
-111.0917472182274
 30
0.0
  0
SPLINE
  5
1B716
330
18
100
AcDbEntity
  8
姿図
100
AcDbSpline
210
0.0
220
0.0
230
1.0
 70
     8
 71
     3
 72
     8
 73
     4
 74
     0
 42
0.000000001
 43
0.0000000001
 40
81.0
 40
81.0
 40
81.0
 40
81.0
 40
82.0
 40
82.0
 40
82.0
 40
82.0
 10
2392.230375801514
 20
-110.6475572768214
 30
0.0
 10
2392.230375801514
 20
-110.6475572768214
 30
0.0
 10
2393.223431465576
 20
-110.8043849135403
 30
0.0
 10
2393.536962715576
 20
-110.9088126479152
 30
0.0
  0
SPLINE
  5
1B717
330
18
100
AcDbEntity
  8
姿図
100
AcDbSpline
210
0.0
220
0.0
230
1.0
 70
     8
 71
     3
 72
    14
 73
    10
 74
     0
 42
0.000000001
 43
0.0000000001
 40
78.0
 40
78.0
 40
78.0
 40
78.0
 40
79.0
 40
79.0
 40
79.0
 40
80.0
 40
80.0
 40
80.0
 40
81.0
 40
81.0
 40
81.0
 40
81.0
 10
2391.760078926514
 20
-109.5500738783841
 30
0.0
 10
2391.760078926514
 20
-109.5500738783841
 30
0.0
 10
2391.786247871826
 20
-109.3149254408837
 30
0.0
 10
2391.969058418701
 20
-109.3149254408837
 30
0.0
 10
2392.151992989014
 20
-109.3149254408837
 30
0.0
 10
2392.230375801514
 20
-109.4977979994775
 30
0.0
 10
2392.230375801514
 20
-109.6546256361963
 30
0.0
 10
2392.230375801514
 20
-109.8113912611963
 30
0.0
 10
2392.230375801514
 20
-110.6475572768214
 30
0.0
 10
2392.230375801514
 20
-110.6475572768214
 30
0.0
  0
SPLINE
  5
1B718
330
18
100
AcDbEntity
  8
姿図
100
AcDbSpline
210
0.0
220
0.0
230
1.0
 70
     8
 71
     3
 72
     8
 73
     4
 74
     0
 42
0.000000001
 43
0.0000000001
 40
77.0
 40
77.0
 40
77.0
 40
77.0
 40
78.0
 40
78.0
 40
78.0
 40
78.0
 10
2391.745989305406
 20
-110.6163731237649
 30
0.0
 10
2391.733909981201
 20
-110.1772604018216
 30
0.0
 10
2391.760078926514
 20
-109.5500738783841
 30
0.0
 10
2391.760078926514
 20
-109.5500738783841
 30
0.0
  0
SPLINE
  5
1B719
330
18
100
AcDbEntity
  8
姿図
100
AcDbSpline
210
0.0
220
0.0
230
1.0
 70
     8
 71
     3
 72
     8
 73
     4
 74
     0
 42
0.000000001
 43
0.0000000001
 40
76.0
 40
76.0
 40
76.0
 40
76.0
 40
77.0
 40
77.0
 40
77.0
 40
77.0
 10
2390.349064278076
 20
-110.5691744643215
 30
0.0
 10
2390.349064278076
 20
-110.5691744643215
 30
0.0
 10
2391.133016426514
 20
-110.5168985854149
 30
0.0
 10
2391.745989305406
 20
-110.6163731237649
 30
0.0
  0
SPLINE
  5
1B71A
330
18
100
AcDbEntity
  8
姿図
100
AcDbSpline
210
0.0
220
0.0
230
1.0
 70
     8
 71
     3
 72
    14
 73
    10
 74
     0
 42
0.000000001
 43
0.0000000001
 40
73.0
 40
73.0
 40
73.0
 40
73.0
 40
74.0
 40
74.0
 40
74.0
 40
75.0
 40
75.0
 40
75.0
 40
76.0
 40
76.0
 40
76.0
 40
76.0
 10
2389.90487433667
 20
-109.5239669447902
 30
0.0
 10
2389.90487433667
 20
-109.5240289565091
 30
0.0
 10
2389.852598457764
 20
-109.2888185072899
 30
0.0
 10
2390.087746895264
 20
-109.2888185072899
 30
0.0
 10
2390.322895332763
 20
-109.2888185072899
 30
0.0
 10
2390.322895332763
 20
-109.4194771986964
 30
0.0
 10
2390.322895332763
 20
-109.5761808119779
 30
0.0
 10
2390.322895332763
 20
-109.7330084486963
 30
0.0
 10
2390.349064278076
 20
-110.5691744643215
 30
0.0
 10
2390.349064278076
 20
-110.5691744643215
 30
0.0
  0
SPLINE
  5
1B71B
330
18
100
AcDbEntity
  8
姿図
100
AcDbSpline
210
0.0
220
0.0
230
1.0
 70
     8
 71
     3
 72
     8
 73
     4
 74
     0
 42
0.000000001
 43
0.0000000001
 40
72.0
 40
72.0
 40
72.0
 40
72.0
 40
73.0
 40
73.0
 40
73.0
 40
73.0
 10
2389.878705391357
 20
-110.5691744643215
 30
0.0
 10
2389.878705391357
 20
-110.0204327651028
 30
0.0
 10
2389.90487433667
 20
-109.5239669447902
 30
0.0
 10
2389.90487433667
 20
-109.5239669447902
 30
0.0
  0
SPLINE
  5
1B71C
330
18
100
AcDbEntity
  8
姿図
100
AcDbSpline
210
0.0
220
0.0
230
1.0
 70
     8
 71
     3
 72
     8
 73
     4
 74
     0
 42
0.000000001
 43
0.0000000001
 40
71.0
 40
71.0
 40
71.0
 40
71.0
 40
72.0
 40
72.0
 40
72.0
 40
72.0
 10
2388.441521797607
 20
-110.8304918471337
 30
0.0
 10
2388.441521797607
 20
-110.8304918471337
 30
0.0
 10
2389.303856758545
 20
-110.6214503432276
 30
0.0
 10
2389.878705391357
 20
-110.5691744643215
 30
0.0
  0
SPLINE
  5
1B71D
330
18
100
AcDbEntity
  8
姿図
100
AcDbSpline
210
0.0
220
0.0
230
1.0
 70
     8
 71
     3
 72
    14
 73
    10
 74
     0
 42
0.000000001
 43
0.0000000001
 40
68.0
 40
68.0
 40
68.0
 40
68.0
 40
69.0
 40
69.0
 40
69.0
 40
70.0
 40
70.0
 40
70.0
 40
71.0
 40
71.0
 40
71.0
 40
71.0
 10
2387.918949043701
 20
-110.9088126479152
 30
0.0
 10
2387.945117989014
 20
-110.4907916518215
 30
0.0
 10
2387.892842110107
 20
-109.4977979994775
 30
0.0
 10
2388.180204414795
 20
-109.4977979994775
 30
0.0
 10
2388.46769074292
 20
-109.4977979994775
 30
0.0
 10
2388.415414864014
 20
-109.6546256361963
 30
0.0
 10
2388.415414864014
 20
-109.8897740736967
 30
0.0
 10
2388.415414864014
 20
-110.124984522915
 30
0.0
 10
2388.441521797607
 20
-110.8304918471337
 30
0.0
 10
2388.441521797607
 20
-110.8304918471337
 30
0.0
  0
SPLINE
  5
1B71E
330
18
100
AcDbEntity
  8
姿図
100
AcDbSpline
210
0.0
220
0.0
230
1.0
 70
     8
 71
     3
 72
     8
 73
     4
 74
     0
 42
0.000000001
 43
0.0000000001
 40
67.0
 40
67.0
 40
67.0
 40
67.0
 40
68.0
 40
68.0
 40
68.0
 40
68.0
 10
2386.612362129639
 20
-111.640550929165
 30
0.0
 10
2386.612362129639
 20
-111.640550929165
 30
0.0
 10
2387.03050714917
 20
-111.2746817885401
 30
0.0
 10
2387.918949043701
 20
-110.9088126479152
 30
0.0
  0
SPLINE
  5
1B71F
330
18
100
AcDbEntity
  8
姿図
100
AcDbSpline
210
0.0
220
0.0
230
1.0
 70
     8
 71
     3
 72
    14
 73
    10
 74
     0
 42
0.000000001
 43
0.0000000001
 40
64.0
 40
64.0
 40
64.0
 40
64.0
 40
65.0
 40
65.0
 40
65.0
 40
66.0
 40
66.0
 40
66.0
 40
67.0
 40
67.0
 40
67.0
 40
67.0
 10
2386.063682442139
 20
-111.9018063002587
 30
0.0
 10
2386.089789375732
 20
-111.3008507338528
 30
0.0
 10
2385.985299629639
 20
-110.1772604018216
 30
0.0
 10
2386.298830879639
 20
-110.1772604018216
 30
0.0
 10
2386.612362129639
 20
-110.1772604018216
 30
0.0
 10
2386.533979317139
 20
-110.3339640151027
 30
0.0
 10
2386.533979317139
 20
-110.4907916518215
 30
0.0
 10
2386.533979317139
 20
-110.6475572768214
 30
0.0
 10
2386.612362129639
 20
-111.640550929165
 30
0.0
 10
2386.612362129639
 20
-111.640550929165
 30
0.0
  0
SPLINE
  5
1B720
330
18
100
AcDbEntity
  8
姿図
100
AcDbSpline
210
0.0
220
0.0
230
1.0
 70
     8
 71
     3
 72
     8
 73
     4
 74
     0
 42
0.000000001
 43
0.0000000001
 40
63.0
 40
63.0
 40
63.0
 40
63.0
 40
64.0
 40
64.0
 40
64.0
 40
64.0
 10
2384.548116035889
 20
-111.718933741665
 30
0.0
 10
2385.018412910889
 20
-111.6665958510399
 30
0.0
 10
2385.90685480542
 20
-111.9540821791653
 30
0.0
 10
2386.063682442139
 20
-111.9018063002587
 30
0.0
  0
SPLINE
  5
1B721
330
18
100
AcDbEntity
  8
姿図
100
AcDbSpline
210
0.0
220
0.0
230
1.0
 70
     8
 71
     3
 72
     8
 73
     4
 74
     0
 42
0.000000001
 43
0.0000000001
 40
62.0
 40
62.0
 40
62.0
 40
62.0
 40
63.0
 40
63.0
 40
63.0
 40
63.0
 10
2383.711950020264
 20
-112.1631236830714
 30
0.0
 10
2383.84260871167
 20
-111.7973165541649
 30
0.0
 10
2384.180820625732
 20
-111.7596754408838
 30
0.0
 10
2384.548116035889
 20
-111.718933741665
 30
0.0
  0
SPLINE
  5
1B722
330
18
100
AcDbEntity
  8
姿図
100
AcDbSpline
210
0.0
220
0.0
230
1.0
 70
     8
 71
     3
 72
     8
 73
     4
 74
     0
 42
0.000000001
 43
0.0000000001
 40
61.0
 40
61.0
 40
61.0
 40
61.0
 40
62.0
 40
62.0
 40
62.0
 40
62.0
 10
2381.908959297607
 20
-117.676585597134
 30
0.0
 10
2382.588359688232
 20
-115.0897667494775
 30
0.0
 10
2383.581353340576
 20
-112.5289308119774
 30
0.0
 10
2383.711950020264
 20
-112.1631236830714
 30
0.0
  0
SPLINE
  5
1B723
330
18
100
AcDbEntity
  8
姿図
100
AcDbSpline
210
0.0
220
0.0
230
1.0
 70
     8
 71
     3
 72
     8
 73
     4
 74
     0
 42
0.000000001
 43
0.0000000001
 40
60.0
 40
60.0
 40
60.0
 40
60.0
 40
61.0
 40
61.0
 40
61.0
 40
61.0
 10
2380.627301094482
 20
-124.7810821791651
 30
0.0
 10
2380.725465645264
 20
-123.7623536635402
 30
0.0
 10
2381.229558906983
 20
-120.2635284682275
 30
0.0
 10
2381.908959297607
 20
-117.676585597134
 30
0.0
  0
SPLINE
  5
1B724
330
18
100
AcDbEntity
  8
姿図
100
AcDbSpline
210
0.0
220
0.0
230
1.0
 70
    24
 71
     3
 72
     8
 73
     4
 74
     0
 42
0.000000001
 43
0.0000000001
 40
55.0
 40
55.0
 40
55.0
 40
55.0
 40
56.0
 40
56.0
 40
56.0
 40
56.0
 10
2378.54730402417
 20
-131.845829249478
 30
0.0
 10
2378.54730402417
 20
-131.845829249478
 30
0.0
 10
2378.658242989014
 20
-131.71473647604
 30
0.0
 10
2378.658242989014
 20
-131.71473647604
 30
0.0
  0
SPLINE
  5
1B725
330
18
100
AcDbEntity
  8
姿図
100
AcDbSpline
210
0.0
220
0.0
230
1.0
 70
     8
 71
     3
 72
     8
 73
     4
 74
     0
 42
0.000000001
 43
0.0000000001
 40
54.0
 40
54.0
 40
54.0
 40
54.0
 40
55.0
 40
55.0
 40
55.0
 40
55.0
 10
2378.184473457763
 20
-131.4527989760401
 30
0.0
 10
2378.244996895264
 20
-131.5131983901025
 30
0.0
 10
2378.54730402417
 20
-131.845829249478
 30
0.0
 10
2378.54730402417
 20
-131.845829249478
 30
0.0
  0
SPLINE
  5
1B726
330
18
100
AcDbEntity
  8
姿図
100
AcDbSpline
210
0.0
220
0.0
230
1.0
 70
     8
 71
     3
 72
     8
 73
     4
 74
     0
 42
0.000000001
 43
0.0000000001
 40
53.0
 40
53.0
 40
53.0
 40
53.0
 40
54.0
 40
54.0
 40
54.0
 40
54.0
 10
2378.063550606201
 20
-131.4830606947904
 30
0.0
 10
2378.063550606201
 20
-131.4830606947904
 30
0.0
 10
2378.124012031983
 20
-131.3922755385403
 30
0.0
 10
2378.184473457763
 20
-131.4527989760401
 30
0.0
  0
SPLINE
  5
1B727
330
18
100
AcDbEntity
  8
姿図
100
AcDbSpline
210
0.0
220
0.0
230
1.0
 70
    24
 71
     3
 72
     8
 73
     4
 74
     0
 42
0.000000001
 43
0.0000000001
 40
52.0
 40
52.0
 40
52.0
 40
52.0
 40
53.0
 40
53.0
 40
53.0
 40
53.0
 10
2378.073658516358
 20
-131.9364903822899
 30
0.0
 10
2378.073658516358
 20
-131.9364903822899
 30
0.0
 10
2378.063550606201
 20
-131.4830606947904
 30
0.0
 10
2378.063550606201
 20
-131.4830606947904
 30
0.0
  0
SPLINE
  5
1B728
330
18
100
AcDbEntity
  8
姿図
100
AcDbSpline
210
0.0
220
0.0
230
1.0
 70
     8
 71
     3
 72
     8
 73
     4
 74
     0
 42
0.000000001
 43
0.0000000001
 40
51.0
 40
51.0
 40
51.0
 40
51.0
 40
52.0
 40
52.0
 40
52.0
 40
52.0
 10
2378.224781074951
 20
-132.1179366713524
 30
0.0
 10
2378.083704414795
 20
-131.9567062026027
 30
0.0
 10
2378.073658516358
 20
-131.9364903822899
 30
0.0
 10
2378.073658516358
 20
-131.9364903822899
 30
0.0
  0
SPLINE
  5
1B729
330
18
100
AcDbEntity
  8
姿図
100
AcDbSpline
210
0.0
220
0.0
230
1.0
 70
     8
 71
     3
 72
     8
 73
     4
 74
     0
 42
0.000000001
 43
0.0000000001
 40
50.0
 40
50.0
 40
50.0
 40
50.0
 40
51.0
 40
51.0
 40
51.0
 40
51.0
 10
2376.789910545905
 20
-133.5705481470983
 30
0.0
 10
2376.789910545905
 20
-133.5705481470983
 30
0.0
 10
2377.710827949951
 20
-132.4707833510403
 30
0.0
 10
2378.224781074951
 20
-132.1179366713524
 30
0.0
  0
SPLINE
  5
1B72A
330
18
100
AcDbEntity
  8
姿図
100
AcDbSpline
210
0.0
220
0.0
230
1.0
 70
    24
 71
     3
 72
     8
 73
     4
 74
     0
 42
0.000000001
 43
0.0000000001
 40
49.0
 40
49.0
 40
49.0
 40
49.0
 40
50.0
 40
50.0
 40
50.0
 40
50.0
 10
2376.734682115496
 20
-132.5989690011539
 30
0.0
 10
2376.734682115496
 20
-132.5989690011539
 30
0.0
 10
2376.789910545905
 20
-133.5705481470983
 30
0.0
 10
2376.789910545905
 20
-133.5705481470983
 30
0.0
  0
SPLINE
  5
1B72B
330
18
100
AcDbEntity
  8
姿図
100
AcDbSpline
210
0.0
220
0.0
230
1.0
 70
    24
 71
     3
 72
     8
 73
     4
 74
     0
 42
0.000000001
 43
0.0000000001
 40
48.0
 40
48.0
 40
48.0
 40
48.0
 40
49.0
 40
49.0
 40
49.0
 40
49.0
 10
2377.156443184326
 20
-132.6320138197899
 30
0.0
 10
2376.734682115496
 20
-132.5989690011539
 30
0.0
 10
2376.734682115496
 20
-132.5989690011539
 30
0.0
 10
2376.734682115496
 20
-132.5989690011539
 30
0.0
  0
SPLINE
  5
1B72C
330
18
100
AcDbEntity
  8
姿図
100
AcDbSpline
210
0.0
220
0.0
230
1.0
 70
     8
 71
     3
 72
     8
 73
     4
 74
     0
 42
0.000000001
 43
0.0000000001
 40
47.0
 40
47.0
 40
47.0
 40
47.0
 40
48.0
 40
48.0
 40
48.0
 40
48.0
 10
2377.559643379639
 20
-132.48070522604
 30
0.0
 10
2377.559643379639
 20
-132.48070522604
 30
0.0
 10
2377.448766426514
 20
-132.6723214369778
 30
0.0
 10
2377.156443184326
 20
-132.6320138197899
 30
0.0
  0
SPLINE
  5
1B72D
330
18
100
AcDbEntity
  8
姿図
100
AcDbSpline
210
0.0
220
0.0
230
1.0
 70
     8
 71
     3
 72
     8
 73
     4
 74
     0
 42
0.000000001
 43
0.0000000001
 40
46.0
 40
46.0
 40
46.0
 40
46.0
 40
47.0
 40
47.0
 40
47.0
 40
47.0
 10
2377.599950996826
 20
-131.9769220229151
 30
0.0
 10
2377.610058906982
 20
-132.0473673354151
 30
0.0
 10
2377.559643379639
 20
-132.48070522604
 30
0.0
 10
2377.559643379639
 20
-132.48070522604
 30
0.0
  0
SPLINE
  5
1B72E
330
18
100
AcDbEntity
  8
姿図
100
AcDbSpline
210
0.0
220
0.0
230
1.0
 70
     8
 71
     3
 72
     8
 73
     4
 74
     0
 42
0.000000001
 43
0.0000000001
 40
45.0
 40
45.0
 40
45.0
 40
45.0
 40
46.0
 40
46.0
 40
46.0
 40
46.0
 10
2377.741027656983
 20
-131.7349522963524
 30
0.0
 10
2377.730981758545
 20
-131.8256134291652
 30
0.0
 10
2377.589905098389
 20
-131.90622866354
 30
0.0
 10
2377.599950996826
 20
-131.9769220229151
 30
0.0
  0
SPLINE
  5
1B72F
330
18
100
AcDbEntity
  8
姿図
100
AcDbSpline
210
0.0
220
0.0
230
1.0
 70
     8
 71
     3
 72
     8
 73
     4
 74
     0
 42
0.000000001
 43
0.0000000001
 40
44.0
 40
44.0
 40
44.0
 40
44.0
 40
45.0
 40
45.0
 40
45.0
 40
45.0
 10
2377.62010480542
 20
-131.4728907729151
 30
0.0
 10
2377.741027656983
 20
-131.6341212416652
 30
0.0
 10
2377.751135567139
 20
-131.6442911635401
 30
0.0
 10
2377.741027656983
 20
-131.7349522963524
 30
0.0
  0
SPLINE
  5
1B730
330
18
100
AcDbEntity
  8
姿図
100
AcDbSpline
210
0.0
220
0.0
230
1.0
 70
     8
 71
     3
 72
     8
 73
     4
 74
     0
 42
0.000000001
 43
0.0000000001
 40
43.0
 40
43.0
 40
43.0
 40
43.0
 40
44.0
 40
44.0
 40
44.0
 40
44.0
 10
2377.17659699292
 20
-130.8882442885402
 30
0.0
 10
2377.408458809326
 20
-130.9891993666653
 30
0.0
 10
2377.499119942139
 20
-131.311660304165
 30
0.0
 10
2377.62010480542
 20
-131.4728907729151
 30
0.0
  0
SPLINE
  5
1B731
330
18
100
AcDbEntity
  8
姿図
100
AcDbSpline
210
0.0
220
0.0
230
1.0
 70
     8
 71
     3
 72
     8
 73
     4
 74
     0
 42
0.000000001
 43
0.0000000001
 40
42.0
 40
42.0
 40
42.0
 40
42.0
 40
43.0
 40
43.0
 40
43.0
 40
43.0
 10
2376.804402656982
 20
-130.934132960415
 30
0.0
 10
2376.84471027417
 20
-130.9240870619775
 30
0.0
 10
2376.944859199951
 20
-130.78753725729
 30
0.0
 10
2377.17659699292
 20
-130.8882442885402
 30
0.0
  0
SPLINE
  5
1B732
330
18
100
AcDbEntity
  8
姿図
100
AcDbSpline
210
0.0
220
0.0
230
1.0
 70
     8
 71
     3
 72
    11
 73
     7
 74
     0
 42
0.000000001
 43
0.0000000001
 40
40.0
 40
40.0
 40
40.0
 40
40.0
 40
41.0
 40
41.0
 40
41.0
 40
42.0
 40
42.0
 40
42.0
 40
42.0
 10
2376.620661934326
 20
-129.5167931166653
 30
0.0
 10
2376.620661934326
 20
-129.5167931166653
 30
0.0
 10
2376.804402656982
 20
-129.4642071791651
 30
0.0
 10
2376.804402656982
 20
-129.6217169447901
 30
0.0
 10
2376.804402656982
 20
-129.7792267104152
 30
0.0
 10
2376.804402656982
 20
-130.934132960415
 30
0.0
 10
2376.804402656982
 20
-130.934132960415
 30
0.0
  0
SPLINE
  5
1B733
330
18
100
AcDbEntity
  8
姿図
100
AcDbSpline
210
0.0
220
0.0
230
1.0
 70
     8
 71
     3
 72
     8
 73
     4
 74
     0
 42
0.000000001
 43
0.0000000001
 40
39.0
 40
39.0
 40
39.0
 40
39.0
 40
40.0
 40
40.0
 40
40.0
 40
40.0
 10
2376.515676094482
 20
-129.7004718276027
 30
0.0
 10
2376.620661934326
 20
-129.8579815932277
 30
0.0
 10
2376.620661934326
 20
-129.5167931166653
 30
0.0
 10
2376.620661934326
 20
-129.5167931166653
 30
0.0
  0
SPLINE
  5
1B734
330
18
100
AcDbEntity
  8
姿図
100
AcDbSpline
210
0.0
220
0.0
230
1.0
 70
     8
 71
     3
 72
     8
 73
     4
 74
     0
 42
0.000000001
 43
0.0000000001
 40
38.0
 40
38.0
 40
38.0
 40
38.0
 40
39.0
 40
39.0
 40
39.0
 40
39.0
 10
2375.911992012451
 20
-129.5167931166653
 30
0.0
 10
2375.911992012451
 20
-129.5167931166653
 30
0.0
 10
2376.410690254639
 20
-129.543086085415
 30
0.0
 10
2376.515676094482
 20
-129.7004718276027
 30
0.0
  0
SPLINE
  5
1B735
330
18
100
AcDbEntity
  8
姿図
100
AcDbSpline
210
0.0
220
0.0
230
1.0
 70
    24
 71
     3
 72
     8
 73
     4
 74
     0
 42
0.000000001
 43
0.0000000001
 40
37.0
 40
37.0
 40
37.0
 40
37.0
 40
38.0
 40
38.0
 40
38.0
 40
38.0
 10
2375.807006172608
 20
-130.5141896010401
 30
0.0
 10
2375.807006172608
 20
-130.5141896010401
 30
0.0
 10
2375.911992012451
 20
-129.5167931166653
 30
0.0
 10
2375.911992012451
 20
-129.5167931166653
 30
0.0
  0
SPLINE
  5
1B736
330
18
100
AcDbEntity
  8
姿図
100
AcDbSpline
210
0.0
220
0.0
230
1.0
 70
     8
 71
     3
 72
     8
 73
     4
 74
     0
 42
0.000000001
 43
0.0000000001
 40
36.0
 40
36.0
 40
36.0
 40
36.0
 40
37.0
 40
37.0
 40
37.0
 40
37.0
 10
2375.01958136792
 20
-130.5404825697902
 30
0.0
 10
2375.30830793042
 20
-130.5141896010401
 30
0.0
 10
2375.807006172608
 20
-130.5141896010401
 30
0.0
 10
2375.807006172608
 20
-130.5141896010401
 30
0.0
  0
SPLINE
  5
1B737
330
18
100
AcDbEntity
  8
姿図
100
AcDbSpline
210
0.0
220
0.0
230
1.0
 70
     8
 71
     3
 72
     8
 73
     4
 74
     0
 42
0.000000001
 43
0.0000000001
 40
35.0
 40
35.0
 40
35.0
 40
35.0
 40
36.0
 40
36.0
 40
36.0
 40
36.0
 10
2374.67826886792
 20
-130.5141896010401
 30
0.0
 10
2374.862071602295
 20
-130.2780489760399
 30
0.0
 10
2375.01958136792
 20
-130.2517560072903
 30
0.0
 10
2375.01958136792
 20
-130.5404825697902
 30
0.0
  0
SPLINE
  5
1B738
330
18
100
AcDbEntity
  8
姿図
100
AcDbSpline
210
0.0
220
0.0
230
1.0
 70
     8
 71
     3
 72
    14
 73
    10
 74
     0
 42
0.000000001
 43
0.0000000001
 40
32.0
 40
32.0
 40
32.0
 40
32.0
 40
33.0
 40
33.0
 40
33.0
 40
34.0
 40
34.0
 40
34.0
 40
35.0
 40
35.0
 40
35.0
 40
35.0
 10
2374.967057442139
 20
-133.0078048354154
 30
0.0
 10
2374.967057442139
 20
-133.0078048354154
 30
0.0
 10
2375.045812324951
 20
-133.217652491665
 30
0.0
 10
2374.757085762451
 20
-133.1914835463527
 30
0.0
 10
2374.468359199951
 20
-133.16531460104
 30
0.0
 10
2374.494590156983
 20
-132.1416251479151
 30
0.0
 10
2374.494590156983
 20
-131.8528985854151
 30
0.0
 10
2374.494590156983
 20
-131.5641720229152
 30
0.0
 10
2374.494590156983
 20
-130.7503302260403
 30
0.0
 10
2374.67826886792
 20
-130.5141896010401
 30
0.0
  0
SPLINE
  5
1B739
330
18
100
AcDbEntity
  8
姿図
100
AcDbSpline
210
0.0
220
0.0
230
1.0
 70
    24
 71
     3
 72
     8
 73
     4
 74
     0
 42
0.000000001
 43
0.0000000001
 40
31.0
 40
31.0
 40
31.0
 40
31.0
 40
32.0
 40
32.0
 40
32.0
 40
32.0
 10
2375.780713203857
 20
-133.1127286635402
 30
0.0
 10
2375.780713203857
 20
-133.1127286635402
 30
0.0
 10
2374.967057442139
 20
-133.0078048354154
 30
0.0
 10
2374.967057442139
 20
-133.0078048354154
 30
0.0
  0
SPLINE
  5
1B73A
330
18
100
AcDbEntity
  8
姿図
100
AcDbSpline
210
0.0
220
0.0
230
1.0
 70
    24
 71
     3
 72
     8
 73
     4
 74
     0
 42
0.000000001
 43
0.0000000001
 40
30.0
 40
30.0
 40
30.0
 40
30.0
 40
31.0
 40
31.0
 40
31.0
 40
31.0
 10
2375.780713203857
 20
-134.0052013197902
 30
0.0
 10
2375.780713203857
 20
-134.0052013197902
 30
0.0
 10
2375.780713203857
 20
-133.1127286635402
 30
0.0
 10
2375.780713203857
 20
-133.1127286635402
 30
0.0
  0
SPLINE
  5
1B73B
330
18
100
AcDbEntity
  8
姿図
100
AcDbSpline
210
0.0
220
0.0
230
1.0
 70
    24
 71
     3
 72
     8
 73
     4
 74
     0
 42
0.000000001
 43
0.0000000001
 40
29.0
 40
29.0
 40
29.0
 40
29.0
 40
30.0
 40
30.0
 40
30.0
 40
30.0
 10
2375.938222969482
 20
-134.0052013197902
 30
0.0
 10
2375.938222969482
 20
-134.0052013197902
 30
0.0
 10
2375.780713203857
 20
-134.0052013197902
 30
0.0
 10
2375.780713203857
 20
-134.0052013197902
 30
0.0
  0
SPLINE
  5
1B73C
330
18
100
AcDbEntity
  8
姿図
100
AcDbSpline
210
0.0
220
0.0
230
1.0
 70
     8
 71
     3
 72
     8
 73
     4
 74
     0
 42
0.000000001
 43
0.0000000001
 40
28.0
 40
28.0
 40
28.0
 40
28.0
 40
29.0
 40
29.0
 40
29.0
 40
29.0
 10
2375.911992012451
 20
-138.3360997572901
 30
0.0
 10
2375.88576105542
 20
-135.8161915541651
 30
0.0
 10
2375.938222969482
 20
-134.0052013197902
 30
0.0
 10
2375.938222969482
 20
-134.0052013197902
 30
0.0
  0
SPLINE
  5
1B73D
330
18
100
AcDbEntity
  8
姿図
100
AcDbSpline
210
0.0
220
0.0
230
1.0
 70
     8
 71
     3
 72
     8
 73
     4
 74
     0
 42
0.000000001
 43
0.0000000001
 40
27.0
 40
27.0
 40
27.0
 40
27.0
 40
28.0
 40
28.0
 40
28.0
 40
28.0
 10
2376.358166328857
 20
-144.3206026869776
 30
0.0
 10
2376.33869464917
 20
-144.0865704604149
 30
0.0
 10
2375.938222969482
 20
-140.8558839369776
 30
0.0
 10
2375.911992012451
 20
-138.3360997572901
 30
0.0
  0
SPLINE
  5
1B73E
330
18
100
AcDbEntity
  8
姿図
100
AcDbSpline
210
0.0
220
0.0
230
1.0
 70
     8
 71
     3
 72
     8
 73
     4
 74
     0
 42
0.000000001
 43
0.0000000001
 40
26.0
 40
26.0
 40
26.0
 40
26.0
 40
27.0
 40
27.0
 40
27.0
 40
27.0
 10
2376.358166328857
 20
-146.000500147915
 30
0.0
 10
2376.384459297607
 20
-144.7668390151026
 30
0.0
 10
2376.384459297607
 20
-144.6356222182277
 30
0.0
 10
2376.358166328857
 20
-144.3206026869776
 30
0.0
  0
SPLINE
  5
1B73F
330
18
100
AcDbEntity
  8
姿図
100
AcDbSpline
210
0.0
220
0.0
230
1.0
 70
     8
 71
     3
 72
     8
 73
     4
 74
     0
 42
0.000000001
 43
0.0000000001
 40
25.0
 40
25.0
 40
25.0
 40
25.0
 40
26.0
 40
26.0
 40
26.0
 40
26.0
 10
2376.410690254639
 20
-148.3890675307276
 30
0.0
 10
2376.410690254639
 20
-148.3890675307276
 30
0.0
 10
2376.226949531982
 20
-147.3916710463528
 30
0.0
 10
2376.358166328857
 20
-146.000500147915
 30
0.0
  0
SPLINE
  5
1B740
330
18
100
AcDbEntity
  8
姿図
100
AcDbSpline
210
0.0
220
0.0
230
1.0
 70
     8
 71
     3
 72
     8
 73
     4
 74
     0
 42
0.000000001
 43
0.0000000001
 40
24.0
 40
24.0
 40
24.0
 40
24.0
 40
25.0
 40
25.0
 40
25.0
 40
25.0
 10
2375.833237129639
 20
-147.3127921401025
 30
0.0
 10
2375.938222969482
 20
-147.4965948744776
 30
0.0
 10
2376.410690254639
 20
-148.3890675307276
 30
0.0
 10
2376.410690254639
 20
-148.3890675307276
 30
0.0
  0
SPLINE
  5
1B741
330
18
100
AcDbEntity
  8
姿図
100
AcDbSpline
210
0.0
220
0.0
230
1.0
 70
     8
 71
     3
 72
     8
 73
     4
 74
     0
 42
0.000000001
 43
0.0000000001
 40
23.0
 40
23.0
 40
23.0
 40
23.0
 40
24.0
 40
24.0
 40
24.0
 40
24.0
 10
2375.30830793042
 20
-147.3916710463528
 30
0.0
 10
2375.675727364014
 20
-147.1554063979153
 30
0.0
 10
2375.728251289795
 20
-147.1291134291652
 30
0.0
 10
2375.833237129639
 20
-147.3127921401025
 30
0.0
  0
SPLINE
  5
1B742
330
18
100
AcDbEntity
  8
姿図
100
AcDbSpline
210
0.0
220
0.0
230
1.0
 70
     8
 71
     3
 72
     8
 73
     4
 74
     0
 42
0.000000001
 43
0.0000000001
 40
22.0
 40
22.0
 40
22.0
 40
22.0
 40
23.0
 40
23.0
 40
23.0
 40
23.0
 10
2374.416184088837
 20
-148.1027287166268
 30
0.0
 10
2374.416184088837
 20
-148.1027287166268
 30
0.0
 10
2374.940764473389
 20
-147.6279356947899
 30
0.0
 10
2375.30830793042
 20
-147.3916710463528
 30
0.0
  0
SPLINE
  5
1B743
330
18
100
AcDbEntity
  8
姿図
100
AcDbSpline
210
0.0
220
0.0
230
1.0
 70
     8
 71
     3
 72
     8
 73
     4
 74
     0
 42
0.000000001
 43
0.0000000001
 40
21.0
 40
21.0
 40
21.0
 40
21.0
 40
22.0
 40
22.0
 40
22.0
 40
22.0
 10
2374.38954230542
 20
-145.7905284682275
 30
0.0
 10
2374.44212824292
 20
-146.0529620619774
 30
0.0
 10
2374.416184088837
 20
-148.1027287166268
 30
0.0
 10
2374.416184088837
 20
-148.1027287166268
 30
0.0
  0
SPLINE
  5
1B744
330
18
100
AcDbEntity
  8
姿図
100
AcDbSpline
210
0.0
220
0.0
230
1.0
 70
     8
 71
     3
 72
     8
 73
     4
 74
     0
 42
0.000000001
 43
0.0000000001
 40
20.0
 40
20.0
 40
20.0
 40
20.0
 40
21.0
 40
21.0
 40
21.0
 40
21.0
 10
2373.86467511792
 20
-145.0555655776026
 30
0.0
 10
2373.86467511792
 20
-145.0555655776026
 30
0.0
 10
2374.337080391358
 20
-145.5279708510399
 30
0.0
 10
2374.38954230542
 20
-145.7905284682275
 30
0.0
  0
SPLINE
  5
1B745
330
18
100
AcDbEntity
  8
姿図
100
AcDbSpline
210
0.0
220
0.0
230
1.0
 70
     8
 71
     3
 72
    11
 73
     7
 74
     0
 42
0.000000001
 43
0.0000000001
 40
18.0
 40
18.0
 40
18.0
 40
18.0
 40
19.0
 40
19.0
 40
19.0
 40
20.0
 40
20.0
 40
20.0
 40
20.0
 10
2373.654641426514
 20
-140.7771290541651
 30
0.0
 10
2373.917137031982
 20
-140.7508360854155
 30
0.0
 10
2373.943367989013
 20
-141.0133937026027
 30
0.0
 10
2373.943367989013
 20
-141.1446104994776
 30
0.0
 10
2373.943367989013
 20
-141.2758272963525
 30
0.0
 10
2373.86467511792
 20
-145.0555655776026
 30
0.0
 10
2373.86467511792
 20
-145.0555655776026
 30
0.0
  0
SPLINE
  5
1B746
330
18
100
AcDbEntity
  8
姿図
100
AcDbSpline
210
0.0
220
0.0
230
1.0
 70
     8
 71
     3
 72
     8
 73
     4
 74
     0
 42
0.000000001
 43
0.0000000001
 40
17.0
 40
17.0
 40
17.0
 40
17.0
 40
18.0
 40
18.0
 40
18.0
 40
18.0
 10
2373.234698067139
 20
-141.039562647915
 30
0.0
 10
2373.23463605542
 20
-141.039562647915
 30
0.0
 10
2373.392207832764
 20
-140.8034220229152
 30
0.0
 10
2373.654641426514
 20
-140.7771290541651
 30
0.0
  0
SPLINE
  5
1B747
330
18
100
AcDbEntity
  8
姿図
100
AcDbSpline
210
0.0
220
0.0
230
1.0
 70
     8
 71
     3
 72
    14
 73
    10
 74
     0
 42
0.000000001
 43
0.0000000001
 40
14.0
 40
14.0
 40
14.0
 40
14.0
 40
15.0
 40
15.0
 40
15.0
 40
16.0
 40
16.0
 40
16.0
 40
17.0
 40
17.0
 40
17.0
 40
17.0
 10
2372.289763496826
 20
-142.6669981947899
 30
0.0
 10
2372.289763496826
 20
-142.2995167494774
 30
0.0
 10
2372.39474933667
 20
-141.6170157729154
 30
0.0
 10
2372.39474933667
 20
-141.4333370619776
 30
0.0
 10
2372.39474933667
 20
-141.2496583510402
 30
0.0
 10
2372.552259102295
 20
-141.039562647915
 30
0.0
 10
2372.762230781982
 20
-141.039562647915
 30
0.0
 10
2372.97220246167
 20
-141.039562647915
 30
0.0
 10
2373.234698067139
 20
-141.039562647915
 30
0.0
 10
2373.234698067139
 20
-141.039562647915
 30
0.0
  0
SPLINE
  5
1B748
330
18
100
AcDbEntity
  8
姿図
100
AcDbSpline
210
0.0
220
0.0
230
1.0
 70
    24
 71
     3
 72
     8
 73
     4
 74
     0
 42
0.000000001
 43
0.0000000001
 40
4.0
 40
4.0
 40
4.0
 40
4.0
 40
5.0
 40
5.0
 40
5.0
 40
5.0
 10
2372.213489082764
 20
-146.1389103041653
 30
0.0
 10
2372.213489082764
 20
-146.1389103041653
 30
0.0
 10
2372.224155098389
 20
-144.7662188979153
 30
0.0
 10
2372.224155098389
 20
-144.7662188979153
 30
0.0
  0
SPLINE
  5
1B749
330
18
100
AcDbEntity
  8
姿図
100
AcDbSpline
210
0.0
220
0.0
230
1.0
 70
     8
 71
     3
 72
     8
 73
     4
 74
     0
 42
0.000000001
 43
0.0000000001
 40
4.0
 40
4.0
 40
4.0
 40
4.0
 40
5.0
 40
5.0
 40
5.0
 40
5.0
 10
2383.936804512451
 20
-127.0328517104155
 30
0.0
 10
2383.202461739014
 20
-126.5366339369776
 30
0.0
 10
2382.765899239014
 20
-126.1794464369779
 30
0.0
 10
2382.527774239014
 20
-125.9015099135401
 30
0.0
  0
SPLINE
  5
1B74A
330
18
100
AcDbEntity
  8
姿図
100
AcDbSpline
210
0.0
220
0.0
230
1.0
 70
     8
 71
     3
 72
     8
 73
     4
 74
     0
 42
0.000000001
 43
0.0000000001
 40
3.0
 40
3.0
 40
3.0
 40
3.0
 40
4.0
 40
4.0
 40
4.0
 40
4.0
 10
2385.464959297607
 20
-127.7273829604152
 30
0.0
 10
2385.464959297607
 20
-127.7273829604152
 30
0.0
 10
2384.86952277417
 20
-127.6083204604153
 30
0.0
 10
2383.936804512451
 20
-127.0328517104155
 30
0.0
  0
SPLINE
  5
1B74B
330
18
100
AcDbEntity
  8
姿図
100
AcDbSpline
210
0.0
220
0.0
230
1.0
 70
     8
 71
     3
 72
     8
 73
     4
 74
     0
 42
0.000000001
 43
0.0000000001
 40
2.0
 40
2.0
 40
2.0
 40
2.0
 40
3.0
 40
3.0
 40
3.0
 40
3.0
 10
2385.504646797608
 20
-129.1166935072903
 30
0.0
 10
2385.464959297607
 20
-128.6801310072902
 30
0.0
 10
2385.464959297607
 20
-127.7273829604152
 30
0.0
 10
2385.464959297607
 20
-127.7273829604152
 30
0.0
  0
SPLINE
  5
1B74C
330
18
100
AcDbEntity
  8
姿図
100
AcDbSpline
210
0.0
220
0.0
230
1.0
 70
     8
 71
     3
 72
     8
 73
     4
 74
     0
 42
0.000000001
 43
0.0000000001
 40
1.0
 40
1.0
 40
1.0
 40
1.0
 40
2.0
 40
2.0
 40
2.0
 40
2.0
 10
2381.813275215576
 20
-130.1882560072901
 30
0.0
 10
2382.230055977295
 20
-130.0493497572899
 30
0.0
 10
2383.619242500733
 20
-129.5532560072903
 30
0.0
 10
2385.504646797608
 20
-129.1166935072903
 30
0.0
  0
SPLINE
  5
1B74D
330
18
100
AcDbEntity
  8
姿図
100
AcDbSpline
210
0.0
220
0.0
230
1.0
 70
     8
 71
     3
 72
     8
 73
     4
 74
     0
 42
0.000000001
 43
0.0000000001
 40
0.0
 40
0.0
 40
0.0
 40
0.0
 40
1.0
 40
1.0
 40
1.0
 40
1.0
 10
2382.527774239014
 20
-125.9015099135401
 30
0.0
 10
2382.368962227295
 20
-126.3580401869777
 30
0.0
 10
2381.793431465576
 20
-129.2754435072903
 30
0.0
 10
2381.813275215576
 20
-130.1882560072901
 30
0.0
  0
SPLINE
  5
1B74E
330
18
100
AcDbEntity
  8
姿図
100
AcDbSpline
210
0.0
220
0.0
230
1.0
 70
     8
 71
     3
 72
    11
 73
     7
 74
     0
 42
0.000000001
 43
0.0000000001
 40
3.0
 40
3.0
 40
3.0
 40
3.0
 40
4.0
 40
4.0
 40
4.0
 40
5.0
 40
5.0
 40
5.0
 40
5.0
 10
2399.734165840576
 20
-130.4065372572901
 30
0.0
 10
2399.813664864014
 20
-130.2080997572904
 30
0.0
 10
2399.793697090576
 20
-129.5135685072902
 30
0.0
 10
2399.575415840576
 20
-128.2632882338527
 30
0.0
 10
2399.357134590576
 20
-127.0130079604152
 30
0.0
 10
2399.376978340576
 20
-126.9136651869777
 30
0.0
 10
2399.277759590576
 20
-126.4572589369778
 30
0.0
  0
SPLINE
  5
1B74F
330
18
100
AcDbEntity
  8
姿図
100
AcDbSpline
210
0.0
220
0.0
230
1.0
 70
     8
 71
     3
 72
     8
 73
     4
 74
     0
 42
0.000000001
 43
0.0000000001
 40
2.0
 40
2.0
 40
2.0
 40
2.0
 40
3.0
 40
3.0
 40
3.0
 40
3.0
 10
2396.717667793701
 20
-129.3548185072901
 30
0.0
 10
2396.955792793701
 20
-129.37466225729
 30
0.0
 10
2399.476197090576
 20
-130.2279435072902
 30
0.0
 10
2399.734165840576
 20
-130.4065372572901
 30
0.0
  0
SPLINE
  5
1B750
330
18
100
AcDbEntity
  8
姿図
100
AcDbSpline
210
0.0
220
0.0
230
1.0
 70
     8
 71
     3
 72
     8
 73
     4
 74
     0
 42
0.000000001
 43
0.0000000001
 40
1.0
 40
1.0
 40
1.0
 40
1.0
 40
2.0
 40
2.0
 40
2.0
 40
2.0
 10
2396.717667793701
 20
-127.8662892104149
 30
0.0
 10
2396.697824043701
 20
-128.1243819838529
 30
0.0
 10
2396.717667793701
 20
-129.2952872572902
 30
0.0
 10
2396.717667793701
 20
-129.3548185072901
 30
0.0
  0
SPLINE
  5
1B751
330
18
100
AcDbEntity
  8
姿図
100
AcDbSpline
210
0.0
220
0.0
230
1.0
 70
     8
 71
     3
 72
     8
 73
     4
 74
     0
 42
0.000000001
 43
0.0000000001
 40
0.0
 40
0.0
 40
0.0
 40
0.0
 40
1.0
 40
1.0
 40
1.0
 40
1.0
 10
2399.277759590576
 20
-126.4572589369778
 30
0.0
 10
2399.079322090576
 20
-126.6558204604154
 30
0.0
 10
2398.404510567138
 20
-127.2709767104153
 30
0.0
 10
2396.717667793701
 20
-127.8662892104149
 30
0.0
  0
SPLINE
  5
1B752
330
18
100
AcDbEntity
  8
姿図
100
AcDbSpline
210
0.0
220
0.0
230
1.0
 70
     8
 71
     3
 72
    38
 73
    34
 74
     0
 42
0.000000001
 43
0.0000000001
 40
0.0875809345588952
 40
0.0875809345588952
 40
0.0875809345588952
 40
0.0875809345588952
 40
0.1325511003420694
 40
0.1325511003420694
 40
0.2651022006841388
 40
0.2651022006841388
 40
0.3976533010262082
 40
0.3976533010262082
 40
0.5302044013682776
 40
0.5302044013682776
 40
0.7397248520178367
 40
0.7397248520178367
 40
0.9492453026673957
 40
0.9492453026673957
 40
1.158765753316955
 40
1.158765753316955
 40
1.368286203966514
 40
1.368286203966514
 40
1.660455600340546
 40
1.660455600340546
 40
1.952624996714579
 40
1.952624996714579
 40
2.244794393088612
 40
2.244794393088612
 40
2.469780447170401
 40
2.469780447170401
 40
2.69476650125219
 40
2.69476650125219
 40
2.851074505126578
 40
2.851074505126578
 40
3.007382509000966
 40
3.007382509000966
 40
3.07848309170727
 40
3.07848309170727
 40
3.07848309170727
 40
3.07848309170727
 10
2373.754767697922
 20
-161.6852226650404
 30
0.0
 10
2373.768060067149
 20
-161.7632384821601
 30
0.0
 10
2373.785496274705
 20
-161.842144083742
 30
0.0
 10
2373.871434493769
 20
-162.1586099563311
 30
0.0
 10
2373.974023000539
 20
-162.4060208724387
 30
0.0
 10
2374.272059970765
 20
-162.9228111646108
 30
0.0
 10
2374.467713758717
 20
-163.1917263375514
 30
0.0
 10
2374.95904738941
 20
-163.7382763033266
 30
0.0
 10
2375.254589574274
 20
-164.0156801507593
 30
0.0
 10
2376.142870417344
 20
-164.72486334701
 30
0.0
 10
2376.808693932164
 20
-165.1522497036332
 30
0.0
 10
2378.350827318344
 20
-165.9527110913795
 30
0.0
 10
2379.226800848199
 20
-166.3259786376881
 30
0.0
 10
2381.143619140087
 20
-166.9919948724513
 30
0.0
 10
2382.184366351904
 20
-167.2848532705171
 30
0.0
 10
2384.379444464438
 20
-167.7727188701568
 30
0.0
 10
2385.533713202789
 20
-167.967765668711
 30
0.0
 10
2388.367564663596
 20
-168.3049957917677
 30
0.0
 10
2390.07468346915
 20
-168.3955313408379
 30
0.0
 10
2393.447442880467
 20
-168.3560953350767
 30
0.0
 10
2395.112744210376
 20
-168.2260883613552
 30
0.0
 10
2398.248662742469
 20
-167.7600298877727
 30
0.0
 10
2399.718961181913
 20
-167.4237746533789
 30
0.0
 10
2402.024507409141
 20
-166.6822005268867
 30
0.0
 10
2402.928038052804
 20
-166.3106399616819
 30
0.0
 10
2404.481604351108
 20
-165.503746406698
 30
0.0
 10
2405.130893106204
 20
-165.0681616581211
 30
0.0
 10
2405.986510363536
 20
-164.322603419295
 30
0.0
 10
2406.267558015711
 20
-164.0154260938704
 30
0.0
 10
2406.69526103531
 20
-163.4201422876746
 30
0.0
 10
2406.842101048726
 20
-163.1330446940502
 30
0.0
 10
2406.976374804481
 20
-162.7340913310765
 30
0.0
 10
2407.007419399223
 20
-162.6119732187423
 30
0.0
 10
2407.028242214975
 20
-162.4909788512615
 30
0.0
  0
SPLINE
  5
1B753
330
18
100
AcDbEntity
  8
姿図
100
AcDbSpline
210
0.0
220
0.0
230
1.0
 70
     8
 71
     3
 72
    36
 73
    32
 74
     0
 42
0.000000001
 43
0.0000000001
 40
0.1519250428741453
 40
0.1519250428741453
 40
0.1519250428741453
 40
0.1519250428741453
 40
0.2651022006841388
 40
0.2651022006841388
 40
0.3976533010262082
 40
0.3976533010262082
 40
0.5302044013682776
 40
0.5302044013682776
 40
0.7397248520178367
 40
0.7397248520178367
 40
0.9492453026673957
 40
0.9492453026673957
 40
1.158765753316955
 40
1.158765753316955
 40
1.368286203966514
 40
1.368286203966514
 40
1.660455600340546
 40
1.660455600340546
 40
1.952624996714579
 40
1.952624996714579
 40
2.244794393088612
 40
2.244794393088612
 40
2.469780447170401
 40
2.469780447170401
 40
2.69476650125219
 40
2.69476650125219
 40
2.851074505126578
 40
2.851074505126578
 40
3.007382509000966
 40
3.007382509000966
 40
3.013465200237514
 40
3.013465200237514
 40
3.013465200237514
 40
3.013465200237514
 10
2373.837890584423
 20
-161.3485546448916
 30
0.0
 10
2373.902415489582
 20
-161.5530861773301
 30
0.0
 10
2373.995803850033
 20
-161.7657058208521
 30
0.0
 10
2374.272059970765
 20
-162.2447285449094
 30
0.0
 10
2374.467713758717
 20
-162.51364371785
 30
0.0
 10
2374.95904738941
 20
-163.0601936836252
 30
0.0
 10
2375.254589574274
 20
-163.3375975310583
 30
0.0
 10
2376.142870417344
 20
-164.0467807273086
 30
0.0
 10
2376.808693932164
 20
-164.4741670839322
 30
0.0
 10
2378.350827318344
 20
-165.2746284716783
 30
0.0
 10
2379.226800848199
 20
-165.6478960179867
 30
0.0
 10
2381.143619140087
 20
-166.3139122527501
 30
0.0
 10
2382.184366351904
 20
-166.6067706508162
 30
0.0
 10
2384.379444464438
 20
-167.0946362504559
 30
0.0
 10
2385.533713202789
 20
-167.2896830490096
 30
0.0
 10
2388.367564663596
 20
-167.6269131720666
 30
0.0
 10
2390.07468346915
 20
-167.7174487211367
 30
0.0
 10
2393.447442880467
 20
-167.6780127153758
 30
0.0
 10
2395.112744210376
 20
-167.548005741654
 30
0.0
 10
2398.248662742469
 20
-167.0819472680718
 30
0.0
 10
2399.718961181913
 20
-166.745692033678
 30
0.0
 10
2402.024507409141
 20
-166.0041179071858
 30
0.0
 10
2402.928038052804
 20
-165.6325573419807
 30
0.0
 10
2404.481604351108
 20
-164.8256637869973
 30
0.0
 10
2405.130893106204
 20
-164.3900790384201
 30
0.0
 10
2405.986510363536
 20
-163.6445207995936
 30
0.0
 10
2406.267558015711
 20
-163.337343474169
 30
0.0
 10
2406.69526103531
 20
-162.7420596679736
 30
0.0
 10
2406.842101048726
 20
-162.4549620743493
 30
0.0
 10
2406.937984888734
 20
-162.1700725945617
 30
0.0
 10
2406.941496377648
 20
-162.1594206019437
 30
0.0
 10
2406.944928268654
 20
-162.1487868273226
 30
0.0
  0
SPLINE
  5
1B754
330
18
100
AcDbEntity
  8
姿図
100
AcDbSpline
210
0.0
220
0.0
230
1.0
 70
     8
 71
     3
 72
    32
 73
    28
 74
     0
 42
0.000000001
 43
0.0000000001
 40
0.2736862359558179
 40
0.2736862359558179
 40
0.2736862359558179
 40
0.2736862359558179
 40
0.3976533010262082
 40
0.3976533010262082
 40
0.5302044013682776
 40
0.5302044013682776
 40
0.7397248520178367
 40
0.7397248520178367
 40
0.9492453026673957
 40
0.9492453026673957
 40
1.158765753316955
 40
1.158765753316955
 40
1.368286203966514
 40
1.368286203966514
 40
1.660455600340546
 40
1.660455600340546
 40
1.952624996714579
 40
1.952624996714579
 40
2.244794393088612
 40
2.244794393088612
 40
2.469780447170401
 40
2.469780447170401
 40
2.69476650125219
 40
2.69476650125219
 40
2.851074505126578
 40
2.851074505126578
 40
2.890390267939805
 40
2.890390267939805
 40
2.890390267939805
 40
2.890390267939805
 10
2374.152580551068
 20
-160.6804998437984
 30
0.0
 10
2374.297610874962
 20
-160.9234114258621
 30
0.0
 10
2374.483623189892
 20
-161.1751756570426
 30
0.0
 10
2374.95904738941
 20
-161.7040282812951
 30
0.0
 10
2375.254589574274
 20
-161.9814321287282
 30
0.0
 10
2376.142870417344
 20
-162.6906153249785
 30
0.0
 10
2376.808693932164
 20
-163.1180016816021
 30
0.0
 10
2378.350827318344
 20
-163.9184630693481
 30
0.0
 10
2379.226800848199
 20
-164.2917306156565
 30
0.0
 10
2381.143619140087
 20
-164.95774685042
 30
0.0
 10
2382.184366351904
 20
-165.2506052484861
 30
0.0
 10
2384.379444464438
 20
-165.7384708481255
 30
0.0
 10
2385.533713202789
 20
-165.9335176466794
 30
0.0
 10
2388.367564663596
 20
-166.2707477697364
 30
0.0
 10
2390.07468346915
 20
-166.3612833188066
 30
0.0
 10
2393.447442880467
 20
-166.3218473130456
 30
0.0
 10
2395.112744210376
 20
-166.1918403393239
 30
0.0
 10
2398.248662742469
 20
-165.7257818657414
 30
0.0
 10
2399.718961181913
 20
-165.3895266313478
 30
0.0
 10
2402.024507409141
 20
-164.6479525048554
 30
0.0
 10
2402.928038052804
 20
-164.2763919396504
 30
0.0
 10
2404.481604351108
 20
-163.4694983846667
 30
0.0
 10
2405.130893106204
 20
-163.03391363609
 30
0.0
 10
2405.986510363536
 20
-162.2883553972634
 30
0.0
 10
2406.267558015711
 20
-161.9811780718388
 30
0.0
 10
2406.535199063014
 20
-161.6086710423534
 30
0.0
 10
2406.584749045313
 20
-161.5344730131729
 30
0.0
 10
2406.630257810685
 20
-161.4609792376351
 30
0.0
  0
SPLINE
  5
1B755
330
18
100
AcDbEntity
  8
姿図
100
AcDbSpline
210
0.0
220
0.0
230
1.0
 70
     8
 71
     3
 72
    34
 73
    30
 74
     0
 42
0.000000001
 43
0.0000000001
 40
0.2139299656021869
 40
0.2139299656021869
 40
0.2139299656021869
 40
0.2139299656021869
 40
0.2651022006841388
 40
0.2651022006841388
 40
0.3976533010262082
 40
0.3976533010262082
 40
0.5302044013682776
 40
0.5302044013682776
 40
0.7397248520178367
 40
0.7397248520178367
 40
0.9492453026673957
 40
0.9492453026673957
 40
1.158765753316955
 40
1.158765753316955
 40
1.368286203966514
 40
1.368286203966514
 40
1.660455600340546
 40
1.660455600340546
 40
1.952624996714579
 40
1.952624996714579
 40
2.244794393088612
 40
2.244794393088612
 40
2.469780447170401
 40
2.469780447170401
 40
2.69476650125219
 40
2.69476650125219
 40
2.851074505126578
 40
2.851074505126578
 40
2.950762975643702
 40
2.950762975643702
 40
2.950762975643702
 40
2.950762975643702
 10
2373.970751632044
 20
-161.0139037864529
 30
0.0
 10
2374.014902240481
 20
-161.110377368893
 30
0.0
 10
2374.065511907006
 20
-161.2084954491271
 30
0.0
 10
2374.272059970765
 20
-161.5666457622802
 30
0.0
 10
2374.467713758717
 20
-161.8355609352212
 30
0.0
 10
2374.95904738941
 20
-162.3821109009961
 30
0.0
 10
2375.254589574274
 20
-162.6595147484296
 30
0.0
 10
2376.142870417344
 20
-163.3686979446794
 30
0.0
 10
2376.808693932164
 20
-163.796084301303
 30
0.0
 10
2378.350827318344
 20
-164.5965456890491
 30
0.0
 10
2379.226800848199
 20
-164.9698132353579
 30
0.0
 10
2381.143619140087
 20
-165.6358294701209
 30
0.0
 10
2382.184366351904
 20
-165.9286878681872
 30
0.0
 10
2384.379444464438
 20
-166.4165534678267
 30
0.0
 10
2385.533713202789
 20
-166.6116002663808
 30
0.0
 10
2388.367564663596
 20
-166.9488303894376
 30
0.0
 10
2390.07468346915
 20
-167.0393659385078
 30
0.0
 10
2393.447442880467
 20
-166.9999299327466
 30
0.0
 10
2395.112744210376
 20
-166.8699229590251
 30
0.0
 10
2398.248662742469
 20
-166.4038644854426
 30
0.0
 10
2399.718961181913
 20
-166.0676092510488
 30
0.0
 10
2402.024507409141
 20
-165.3260351245566
 30
0.0
 10
2402.928038052804
 20
-164.9544745593518
 30
0.0
 10
2404.481604351108
 20
-164.1475810043681
 30
0.0
 10
2405.130893106204
 20
-163.711996255791
 30
0.0
 10
2405.986510363536
 20
-162.9664380169644
 30
0.0
 10
2406.267558015711
 20
-162.6592606915402
 30
0.0
 10
2406.617797486468
 20
-162.1717918739774
 30
0.0
 10
2406.726928529424
 20
-161.9862538561084
 30
0.0
 10
2406.812035918741
 20
-161.8056104503731
 30
0.0
  0
SPLINE
  5
1B756
330
18
100
AcDbEntity
  8
姿図
100
AcDbSpline
210
0.0
220
0.0
230
1.0
 70
     8
 71
     3
 72
    28
 73
    24
 74
     0
 42
0.000000001
 43
0.0000000001
 40
0.4481365490448796
 40
0.4481365490448796
 40
0.4481365490448796
 40
0.4481365490448796
 40
0.5302044013682776
 40
0.5302044013682776
 40
0.7397248520178367
 40
0.7397248520178367
 40
0.9492453026673957
 40
0.9492453026673957
 40
1.158765753316955
 40
1.158765753316955
 40
1.368286203966514
 40
1.368286203966514
 40
1.660455600340546
 40
1.660455600340546
 40
1.952624996714579
 40
1.952624996714579
 40
2.244794393088612
 40
2.244794393088612
 40
2.469780447170401
 40
2.469780447170401
 40
2.69476650125219
 40
2.69476650125219
 40
2.714790372245272
 40
2.714790372245272
 40
2.714790372245272
 40
2.714790372245272
 10
2375.015710417857
 20
-159.6649621949733
 30
0.0
 10
2375.191225700252
 20
-159.8355010275637
 30
0.0
 10
2375.385682914193
 20
-160.0066403947104
 30
0.0
 10
2376.142870417344
 20
-160.6111616537629
 30
0.0
 10
2376.808693932164
 20
-161.0385480103865
 30
0.0
 10
2378.350827318344
 20
-161.8390093981326
 30
0.0
 10
2379.226800848199
 20
-162.212276944441
 30
0.0
 10
2381.143619140087
 20
-162.8782931792044
 30
0.0
 10
2382.184366351904
 20
-163.1711515772705
 30
0.0
 10
2384.379444464438
 20
-163.65901717691
 30
0.0
 10
2385.533713202789
 20
-163.8540639754639
 30
0.0
 10
2388.367564663596
 20
-164.1912940985209
 30
0.0
 10
2390.07468346915
 20
-164.2818296475913
 30
0.0
 10
2393.447442880467
 20
-164.2423936418301
 30
0.0
 10
2395.112744210376
 20
-164.1123866681083
 30
0.0
 10
2398.248662742469
 20
-163.6463281945258
 30
0.0
 10
2399.718961181913
 20
-163.3100729601321
 30
0.0
 10
2402.024507409141
 20
-162.5684988336399
 30
0.0
 10
2402.928038052804
 20
-162.1969382684352
 30
0.0
 10
2404.481604351108
 20
-161.3900447134512
 30
0.0
 10
2405.130893106204
 20
-160.9544599648744
 30
0.0
 10
2405.680691131474
 20
-160.4753830833384
 30
0.0
 10
2405.724480429153
 20
-160.4362043600196
 30
0.0
 10
2405.767131079084
 20
-160.397023611387
 30
0.0
  0
SPLINE
  5
1B757
330
18
100
AcDbEntity
  8
姿図
100
AcDbSpline
210
0.0
220
0.0
230
1.0
 70
     8
 71
     3
 72
    26
 73
    22
 74
     0
 42
0.000000001
 43
0.0000000001
 40
0.5041065256970889
 40
0.5041065256970889
 40
0.5041065256970889
 40
0.5041065256970889
 40
0.5302044013682776
 40
0.5302044013682776
 40
0.7397248520178367
 40
0.7397248520178367
 40
0.9492453026673957
 40
0.9492453026673957
 40
1.158765753316955
 40
1.158765753316955
 40
1.368286203966514
 40
1.368286203966514
 40
1.660455600340546
 40
1.660455600340546
 40
1.952624996714579
 40
1.952624996714579
 40
2.244794393088612
 40
2.244794393088612
 40
2.469780447170401
 40
2.469780447170401
 40
2.658672262395626
 40
2.658672262395626
 40
2.658672262395626
 40
2.658672262395626
 10
2375.401152210144
 20
-159.3361316302645
 30
0.0
 10
2375.46514027926
 20
-159.3903879140163
 30
0.0
 10
2375.53102402164
 20
-159.4445948053359
 30
0.0
 10
2376.142870417344
 20
-159.933079034062
 30
0.0
 10
2376.808693932164
 20
-160.3604653906851
 30
0.0
 10
2378.350827318344
 20
-161.1609267784316
 30
0.0
 10
2379.226800848199
 20
-161.5341943247396
 30
0.0
 10
2381.143619140087
 20
-162.200210559503
 30
0.0
 10
2382.184366351904
 20
-162.4930689575696
 30
0.0
 10
2384.379444464438
 20
-162.980934557209
 30
0.0
 10
2385.533713202789
 20
-163.1759813557629
 30
0.0
 10
2388.367564663596
 20
-163.5132114788195
 30
0.0
 10
2390.07468346915
 20
-163.6037470278899
 30
0.0
 10
2393.447442880467
 20
-163.5643110221287
 30
0.0
 10
2395.112744210376
 20
-163.4343040484074
 30
0.0
 10
2398.248662742469
 20
-162.9682455748249
 30
0.0
 10
2399.718961181913
 20
-162.6319903404311
 30
0.0
 10
2402.024507409141
 20
-161.8904162139389
 30
0.0
 10
2402.928038052804
 20
-161.5188556487338
 30
0.0
 10
2404.356985975806
 20
-160.7766865692835
 30
0.0
 10
2404.919282523058
 20
-160.4153108597822
 30
0.0
 10
2405.38169198685
 20
-160.047733248333
 30
0.0
  0
SPLINE
  5
1B758
330
18
100
AcDbEntity
  8
姿図
100
AcDbSpline
210
0.0
220
0.0
230
1.0
 70
     8
 71
     3
 72
    30
 73
    26
 74
     0
 42
0.000000001
 43
0.0000000001
 40
0.3920830818550671
 40
0.3920830818550671
 40
0.3920830818550671
 40
0.3920830818550671
 40
0.3976533010262082
 40
0.3976533010262082
 40
0.5302044013682776
 40
0.5302044013682776
 40
0.7397248520178367
 40
0.7397248520178367
 40
0.9492453026673957
 40
0.9492453026673957
 40
1.158765753316955
 40
1.158765753316955
 40
1.368286203966514
 40
1.368286203966514
 40
1.660455600340546
 40
1.660455600340546
 40
1.952624996714579
 40
1.952624996714579
 40
2.244794393088612
 40
2.244794393088612
 40
2.469780447170401
 40
2.469780447170401
 40
2.69476650125219
 40
2.69476650125219
 40
2.771095018135638
 40
2.771095018135638
 40
2.771095018135638
 40
2.771095018135638
 10
2374.682674179855
 20
-159.9949543105696
 30
0.0
 10
2374.692821491298
 20
-160.0064223396863
 30
0.0
 10
2374.70305687248
 20
-160.0178985251551
 30
0.0
 10
2374.95904738941
 20
-160.3026573927087
 30
0.0
 10
2375.254589574274
 20
-160.5800612401418
 30
0.0
 10
2376.142870417344
 20
-161.2892444363921
 30
0.0
 10
2376.808693932164
 20
-161.7166307930157
 30
0.0
 10
2378.350827318344
 20
-162.5170921807618
 30
0.0
 10
2379.226800848199
 20
-162.8903597270702
 30
0.0
 10
2381.143619140087
 20
-163.5563759618336
 30
0.0
 10
2382.184366351904
 20
-163.8492343598997
 30
0.0
 10
2384.379444464438
 20
-164.3370999595392
 30
0.0
 10
2385.533713202789
 20
-164.5321467580931
 30
0.0
 10
2388.367564663596
 20
-164.8693768811501
 30
0.0
 10
2390.07468346915
 20
-164.95991243022
 30
0.0
 10
2393.447442880467
 20
-164.9204764244588
 30
0.0
 10
2395.112744210376
 20
-164.7904694507371
 30
0.0
 10
2398.248662742469
 20
-164.324410977155
 30
0.0
 10
2399.718961181913
 20
-163.9881557427613
 30
0.0
 10
2402.024507409141
 20
-163.2465816162691
 30
0.0
 10
2402.928038052804
 20
-162.875021051064
 30
0.0
 10
2404.481604351108
 20
-162.0681274960804
 30
0.0
 10
2405.130893106204
 20
-161.6325427475032
 30
0.0
 10
2405.80703778096
 20
-161.0433713293443
 30
0.0
 10
2405.961696009012
 20
-160.8937555491503
 30
0.0
 10
2406.100024714033
 20
-160.7450618974996
 30
0.0
  0
SPLINE
  5
1B759
330
18
100
AcDbEntity
  8
姿図
100
AcDbSpline
210
0.0
220
0.0
230
1.0
 70
     8
 71
     3
 72
    30
 73
    26
 74
     0
 42
0.000000001
 43
0.0000000001
 40
0.3354232995066272
 40
0.3354232995066272
 40
0.3354232995066272
 40
0.3354232995066272
 40
0.3976533010262082
 40
0.3976533010262082
 40
0.5302044013682776
 40
0.5302044013682776
 40
0.7397248520178367
 40
0.7397248520178367
 40
0.9492453026673957
 40
0.9492453026673957
 40
1.158765753316955
 40
1.158765753316955
 40
1.368286203966514
 40
1.368286203966514
 40
1.660455600340546
 40
1.660455600340546
 40
1.952624996714579
 40
1.952624996714579
 40
2.244794393088612
 40
2.244794393088612
 40
2.469780447170401
 40
2.469780447170401
 40
2.69476650125219
 40
2.69476650125219
 40
2.828108566806494
 40
2.828108566806494
 40
2.828108566806494
 40
2.828108566806494
 10
2374.400094818642
 20
-160.3260944605996
 30
0.0
 10
2374.493733004634
 20
-160.4518320682201
 30
0.0
 10
2374.598045082673
 20
-160.579168074186
 30
0.0
 10
2374.95904738941
 20
-160.9807400124097
 30
0.0
 10
2375.254589574274
 20
-161.2581438598428
 30
0.0
 10
2376.142870417344
 20
-161.9673270560935
 30
0.0
 10
2376.808693932164
 20
-162.3947134127167
 30
0.0
 10
2378.350827318344
 20
-163.1951748004627
 30
0.0
 10
2379.226800848199
 20
-163.5684423467711
 30
0.0
 10
2381.143619140087
 20
-164.2344585815346
 30
0.0
 10
2382.184366351904
 20
-164.5273169796006
 30
0.0
 10
2384.379444464438
 20
-165.0151825792401
 30
0.0
 10
2385.533713202789
 20
-165.210229377794
 30
0.0
 10
2388.367564663596
 20
-165.547459500851
 30
0.0
 10
2390.07468346915
 20
-165.6379950499212
 30
0.0
 10
2393.447442880467
 20
-165.5985590441602
 30
0.0
 10
2395.112744210376
 20
-165.4685520704385
 30
0.0
 10
2398.248662742469
 20
-165.002493596856
 30
0.0
 10
2399.718961181913
 20
-164.6662383624622
 30
0.0
 10
2402.024507409141
 20
-163.92466423597
 30
0.0
 10
2402.928038052804
 20
-163.5531036707654
 30
0.0
 10
2404.481604351108
 20
-162.7462101157813
 30
0.0
 10
2405.130893106204
 20
-162.3106253672041
 30
0.0
 10
2405.934975195999
 20
-161.6099732688477
 30
0.0
 10
2406.183466014325
 20
-161.348122072368
 30
0.0
 10
2406.38278776339
 20
-161.0920256137098
 30
0.0
  0
SPLINE
  5
1B75A
330
18
100
AcDbEntity
  8
姿図
100
AcDbSpline
210
0.0
220
0.0
230
1.0
 70
     8
 71
     3
 72
    24
 73
    20
 74
     0
 42
0.000000001
 43
0.0000000001
 40
0.6153340928930858
 40
0.6153340928930858
 40
0.6153340928930858
 40
0.6153340928930858
 40
0.7397248520178367
 40
0.7397248520178367
 40
0.9492453026673957
 40
0.9492453026673957
 40
1.158765753316955
 40
1.158765753316955
 40
1.368286203966514
 40
1.368286203966514
 40
1.660455600340546
 40
1.660455600340546
 40
1.952624996714579
 40
1.952624996714579
 40
2.244794393088612
 40
2.244794393088612
 40
2.469780447170401
 40
2.469780447170401
 40
2.547299382396412
 40
2.547299382396412
 40
2.547299382396412
 40
2.547299382396412
 10
2376.321169802193
 20
-158.6955999616031
 30
0.0
 10
2376.701302481855
 20
-158.9481376693531
 30
0.0
 10
2377.121983969124
 20
-159.1953232887842
 30
0.0
 10
2378.350827318344
 20
-159.8331680183352
 30
0.0
 10
2379.226800848199
 20
-160.2064355646436
 30
0.0
 10
2381.143619140087
 20
-160.872451799407
 30
0.0
 10
2382.184366351904
 20
-161.1653101974731
 30
0.0
 10
2384.379444464438
 20
-161.6531757971126
 30
0.0
 10
2385.533713202789
 20
-161.8482225956665
 30
0.0
 10
2388.367564663596
 20
-162.1854527187235
 30
0.0
 10
2390.07468346915
 20
-162.2759882677939
 30
0.0
 10
2393.447442880467
 20
-162.2365522620322
 30
0.0
 10
2395.112744210376
 20
-162.1065452883109
 30
0.0
 10
2398.248662742469
 20
-161.6404868147284
 30
0.0
 10
2399.718961181913
 20
-161.3042315803351
 30
0.0
 10
2402.024507409141
 20
-160.5626574538425
 30
0.0
 10
2402.928038052804
 20
-160.1910968886378
 30
0.0
 10
2403.972461802479
 20
-159.6486425413692
 30
0.0
 10
2404.224966947732
 20
-159.5058197228719
 30
0.0
 10
2404.461644165827
 20
-159.3603187320001
 30
0.0
  0
SPLINE
  5
1B75B
330
18
100
AcDbEntity
  8
姿図
100
AcDbSpline
210
0.0
220
0.0
230
1.0
 70
     8
 71
     3
 72
    24
 73
    20
 74
     0
 42
0.000000001
 43
0.0000000001
 40
0.6739897110637463
 40
0.6739897110637463
 40
0.6739897110637463
 40
0.6739897110637463
 40
0.7397248520178367
 40
0.7397248520178367
 40
0.9492453026673957
 40
0.9492453026673957
 40
1.158765753316955
 40
1.158765753316955
 40
1.368286203966514
 40
1.368286203966514
 40
1.660455600340546
 40
1.660455600340546
 40
1.952624996714579
 40
1.952624996714579
 40
2.244794393088612
 40
2.244794393088612
 40
2.469780447170401
 40
2.469780447170401
 40
2.488655450135048
 40
2.488655450135048
 40
2.488655450135048
 40
2.488655450135048
 10
2376.885603093572
 20
-158.3707520991335
 30
0.0
 10
2377.106289703929
 20
-158.5010441814485
 30
0.0
 10
2377.337845444191
 20
-158.6292859548163
 30
0.0
 10
2378.350827318344
 20
-159.1550853986342
 30
0.0
 10
2379.226800848199
 20
-159.5283529449426
 30
0.0
 10
2381.143619140087
 20
-160.1943691797061
 30
0.0
 10
2382.184366351904
 20
-160.4872275777722
 30
0.0
 10
2384.379444464438
 20
-160.9750931774116
 30
0.0
 10
2385.533713202789
 20
-161.1701399759651
 30
0.0
 10
2388.367564663596
 20
-161.5073700990225
 30
0.0
 10
2390.07468346915
 20
-161.5979056480925
 30
0.0
 10
2393.447442880467
 20
-161.5584696423313
 30
0.0
 10
2395.112744210376
 20
-161.42846266861
 30
0.0
 10
2398.248662742469
 20
-160.9624041950275
 30
0.0
 10
2399.718961181913
 20
-160.6261489606337
 30
0.0
 10
2402.024507409141
 20
-159.8845748341415
 30
0.0
 10
2402.928038052804
 20
-159.5130142689364
 30
0.0
 10
2403.769988726686
 20
-159.075720686351
 30
0.0
 10
2403.834258917776
 20
-159.0416476871361
 30
0.0
 10
2403.897621778917
 20
-159.0073649082857
 30
0.0
  0
SPLINE
  5
1B75C
330
18
100
AcDbEntity
  8
姿図
100
AcDbSpline
210
0.0
220
0.0
230
1.0
 70
     8
 71
     3
 72
    20
 73
    16
 74
     0
 42
0.000000001
 43
0.0000000001
 40
0.7979399139812271
 40
0.7979399139812271
 40
0.7979399139812271
 40
0.7979399139812271
 40
0.9492453026673957
 40
0.9492453026673957
 40
1.158765753316955
 40
1.158765753316955
 40
1.368286203966514
 40
1.368286203966514
 40
1.660455600340546
 40
1.660455600340546
 40
1.952624996714579
 40
1.952624996714579
 40
2.244794393088612
 40
2.244794393088612
 40
2.364720152282226
 40
2.364720152282226
 40
2.364720152282226
 40
2.364720152282226
 10
2378.246295560797
 20
-157.7257706000261
 30
0.0
 10
2378.843968214455
 20
-158.0032360439742
 30
0.0
 10
2379.493093936269
 20
-158.2647135377007
 30
0.0
 10
2381.143619140087
 20
-158.8382037773755
 30
0.0
 10
2382.184366351904
 20
-159.131062175442
 30
0.0
 10
2384.379444464438
 20
-159.6189277750815
 30
0.0
 10
2385.533713202789
 20
-159.8139745736354
 30
0.0
 10
2388.367564663596
 20
-160.1512046966919
 30
0.0
 10
2390.07468346915
 20
-160.2417402457623
 30
0.0
 10
2393.447442880467
 20
-160.2023042400011
 30
0.0
 10
2395.112744210376
 20
-160.0722972662799
 30
0.0
 10
2398.248662742469
 20
-159.6062387926974
 30
0.0
 10
2399.718961181913
 20
-159.2699835583036
 30
0.0
 10
2401.556134956917
 20
-158.6790604523932
 30
0.0
 10
2402.06251271839
 20
-158.4931872803951
 30
0.0
 10
2402.536494916133
 20
-158.2959914029076
 30
0.0
  0
SPLINE
  5
1B75D
330
18
100
AcDbEntity
  8
姿図
100
AcDbSpline
210
0.0
220
0.0
230
1.0
 70
     8
 71
     3
 72
    22
 73
    18
 74
     0
 42
0.000000001
 43
0.0000000001
 40
0.734614039002979
 40
0.734614039002979
 40
0.734614039002979
 40
0.734614039002979
 40
0.7397248520178367
 40
0.7397248520178367
 40
0.9492453026673957
 40
0.9492453026673957
 40
1.158765753316955
 40
1.158765753316955
 40
1.368286203966514
 40
1.368286203966514
 40
1.660455600340546
 40
1.660455600340546
 40
1.952624996714579
 40
1.952624996714579
 40
2.244794393088612
 40
2.244794393088612
 40
2.428034951064766
 40
2.428034951064766
 40
2.428034951064766
 40
2.428034951064766
 10
2377.523523052238
 20
-158.0474353696715
 30
0.0
 10
2377.542206129056
 20
-158.0572301833819
 30
0.0
 10
2377.560952066576
 20
-158.0670091317562
 30
0.0
 10
2378.350827318344
 20
-158.4770026160051
 30
0.0
 10
2379.226800848199
 20
-158.8502701623134
 30
0.0
 10
2381.143619140087
 20
-159.5162863970769
 30
0.0
 10
2382.184366351904
 20
-159.809144795143
 30
0.0
 10
2384.379444464438
 20
-160.2970103947824
 30
0.0
 10
2385.533713202789
 20
-160.4920571933363
 30
0.0
 10
2388.367564663596
 20
-160.8292873163933
 30
0.0
 10
2390.07468346915
 20
-160.9198228654633
 30
0.0
 10
2393.447442880467
 20
-160.8803868597025
 30
0.0
 10
2395.112744210376
 20
-160.7503798859808
 30
0.0
 10
2398.248662742469
 20
-160.2843214123983
 30
0.0
 10
2399.718961181913
 20
-159.9480661780045
 30
0.0
 10
2401.838400560677
 20
-159.266352930446
 30
0.0
 10
2402.589318092582
 20
-158.9711304433382
 30
0.0
 10
2403.259515029623
 20
-158.652657513189
 30
0.0
  0
SPLINE
  5
1B75E
330
18
100
AcDbEntity
  8
姿図
100
AcDbSpline
210
0.0
220
0.0
230
1.0
 70
     8
 71
     3
 72
    24
 73
    20
 74
     0
 42
0.000000001
 43
0.0000000001
 40
0.5543166416818401
 40
0.5543166416818401
 40
0.5543166416818401
 40
0.5543166416818401
 40
0.7397248520178367
 40
0.7397248520178367
 40
0.9492453026673957
 40
0.9492453026673957
 40
1.158765753316955
 40
1.158765753316955
 40
1.368286203966514
 40
1.368286203966514
 40
1.660455600340546
 40
1.660455600340546
 40
1.952624996714579
 40
1.952624996714579
 40
2.244794393088612
 40
2.244794393088612
 40
2.469780447170401
 40
2.469780447170401
 40
2.608359762056138
 40
2.608359762056138
 40
2.608359762056138
 40
2.608359762056138
 10
2375.791448085674
 20
-159.0438905209063
 30
0.0
 10
2376.29751419225
 20
-159.4266186918618
 30
0.0
 10
2376.897430594117
 20
-159.8020546451536
 30
0.0
 10
2378.350827318344
 20
-160.5564562872206
 30
0.0
 10
2379.226800848199
 20
-160.929723833529
 30
0.0
 10
2381.143619140087
 20
-161.5957400682925
 30
0.0
 10
2382.184366351904
 20
-161.8885984663585
 30
0.0
 10
2384.379444464438
 20
-162.376464065998
 30
0.0
 10
2385.533713202789
 20
-162.5715108645519
 30
0.0
 10
2388.367564663596
 20
-162.9087409876089
 30
0.0
 10
2390.07468346915
 20
-162.9992765366788
 30
0.0
 10
2393.447442880467
 20
-162.9598405309181
 30
0.0
 10
2395.112744210376
 20
-162.8298335571964
 30
0.0
 10
2398.248662742469
 20
-162.3637750836139
 30
0.0
 10
2399.718961181913
 20
-162.0275198492201
 30
0.0
 10
2402.024507409141
 20
-161.2859457227279
 30
0.0
 10
2402.928038052804
 20
-160.9143851575228
 30
0.0
 10
2404.183277864809
 20
-160.2624368529215
 30
0.0
 10
2404.613364458177
 20
-160.0017425081907
 30
0.0
 10
2404.991124820844
 20
-159.7353515768269
 30
0.0
  0
SPLINE
  5
1B75F
330
18
100
AcDbEntity
  8
姿図
100
AcDbSpline
210
0.0
220
0.0
230
1.0
 70
     8
 71
     3
 72
    20
 73
    16
 74
     0
 42
0.000000001
 43
0.0000000001
 40
0.8603225299771156
 40
0.8603225299771156
 40
0.8603225299771156
 40
0.8603225299771156
 40
0.9492453026673957
 40
0.9492453026673957
 40
1.158765753316955
 40
1.158765753316955
 40
1.368286203966514
 40
1.368286203966514
 40
1.660455600340546
 40
1.660455600340546
 40
1.952624996714579
 40
1.952624996714579
 40
2.244794393088612
 40
2.244794393088612
 40
2.302371271135109
 40
2.302371271135109
 40
2.302371271135109
 40
2.302371271135109
 10
2379.011195911307
 20
-157.4277990108245
 30
0.0
 10
2379.386540015948
 20
-157.5826182730294
 30
0.0
 10
2379.778450661749
 20
-157.7312022787829
 30
0.0
 10
2381.143619140087
 20
-158.2055426863259
 30
0.0
 10
2382.184366351904
 20
-158.498401084392
 30
0.0
 10
2384.379444464438
 20
-158.9862666840314
 30
0.0
 10
2385.533713202789
 20
-159.1813134825853
 30
0.0
 10
2388.367564663596
 20
-159.5185436056423
 30
0.0
 10
2390.07468346915
 20
-159.6090791547127
 30
0.0
 10
2393.447442880467
 20
-159.5696431489515
 30
0.0
 10
2395.112744210376
 20
-159.4396361752298
 30
0.0
 10
2398.248662742469
 20
-158.9735777016473
 30
0.0
 10
2399.718961181913
 20
-158.6373224672535
 30
0.0
 10
2401.278175539543
 20
-158.1358044271389
 30
0.0
 10
2401.528345229657
 20
-158.0500368666391
 30
0.0
 10
2401.771542503583
 20
-157.9613498671671
 30
0.0
  0
SPLINE
  5
1B760
330
18
100
AcDbEntity
  8
姿図
100
AcDbSpline
210
0.0
220
0.0
230
1.0
 70
     8
 71
     3
 72
    18
 73
    14
 74
     0
 42
0.000000001
 43
0.0000000001
 40
0.9319726051199986
 40
0.9319726051199986
 40
0.9319726051199986
 40
0.9319726051199986
 40
0.9492453026673957
 40
0.9492453026673957
 40
1.158765753316955
 40
1.158765753316955
 40
1.368286203966514
 40
1.368286203966514
 40
1.660455600340546
 40
1.660455600340546
 40
1.952624996714579
 40
1.952624996714579
 40
2.230780318692987
 40
2.230780318692987
 40
2.230780318692987
 40
2.230780318692987
 10
2379.949871897239
 20
-157.1112797982638
 30
0.0
 10
2380.027749285493
 20
-157.1392724941871
 30
0.0
 10
2380.106199514482
 20
-157.1669990277047
 30
0.0
 10
2381.143619140087
 20
-157.5274600666245
 30
0.0
 10
2382.184366351904
 20
-157.820318464691
 30
0.0
 10
2384.379444464438
 20
-158.3081840643305
 30
0.0
 10
2385.533713202789
 20
-158.5032308628844
 30
0.0
 10
2388.367564663596
 20
-158.8404609859414
 30
0.0
 10
2390.07468346915
 20
-158.9309965350113
 30
0.0
 10
2393.447442880467
 20
-158.8915605292501
 30
0.0
 10
2395.112744210376
 20
-158.7615535555288
 30
0.0
 10
2398.173454667714
 20
-158.3066724643187
 30
0.0
 10
2399.577689060725
 20
-157.9912597101526
 30
0.0
 10
2400.832910413937
 20
-157.5999973664681
 30
0.0
  0
SPLINE
  5
1B761
330
18
100
AcDbEntity
  8
姿図
100
AcDbSpline
210
0.0
220
0.0
230
1.0
 70
     8
 71
     3
 72
    16
 73
    12
 74
     0
 42
0.000000001
 43
0.0000000001
 40
1.006434101146146
 40
1.006434101146146
 40
1.006434101146146
 40
1.006434101146146
 40
1.158765753316955
 40
1.158765753316955
 40
1.368286203966514
 40
1.368286203966514
 40
1.660455600340546
 40
1.660455600340546
 40
1.952624996714579
 40
1.952624996714579
 40
2.156373646803174
 40
2.156373646803174
 40
2.156373646803174
 40
2.156373646803174
 10
2380.987889558618
 20
-156.813720531825
 30
0.0
 10
2381.71599606266
 20
-157.039423098127
 30
0.0
 10
2382.483940640318
 20
-157.2426363068276
 30
0.0
 10
2384.379444464438
 20
-157.663920225834
 30
0.0
 10
2385.533713202789
 20
-157.8589670243879
 30
0.0
 10
2388.367564663596
 20
-158.1961971474449
 30
0.0
 10
2390.07468346915
 20
-158.2867326965153
 30
0.0
 10
2393.447442880467
 20
-158.2472966907541
 30
0.0
 10
2395.112744210376
 20
-158.1172897170323
 30
0.0
 10
2397.774143062552
 20
-157.7217540951898
 30
0.0
 10
2398.820088464799
 20
-157.509047085363
 30
0.0
 10
2399.794763042587
 20
-157.253100469277
 30
0.0
  0
SPLINE
  5
1B762
330
18
100
AcDbEntity
  8
姿図
100
AcDbSpline
210
0.0
220
0.0
230
1.0
 70
     8
 71
     3
 72
    14
 73
    10
 74
     0
 42
0.000000001
 43
0.0000000001
 40
1.190660659220019
 40
1.190660659220019
 40
1.190660659220019
 40
1.190660659220019
 40
1.368286203966514
 40
1.368286203966514
 40
1.660455600340546
 40
1.660455600340546
 40
1.952624996714579
 40
1.952624996714579
 40
1.972280409730163
 40
1.972280409730163
 40
1.972280409730163
 40
1.972280409730163
 10
2383.786981208791
 20
-156.2311102565351
 30
0.0
 10
2384.731546185323
 20
-156.425187098531
 30
0.0
 10
2385.71387516186
 20
-156.5835462869273
 30
0.0
 10
2388.367564663596
 20
-156.8993370224695
 30
0.0
 10
2390.07468346915
 20
-156.9898725715394
 30
0.0
 10
2393.447442880467
 20
-156.9504365657787
 30
0.0
 10
2395.112744210376
 20
-156.8204295920569
 30
0.0
 10
2396.786186416622
 20
-156.5717235391768
 30
0.0
 10
2396.891227363917
 20
-156.5555795433589
 30
0.0
 10
2396.99580497249
 20
-156.5389746171655
 30
0.0
  0
SPLINE
  5
1B763
330
18
100
AcDbEntity
  8
姿図
100
AcDbSpline
210
0.0
220
0.0
230
1.0
 70
     8
 71
     3
 72
    16
 73
    12
 74
     0
 42
0.000000001
 43
0.0000000001
 40
1.091313670261284
 40
1.091313670261284
 40
1.091313670261284
 40
1.091313670261284
 40
1.158765753316955
 40
1.158765753316955
 40
1.368286203966514
 40
1.368286203966514
 40
1.660455600340546
 40
1.660455600340546
 40
1.952624996714579
 40
1.952624996714579
 40
2.071539202576769
 40
2.071539202576769
 40
2.071539202576769
 40
2.071539202576769
 10
2382.240405392052
 20
-156.5168797173302
 30
0.0
 10
2382.581117761504
 20
-156.605259084337
 30
0.0
 10
2382.928568560381
 20
-156.6888604976699
 30
0.0
 10
2384.379444464438
 20
-157.0113239393551
 30
0.0
 10
2385.533713202789
 20
-157.206370737909
 30
0.0
 10
2388.367564663596
 20
-157.543600860966
 30
0.0
 10
2390.07468346915
 20
-157.6341364100359
 30
0.0
 10
2393.447442880467
 20
-157.5947004042747
 30
0.0
 10
2395.112744210376
 20
-157.4646934305534
 30
0.0
 10
2397.318869667886
 20
-157.1368202882073
 30
0.0
 10
2397.940858097832
 20
-157.0248767365639
 30
0.0
 10
2398.541941963371
 20
-156.8972173912867
 30
0.0
  0
SPLINE
  5
1B764
330
18
100
AcDbEntity
  8
姿図
100
AcDbSpline
210
0.0
220
0.0
230
1.0
 70
     8
 71
     3
 72
    12
 73
     8
 74
     0
 42
0.000000001
 43
0.0000000001
 40
1.326784550487973
 40
1.326784550487973
 40
1.326784550487973
 40
1.326784550487973
 40
1.368286203966514
 40
1.368286203966514
 40
1.660455600340546
 40
1.660455600340546
 40
1.836188845990134
 40
1.836188845990134
 40
1.836188845990134
 40
1.836188845990134
 10
2386.017587137932
 20
-155.9534120945215
 30
0.0
 10
2386.249506394075
 20
-155.9855215207327
 30
0.0
 10
2386.48278625386
 20
-156.0155453866356
 30
0.0
 10
2388.367564663596
 20
-156.2398352140455
 30
0.0
 10
2390.07468346915
 20
-156.3303707631159
 30
0.0
 10
2392.775382205997
 20
-156.2987928300478
 30
0.0
 10
2393.782075610229
 20
-156.2470331201531
 30
0.0
 10
2394.764548457516
 20
-156.1569548615377
 30
0.0
  0
TEXT
  5
1BE46
330
18
100
AcDbEntity
  8
文字
100
AcDbText
 10
2346.728861838367
 20
-191.8216615487869
 30
0.0
 40
7.199999999999999
  1
SX-B1315D/BF
100
AcDbText
  0
ENDSEC
  0
SECTION
  2
OBJECTS
  0
DICTIONARY
  5
C
330
0
100
AcDbDictionary
281
     1
  3
ACAD_GROUP
350
D
  3
ACAD_IMAGE_VARS
350
1C10A
  3
ACAD_LAYOUT
350
617
  3
ACAD_MLINESTYLE
350
E
  3
ACAD_PLOTSETTINGS
350
618
  3
ACAD_PLOTSTYLENAME
350
615
  3
ACAD_SCALELIST
350
10CA7
  3
AcadDim
350
50AA
  3
AcDbVariableDictionary
350
6DE
  3
APPDATA
350
1C109
  3
ASE_INDEX_DICTIONARY
350
E61A
  3
DWGPROPS
350
1C12E
  0
DICTIONARY
  5
117A8
330
2
100
AcDbDictionary
280
     1
281
     1
  3
ACAD_LAYERSTATES
360
117A9
  0
DICTIONARY
  5
11762
330
F
100
AcDbDictionary
280
     1
281
     1
  3
ADSK_XREC_LAYER_RECONCILED
360
11763
  0
DICTIONARY
  5
11766
330
34
100
AcDbDictionary
280
     1
281
     1
  3
ADSK_XREC_LAYER_RECONCILED
360
11767
  0
DICTIONARY
  5
1176E
330
2F4
100
AcDbDictionary
280
     1
281
     1
  3
ADSK_XREC_LAYER_RECONCILED
360
1176F
  0
DICTIONARY
  5
11772
330
305
100
AcDbDictionary
280
     1
281
     1
  3
ADSK_XREC_LAYER_RECONCILED
360
11773
  0
DICTIONARY
  5
13827
330
18
100
AcDbDictionary
280
     1
281
     1
  3
ACAD_SORTENTS
360
13828
  0
DICTIONARY
  5
D
102
{ACAD_REACTORS
330
C
102
}
330
C
100
AcDbDictionary
281
     1
  0
RASTERVARIABLES
  5
1C10A
102
{ACAD_REACTORS
330
C
102
}
330
C
100
AcDbRasterVariables
 90
        0
 70
     1
 71
     1
 72
     0
  0
DICTIONARY
  5
617
102
{ACAD_REACTORS
330
C
102
}
330
C
100
AcDbDictionary
281
     1
  3
Model
350
619
  3
ﾚｲｱｳﾄ1
350
61A
  0
DICTIONARY
  5
E
102
{ACAD_REACTORS
330
C
102
}
330
C
100
AcDbDictionary
281
     1
  3
STANDARD
350
1B
  0
DICTIONARY
  5
618
102
{ACAD_REACTORS
330
C
102
}
330
C
100
AcDbDictionary
281
     1
  0
ACDBDICTIONARYWDFLT
  5
615
102
{ACAD_REACTORS
330
C
102
}
330
C
100
AcDbDictionary
281
     1
  3
Normal
350
616
100
AcDbDictionaryWithDefault
340
616
  0
DICTIONARY
  5
10CA7
102
{ACAD_REACTORS
330
C
102
}
330
C
100
AcDbDictionary
281
     1
  3
A0
350
10CA8
  3
A1
350
10CA9
  3
A2
350
10CAA
  3
A3
350
10CAB
  3
A4
350
10CAC
  3
A5
350
10CAD
  3
A6
350
10CAE
  3
A7
350
10CAF
  3
A8
350
10CB0
  3
A9
350
10CB1
  3
B0
350
10CB2
  3
B1
350
10CB3
  3
B2
350
10CB4
  3
B3
350
10CB5
  3
B4
350
10CB6
  3
B5
350
10CB7
  3
B6
350
10CB8
  3
B7
350
10CB9
  3
B8
350
10CBA
  3
B9
350
10CBB
  3
C0
350
10CBC
  3
C1
350
10CBD
  3
C2
350
10CBE
  3
C3
350
10CBF
  3
C4
350
10CC0
  3
C5
350
10CC1
  3
C6
350
10CC2
  3
C7
350
10CC3
  3
C8
350
10CC4
  3
C9
350
10CC5
  3
D0
350
10CC6
  3
D1
350
10CC7
  3
D2
350
10CC8
  0
XRECORD
  5
50AA
102
{ACAD_REACTORS
330
C
102
}
330
C
100
AcDbXrecord
280
     1
 90
   990106
  3
OPEN
 60
     0
 61
     0
 62
     1
 63
     3
 64
     1
 65
     0
 66
     0
 67
     3
 68
     1
 69
     0
 70
     0
 71
     0
 72
     0
 40
0.0
170
     2
340
0
  0
DICTIONARY
  5
6DE
102
{ACAD_REACTORS
330
C
102
}
330
C
100
AcDbDictionary
281
     1
  3
DIMASSOC
350
6DF
  3
INDEXCTL
350
11797
  3
PROJECTNAME
350
6E0
  3
SORTENTS
350
11796
  0
DICTIONARY
  5
1C109
102
{ACAD_REACTORS
330
C
102
}
330
C
100
AcDbDictionary
281
     1
  0
DICTIONARY
  5
E61A
102
{ACAD_REACTORS
330
C
102
}
330
C
100
AcDbDictionary
281
     1
  3
ASEBlockHierarchyIndexRecord
350
E61C
1001
DCO15
1040
1543850671.093
  0
XRECORD
  5
1C12E
102
{ACAD_REACTORS
330
C
102
}
330
C
100
AcDbXrecord
280
     1
  1
DWGPROPS COOKIE
  2

  3

  4

  6

  7

  8
SPAX
  9

300
=
301
=
302
=
303
=
304
=
305
=
306
=
307
=
308
=
309
=
 40
0.0
 41
2448636.244629629
 42
2456821.200482465
  1

 90
        0
  0
DICTIONARY
  5
117A9
102
{ACAD_REACTORS
330
117A8
102
}
330
117A8
100
AcDbDictionary
281
     1
  0
XRECORD
  5
11763
102
{ACAD_REACTORS
330
11762
102
}
330
11762
100
AcDbXrecord
280
     1
290
     1
  0
XRECORD
  5
11767
102
{ACAD_REACTORS
330
11766
102
}
330
11766
100
AcDbXrecord
280
     1
290
     1
  0
XRECORD
  5
1176F
102
{ACAD_REACTORS
330
1176E
102
}
330
1176E
100
AcDbXrecord
280
     1
290
     1
  0
XRECORD
  5
11773
102
{ACAD_REACTORS
330
11772
102
}
330
11772
100
AcDbXrecord
280
     1
290
     1
  0
SORTENTSTABLE
  5
13828
102
{ACAD_REACTORS
330
13827
102
}
330
13827
100
AcDbSortentsTable
330
18
331
0
  5
3C90
331
32B5
  5
32B5
331
3E99
  5
3E99
331
5BEB
  5
5BEB
331
ABCE
  5
ABCE
  0
LAYOUT
  5
619
102
{ACAD_REACTORS
330
617
102
}
330
617
100
AcDbPlotSettings
  1

  2
JUST PDF 2
  4
A4
  6

 40
3.174999952316284
 41
3.174999952316284
 42
3.175003051757812
 43
3.17498779296875
 44
209.8886566162109
 45
297.0530090332031
 46
14.27171755861536
 47
9.85517307462581
 48
2347.10331271497
 49
-600.0548199775099
140
2697.093749704783
141
-58.06946970017691
142
1.0
143
2.0
 70
 11940
 72
     1
 73
     0
 74
     4
  7
spax form.ctb
 75
     0
147
0.5
148
-2347.10331271497
149
600.0548199775099
100
AcDbLayout
  1
Model
 70
     1
 71
     0
 10
0.0
 20
0.0
 11
12.0
 21
9.0
 12
0.0
 22
0.0
 32
0.0
 14
2346.728861838367
 24
-191.8216615487869
 34
0.0
 15
2430.728861838367
 25
-109.3255691710473
 35
0.0
146
0.0
 13
0.0
 23
0.0
 33
0.0
 16
1.0
 26
0.0
 36
0.0
 17
0.0
 27
1.0
 37
0.0
 76
     0
330
18
331
1B5BF
1001
ACAD_PSEXT
1000
JUST PDF 2
1000
JUST PDF 2
1000
JUST PDF 2 Port:
1000

1070
     0
  0
LAYOUT
  5
61A
102
{ACAD_REACTORS
330
617
102
}
330
617
100
AcDbPlotSettings
  1

  2
Canon LASER SHOT LBP-750
  4

  6

 40
0.0
 41
0.0
 42
0.0
 43
0.0
 44
0.0
 45
0.0
 46
0.0
 47
0.0
 48
0.0
 49
0.0
140
0.0
141
0.0
142
1.0
143
1.0
 70
   688
 72
     0
 73
     0
 74
     5
  7
spax form.ctb
 75
    16
147
1.0
148
0.0
149
0.0
100
AcDbLayout
  1
ﾚｲｱｳﾄ1
 70
     0
 71
     1
 10
0.0
 20
0.0
 11
12.0
 21
9.0
 12
0.0
 22
0.0
 32
0.0
 14
1.000000000000000E+20
 24
1.000000000000000E+20
 34
1.000000000000000E+20
 15
-1.000000000000000E+20
 25
-1.000000000000000E+20
 35
-1.000000000000000E+20
146
0.0
 13
0.0
 23
0.0
 33
0.0
 16
1.0
 26
0.0
 36
0.0
 17
0.0
 27
1.0
 37
0.0
 76
     0
330
15
  0
MLINESTYLE
  5
1B
102
{ACAD_REACTORS
330
E
102
}
330
E
100
AcDbMlineStyle
  2
STANDARD
 70
     0
  3

 62
     0
 51
90.0
 52
90.0
 71
     2
 49
0.5
 62
   256
  6
BYLAYER
 49
-0.5
 62
   256
  6
BYLAYER
  0
ACDBPLACEHOLDER
  5
616
102
{ACAD_REACTORS
330
615
102
}
330
615
  0
SCALE
  5
10CA8
102
{ACAD_REACTORS
330
10CA7
102
}
330
10CA7
100
AcDbScale
 70
     0
300
1:1
140
1.0
141
1.0
290
     1
  0
SCALE
  5
10CA9
102
{ACAD_REACTORS
330
10CA7
102
}
330
10CA7
100
AcDbScale
 70
     0
300
1:2
140
1.0
141
2.0
290
     0
  0
SCALE
  5
10CAA
102
{ACAD_REACTORS
330
10CA7
102
}
330
10CA7
100
AcDbScale
 70
     0
300
1:4
140
1.0
141
4.0
290
     0
  0
SCALE
  5
10CAB
102
{ACAD_REACTORS
330
10CA7
102
}
330
10CA7
100
AcDbScale
 70
     0
300
1:5
140
1.0
141
5.0
290
     0
  0
SCALE
  5
10CAC
102
{ACAD_REACTORS
330
10CA7
102
}
330
10CA7
100
AcDbScale
 70
     0
300
1:8
140
1.0
141
8.0
290
     0
  0
SCALE
  5
10CAD
102
{ACAD_REACTORS
330
10CA7
102
}
330
10CA7
100
AcDbScale
 70
     0
300
1:10
140
1.0
141
10.0
290
     0
  0
SCALE
  5
10CAE
102
{ACAD_REACTORS
330
10CA7
102
}
330
10CA7
100
AcDbScale
 70
     0
300
1:16
140
1.0
141
16.0
290
     0
  0
SCALE
  5
10CAF
102
{ACAD_REACTORS
330
10CA7
102
}
330
10CA7
100
AcDbScale
 70
     0
300
1:20
140
1.0
141
20.0
290
     0
  0
SCALE
  5
10CB0
102
{ACAD_REACTORS
330
10CA7
102
}
330
10CA7
100
AcDbScale
 70
     0
300
1:30
140
1.0
141
30.0
290
     0
  0
SCALE
  5
10CB1
102
{ACAD_REACTORS
330
10CA7
102
}
330
10CA7
100
AcDbScale
 70
     0
300
1:40
140
1.0
141
40.0
290
     0
  0
SCALE
  5
10CB2
102
{ACAD_REACTORS
330
10CA7
102
}
330
10CA7
100
AcDbScale
 70
     0
300
1:50
140
1.0
141
50.0
290
     0
  0
SCALE
  5
10CB3
102
{ACAD_REACTORS
330
10CA7
102
}
330
10CA7
100
AcDbScale
 70
     0
300
1:100
140
1.0
141
100.0
290
     0
  0
SCALE
  5
10CB4
102
{ACAD_REACTORS
330
10CA7
102
}
330
10CA7
100
AcDbScale
 70
     0
300
2:1
140
2.0
141
1.0
290
     0
  0
SCALE
  5
10CB5
102
{ACAD_REACTORS
330
10CA7
102
}
330
10CA7
100
AcDbScale
 70
     0
300
4:1
140
4.0
141
1.0
290
     0
  0
SCALE
  5
10CB6
102
{ACAD_REACTORS
330
10CA7
102
}
330
10CA7
100
AcDbScale
 70
     0
300
8:1
140
8.0
141
1.0
290
     0
  0
SCALE
  5
10CB7
102
{ACAD_REACTORS
330
10CA7
102
}
330
10CA7
100
AcDbScale
 70
     0
300
10:1
140
10.0
141
1.0
290
     0
  0
SCALE
  5
10CB8
102
{ACAD_REACTORS
330
10CA7
102
}
330
10CA7
100
AcDbScale
 70
     0
300
100:1
140
100.0
141
1.0
290
     0
  0
SCALE
  5
10CB9
102
{ACAD_REACTORS
330
10CA7
102
}
330
10CA7
100
AcDbScale
 70
     0
300
1/128" = 1'-0"
140
0.0078125
141
12.0
290
     0
  0
SCALE
  5
10CBA
102
{ACAD_REACTORS
330
10CA7
102
}
330
10CA7
100
AcDbScale
 70
     0
300
1/64" = 1'-0"
140
0.015625
141
12.0
290
     0
  0
SCALE
  5
10CBB
102
{ACAD_REACTORS
330
10CA7
102
}
330
10CA7
100
AcDbScale
 70
     0
300
1/32" = 1'-0"
140
0.03125
141
12.0
290
     0
  0
SCALE
  5
10CBC
102
{ACAD_REACTORS
330
10CA7
102
}
330
10CA7
100
AcDbScale
 70
     0
300
1/16" = 1'-0"
140
0.0625
141
12.0
290
     0
  0
SCALE
  5
10CBD
102
{ACAD_REACTORS
330
10CA7
102
}
330
10CA7
100
AcDbScale
 70
     0
300
3/32" = 1'-0"
140
0.09375
141
12.0
290
     0
  0
SCALE
  5
10CBE
102
{ACAD_REACTORS
330
10CA7
102
}
330
10CA7
100
AcDbScale
 70
     0
300
1/8" = 1'-0"
140
0.125
141
12.0
290
     0
  0
SCALE
  5
10CBF
102
{ACAD_REACTORS
330
10CA7
102
}
330
10CA7
100
AcDbScale
 70
     0
300
3/16" = 1'-0"
140
0.1875
141
12.0
290
     0
  0
SCALE
  5
10CC0
102
{ACAD_REACTORS
330
10CA7
102
}
330
10CA7
100
AcDbScale
 70
     0
300
1/4" = 1'-0"
140
0.25
141
12.0
290
     0
  0
SCALE
  5
10CC1
102
{ACAD_REACTORS
330
10CA7
102
}
330
10CA7
100
AcDbScale
 70
     0
300
3/8" = 1'-0"
140
0.375
141
12.0
290
     0
  0
SCALE
  5
10CC2
102
{ACAD_REACTORS
330
10CA7
102
}
330
10CA7
100
AcDbScale
 70
     0
300
1/2" = 1'-0"
140
0.5
141
12.0
290
     0
  0
SCALE
  5
10CC3
102
{ACAD_REACTORS
330
10CA7
102
}
330
10CA7
100
AcDbScale
 70
     0
300
3/4" = 1'-0"
140
0.75
141
12.0
290
     0
  0
SCALE
  5
10CC4
102
{ACAD_REACTORS
330
10CA7
102
}
330
10CA7
100
AcDbScale
 70
     0
300
1" = 1'-0"
140
1.0
141
12.0
290
     0
  0
SCALE
  5
10CC5
102
{ACAD_REACTORS
330
10CA7
102
}
330
10CA7
100
AcDbScale
 70
     0
300
1-1/2" = 1'-0"
140
1.5
141
12.0
290
     0
  0
SCALE
  5
10CC6
102
{ACAD_REACTORS
330
10CA7
102
}
330
10CA7
100
AcDbScale
 70
     0
300
3" = 1'-0"
140
3.0
141
12.0
290
     0
  0
SCALE
  5
10CC7
102
{ACAD_REACTORS
330
10CA7
102
}
330
10CA7
100
AcDbScale
 70
     0
300
6" = 1'-0"
140
6.0
141
12.0
290
     0
  0
SCALE
  5
10CC8
102
{ACAD_REACTORS
330
10CA7
102
}
330
10CA7
100
AcDbScale
 70
     0
300
1'-0" = 1'-0"
140
12.0
141
12.0
290
     0
  0
DICTIONARYVAR
  5
6DF
102
{ACAD_REACTORS
330
6DE
102
}
330
6DE
100
DictionaryVariables
280
     0
  1
1
  0
DICTIONARYVAR
  5
11797
102
{ACAD_REACTORS
330
6DE
102
}
330
6DE
100
DictionaryVariables
280
     0
  1
0
  0
DICTIONARYVAR
  5
6E0
102
{ACAD_REACTORS
330
6DE
102
}
330
6DE
100
DictionaryVariables
280
     0
  1

  0
DICTIONARYVAR
  5
11796
102
{ACAD_REACTORS
330
6DE
102
}
330
6DE
100
DictionaryVariables
280
     0
  1
127
  0
XRECORD
  5
E61C
102
{ACAD_REACTORS
330
E61A
102
}
330
E61A
100
AcDbXrecord
280
     1
330
0
330
0
330
0
330
0
330
0
330
0
330
0
330
0
330
0
330
0
330
0
330
0
330
0
330
0
330
0
330
0
330
0
330
0
330
0
330
0
330
0
330
0
330
0
330
0
330
0
330
0
330
0
330
0
330
0
330
0
330
0
330
0
330
0
330
0
330
0
330
0
330
0
330
0
330
0
330
0
330
0
330
0
330
0
330
0
330
0
330
0
330
0
330
0
330
0
330
0
330
0
330
0
330
0
330
0
330
0
330
0
330
0
330
0
330
0
330
0
330
0
330
0
330
0
330
0
330
0
330
0
330
0
330
0
330
0
330
0
330
0
330
0
330
0
330
0
330
0
330
0
330
0
330
0
330
0
330
0
330
0
330
0
330
0
330
0
330
0
330
0
330
0
330
0
330
0
330
0
330
0
330
0
330
0
330
0
330
0
330
0
330
0
330
0
330
0
330
0
330
0
330
0
330
0
330
0
330
0
330
0
330
0
330
0
330
0
330
0
330
0
330
0
330
0
330
0
330
0
330
0
330
0
330
0
330
0
330
0
330
0
330
0
330
0
330
0
330
0
330
0
330
0
330
0
330
0
330
0
330
0
330
0
  0
ENDSEC
  0
EOF
