  0
SECTION
  2
HEADER
  9
$ACADVER
  1
AC1015
  9
$ACADMAINTVER
 70
     6
  9
$DWGCODEPAGE
  3
ANSI_932
  9
$INSBASE
 10
0.0
 20
0.0
 30
0.0
  9
$EXTMIN
 10
3094.046180844821
 20
-197.5666706719514
 30
0.0
  9
$EXTMAX
 10
3201.086180844821
 20
-109.2707518023748
 30
0.0
  9
$LIMMIN
 10
0.0
 20
0.0
  9
$LIMMAX
 10
420.0
 20
297.0
  9
$ORTHOMODE
 70
     1
  9
$REGENMODE
 70
     1
  9
$FILLMODE
 70
     1
  9
$QTEXTMODE
 70
     0
  9
$MIRRTEXT
 70
     1
  9
$LTSCALE
 40
7.0
  9
$ATTMODE
 70
     0
  9
$TEXTSIZE
 40
3.5
  9
$TRACEWID
 40
1.0
  9
$TEXTSTYLE
  7
STANDARD
  9
$CLAYER
  8
寸法線
  9
$CELTYPE
  6
BYLAYER
  9
$CECOLOR
 62
   256
  9
$CELTSCALE
 40
1.0
  9
$DISPSILH
 70
     0
  9
$DIMSCALE
 40
1.0
  9
$DIMASZ
 40
2.5
  9
$DIMEXO
 40
1.5
  9
$DIMDLI
 40
5.0
  9
$DIMRND
 40
0.0
  9
$DIMDLE
 40
0.0
  9
$DIMEXE
 40
1.0
  9
$DIMTP
 40
0.0
  9
$DIMTM
 40
0.0
  9
$DIMTXT
 40
3.0
  9
$DIMCEN
 40
0.0
  9
$DIMTSZ
 40
0.0
  9
$DIMTOL
 70
     0
  9
$DIMLIM
 70
     0
  9
$DIMTIH
 70
     0
  9
$DIMTOH
 70
     0
  9
$DIMSE1
 70
     0
  9
$DIMSE2
 70
     0
  9
$DIMTAD
 70
     3
  9
$DIMZIN
 70
     8
  9
$DIMBLK
  1
Open30
  9
$DIMASO
 70
     1
  9
$DIMSHO
 70
     0
  9
$DIMPOST
  1

  9
$DIMAPOST
  1

  9
$DIMALT
 70
     0
  9
$DIMALTD
 70
     0
  9
$DIMALTF
 40
25.4
  9
$DIMLFAC
 40
1.0
  9
$DIMTOFL
 70
     1
  9
$DIMTVP
 40
0.0
  9
$DIMTIX
 70
     0
  9
$DIMSOXD
 70
     0
  9
$DIMSAH
 70
     0
  9
$DIMBLK1
  1

  9
$DIMBLK2
  1

  9
$DIMSTYLE
  2
STANDARD
  9
$DIMCLRD
 70
     8
  9
$DIMCLRE
 70
     8
  9
$DIMCLRT
 70
   256
  9
$DIMTFAC
 40
1.0
  9
$DIMGAP
 40
1.0
  9
$DIMJUST
 70
     0
  9
$DIMSD1
 70
     0
  9
$DIMSD2
 70
     0
  9
$DIMTOLJ
 70
     1
  9
$DIMTZIN
 70
     0
  9
$DIMALTZ
 70
     0
  9
$DIMALTTZ
 70
     0
  9
$DIMUPT
 70
     0
  9
$DIMDEC
 70
     2
  9
$DIMTDEC
 70
     2
  9
$DIMALTU
 70
     2
  9
$DIMALTTD
 70
     0
  9
$DIMTXSTY
  7
STANDARD
  9
$DIMAUNIT
 70
     0
  9
$DIMADEC
 70
     2
  9
$DIMALTRND
 40
0.0
  9
$DIMAZIN
 70
     2
  9
$DIMDSEP
 70
    46
  9
$DIMATFIT
 70
     3
  9
$DIMFRAC
 70
     0
  9
$DIMLDRBLK
  1
Open30
  9
$DIMLUNIT
 70
     2
  9
$DIMLWD
 70
    -2
  9
$DIMLWE
 70
    -2
  9
$DIMTMOVE
 70
     0
  9
$LUNITS
 70
     2
  9
$LUPREC
 70
     2
  9
$SKETCHINC
 40
0.1
  9
$FILLETRAD
 40
0.0
  9
$AUNITS
 70
     0
  9
$AUPREC
 70
     1
  9
$MENU
  1
FM
  9
$ELEVATION
 40
0.0
  9
$PELEVATION
 40
0.0
  9
$THICKNESS
 40
0.0
  9
$LIMCHECK
 70
     0
  9
$CHAMFERA
 40
0.0
  9
$CHAMFERB
 40
0.0
  9
$CHAMFERC
 40
0.0
  9
$CHAMFERD
 40
0.0
  9
$SKPOLY
 70
     0
  9
$TDCREATE
 40
2448636.619629629
  9
$TDUCREATE
 40
2448636.244629629
  9
$TDUPDATE
 40
2456821.575797384
  9
$TDUUPDATE
 40
2456821.200797384
  9
$TDINDWG
 40
2.522693287
  9
$TDUSRTIMER
 40
2456821.200645382
  9
$USRTIMER
 70
     1
  9
$ANGBASE
 50
0.0
  9
$ANGDIR
 70
     0
  9
$PDMODE
 70
     3
  9
$PDSIZE
 40
0.0
  9
$PLINEWID
 40
0.0
  9
$SPLFRAME
 70
     0
  9
$SPLINETYPE
 70
     6
  9
$SPLINESEGS
 70
     8
  9
$HANDSEED
  5
18AA2
  9
$SURFTAB1
 70
     6
  9
$SURFTAB2
 70
     6
  9
$SURFTYPE
 70
     6
  9
$SURFU
 70
     6
  9
$SURFV
 70
     6
  9
$UCSBASE
  2

  9
$UCSNAME
  2

  9
$UCSORG
 10
0.0
 20
0.0
 30
0.0
  9
$UCSXDIR
 10
1.0
 20
0.0
 30
0.0
  9
$UCSYDIR
 10
0.0
 20
1.0
 30
0.0
  9
$UCSORTHOREF
  2

  9
$UCSORTHOVIEW
 70
     0
  9
$UCSORGTOP
 10
0.0
 20
0.0
 30
0.0
  9
$UCSORGBOTTOM
 10
0.0
 20
0.0
 30
0.0
  9
$UCSORGLEFT
 10
0.0
 20
0.0
 30
0.0
  9
$UCSORGRIGHT
 10
0.0
 20
0.0
 30
0.0
  9
$UCSORGFRONT
 10
0.0
 20
0.0
 30
0.0
  9
$UCSORGBACK
 10
0.0
 20
0.0
 30
0.0
  9
$PUCSBASE
  2

  9
$PUCSNAME
  2

  9
$PUCSORG
 10
0.0
 20
0.0
 30
0.0
  9
$PUCSXDIR
 10
1.0
 20
0.0
 30
0.0
  9
$PUCSYDIR
 10
0.0
 20
1.0
 30
0.0
  9
$PUCSORTHOREF
  2

  9
$PUCSORTHOVIEW
 70
     0
  9
$PUCSORGTOP
 10
0.0
 20
0.0
 30
0.0
  9
$PUCSORGBOTTOM
 10
0.0
 20
0.0
 30
0.0
  9
$PUCSORGLEFT
 10
0.0
 20
0.0
 30
0.0
  9
$PUCSORGRIGHT
 10
0.0
 20
0.0
 30
0.0
  9
$PUCSORGFRONT
 10
0.0
 20
0.0
 30
0.0
  9
$PUCSORGBACK
 10
0.0
 20
0.0
 30
0.0
  9
$USERI1
 70
     0
  9
$USERI2
 70
     0
  9
$USERI3
 70
     0
  9
$USERI4
 70
     0
  9
$USERI5
 70
     0
  9
$USERR1
 40
0.0
  9
$USERR2
 40
0.0
  9
$USERR3
 40
0.0
  9
$USERR4
 40
0.0
  9
$USERR5
 40
0.0
  9
$WORLDVIEW
 70
     0
  9
$SHADEDGE
 70
     3
  9
$SHADEDIF
 70
    70
  9
$TILEMODE
 70
     1
  9
$MAXACTVP
 70
    16
  9
$PINSBASE
 10
0.0
 20
0.0
 30
0.0
  9
$PLIMCHECK
 70
     0
  9
$PEXTMIN
 10
1.000000000000000E+20
 20
1.000000000000000E+20
 30
1.000000000000000E+20
  9
$PEXTMAX
 10
-1.000000000000000E+20
 20
-1.000000000000000E+20
 30
-1.000000000000000E+20
  9
$PLIMMIN
 10
0.0
 20
0.0
  9
$PLIMMAX
 10
0.0
 20
0.0
  9
$UNITMODE
 70
     0
  9
$VISRETAIN
 70
     0
  9
$PLINEGEN
 70
     0
  9
$PSLTSCALE
 70
     0
  9
$TREEDEPTH
 70
  3020
  9
$CMLSTYLE
  2
STANDARD
  9
$CMLJUST
 70
     0
  9
$CMLSCALE
 40
1.0
  9
$PROXYGRAPHICS
 70
     1
  9
$MEASUREMENT
 70
     0
  9
$CELWEIGHT
370
    -1
  9
$ENDCAPS
280
     0
  9
$JOINSTYLE
280
     0
  9
$LWDISPLAY
290
     0
  9
$INSUNITS
 70
     0
  9
$HYPERLINKBASE
  1

  9
$STYLESHEET
  1
spax form.ctb
  9
$XEDIT
290
     1
  9
$CEPSNTYPE
380
     0
  9
$PSTYLEMODE
290
     1
  9
$FINGERPRINTGUID
  2
{BBAEEBA6-8B94-11D3-9160-00E0294F7E09}
  9
$VERSIONGUID
  2
{C3BCEC8B-A841-4DB6-A3CB-5DFD15A6F795}
  9
$EXTNAMES
290
     1
  9
$PSVPSCALE
 40
0.0
  9
$OLESTARTUP
290
     0
  0
ENDSEC
  0
SECTION
  2
CLASSES
  0
CLASS
  1
LWPOLYLINE
  2
AcDbPolyline
  3
ObjectDBX Classes
 90
        0
280
     0
281
     1
  0
CLASS
  1
ACDBDICTIONARYWDFLT
  2
AcDbDictionaryWithDefault
  3
ObjectDBX Classes
 90
        0
280
     0
281
     0
  0
CLASS
  1
ACDBPLACEHOLDER
  2
AcDbPlaceHolder
  3
ObjectDBX Classes
 90
        0
280
     0
281
     0
  0
CLASS
  1
LAYOUT
  2
AcDbLayout
  3
ObjectDBX Classes
 90
        0
280
     0
281
     0
  0
CLASS
  1
DICTIONARYVAR
  2
AcDbDictionaryVar
  3
ObjectDBX Classes
 90
        0
280
     0
281
     0
  0
CLASS
  1
MATERIAL
  2
AcDbMaterial
  3
ObjectDBX Classes
 90
     1153
280
     0
281
     0
  0
CLASS
  1
VISUALSTYLE
  2
AcDbVisualStyle
  3
ObjectDBX Classes
 90
     4095
280
     0
281
     0
  0
CLASS
  1
TABLESTYLE
  2
AcDbTableStyle
  3
ObjectDBX Classes
 90
     4095
280
     0
281
     0
  0
CLASS
  1
SCALE
  2
AcDbScale
  3
ObjectDBX Classes
 90
     1153
280
     0
281
     0
  0
CLASS
  1
MLEADERSTYLE
  2
AcDbMLeaderStyle
  3
ACDB_MLEADERSTYLE_CLASS
 90
     4095
280
     0
281
     0
  0
CLASS
  1
CELLSTYLEMAP
  2
AcDbCellStyleMap
  3
ObjectDBX Classes
 90
     1152
280
     0
281
     0
  0
CLASS
  1
SORTENTSTABLE
  2
AcDbSortentsTable
  3
ObjectDBX Classes
 90
        0
280
     0
281
     0
  0
CLASS
  1
RASTERVARIABLES
  2
AcDbRasterVariables
  3
ISM
 90
        0
280
     0
281
     0
  0
CLASS
  1
SUN
  2
AcDbSun
  3
SCENEOE
 90
     1153
280
     0
281
     0
  0
ENDSEC
  0
SECTION
  2
TABLES
  0
TABLE
  2
VPORT
  5
8
330
0
100
AcDbSymbolTable
 70
     1
  0
VPORT
  5
17FCC
330
8
100
AcDbSymbolTableRecord
100
AcDbViewportTableRecord
  2
*Active
 70
     0
 10
0.0
 20
0.0
 11
1.0
 21
1.0
 12
3147.566180844821
 22
-153.4187112371631
 13
0.0
 23
0.0
 14
1.0
 24
1.0
 15
20.0
 25
20.0
 16
0.0
 26
0.0
 36
1.0
 17
0.0
 27
0.0
 37
0.0
 40
90.06183724696817
 41
1.731829573934837
 42
50.0
 43
0.0
 44
0.0
 50
0.0
 51
0.0
 71
    16
 72
   100
 73
     1
 74
     0
 75
     0
 76
     0
 77
     0
 78
     0
281
     0
 65
     1
110
0.0
120
0.0
130
0.0
111
1.0
121
0.0
131
0.0
112
0.0
122
1.0
132
0.0
 79
     0
146
0.0
  0
ENDTAB
  0
TABLE
  2
LTYPE
  5
5
330
0
100
AcDbSymbolTable
 70
     5
  0
LTYPE
  5
12
330
5
100
AcDbSymbolTableRecord
100
AcDbLinetypeTableRecord
  2
BYBLOCK
 70
     0
  3

 72
    65
 73
     0
 40
0.0
  0
LTYPE
  5
13
330
5
100
AcDbSymbolTableRecord
100
AcDbLinetypeTableRecord
  2
BYLAYER
 70
     0
  3

 72
    65
 73
     0
 40
0.0
  0
LTYPE
  5
14
330
5
100
AcDbSymbolTableRecord
100
AcDbLinetypeTableRecord
  2
CONTINUOUS
 70
     0
  3
Solid line
 72
    65
 73
     0
 40
0.0
  0
LTYPE
  5
26
330
5
100
AcDbSymbolTableRecord
100
AcDbLinetypeTableRecord
  2
PHANTOM
 70
     0
  3
_____ _ _ _____ _ _ _____ _ _ _____ _ _ ____
 72
    65
 73
     6
 40
2.5
 49
1.25
 74
     0
 49
-0.25
 74
     0
 49
0.25
 74
     0
 49
-0.25
 74
     0
 49
0.25
 74
     0
 49
-0.25
 74
     0
  0
LTYPE
  5
514
330
5
100
AcDbSymbolTableRecord
100
AcDbLinetypeTableRecord
  2
CENTER
 70
     0
  3
Center ____ _ ____ _ ____ _ ____ _ ____ _ ____
 72
    65
 73
     4
 40
2.0
 49
1.25
 74
     0
 49
-0.25
 74
     0
 49
0.25
 74
     0
 49
-0.25
 74
     0
  0
ENDTAB
  0
TABLE
  2
LAYER
  5
2
102
{ACAD_XDICTIONARY
360
115BE
102
}
330
0
100
AcDbSymbolTable
 70
    10
  0
LAYER
  5
F
102
{ACAD_XDICTIONARY
360
10B6E
102
}
330
2
100
AcDbSymbolTableRecord
100
AcDbLayerTableRecord
  2
0
 70
     0
 62
     7
  6
CONTINUOUS
370
    -3
390
616
  0
LAYER
  5
34
102
{ACAD_XDICTIONARY
360
10B72
102
}
330
2
100
AcDbSymbolTableRecord
100
AcDbLayerTableRecord
  2
寸法線
 70
     0
 62
     7
  6
CONTINUOUS
370
    -3
390
616
  0
LAYER
  5
2F4
102
{ACAD_XDICTIONARY
360
10B7A
102
}
330
2
100
AcDbSymbolTableRecord
100
AcDbLayerTableRecord
  2
文字
 70
     0
 62
     7
  6
CONTINUOUS
370
    -3
390
616
  0
LAYER
  5
305
102
{ACAD_XDICTIONARY
360
10B7E
102
}
330
2
100
AcDbSymbolTableRecord
100
AcDbLayerTableRecord
  2
姿図
 70
     0
 62
     8
  6
CONTINUOUS
370
    -3
390
616
  0
ENDTAB
  0
TABLE
  2
STYLE
  5
3
330
0
100
AcDbSymbolTable
 70
     1
  0
STYLE
  5
10
330
3
100
AcDbSymbolTableRecord
100
AcDbTextStyleTableRecord
  2
STANDARD
 70
     0
 40
0.0
 41
1.0
 50
0.0
 71
     0
 42
3.5
  3
MONOTXT
  4
BIGFONT
  0
ENDTAB
  0
TABLE
  2
VIEW
  5
6
330
0
100
AcDbSymbolTable
 70
     0
  0
ENDTAB
  0
TABLE
  2
UCS
  5
7
330
0
100
AcDbSymbolTable
 70
     0
  0
ENDTAB
  0
TABLE
  2
APPID
  5
9
330
0
100
AcDbSymbolTable
 70
     8
  0
APPID
  5
11
330
9
100
AcDbSymbolTableRecord
100
AcDbRegAppTableRecord
  2
ACAD
 70
     0
  0
APPID
  5
E61B
330
9
100
AcDbSymbolTableRecord
100
AcDbRegAppTableRecord
  2
DCO15
 70
     0
  0
APPID
  5
10B6A
330
9
100
AcDbSymbolTableRecord
100
AcDbRegAppTableRecord
  2
ACAD_MLEADERVER
 70
     0
  0
APPID
  5
115BB
330
9
100
AcDbSymbolTableRecord
100
AcDbRegAppTableRecord
  2
ACAD_PSEXT
 70
     0
  0
APPID
  5
115BC
330
9
100
AcDbSymbolTableRecord
100
AcDbRegAppTableRecord
  2
ACAD_DSTYLE_DIMJAG
 70
     0
  0
APPID
  5
115BD
330
9
100
AcDbSymbolTableRecord
100
AcDbRegAppTableRecord
  2
ACAD_DSTYLE_DIMTALN
 70
     0
  0
APPID
  5
129D7
330
9
100
AcDbSymbolTableRecord
100
AcDbRegAppTableRecord
  2
AcadAnnotative
 70
     0
  0
APPID
  5
129F3
330
9
100
AcDbSymbolTableRecord
100
AcDbRegAppTableRecord
  2
ACAD_EXEMPT_FROM_CAD_STANDARDS
 70
     0
  0
ENDTAB
  0
TABLE
  2
DIMSTYLE
  5
A
330
0
100
AcDbSymbolTable
 70
     2
100
AcDbDimStyleTable
  0
DIMSTYLE
105
1CC
330
A
100
AcDbSymbolTableRecord
100
AcDbDimStyleTableRecord
  2
STANDARD
 70
     0
 41
2.5
 42
1.5
 43
5.0
 44
1.0
 73
     0
 74
     0
 77
     3
 78
     8
 79
     2
140
3.0
141
0.0
147
1.0
171
     0
172
     1
176
     8
177
     8
271
     2
178
   256
179
     2
271
     2
272
     2
274
     0
340
10
341
10A86
342
10A86
343
10A86
344
608
  0
ENDTAB
  0
TABLE
  2
BLOCK_RECORD
  5
1
330
0
100
AcDbSymbolTable
 70
    55
  0
BLOCK_RECORD
  5
18
102
{ACAD_XDICTIONARY
360
13ED2
102
}
330
1
100
AcDbSymbolTableRecord
100
AcDbBlockTableRecord
  2
*MODEL_SPACE
340
619
  0
BLOCK_RECORD
  5
15
330
1
100
AcDbSymbolTableRecord
100
AcDbBlockTableRecord
  2
*PAPER_SPACE
340
61A
  0
BLOCK_RECORD
  5
608
330
1
100
AcDbSymbolTableRecord
100
AcDbBlockTableRecord
  2
_OPEN
340
0
  0
BLOCK_RECORD
  5
10A86
330
1
100
AcDbSymbolTableRecord
100
AcDbBlockTableRecord
  2
_Open30
340
0
102
{BLKREFS
331
10A8F
331
10A90
331
10A99
331
10A9A
331
10AA2
331
10AA3
331
10AAD
331
10AAE
331
10AB6
331
10AB7
331
10ABF
331
10AC0
331
10ACA
331
10ACB
331
10AD3
331
10AD4
331
10ADD
331
10ADE
331
10AE6
331
10AE7
331
1156E
331
1156F
331
11578
331
11579
331
11581
331
11582
331
1158C
331
1158D
331
11595
331
11596
331
11F98
331
11F99
331
11FA2
331
11FA3
331
11FAB
331
11FAC
331
11FB6
331
11FB7
331
11FBF
331
11FC0
331
12991
331
12992
331
1299C
331
1299D
331
129A5
331
129A6
331
129AF
331
129B0
331
129B8
331
129B9
331
1342E
331
1342F
331
13439
331
1343A
331
13442
331
13443
331
1344C
331
1344D
331
13455
331
13456
331
13E2F
331
13E30
331
13E3A
331
13E3B
331
13E43
331
13E44
331
13E56
331
13E57
331
1698C
331
1698D
331
16995
331
16996
331
1699E
331
1699F
331
169A7
331
169A8
331
174CF
331
174D0
331
174ED
331
174EE
331
174F6
331
174F7
331
17500
331
17501
331
17F88
331
17F89
331
17F91
331
17F92
331
17F9A
331
17F9B
331
18A36
331
18A37
331
18A3F
331
18A40
331
18A48
331
18A49
102
}
  0
ENDTAB
  0
ENDSEC
  0
SECTION
  2
BLOCKS
  0
BLOCK
  5
39
330
18
100
AcDbEntity
  8
0
100
AcDbBlockBegin
  2
*MODEL_SPACE
 70
     0
 10
0.0
 20
0.0
 30
0.0
  3
*MODEL_SPACE
  1
*MODEL_SPACE
  0
ENDBLK
  5
3A
330
18
100
AcDbEntity
  8
0
100
AcDbBlockEnd
  0
BLOCK
  5
37
330
15
100
AcDbEntity
 67
     1
  8
0
100
AcDbBlockBegin
  2
*PAPER_SPACE
 70
     0
 10
0.0
 20
0.0
 30
0.0
  3
*PAPER_SPACE
  1
*PAPER_SPACE
  0
ENDBLK
  5
38
330
15
100
AcDbEntity
 67
     1
  8
0
100
AcDbBlockEnd
  0
BLOCK
  5
609
330
608
100
AcDbEntity
  8
0
100
AcDbBlockBegin
  2
_OPEN
 70
     0
 10
0.0
 20
0.0
 30
0.0
  3
_OPEN
  1
_OPEN
  0
LINE
  5
60A
330
608
100
AcDbEntity
  8
0
  6
ByBlock
 62
     0
100
AcDbLine
 10
-1.0
 20
0.1666666666666667
 30
0.0
 11
0.0
 21
0.0
 31
0.0
  0
LINE
  5
60B
330
608
100
AcDbEntity
  8
0
  6
ByBlock
 62
     0
100
AcDbLine
 10
0.0
 20
0.0
 30
0.0
 11
-1.0
 21
-0.1666666666666667
 31
0.0
  0
LINE
  5
60C
330
608
100
AcDbEntity
  8
0
  6
ByBlock
 62
     0
100
AcDbLine
 10
0.0
 20
0.0
 30
0.0
 11
-1.0
 21
0.0
 31
0.0
  0
ENDBLK
  5
60D
330
608
100
AcDbEntity
  8
0
100
AcDbBlockEnd
  0
BLOCK
  5
10A8A
330
10A86
100
AcDbEntity
  8
0
100
AcDbBlockBegin
  2
_Open30
 70
     0
 10
0.0
 20
0.0
 30
0.0
  3
_Open30
  1
_Open30
  0
LINE
  5
10A87
330
10A86
100
AcDbEntity
  8
0
  6
ByBlock
 62
     0
370
    -2
100
AcDbLine
 10
-1.0
 20
0.26794919
 30
0.0
 11
0.0
 21
0.0
 31
0.0
  0
LINE
  5
10A88
330
10A86
100
AcDbEntity
  8
0
  6
ByBlock
 62
     0
370
    -2
100
AcDbLine
 10
0.0
 20
0.0
 30
0.0
 11
-1.0
 21
-0.26794919
 31
0.0
  0
LINE
  5
10A89
330
10A86
100
AcDbEntity
  8
0
  6
ByBlock
 62
     0
370
    -2
100
AcDbLine
 10
0.0
 20
0.0
 30
0.0
 11
-1.0
 21
0.0
 31
0.0
  0
ENDBLK
  5
10A8B
330
10A86
100
AcDbEntity
  8
0
100
AcDbBlockEnd
  0
ENDSEC
  0
SECTION
  2
ENTITIES
  0
TEXT
  5
32B5
330
18
100
AcDbEntity
  8
文字
100
AcDbText
 10
1374.596143903034
 20
555.4379644620986
 30
0.0
 40
3.44
  1

100
AcDbText
  0
TEXT
  5
3E99
330
18
100
AcDbEntity
  8
文字
100
AcDbText
 10
1374.596143903034
 20
1131.857473480285
 30
0.0
 40
3.44
  1

100
AcDbText
  0
TEXT
  5
5BEB
330
18
100
AcDbEntity
  8
文字
100
AcDbText
 10
1374.596143903034
 20
-20.9815445560879
 30
0.0
 40
3.44
  1

100
AcDbText
  0
TEXT
  5
ABCE
330
18
100
AcDbEntity
  8
文字
100
AcDbText
 10
1374.596143903034
 20
1714.758882494316
 30
0.0
 40
3.44
  1

100
AcDbText
  0
TEXT
  5
184D8
330
18
100
AcDbEntity
  8
文字
100
AcDbText
 10
3094.046180844821
 20
-197.5666706719514
 30
0.0
 40
7.199999999999999
  1
SX-B1315D/WC、NC
100
AcDbText
  0
LINE
  5
185C6
330
18
100
AcDbEntity
  8
姿図
100
AcDbLine
 10
3128.166633062853
 20
-153.7149752167417
 30
0.0
 11
3128.307479601724
 21
-154.0661173495552
 31
0.0
  0
ARC
  5
185C7
330
18
100
AcDbEntity
  8
姿図
100
AcDbCircle
 10
3147.055341805761
 20
-120.9545280190783
 30
0.0
 40
10.22278598436362
100
AcDbArc
 50
62.76850285567938
 51
70.88433192246669
  0
ARC
  5
185C8
330
18
100
AcDbEntity
  8
姿図
100
AcDbCircle
 10
3147.660699912921
 20
-118.3105461319498
 30
0.0
 40
7.49820056416878
100
AcDbArc
 50
72.48901557824543
 51
83.37017240572861
  0
ARC
  5
185C9
330
18
100
AcDbEntity
  8
姿図
100
AcDbCircle
 10
3146.822436613334
 20
-123.2907215268048
 30
0.0
 40
12.5183471768788
100
AcDbArc
 50
84.45978160155543
 51
90.80287533105246
  0
ARC
  5
185CA
330
18
100
AcDbEntity
  8
姿図
100
AcDbCircle
 10
3146.523894654134
 20
-116.9065430353168
 30
0.0
 40
6.141332273846576
100
AcDbArc
 50
93.2436521284612
 51
106.6502285820087
  0
ARC
  5
185CB
330
18
100
AcDbEntity
  8
姿図
100
AcDbCircle
 10
3145.080211213894
 20
-114.8386015178854
 30
0.0
 40
3.805988655204647
100
AcDbArc
 50
103.2376313139145
 51
125.1451841017959
  0
LINE
  5
185CC
330
18
100
AcDbEntity
  8
姿図
100
AcDbLine
 10
3132.703734082437
 20
-135.0505487407969
 30
0.0
 11
3133.265799372254
 21
-134.3433880513118
 31
0.0
  0
LINE
  5
185CD
330
18
100
AcDbEntity
  8
姿図
100
AcDbLine
 10
3132.8192042111
 20
-129.6456544589302
 30
0.0
 11
3132.687546677414
 21
-135.8082443791415
 31
0.0
  0
ARC
  5
185CE
330
18
100
AcDbEntity
  8
姿図
100
AcDbCircle
 10
3158.414463713437
 20
-133.4956125075292
 30
0.0
 40
1.607862445810594
100
AcDbArc
 50
42.69636713775075
 51
56.12973347160513
  0
ARC
  5
185CF
330
18
100
AcDbEntity
  8
姿図
100
AcDbCircle
 10
3147.245359736567
 20
-135.9382831308909
 30
0.0
 40
17.04720475928148
100
AcDbArc
 50
69.64678306274095
 51
110.8157935129274
  0
LINE
  5
185D0
330
18
100
AcDbEntity
  8
姿図
100
AcDbLine
 10
3161.200417590006
 20
-130.1484454745552
 30
0.0
 11
3161.26592592921
 21
-136.3453264582882
 31
0.0
  0
ARC
  5
185D1
330
18
100
AcDbEntity
  8
姿図
100
AcDbCircle
 10
3157.8697579677
 20
-144.2086970920478
 30
0.0
 40
3.450845033596016
100
AcDbArc
 50
12.81913927439297
 51
48.80510402841281
  0
ARC
  5
185D2
330
18
100
AcDbEntity
  8
姿図
100
AcDbCircle
 10
3151.354471207354
 20
-150.2206088259869
 30
0.0
 40
12.30249718714882
100
AcDbArc
 50
44.34359490364466
 51
79.22366257854155
  0
ARC
  5
185D3
330
18
100
AcDbEntity
  8
姿図
100
AcDbCircle
 10
3146.872120533406
 20
-163.3198565920294
 30
0.0
 40
26.08263536002879
100
AcDbArc
 50
74.89723041579188
 51
103.6002725992903
  0
ARC
  5
185D4
330
18
100
AcDbEntity
  8
姿図
100
AcDbCircle
 10
3143.1590993665
 20
-151.6815788402802
 30
0.0
 40
13.92529216795379
100
AcDbArc
 50
99.96213688778852
 51
131.4432276129799
  0
ARC
  5
185D5
330
18
100
AcDbEntity
  8
姿図
100
AcDbCircle
 10
3137.4211557822
 20
-144.8614619999058
 30
0.0
 40
5.019717803373259
100
AcDbArc
 50
133.9639200721353
 51
164.6147139170575
  0
LINE
  5
185D6
330
18
100
AcDbEntity
  8
姿図
100
AcDbLine
 10
3160.989003881861
 20
-133.9437615963285
 30
0.0
 11
3161.026208191077
 21
-134.6226797647429
 31
0.0
  0
LINE
  5
185D7
330
18
100
AcDbEntity
  8
姿図
100
AcDbLine
 10
3133.093438662522
 20
-133.5157307784258
 30
0.0
 11
3133.022302399412
 21
-133.9869811544155
 31
0.0
  0
ARC
  5
185D8
330
18
100
AcDbEntity
  8
姿図
100
AcDbCircle
 10
3154.848849594427
 20
-139.6435244179239
 30
0.0
 40
7.215052215152664
100
AcDbArc
 50
27.20189775311093
 51
35.00004946461256
  0
LINE
  5
185D9
330
18
100
AcDbEntity
  8
姿図
100
AcDbLine
 10
3160.752464304466
 20
-135.2403152314624
 30
0.0
 11
3160.739785046585
 21
-135.4796588497298
 31
0.0
  0
ARC
  5
185DA
330
18
100
AcDbEntity
  8
姿図
100
AcDbCircle
 10
3155.105965794414
 20
-139.1329807419221
 30
0.0
 40
6.858264372298297
100
AcDbArc
 50
34.58216941684866
 51
53.25955639036397
  0
ARC
  5
185DB
330
18
100
AcDbEntity
  8
姿図
100
AcDbCircle
 10
3149.027676523838
 20
-147.9268095733138
 30
0.0
 40
17.54544594868594
100
AcDbArc
 50
54.50611444873778
 51
66.66077417707014
  0
ARC
  5
185DC
330
18
100
AcDbEntity
  8
姿図
100
AcDbCircle
 10
3148.740015561185
 20
-148.0451117808262
 30
0.0
 40
17.76933376856992
100
AcDbArc
 50
65.97414726763579
 51
82.24955976118804
  0
ARC
  5
185DD
330
18
100
AcDbEntity
  8
姿図
100
AcDbCircle
 10
3146.745288177746
 20
-156.7128581915564
 30
0.0
 40
26.6389859756891
100
AcDbArc
 50
80.53548983358122
 51
101.9272810341566
  0
ARC
  5
185DE
330
18
100
AcDbEntity
  8
姿図
100
AcDbCircle
 10
3144.879369494544
 20
-148.8982446953811
 30
0.0
 40
18.60862403315867
100
AcDbArc
 50
101.2911751080621
 51
116.7488075270932
  0
ARC
  5
185DF
330
18
100
AcDbEntity
  8
姿図
100
AcDbCircle
 10
3139.744344357709
 20
-139.6161796826765
 30
0.0
 40
8.01865105716256
100
AcDbArc
 50
113.996987291732
 51
151.6481519903249
  0
LINE
  5
185E0
330
18
100
AcDbEntity
  8
姿図
100
AcDbLine
 10
3132.714218371256
 20
-148.3342501620551
 30
0.0
 11
3132.785416511619
 21
-148.5076429035317
 31
0.0
  0
ARC
  5
185E1
330
18
100
AcDbEntity
  8
姿図
100
AcDbCircle
 10
3147.103522623137
 20
-169.354587170733
 30
0.0
 40
30.00706843485315
100
AcDbArc
 50
94.3133279251343
 51
106.4527785740574
  0
ARC
  5
185E2
330
18
100
AcDbEntity
  8
姿図
100
AcDbCircle
 10
3146.610555543239
 20
-166.6897200612954
 30
0.0
 40
27.31411363335211
100
AcDbArc
 50
71.67295501632032
 51
85.11625161579612
  0
LINE
  5
185E3
330
18
100
AcDbEntity
  8
姿図
100
AcDbLine
 10
3128.715922883366
 20
-154.3227332671119
 30
0.0
 11
3128.489856066568
 21
-155.0326319979928
 31
0.0
  0
LINE
  5
185E4
330
18
100
AcDbEntity
  8
姿図
100
AcDbLine
 10
3129.189864812091
 20
-141.6164930782867
 30
0.0
 11
3128.715922883366
 21
-154.3227332671119
 31
0.0
  0
ARC
  5
185E5
330
18
100
AcDbEntity
  8
姿図
100
AcDbCircle
 10
3158.508421469991
 20
-163.6398097008592
 30
0.0
 40
10.0254455530582
100
AcDbArc
 50
13.70046046632357
 51
22.70437974690147
  0
ARC
  5
185E6
330
18
100
AcDbEntity
  8
姿図
100
AcDbCircle
 10
3158.796466083834
 20
-164.9646458334342
 30
0.0
 40
10.35726125910092
100
AcDbArc
 50
30.10092971952031
 51
67.77350120350201
  0
ARC
  5
185E7
330
18
100
AcDbEntity
  8
姿図
100
AcDbCircle
 10
3136.900441520164
 20
-168.4845994531398
 30
0.0
 40
14.65849270865605
100
AcDbArc
 50
124.0118240638637
 51
138.6946390210351
  0
ARC
  5
185E8
330
18
100
AcDbEntity
  8
姿図
100
AcDbCircle
 10
3147.545304855556
 20
-189.7100706810014
 30
0.0
 40
37.53478236001548
100
AcDbArc
 50
66.16327990533665
 51
91.29781924384537
  0
ARC
  5
185E9
330
18
100
AcDbEntity
  8
姿図
100
AcDbCircle
 10
3145.288819562469
 20
-187.1920170021896
 30
0.0
 40
35.03401110430546
100
AcDbArc
 50
87.76797878116228
 51
118.2602568684045
  0
SPLINE
  5
185EA
330
18
100
AcDbEntity
  8
姿図
100
AcDbSpline
210
0.0
220
0.0
230
1.0
 70
    11
 71
     3
 72
    70
 73
    66
 74
     0
 42
0.000000001
 43
0.0000000001
 40
0.0
 40
0.0
 40
0.0
 40
0.0
 40
0.1325511003420694
 40
0.1325511003420694
 40
0.2651022006841388
 40
0.2651022006841388
 40
0.3976533010262082
 40
0.3976533010262082
 40
0.5302044013682776
 40
0.5302044013682776
 40
0.7397248520178367
 40
0.7397248520178367
 40
0.9492453026673957
 40
0.9492453026673957
 40
1.158765753316955
 40
1.158765753316955
 40
1.368286203966514
 40
1.368286203966514
 40
1.660455600340546
 40
1.660455600340546
 40
1.952624996714579
 40
1.952624996714579
 40
2.244794393088612
 40
2.244794393088612
 40
2.469780447170401
 40
2.469780447170401
 40
2.69476650125219
 40
2.69476650125219
 40
2.851074505126578
 40
2.851074505126578
 40
3.007382509000966
 40
3.007382509000966
 40
3.163690512875355
 40
3.163690512875355
 40
3.319998516749743
 40
3.319998516749743
 40
3.476306520624131
 40
3.476306520624131
 40
3.632614524498519
 40
3.632614524498519
 40
3.788922528372907
 40
3.788922528372907
 40
3.945230532247295
 40
3.945230532247295
 40
4.1996485318078
 40
4.1996485318078
 40
4.454066531368306
 40
4.454066531368306
 40
4.708484530928811
 40
4.708484530928811
 40
4.962902530489317
 40
4.962902530489317
 40
5.217320530049823
 40
5.217320530049823
 40
5.471738529610328
 40
5.471738529610328
 40
5.726156529170834
 40
5.726156529170834
 40
5.897880152543986
 40
5.897880152543986
 40
6.069603775917138
 40
6.069603775917138
 40
6.20406405414118
 40
6.20406405414118
 40
6.283185307179586
 40
6.283185307179586
 40
6.283185307179586
 40
6.283185307179586
 10
3130.026381247103
 20
-161.9504558740688
 30
0.0
 10
3130.020110943375
 20
-162.1743602503085
 30
0.0
 10
3130.046626374992
 20
-162.3996905738769
 30
0.0
 10
3130.174962610387
 20
-162.8722863428003
 30
0.0
 10
3130.277551117156
 20
-163.1196972589079
 30
0.0
 10
3130.575588087383
 20
-163.63648755108
 30
0.0
 10
3130.771241875334
 20
-163.9054027240205
 30
0.0
 10
3131.262575506028
 20
-164.4519526897958
 30
0.0
 10
3131.558117690891
 20
-164.7293565372289
 30
0.0
 10
3132.446398533962
 20
-165.4385397334789
 30
0.0
 10
3133.112222048781
 20
-165.8659260901023
 30
0.0
 10
3134.654355434961
 20
-166.6663874778488
 30
0.0
 10
3135.530328964816
 20
-167.0396550241572
 30
0.0
 10
3137.447147256704
 20
-167.7056712589202
 30
0.0
 10
3138.487894468522
 20
-167.9985296569865
 30
0.0
 10
3140.682972581055
 20
-168.486395256626
 30
0.0
 10
3141.837241319406
 20
-168.6814420551801
 30
0.0
 10
3144.671092780213
 20
-169.0186721782369
 30
0.0
 10
3146.378211585768
 20
-169.1092077273071
 30
0.0
 10
3149.750970997085
 20
-169.0697717215461
 30
0.0
 10
3151.416272326993
 20
-168.9397647478244
 30
0.0
 10
3154.552190859086
 20
-168.4737062742419
 30
0.0
 10
3156.02248929853
 20
-168.1374510398483
 30
0.0
 10
3158.328035525758
 20
-167.3958769133561
 30
0.0
 10
3159.231566169422
 20
-167.024316348151
 30
0.0
 10
3160.785132467725
 20
-166.2174227931674
 30
0.0
 10
3161.434421222821
 20
-165.7818380445902
 30
0.0
 10
3162.290038480153
 20
-165.0362798057641
 30
0.0
 10
3162.571086132328
 20
-164.7291024803395
 30
0.0
 10
3162.998789151927
 20
-164.1338186741438
 30
0.0
 10
3163.145629165344
 20
-163.8467210805194
 30
0.0
 10
3163.330213776244
 20
-163.2982844120271
 30
0.0
 10
3163.369648341673
 20
-163.0367136148731
 30
0.0
 10
3163.35799720281
 20
-162.5071375478657
 30
0.0
 10
3163.306489827718
 20
-162.2369834284638
 30
0.0
 10
3163.090272973865
 20
-161.6618408172695
 30
0.0
 10
3162.92413265888
 20
-161.3572767220841
 30
0.0
 10
3162.454928757133
 20
-160.7257831310473
 30
0.0
 10
3162.151944330492
 20
-160.3996950423422
 30
0.0
 10
3161.408136784412
 20
-159.7493702153303
 30
0.0
 10
3160.967620333251
 20
-159.4253068376403
 30
0.0
 10
3159.960350374137
 20
-158.7983191851318
 30
0.0
 10
3159.393734870242
 20
-158.4953613143313
 30
0.0
 10
3157.76094017642
 20
-157.7453093687428
 30
0.0
 10
3156.604201667494
 20
-157.3275111448526
 30
0.0
 10
3154.085659162494
 20
-156.6258181562627
 30
0.0
 10
3152.724043107047
 20
-156.3417442856822
 30
0.0
 10
3149.892330419845
 20
-155.9306070432737
 30
0.0
 10
3148.422398487503
 20
-155.8035007588306
 30
0.0
 10
3145.476112308403
 20
-155.7159063081195
 30
0.0
 10
3143.999929815558
 20
-155.7554224246979
 30
0.0
 10
3141.143665352257
 20
-155.9975084384279
 30
0.0
 10
3139.763745844062
 20
-156.2001282008583
 30
0.0
 10
3137.197920665388
 20
-156.7509375543824
 30
0.0
 10
3136.012190056371
 20
-157.0993096568765
 30
0.0
 10
3133.923188692801
 20
-157.9071942809857
 30
0.0
 10
3133.020471069497
 20
-158.367195477366
 30
0.0
 10
3131.803914470666
 20
-159.1797846887295
 30
0.0
 10
3131.394115887212
 20
-159.5182786184374
 30
0.0
 10
3130.742941562006
 20
-160.188780652357
 30
0.0
 10
3130.502036106691
 20
-160.5198617231609
 30
0.0
 10
3130.206461905387
 20
-161.08150895455
 30
0.0
 10
3130.121924486349
 20
-161.3180599216249
 30
0.0
 10
3130.04572281223
 20
-161.6834440902195
 30
0.0
 10
3130.030124062415
 20
-161.8168048160002
 30
0.0
 10
3130.026381247103
 20
-161.9504558740688
 30
0.0
  0
ARC
  5
185EB
330
18
100
AcDbEntity
  8
姿図
100
AcDbCircle
 10
3149.674499174859
 20
-113.7397969005534
 30
0.0
 40
2.304033628122458
100
AcDbArc
 50
71.54136661978968
 51
83.70799580803134
  0
ARC
  5
185EC
330
18
100
AcDbEntity
  8
姿図
100
AcDbCircle
 10
3147.763692353185
 20
-114.1270254478292
 30
0.0
 40
3.037997754302832
100
AcDbArc
 50
75.66568337680155
 51
84.95818041632184
  0
ARC
  5
185ED
330
18
100
AcDbEntity
  8
姿図
100
AcDbCircle
 10
3146.87080142484
 20
-122.1157657871569
 30
0.0
 40
11.03172668071826
100
AcDbArc
 50
91.0827636701737
 51
93.63957692303383
  0
ARC
  5
185EE
330
18
100
AcDbEntity
  8
姿図
100
AcDbCircle
 10
3145.011808270041
 20
-113.3675369104582
 30
0.0
 40
2.060179311386563
100
AcDbArc
 50
96.54474250752902
 51
112.5115656931287
  0
LINE
  5
185EF
330
18
100
AcDbEntity
  8
姿図
100
AcDbLine
 10
3151.811707918108
 20
-112.019446657927
 30
0.0
 11
3152.244437121256
 21
-112.0299235018989
 31
0.0
  0
LINE
  5
185F0
330
18
100
AcDbEntity
  8
姿図
100
AcDbLine
 10
3142.367210558756
 20
-111.8469889315862
 30
0.0
 11
3142.909929072352
 21
-111.8334804273978
 31
0.0
  0
LINE
  5
185F1
330
18
100
AcDbEntity
  8
姿図
100
AcDbLine
 10
3131.37442289713
 20
-131.2507229623485
 30
0.0
 11
3131.89353916821
 21
-131.2683351014367
 31
0.0
  0
LINE
  5
185F2
330
18
100
AcDbEntity
  8
姿図
100
AcDbLine
 10
3162.095444576318
 20
-131.809602764739
 30
0.0
 11
3162.60610191461
 21
-131.8285074518641
 31
0.0
  0
LINE
  5
185F3
330
18
100
AcDbEntity
  8
姿図
100
AcDbLine
 10
3162.02924826865
 20
-132.045911109417
 30
0.0
 11
3162.666313327039
 21
-132.1262207798269
 31
0.0
  0
LINE
  5
185F4
330
18
100
AcDbEntity
  8
姿図
100
AcDbLine
 10
3162.02924826865
 20
-131.403152398858
 30
0.0
 11
3162.02924826865
 21
-132.045911109417
 31
0.0
  0
LINE
  5
185F5
330
18
100
AcDbEntity
  8
姿図
100
AcDbLine
 10
3162.686333172142
 20
-131.4133973899667
 30
0.0
 11
3162.02924826865
 21
-131.403152398858
 31
0.0
  0
LINE
  5
185F6
330
18
100
AcDbEntity
  8
姿図
100
AcDbLine
 10
3162.695892199381
 20
-131.0730402011178
 30
0.0
 11
3162.627927355631
 21
-133.4929855136176
 31
0.0
  0
LINE
  5
185F7
330
18
100
AcDbEntity
  8
姿図
100
AcDbLine
 10
3160.992936544802
 20
-133.0607999125774
 30
0.0
 11
3160.989003881861
 21
-133.9437615963285
 31
0.0
  0
ARC
  5
185F8
330
18
100
AcDbEntity
  8
姿図
100
AcDbCircle
 10
3145.314245303528
 20
-146.3554484076582
 30
0.0
 40
19.99369965743132
100
AcDbArc
 50
38.37310906748024
 51
42.3707897039405
  0
LINE
  5
185F9
330
18
100
AcDbEntity
  8
姿図
100
AcDbLine
 10
3160.797525318002
 20
-133.0299594533782
 30
0.0
 11
3160.992936544802
 21
-133.0607999125774
 31
0.0
  0
LINE
  5
185FA
330
18
100
AcDbEntity
  8
姿図
100
AcDbLine
 10
3160.560974938469
 20
-133.1224806680472
 30
0.0
 11
3160.797525318002
 21
-133.0299594533782
 31
0.0
  0
LINE
  5
185FB
330
18
100
AcDbEntity
  8
姿図
100
AcDbLine
 10
3160.266655816896
 20
-133.0876838999812
 30
0.0
 11
3160.560974938469
 21
-133.1224806680472
 31
0.0
  0
LINE
  5
185FC
330
18
100
AcDbEntity
  8
姿図
100
AcDbLine
 10
3160.928434191568
 20
-131.4265069979925
 30
0.0
 11
3160.992936544802
 21
-133.0607999125774
 31
0.0
  0
LINE
  5
185FD
330
18
100
AcDbEntity
  8
姿図
100
AcDbLine
 10
3161.907351183756
 20
-130.9777902011175
 30
0.0
 11
3161.839386340006
 21
-133.5473077792427
 31
0.0
  0
LINE
  5
185FE
330
18
100
AcDbEntity
  8
姿図
100
AcDbLine
 10
3145.266618714426
 20
-123.6399930341669
 30
0.0
 11
3145.747381672408
 21
-123.299943261574
 31
0.0
  0
LINE
  5
185FF
330
18
100
AcDbEntity
  8
姿図
100
AcDbLine
 10
3149.524783242041
 20
-123.5678123559215
 30
0.0
 11
3149.738281831193
 21
-123.7181296089053
 31
0.0
  0
ARC
  5
18600
330
18
100
AcDbEntity
  8
姿図
100
AcDbCircle
 10
3147.704178413131
 20
-126.5861866068295
 30
0.0
 40
3.576283893433354
100
AcDbArc
 50
54.80213643770396
 51
92.576480809209
  0
ARC
  5
18601
330
18
100
AcDbEntity
  8
姿図
100
AcDbCircle
 10
3147.179653521005
 20
-126.506785426293
 30
0.0
 40
3.512155935847192
100
AcDbArc
 50
84.05510899897504
 51
126.4514804045786
  0
ARC
  5
18602
330
18
100
AcDbEntity
  8
姿図
100
AcDbCircle
 10
3147.361135044184
 20
-130.6625151030636
 30
0.0
 40
9.055480311453088
100
AcDbArc
 50
113.4799962304721
 51
120.6671343438592
  0
ARC
  5
18603
330
18
100
AcDbEntity
  8
姿図
100
AcDbCircle
 10
3144.588228550088
 20
-122.0467432877409
 30
0.0
 40
0.9127834094668069
100
AcDbArc
 50
232.8158063709251
 51
301.7080059436973
  0
LINE
  5
18604
330
18
100
AcDbEntity
  8
姿図
100
AcDbLine
 10
3144.200183307215
 20
-123.1805329013542
 30
0.0
 11
3144.303543631514
 21
-122.9136400572071
 31
0.0
  0
ARC
  5
18605
330
18
100
AcDbEntity
  8
姿図
100
AcDbCircle
 10
3144.536103795715
 20
-122.5789392447883
 30
0.0
 40
0.6890264887612664
100
AcDbArc
 50
240.8216921979882
 51
334.1651458234185
  0
ARC
  5
18606
330
18
100
AcDbEntity
  8
姿図
100
AcDbCircle
 10
3144.571791577754
 20
-122.8038854928033
 30
0.0
 40
1.032349362678307
100
AcDbArc
 50
80.46365615661644
 51
137.3425886584201
  0
LINE
  5
18607
330
18
100
AcDbEntity
  8
姿図
100
AcDbLine
 10
3143.753170256923
 20
-122.3568354942059
 30
0.0
 11
3144.200183307215
 21
-123.1805329013542
 31
0.0
  0
LINE
  5
18608
330
18
100
AcDbEntity
  8
姿図
100
AcDbLine
 10
3143.812582782226
 20
-122.1043519257647
 30
0.0
 11
3143.753170256923
 21
-122.3568354942059
 31
0.0
  0
LINE
  5
18609
330
18
100
AcDbEntity
  8
姿図
100
AcDbLine
 10
3144.751437448634
 20
-122.2851504091724
 30
0.0
 11
3145.156264736227
 21
-122.8792023129114
 31
0.0
  0
LINE
  5
1860A
330
18
100
AcDbEntity
  8
姿図
100
AcDbLine
 10
3144.742824192993
 20
-121.7858024651742
 30
0.0
 11
3144.751437448634
 21
-122.2851504091724
 31
0.0
  0
ARC
  5
1860B
330
18
100
AcDbEntity
  8
姿図
100
AcDbCircle
 10
3147.361135044184
 20
-130.6625151030636
 30
0.0
 40
9.055480311453088
100
AcDbArc
 50
60.34291278487569
 51
106.7829454507887
  0
ARC
  5
1860C
330
18
100
AcDbEntity
  8
姿図
100
AcDbCircle
 10
3147.22671887985
 20
-121.4992955269923
 30
0.0
 40
2.442594144222008
100
AcDbArc
 50
64.66453895353716
 51
111.9618139013409
  0
LINE
  5
1860D
330
18
100
AcDbEntity
  8
姿図
100
AcDbLine
 10
3148.262858803277
 20
-118.9214712745494
 30
0.0
 11
3148.277822730423
 21
-119.5309386620485
 31
0.0
  0
LINE
  5
1860E
330
18
100
AcDbEntity
  8
姿図
100
AcDbLine
 10
3146.303859662645
 20
-119.5335093384493
 30
0.0
 11
3146.323146831146
 21
-118.916041402436
 31
0.0
  0
ARC
  5
1860F
330
18
100
AcDbEntity
  8
姿図
100
AcDbCircle
 10
3148.480434277495
 20
-123.5894603647226
 30
0.0
 40
4.06357599290132
100
AcDbArc
 50
36.95215183162546
 51
92.85797582241632
  0
ARC
  5
18610
330
18
100
AcDbEntity
  8
姿図
100
AcDbCircle
 10
3146.26318653808
 20
-124.0961913135671
 30
0.0
 40
4.56286325777215
100
AcDbArc
 50
89.48926165252857
 51
137.5831759731779
  0
ARC
  5
18611
330
18
100
AcDbEntity
  8
姿図
100
AcDbCircle
 10
3146.812534259988
 20
-123.8316274126697
 30
0.0
 40
5.085182540573665
100
AcDbArc
 50
351.4172257850249
 51
8.06503738583856
  0
ARC
  5
18612
330
18
100
AcDbEntity
  8
姿図
100
AcDbCircle
 10
3158.366735330094
 20
-121.6548931524668
 30
0.0
 40
15.68863784102488
100
AcDbArc
 50
185.2576811854621
 51
190.5437002023272
  0
LINE
  5
18613
330
18
100
AcDbEntity
  8
姿図
100
AcDbLine
 10
3151.785590110077
 20
-119.5068042485642
 30
0.0
 11
3151.847421564223
 21
-123.1181911473951
 31
0.0
  0
LINE
  5
18614
330
18
100
AcDbEntity
  8
姿図
100
AcDbLine
 10
3142.730347768903
 20
-121.3346842751058
 30
0.0
 11
3142.744105052219
 21
-123.0925233231548
 31
0.0
  0
LINE
  5
18615
330
18
100
AcDbEntity
  8
姿図
100
AcDbLine
 10
3142.894619382404
 20
-121.0184524638881
 30
0.0
 11
3142.730347768903
 21
-121.3346842751058
 31
0.0
  0
LINE
  5
18616
330
18
100
AcDbEntity
  8
姿図
100
AcDbLine
 10
3142.938991017803
 20
-119.443969608864
 30
0.0
 11
3142.894619382404
 21
-121.0184524638881
 31
0.0
  0
ARC
  5
18617
330
18
100
AcDbEntity
  8
姿図
100
AcDbCircle
 10
3150.920545818678
 20
-126.8136701898576
 30
0.0
 40
2.21239093574927
100
AcDbArc
 50
14.15502751961001
 51
35.05628734041768
  0
ARC
  5
18618
330
18
100
AcDbEntity
  8
姿図
100
AcDbCircle
 10
3149.437807851044
 20
-127.730944944613
 30
0.0
 40
3.954292400972742
100
AcDbArc
 50
33.59578748635621
 51
69.39470577445348
  0
ARC
  5
18619
330
18
100
AcDbEntity
  8
姿図
100
AcDbCircle
 10
3147.33629338173
 20
-134.1991995840045
 30
0.0
 40
10.75278458513335
100
AcDbArc
 50
71.04295375031776
 51
92.69225774055056
  0
ARC
  5
1861A
330
18
100
AcDbEntity
  8
姿図
100
AcDbCircle
 10
3146.886341101996
 20
-130.759721551986
 30
0.0
 40
7.301646032248016
100
AcDbArc
 50
90.4325434324148
 51
124.3684461405219
  0
ARC
  5
1861B
330
18
100
AcDbEntity
  8
姿図
100
AcDbCircle
 10
3143.911346521047
 20
-126.6320772428409
 30
0.0
 40
2.218719332907516
100
AcDbArc
 50
121.1251399641517
 51
174.1952847466578
  0
LINE
  5
1861C
330
18
100
AcDbEntity
  8
姿図
100
AcDbLine
 10
3153.065763250099
 20
-126.2726380054961
 30
0.0
 11
3153.021195910319
 21
-127.8114718417424
 31
0.0
  0
LINE
  5
1861D
330
18
100
AcDbEntity
  8
姿図
100
AcDbLine
 10
3141.768487414225
 20
-127.6725655917427
 30
0.0
 11
3141.704003918107
 21
-126.4076800248064
 31
0.0
  0
ARC
  5
1861E
330
18
100
AcDbEntity
  8
姿図
100
AcDbCircle
 10
3151.388275819507
 20
-121.4093600259672
 30
0.0
 40
6.23813699003056
100
AcDbArc
 50
285.7123076237769
 51
311.5945141074758
  0
ARC
  5
1861F
330
18
100
AcDbEntity
  8
姿図
100
AcDbCircle
 10
3143.22059091306
 20
-121.9677391226311
 30
0.0
 40
5.354064230733493
100
AcDbArc
 50
217.8962279342372
 51
254.2401560289717
  0
ARC
  5
18620
330
18
100
AcDbEntity
  8
姿図
100
AcDbCircle
 10
3149.675791390091
 20
-113.0070198612563
 30
0.0
 40
2.353176628855195
100
AcDbArc
 50
24.81417256257903
 51
33.2633590941855
  0
ARC
  5
18621
330
18
100
AcDbEntity
  8
姿図
100
AcDbCircle
 10
3143.225509600957
 20
-111.7171286334229
 30
0.0
 40
0.3363462650242364
100
AcDbArc
 50
157.0047897508197
 51
200.238491519499
  0
ARC
  5
18622
330
18
100
AcDbEntity
  8
姿図
100
AcDbCircle
 10
3162.062230674144
 20
-118.1495906102861
 30
0.0
 40
20.64606372466649
100
AcDbArc
 50
164.9003244817298
 51
183.4293730746027
  0
ARC
  5
18623
330
18
100
AcDbEntity
  8
姿図
100
AcDbCircle
 10
3149.751140269792
 20
-111.1581686381656
 30
0.0
 40
0.3170251650578048
100
AcDbArc
 50
59.73516729332581
 51
73.62991183405471
  0
ARC
  5
18624
330
18
100
AcDbEntity
  8
姿図
100
AcDbCircle
 10
3170.531753467587
 20
-110.5802557523076
 30
0.0
 40
20.62307542250036
100
AcDbArc
 50
178.95190729556
 51
182.4160770027973
  0
ARC
  5
18625
330
18
100
AcDbEntity
  8
姿図
100
AcDbCircle
 10
3090.176792953768
 20
-109.1041543353728
 30
0.0
 40
58.37609345540698
100
AcDbArc
 50
357.958597241784
 51
358.5388039584512
  0
ARC
  5
18626
330
18
100
AcDbEntity
  8
姿図
100
AcDbCircle
 10
3152.036015527932
 20
-110.9707615134458
 30
0.0
 40
4.007445133883937
100
AcDbArc
 50
174.1392337818267
 51
181.8592762369348
  0
ARC
  5
18627
330
18
100
AcDbEntity
  8
姿図
100
AcDbCircle
 10
3150.707850180782
 20
-110.7311274200762
 30
0.0
 40
4.061047289207732
100
AcDbArc
 50
176.9402153515003
 51
185.0132830992029
  0
ARC
  5
18628
330
18
100
AcDbEntity
  8
姿図
100
AcDbCircle
 10
3211.124208449578
 20
-112.0967972001396
 30
0.0
 40
64.961251727473
100
AcDbArc
 50
178.6041508399601
 51
179.1263384126918
  0
ARC
  5
18629
330
18
100
AcDbEntity
  8
姿図
100
AcDbCircle
 10
3136.90786057175
 20
-111.5083904350741
 30
0.0
 40
7.871366429208836
100
AcDbArc
 50
1.365722849775119
 51
5.341181684552114
  0
ARC
  5
1862A
330
18
100
AcDbEntity
  8
姿図
100
AcDbCircle
 10
3147.506330156784
 20
-111.1562057134576
 30
0.0
 40
3.297729771971056
100
AcDbArc
 50
174.7419248563001
 51
185.3614170438373
  0
ARC
  5
1862B
330
18
100
AcDbEntity
  8
姿図
100
AcDbCircle
 10
3146.527623583373
 20
-122.182192638215
 30
0.0
 40
10.96282618659023
100
AcDbArc
 50
102.1351952757638
 51
109.2685643810331
  0
ARC
  5
1862C
330
18
100
AcDbEntity
  8
姿図
100
AcDbCircle
 10
3146.29925790995
 20
-116.5766535898975
 30
0.0
 40
5.471879688903019
100
AcDbArc
 50
91.34825162537344
 51
106.1526956119195
  0
ARC
  5
1862D
330
18
100
AcDbEntity
  8
姿図
100
AcDbCircle
 10
3147.180956992058
 20
-126.4272396793718
 30
0.0
 40
15.34999435262498
100
AcDbArc
 50
86.82667943648595
 51
91.93617680841405
  0
ARC
  5
1862E
330
18
100
AcDbEntity
  8
姿図
100
AcDbCircle
 10
3148.334159215915
 20
-116.0231032594162
 30
0.0
 40
4.842904449114553
100
AcDbArc
 50
70.79771794573941
 51
87.85007887216375
  0
ARC
  5
1862F
330
18
100
AcDbEntity
  8
姿図
100
AcDbCircle
 10
3145.182930802817
 20
-111.4438277650439
 30
0.0
 40
5.222239874812963
100
AcDbArc
 50
358.7878634453281
 51
4.468807970965626
  0
ARC
  5
18630
330
18
100
AcDbEntity
  8
姿図
100
AcDbCircle
 10
3148.919764616167
 20
-118.4088449356474
 30
0.0
 40
7.013397636878466
100
AcDbArc
 50
65.64773604258193
 51
77.78217439901394
  0
ARC
  5
18631
330
18
100
AcDbEntity
  8
姿図
100
AcDbCircle
 10
3126.155093125309
 20
-121.5920431942096
 30
0.0
 40
27.58178528774918
100
AcDbArc
 50
4.59044348771045
 51
18.65099996680026
  0
ARC
  5
18632
330
18
100
AcDbEntity
  8
姿図
100
AcDbCircle
 10
3147.245359736567
 20
-135.9382831308909
 30
0.0
 40
17.33520475928148
100
AcDbArc
 50
71.35276458398913
 51
109.4717975942661
  0
ARC
  5
18633
330
18
100
AcDbEntity
  8
姿図
100
AcDbCircle
 10
3150.139925296052
 20
-125.8161959724877
 30
0.0
 40
10.67389565927747
100
AcDbArc
 50
144.3463591481277
 51
155.8581663282468
  0
ARC
  5
18634
330
18
100
AcDbEntity
  8
姿図
100
AcDbCircle
 10
3166.350786526253
 20
-133.1865223157607
 30
0.0
 40
28.48148714661508
100
AcDbArc
 50
155.6660590133419
 51
165.0660546530641
  0
ARC
  5
18635
330
18
100
AcDbEntity
  8
姿図
100
AcDbCircle
 10
3146.02649958744
 20
-125.8093343811867
 30
0.0
 40
9.239174097593345
100
AcDbArc
 50
28.27476313281548
 51
42.95884801493304
  0
ARC
  5
18636
330
18
100
AcDbEntity
  8
姿図
100
AcDbCircle
 10
3135.795665462675
 20
-129.3606069553695
 30
0.0
 40
20.0055389844919
100
AcDbArc
 50
8.503354659732954
 51
23.34607013286039
  0
ARC
  5
18637
330
18
100
AcDbEntity
  8
姿図
100
AcDbCircle
 10
3159.783575776215
 20
-131.1754540235562
 30
0.0
 40
1.89922636815973
100
AcDbArc
 50
174.9394242146409
 51
180.7612721143542
  0
ARC
  5
18638
330
18
100
AcDbEntity
  8
姿図
100
AcDbCircle
 10
3096.428991806188
 20
-131.9306338633847
 30
0.0
 40
61.46968647557878
100
AcDbArc
 50
0.8600872037795718
 51
6.11501545698667
  0
ARC
  5
18639
330
18
100
AcDbEntity
  8
姿図
100
AcDbCircle
 10
3157.638975068649
 20
-131.4455865603596
 30
0.0
 40
0.5054145232443293
100
AcDbArc
 50
10.76860951313722
 51
59.99080121585625
  0
ARC
  5
1863A
330
18
100
AcDbEntity
  8
姿図
100
AcDbCircle
 10
3152.528260571184
 20
-140.4193020139047
 30
0.0
 40
10.66172277543556
100
AcDbArc
 50
52.63587060393816
 51
70.78208324591263
  0
ARC
  5
1863B
330
18
100
AcDbEntity
  8
姿図
100
AcDbCircle
 10
3146.86294902052
 20
-155.1615443919619
 30
0.0
 40
26.58464639976069
100
AcDbArc
 50
76.605957899881
 51
100.9608874613386
  0
ARC
  5
1863C
330
18
100
AcDbEntity
  8
姿図
100
AcDbCircle
 10
3195.847519355787
 20
-131.8548175494958
 30
0.0
 40
59.34637850583563
100
AcDbArc
 50
173.1011023855524
 51
178.4510389818608
  0
ARC
  5
1863D
330
18
100
AcDbEntity
  8
姿図
100
AcDbCircle
 10
3138.342961599776
 20
-130.294554135926
 30
0.0
 40
1.820665326432491
100
AcDbArc
 50
178.6171177586085
 51
192.6231261899865
  0
ARC
  5
1863E
330
18
100
AcDbEntity
  8
姿図
100
AcDbCircle
 10
3140.255932987829
 20
-138.4965776463529
 30
0.0
 40
8.632379147507207
100
AcDbArc
 50
104.3475444510762
 51
115.3037709219212
  0
ARC
  5
1863F
330
18
100
AcDbEntity
  8
姿図
100
AcDbCircle
 10
3137.337907159242
 20
-133.0141014895886
 30
0.0
 40
2.446527445037582
100
AcDbArc
 50
108.3841773672833
 51
118.9609150739995
  0
ARC
  5
18640
330
18
100
AcDbEntity
  8
姿図
100
AcDbCircle
 10
3135.225671680325
 20
-129.9021003797203
 30
0.0
 40
1.343157947365103
100
AcDbArc
 50
313.67824270303
 51
344.9611396808181
  0
ARC
  5
18641
330
18
100
AcDbEntity
  8
姿図
100
AcDbCircle
 10
3142.247953293909
 20
-141.4034789866311
 30
0.0
 40
12.16656936040578
100
AcDbArc
 50
120.062018806845
 51
126.7889442656263
  0
ARC
  5
18642
330
18
100
AcDbEntity
  8
姿図
100
AcDbCircle
 10
3136.084886470456
 20
-133.5809027608512
 30
0.0
 40
2.174074389492293
100
AcDbArc
 50
124.5846265695646
 51
135.7229484199964
  0
LINE
  5
18643
330
18
100
AcDbEntity
  8
姿図
100
AcDbLine
 10
3133.1079307736
 20
-130.8793155917425
 30
0.0
 11
3133.038210232113
 21
-132.5441516324814
 31
0.0
  0
LINE
  5
18644
330
18
100
AcDbEntity
  8
姿図
100
AcDbLine
 10
3131.990704891703
 20
-130.8827786341
 30
0.0
 11
3131.315299262044
 21
-130.8525520163909
 31
0.0
  0
LINE
  5
18645
330
18
100
AcDbEntity
  8
姿図
100
AcDbLine
 10
3131.967625682486
 20
-131.5968317990852
 30
0.0
 11
3131.990704891703
 21
-130.8827786341
 31
0.0
  0
LINE
  5
18646
330
18
100
AcDbEntity
  8
姿図
100
AcDbLine
 10
3131.299950404385
 20
-131.5735677762065
 30
0.0
 11
3131.967625682486
 21
-131.5968317990852
 31
0.0
  0
LINE
  5
18647
330
18
100
AcDbEntity
  8
姿図
100
AcDbLine
 10
3131.323109484537
 20
-130.4856652011177
 30
0.0
 11
3131.270585558756
 21
-132.9529874667429
 31
0.0
  0
LINE
  5
18648
330
18
100
AcDbEntity
  8
姿図
100
AcDbLine
 10
3132.110534289225
 20
-130.4593722323676
 30
0.0
 11
3132.084241320475
 21
-133.0579112948677
 31
0.0
  0
ARC
  5
18649
330
18
100
AcDbEntity
  8
姿図
100
AcDbCircle
 10
3156.334132332363
 20
-137.7403790302393
 30
0.0
 40
5.369747723572417
100
AcDbArc
 50
23.51302691710436
 51
54.87259797794039
  0
ARC
  5
1864A
330
18
100
AcDbEntity
  8
姿図
100
AcDbCircle
 10
3149.027676523838
 20
-147.9268095733138
 30
0.0
 40
17.90544594868594
100
AcDbArc
 50
54.50611444873778
 51
66.66077417707014
  0
ARC
  5
1864B
330
18
100
AcDbEntity
  8
姿図
100
AcDbCircle
 10
3148.740015561185
 20
-148.0451117808262
 30
0.0
 40
18.12933376856992
100
AcDbArc
 50
65.97414726763579
 51
82.24955976118804
  0
ARC
  5
1864C
330
18
100
AcDbEntity
  8
姿図
100
AcDbCircle
 10
3146.745288177746
 20
-156.7128581915564
 30
0.0
 40
26.99898597568909
100
AcDbArc
 50
80.53548983358122
 51
101.9272810341566
  0
ARC
  5
1864D
330
18
100
AcDbEntity
  8
姿図
100
AcDbCircle
 10
3144.879369494544
 20
-148.8982446953811
 30
0.0
 40
18.96862403315867
100
AcDbArc
 50
101.2911751080621
 51
116.7488075270932
  0
ARC
  5
1864E
330
18
100
AcDbEntity
  8
姿図
100
AcDbCircle
 10
3139.357669612456
 20
-139.0276118986759
 30
0.0
 40
7.684584313784696
100
AcDbArc
 50
113.106063594081
 51
142.4422239073847
  0
ARC
  5
1864F
330
18
100
AcDbEntity
  8
姿図
100
AcDbCircle
 10
3157.808210274644
 20
-145.4304030501954
 30
0.0
 40
3.098683840935339
100
AcDbArc
 50
9.4719276507553
 51
44.14231619188512
  0
ARC
  5
18650
330
18
100
AcDbEntity
  8
姿図
100
AcDbCircle
 10
3153.655481735662
 20
-148.5952614303734
 30
0.0
 40
8.306122265047806
100
AcDbArc
 50
39.85466092805938
 51
66.39763958291408
  0
ARC
  5
18651
330
18
100
AcDbEntity
  8
姿図
100
AcDbCircle
 10
3156.997592585727
 20
-141.0891154961147
 30
0.0
 40
0.1064169349669472
100
AcDbArc
 50
98.89207980329883
 51
158.4095215871708
  0
LINE
  5
18652
330
18
100
AcDbEntity
  8
姿図
100
AcDbLine
 10
3160.676486950342
 20
-144.9108700260609
 30
0.0
 11
3160.864647741655
 21
-144.9204701562477
 31
0.0
  0
LINE
  5
18653
330
18
100
AcDbEntity
  8
姿図
100
AcDbLine
 10
3160.836647121206
 20
-146.2420940292101
 30
0.0
 11
3160.864647741655
 21
-144.9204701562477
 31
0.0
  0
LINE
  5
18654
330
18
100
AcDbEntity
  8
姿図
100
AcDbLine
 10
3160.676486950342
 20
-144.9108700260609
 30
0.0
 11
3160.655681904609
 21
-145.8667116804696
 31
0.0
  0
ARC
  5
18655
330
18
100
AcDbEntity
  8
姿図
100
AcDbCircle
 10
3158.705922760661
 20
-145.3170254701141
 30
0.0
 40
2.011985454815605
100
AcDbArc
 50
11.64621484543095
 51
34.90029506552606
  0
ARC
  5
18656
330
18
100
AcDbEntity
  8
姿図
100
AcDbCircle
 10
3154.828029034736
 20
-147.4808912688073
 30
0.0
 40
6.445804968387948
100
AcDbArc
 50
30.95011755230413
 51
71.262458438548
  0
ARC
  5
18657
330
18
100
AcDbEntity
  8
姿図
100
AcDbCircle
 10
3154.360368477484
 20
-149.1328826143955
 30
0.0
 40
7.092167772646583
100
AcDbArc
 50
24.05434525454768
 51
69.0289939190357
  0
LINE
  5
18658
330
18
100
AcDbEntity
  8
姿図
100
AcDbLine
 10
3156.898642113092
 20
-141.0499572528821
 30
0.0
 11
3156.898623233017
 21
-142.5104882957691
 31
0.0
  0
ARC
  5
18659
330
18
100
AcDbEntity
  8
姿図
100
AcDbCircle
 10
3138.686027938484
 20
-147.6263450556927
 30
0.0
 40
5.690408274763003
100
AcDbArc
 50
109.0089422507594
 51
132.6441520738918
  0
ARC
  5
1865A
330
18
100
AcDbEntity
  8
姿図
100
AcDbCircle
 10
3140.162218114699
 20
-149.8301252161483
 30
0.0
 40
8.321452490610396
100
AcDbArc
 50
129.8401163892011
 51
151.4081270048963
  0
LINE
  5
1865B
330
18
100
AcDbEntity
  8
姿図
100
AcDbLine
 10
3132.855559551589
 20
-144.6451145111365
 30
0.0
 11
3133.104775701928
 21
-144.6677602693727
 31
0.0
  0
ARC
  5
1865C
330
18
100
AcDbEntity
  8
姿図
100
AcDbCircle
 10
3138.686675160025
 20
-146.8765533335337
 30
0.0
 40
6.243494891248547
100
AcDbArc
 50
107.0981770184415
 51
159.0592581893388
  0
ARC
  5
1865D
330
18
100
AcDbEntity
  8
姿図
100
AcDbCircle
 10
3138.936331432638
 20
-147.4012715677851
 30
0.0
 40
6.440429043078867
100
AcDbArc
 50
108.9438959803135
 51
154.8854103977327
  0
LINE
  5
1865E
330
18
100
AcDbEntity
  8
姿図
100
AcDbLine
 10
3133.104775701928
 20
-144.6677602693727
 30
0.0
 11
3133.116086332572
 21
-145.4030947822804
 31
0.0
  0
LINE
  5
1865F
330
18
100
AcDbEntity
  8
姿図
100
AcDbLine
 10
3132.855559551589
 20
-144.6451145111365
 30
0.0
 11
3132.855559551589
 21
-145.8477500209134
 31
0.0
  0
LINE
  5
18660
330
18
100
AcDbEntity
  8
姿図
100
AcDbLine
 10
3136.851025760317
 20
-140.9090061206158
 30
0.0
 11
3136.832572514727
 21
-142.2462475356066
 31
0.0
  0
LINE
  5
18661
330
18
100
AcDbEntity
  8
姿図
100
AcDbLine
 10
3155.200868559262
 20
-140.3860318306994
 30
0.0
 11
3155.194970076563
 21
-141.7287283065717
 31
0.0
  0
LINE
  5
18662
330
18
100
AcDbEntity
  8
姿図
100
AcDbLine
 10
3155.328340205859
 20
-140.4335535964439
 30
0.0
 11
3155.352930084679
 21
-141.7881205850209
 31
0.0
  0
ARC
  5
18663
330
18
100
AcDbEntity
  8
姿図
100
AcDbCircle
 10
3147.829856134129
 20
-161.5567748528748
 30
0.0
 40
21.15174539434977
100
AcDbArc
 50
69.16539260965737
 51
86.95759899233144
  0
ARC
  5
18664
330
18
100
AcDbEntity
  8
姿図
100
AcDbCircle
 10
3147.729503193681
 20
-160.6218311504828
 30
0.0
 40
21.57101932075856
100
AcDbArc
 50
69.37373870163049
 51
86.60023055440318
  0
ARC
  5
18665
330
18
100
AcDbEntity
  8
姿図
100
AcDbCircle
 10
3148.984210021591
 20
-139.1408192564633
 30
0.0
 40
0.05752461702122
100
AcDbArc
 50
64.78605873796106
 51
201.0373661889552
  0
ARC
  5
18666
330
18
100
AcDbEntity
  8
姿図
100
AcDbCircle
 10
3145.842154202951
 20
-159.0247675659717
 30
0.0
 40
19.98643454519643
100
AcDbArc
 50
92.82796783640627
 51
99.69259792309352
  0
ARC
  5
18667
330
18
100
AcDbEntity
  8
姿図
100
AcDbCircle
 10
3145.680628635678
 20
-162.4585153405511
 30
0.0
 40
23.35561321167296
100
AcDbArc
 50
97.8834796779995
 51
103.259381772706
  0
ARC
  5
18668
330
18
100
AcDbEntity
  8
姿図
100
AcDbCircle
 10
3143.290645047867
 20
-154.1134815766378
 30
0.0
 40
14.69066322907383
100
AcDbArc
 50
101.6513119512676
 51
109.1305283859199
  0
ARC
  5
18669
330
18
100
AcDbEntity
  8
姿図
100
AcDbCircle
 10
3139.444794975793
 20
-100.584657531867
 30
0.0
 40
40.13533750000914
100
AcDbArc
 50
274.7050686475696
 51
277.7010870989286
  0
ARC
  5
1866A
330
18
100
AcDbEntity
  8
姿図
100
AcDbCircle
 10
3146.354690790876
 20
-166.2076606742825
 30
0.0
 40
25.87705149707777
100
AcDbArc
 50
98.03653202735242
 51
104.0295974476215
  0
ARC
  5
1866B
330
18
100
AcDbEntity
  8
姿図
100
AcDbCircle
 10
3142.826507281286
 20
-154.4524860128141
 30
0.0
 40
13.62927251268403
100
AcDbArc
 50
101.6191646447263
 51
108.7268299157164
  0
LINE
  5
1866C
330
18
100
AcDbEntity
  8
姿図
100
AcDbLine
 10
3138.612494482479
 20
-140.1875886645972
 30
0.0
 11
3138.586530384422
 21
-141.493848450105
 31
0.0
  0
LINE
  5
1866D
330
18
100
AcDbEntity
  8
姿図
100
AcDbLine
 10
3138.476201194411
 20
-140.2341186052332
 30
0.0
 11
3138.450740670099
 21
-141.5447466371758
 31
0.0
  0
LINE
  5
1866E
330
18
100
AcDbEntity
  8
姿図
100
AcDbLine
 10
3148.930519620845
 20
-139.161469254797
 30
0.0
 11
3148.95248427722
 21
-140.4348421932024
 31
0.0
  0
LINE
  5
1866F
330
18
100
AcDbEntity
  8
姿図
100
AcDbLine
 10
3144.856077245519
 20
-139.0626730350001
 30
0.0
 11
3144.823130386616
 21
-140.3580006708131
 31
0.0
  0
ARC
  5
18670
330
18
100
AcDbEntity
  8
姿図
100
AcDbCircle
 10
3157.8697579677
 20
-144.2086970920478
 30
0.0
 40
3.270845033596017
100
AcDbArc
 50
355.347082042647
 51
48.80510402841281
  0
ARC
  5
18671
330
18
100
AcDbEntity
  8
姿図
100
AcDbCircle
 10
3151.354471207354
 20
-150.2206088259869
 30
0.0
 40
12.12249718714882
100
AcDbArc
 50
44.34359490364466
 51
79.22366257854155
  0
ARC
  5
18672
330
18
100
AcDbEntity
  8
姿図
100
AcDbCircle
 10
3146.872120533406
 20
-163.3198565920294
 30
0.0
 40
25.90263536002879
100
AcDbArc
 50
74.89723041579188
 51
103.6002725992903
  0
ARC
  5
18673
330
18
100
AcDbEntity
  8
姿図
100
AcDbCircle
 10
3143.1590993665
 20
-151.6815788402802
 30
0.0
 40
13.74529216795379
100
AcDbArc
 50
99.96213688778852
 51
131.4432276129799
  0
ARC
  5
18674
330
18
100
AcDbEntity
  8
姿図
100
AcDbCircle
 10
3137.4211557822
 20
-144.8614619999058
 30
0.0
 40
4.83971780337326
100
AcDbArc
 50
133.9639200721353
 51
170.8405462653718
  0
ARC
  5
18675
330
18
100
AcDbEntity
  8
姿図
100
AcDbCircle
 10
3146.625248700403
 20
-182.4659689803385
 30
0.0
 40
36.78910288174948
100
AcDbArc
 50
86.04057786561219
 51
94.08972909081169
  0
ARC
  5
18676
330
18
100
AcDbEntity
  8
姿図
100
AcDbCircle
 10
3154.633315413826
 20
-156.5735000994151
 30
0.0
 40
10.04024401412024
100
AcDbArc
 50
56.13483083250505
 51
68.39505492549313
  0
ARC
  5
18677
330
18
100
AcDbEntity
  8
姿図
100
AcDbCircle
 10
3148.204773563515
 20
-171.2223547771281
 30
0.0
 40
26.03349063872002
100
AcDbArc
 50
67.11157932919326
 51
82.27270771509374
  0
ARC
  5
18678
330
18
100
AcDbEntity
  8
姿図
100
AcDbCircle
 10
3146.619052875247
 20
-182.8778695471457
 30
0.0
 40
37.7963781601366
100
AcDbArc
 50
82.26642964453974
 51
95.15078153009281
  0
ARC
  5
18679
330
18
100
AcDbEntity
  8
姿図
100
AcDbCircle
 10
3145.145179898405
 20
-172.8156365545514
 30
0.0
 40
27.64822228658136
100
AcDbArc
 50
93.98074746305326
 51
107.8070272858377
  0
ARC
  5
1867A
330
18
100
AcDbEntity
  8
姿図
100
AcDbCircle
 10
3141.094379109821
 20
-160.6025829111123
 30
0.0
 40
14.78199121542972
100
AcDbArc
 50
107.334782097976
 51
120.9193392715525
  0
ARC
  5
1867B
330
18
100
AcDbEntity
  8
姿図
100
AcDbCircle
 10
3157.271832500255
 20
-147.8369081299512
 30
0.0
 40
3.541557972086268
100
AcDbArc
 50
4.009409755519522
 51
37.93819005737733
  0
ARC
  5
1867C
330
18
100
AcDbEntity
  8
姿図
100
AcDbCircle
 10
3149.87666609869
 20
-155.4389154103025
 30
0.0
 40
14.12225554600108
100
AcDbArc
 50
43.82683793536584
 51
81.83462171419774
  0
ARC
  5
1867D
330
18
100
AcDbEntity
  8
姿図
100
AcDbCircle
 10
3146.970491242537
 20
-164.817365711178
 30
0.0
 40
23.86843151733634
100
AcDbArc
 50
78.12404047176967
 51
94.74995000107518
  0
ARC
  5
1867E
330
18
100
AcDbEntity
  8
姿図
100
AcDbCircle
 10
3145.238215196758
 20
-160.5070335546385
 30
0.0
 40
19.47765596462921
100
AcDbArc
 50
90.7183767634397
 51
112.124256567402
  0
ARC
  5
1867F
330
18
100
AcDbEntity
  8
姿図
100
AcDbCircle
 10
3141.340236247326
 20
-152.5446785225009
 30
0.0
 40
10.65114100617826
100
AcDbArc
 50
108.829153338785
 51
134.9849815097627
  0
ARC
  5
18680
330
18
100
AcDbEntity
  8
姿図
100
AcDbCircle
 10
3136.894042567998
 20
-147.871035620166
 30
0.0
 40
4.205412943753292
100
AcDbArc
 50
137.1536766609942
 51
186.3238021850829
  0
LINE
  5
18681
330
18
100
AcDbEntity
  8
姿図
100
AcDbLine
 10
3160.225377396791
 20
-148.0876684478031
 30
0.0
 11
3160.230913233102
 21
-148.3854745799205
 31
0.0
  0
ARC
  5
18682
330
18
100
AcDbEntity
  8
姿図
100
AcDbCircle
 10
3157.869332930713
 20
-147.8687373658328
 30
0.0
 40
2.366194485834573
100
AcDbArc
 50
354.6911406082323
 51
39.74457932271409
  0
ARC
  5
18683
330
18
100
AcDbEntity
  8
姿図
100
AcDbCircle
 10
3152.206549011613
 20
-151.7334939709559
 30
0.0
 40
9.214199751715508
100
AcDbArc
 50
35.70579080944567
 51
59.4389170434013
  0
ARC
  5
18684
330
18
100
AcDbEntity
  8
姿図
100
AcDbCircle
 10
3149.271732529678
 20
-156.9168625451858
 30
0.0
 40
15.1701482379715
100
AcDbArc
 50
59.84827434686328
 51
82.10167315234378
  0
ARC
  5
18685
330
18
100
AcDbEntity
  8
姿図
100
AcDbCircle
 10
3146.532808029046
 20
-169.8341373439526
 30
0.0
 40
28.35676898832303
100
AcDbArc
 50
80.20625711297684
 51
96.4259007215808
  0
ARC
  5
18686
330
18
100
AcDbEntity
  8
姿図
100
AcDbCircle
 10
3144.36790873537
 20
-157.540992721155
 30
0.0
 40
15.91746646332639
100
AcDbArc
 50
93.63344175986113
 51
121.9914343462351
  0
ARC
  5
18687
330
18
100
AcDbEntity
  8
姿図
100
AcDbCircle
 10
3138.745718669354
 20
-149.1084334361418
 30
0.0
 40
5.794802346187666
100
AcDbArc
 50
119.015692092422
 51
147.9017269466949
  0
ARC
  5
18688
330
18
100
AcDbEntity
  8
姿図
100
AcDbCircle
 10
3135.583561787919
 20
-147.3172565537621
 30
0.0
 40
2.170359004562714
100
AcDbArc
 50
143.5969539955275
 51
199.2391027668002
  0
LINE
  5
18689
330
18
100
AcDbEntity
  8
姿図
100
AcDbLine
 10
3131.283558042153
 20
-150.4293534434324
 30
0.0
 11
3131.868261660038
 21
-150.0252317713326
 31
0.0
  0
LINE
  5
1868A
330
18
100
AcDbEntity
  8
姿図
100
AcDbLine
 10
3131.231893760621
 20
-150.8240332357265
 30
0.0
 11
3131.815119896822
 21
-150.4318571276091
 31
0.0
  0
LINE
  5
1868B
330
18
100
AcDbEntity
  8
姿図
100
AcDbLine
 10
3161.937177801584
 20
-150.7261536286056
 30
0.0
 11
3161.45392163688
 21
-150.4587360409301
 31
0.0
  0
ARC
  5
1868C
330
18
100
AcDbEntity
  8
姿図
100
AcDbCircle
 10
3160.657203981659
 20
-152.3864666965011
 30
0.0
 40
1.300324703262524
100
AcDbArc
 50
335.5055713375761
 51
2.732481191940487
  0
ARC
  5
1868D
330
18
100
AcDbEntity
  8
姿図
100
AcDbCircle
 10
3160.606337140749
 20
-152.3244766842378
 30
0.0
 40
1.34971308750572
100
AcDbArc
 50
0.0
 51
46.24047802661434
  0
ARC
  5
1868E
330
18
100
AcDbEntity
  8
姿図
100
AcDbCircle
 10
3161.127240061534
 20
-152.4913577680396
 30
0.0
 40
1.017275177931906
100
AcDbArc
 50
315.7091229369686
 51
18.31062691736114
  0
ARC
  5
1868F
330
18
100
AcDbEntity
  8
姿図
100
AcDbCircle
 10
3160.630929971741
 20
-152.3869784881764
 30
0.0
 40
1.477832762554764
100
AcDbArc
 50
8.373754848851869
 51
52.6983635327323
  0
LINE
  5
18690
330
18
100
AcDbEntity
  8
姿図
100
AcDbLine
 10
3163.476558113653
 20
-154.6908336073449
 30
0.0
 11
3163.498108130452
 21
-155.3264271804825
 31
0.0
  0
LINE
  5
18691
330
18
100
AcDbEntity
  8
姿図
100
AcDbLine
 10
3163.773827360509
 20
-154.036863069996
 30
0.0
 11
3163.476558113653
 21
-154.6908336073449
 31
0.0
  0
ARC
  5
18692
330
18
100
AcDbEntity
  8
姿図
100
AcDbCircle
 10
3162.398781331505
 20
-153.5358707254387
 30
0.0
 40
1.46347016067377
100
AcDbArc
 50
339.9809974842931
 51
7.868623721159495
  0
ARC
  5
18693
330
18
100
AcDbEntity
  8
姿図
100
AcDbCircle
 10
3163.29367564854
 20
-153.3644296263452
 30
0.0
 40
0.5555494422758752
100
AcDbArc
 50
2.98304574079095
 51
50.01933376896019
  0
LINE
  5
18694
330
18
100
AcDbEntity
  8
姿図
100
AcDbLine
 10
3161.968827054393
 20
-150.7909512144839
 30
0.0
 11
3163.65063232094
 21
-152.9387335882594
 31
0.0
  0
ARC
  5
18695
330
18
100
AcDbEntity
  8
姿図
100
AcDbCircle
 10
3162.302695874424
 20
-150.5877507451879
 30
0.0
 40
0.3908437279925873
100
AcDbArc
 50
158.294722687152
 51
211.3256838175387
  0
LINE
  5
18696
330
18
100
AcDbEntity
  8
姿図
100
AcDbLine
 10
3161.93956354851
 20
-150.4432040967068
 30
0.0
 11
3161.413480800682
 21
-150.0394101396856
 31
0.0
  0
LINE
  5
18697
330
18
100
AcDbEntity
  8
姿図
100
AcDbLine
 10
3162.165692004069
 20
-149.9573448886177
 30
0.0
 11
3161.93956354851
 21
-150.4432040967068
 31
0.0
  0
LINE
  5
18698
330
18
100
AcDbEntity
  8
姿図
100
AcDbLine
 10
3161.336347277506
 20
-147.1294864901803
 30
0.0
 11
3160.518180191596
 21
-148.6155840217158
 31
0.0
  0
LINE
  5
18699
330
18
100
AcDbEntity
  8
姿図
100
AcDbLine
 10
3160.924235577186
 20
-147.3666339605539
 30
0.0
 11
3160.311166949098
 21
-148.5087554007079
 31
0.0
  0
ARC
  5
1869A
330
18
100
AcDbEntity
  8
姿図
100
AcDbCircle
 10
3161.300316441057
 20
-147.507852364358
 30
0.0
 40
0.401720616527179
100
AcDbArc
 50
119.0435180761533
 51
159.4188376883695
  0
LINE
  5
1869B
330
18
100
AcDbEntity
  8
姿図
100
AcDbLine
 10
3163.375664660318
 20
-145.6475304354923
 30
0.0
 11
3163.309852826489
 21
-151.3970198090989
 31
0.0
  0
LINE
  5
1869C
330
18
100
AcDbEntity
  8
姿図
100
AcDbLine
 10
3165.083281475098
 20
-155.3615970736352
 30
0.0
 11
3165.088800402506
 21
-156.3745655917425
 31
0.0
  0
LINE
  5
1869D
330
18
100
AcDbEntity
  8
姿図
100
AcDbLine
 10
3165.260730324237
 20
-155.044972932035
 30
0.0
 11
3165.083281475098
 21
-155.3615970736352
 31
0.0
  0
LINE
  5
1869E
330
18
100
AcDbEntity
  8
姿図
100
AcDbLine
 10
3164.762872989536
 20
-154.4922586062145
 30
0.0
 11
3165.083281475098
 21
-155.3615970736352
 31
0.0
  0
LINE
  5
1869F
330
18
100
AcDbEntity
  8
姿図
100
AcDbLine
 10
3163.947253825295
 20
-151.3272246488774
 30
0.0
 11
3163.891263845316
 21
-155.5541882841541
 31
0.0
  0
LINE
  5
186A0
330
18
100
AcDbEntity
  8
姿図
100
AcDbLine
 10
3164.437061544402
 20
-151.4791289718934
 30
0.0
 11
3164.257340961512
 21
-141.2403449814602
 31
0.0
  0
ARC
  5
186A1
330
18
100
AcDbEntity
  8
姿図
100
AcDbCircle
 10
3164.345772168253
 20
-151.4791289718934
 30
0.0
 40
0.0912893761486698
100
AcDbArc
 50
236.6032503128488
 51
1.861606254971562
  0
LINE
  5
186A2
330
18
100
AcDbEntity
  8
姿図
100
AcDbLine
 10
3163.947253825295
 20
-151.3272246488774
 30
0.0
 11
3164.295523448437
 21
-151.555344563175
 31
0.0
  0
LINE
  5
186A3
330
18
100
AcDbEntity
  8
姿図
100
AcDbLine
 10
3163.171770129068
 20
-151.4121398104927
 30
0.0
 11
3163.947253825295
 21
-151.3272246488774
 31
0.0
  0
LINE
  5
186A4
330
18
100
AcDbEntity
  8
姿図
100
AcDbLine
 10
3164.504184793815
 20
-141.437392955305
 30
0.0
 11
3164.51138336645
 21
-141.5774491993399
 31
0.0
  0
ARC
  5
186A5
330
18
100
AcDbEntity
  8
姿図
100
AcDbCircle
 10
3164.609216499309
 20
-141.5816868004455
 30
0.0
 40
0.0979248648104742
100
AcDbArc
 50
177.5198076457987
 51
256.194111574417
  0
ARC
  5
186A6
330
18
100
AcDbEntity
  8
姿図
100
AcDbCircle
 10
3164.16931820105
 20
-141.6037476843472
 30
0.0
 40
0.3739111269068246
100
AcDbArc
 50
26.41722648469262
 51
85.03314972789963
  0
LINE
  5
186A7
330
18
100
AcDbEntity
  8
姿図
100
AcDbLine
 10
3163.470924249261
 20
-141.2101646749785
 30
0.0
 11
3164.201691186342
 21
-141.2312406097191
 31
0.0
  0
LINE
  5
186A8
330
18
100
AcDbEntity
  8
姿図
100
AcDbLine
 10
3164.787579552396
 20
-141.670853646153
 30
0.0
 11
3165.034354113443
 21
-141.5144493808053
 31
0.0
  0
LINE
  5
186A9
330
18
100
AcDbEntity
  8
姿図
100
AcDbLine
 10
3164.585848369375
 20
-141.6767825924218
 30
0.0
 11
3164.787579552396
 21
-141.670853646153
 31
0.0
  0
LINE
  5
186AA
330
18
100
AcDbEntity
  8
姿図
100
AcDbLine
 10
3164.787579552396
 20
-141.670853646153
 30
0.0
 11
3164.787579552396
 21
-141.670853646153
 31
0.0
  0
LINE
  5
186AB
330
18
100
AcDbEntity
  8
姿図
100
AcDbLine
 10
3164.762872989536
 20
-154.4922586062145
 30
0.0
 11
3164.585848369375
 21
-141.6767825924218
 31
0.0
  0
LINE
  5
186AC
330
18
100
AcDbEntity
  8
姿図
100
AcDbLine
 10
3165.020300813028
 20
-154.4922357963084
 30
0.0
 11
3164.762872989536
 21
-154.4922586062145
 31
0.0
  0
LINE
  5
186AD
330
18
100
AcDbEntity
  8
姿図
100
AcDbLine
 10
3165.020300813028
 20
-154.4922357963084
 30
0.0
 11
3164.787579552396
 21
-141.670853646153
 31
0.0
  0
LINE
  5
186AE
330
18
100
AcDbEntity
  8
姿図
100
AcDbLine
 10
3165.260730324237
 20
-155.044972932035
 30
0.0
 11
3165.020300813028
 21
-154.4922357963084
 31
0.0
  0
LINE
  5
186AF
330
18
100
AcDbEntity
  8
姿図
100
AcDbLine
 10
3165.174500597818
 20
-146.0848370761174
 30
0.0
 11
3165.260730324237
 21
-155.044972932035
 31
0.0
  0
LINE
  5
186B0
330
18
100
AcDbEntity
  8
姿図
100
AcDbLine
 10
3128.517017199381
 20
-146.0840929354928
 30
0.0
 11
3128.355277988251
 21
-152.5078863986834
 31
0.0
  0
LINE
  5
186B1
330
18
100
AcDbEntity
  8
姿図
100
AcDbLine
 10
3165.129604113443
 20
-142.3301515292425
 30
0.0
 11
3165.174500597818
 21
-146.0848370761174
 31
0.0
  0
LINE
  5
186B2
330
18
100
AcDbEntity
  8
姿図
100
AcDbLine
 10
3128.593291613443
 20
-142.6121808261174
 30
0.0
 11
3128.527683215006
 21
-144.7114015292428
 31
0.0
  0
LINE
  5
186B3
330
18
100
AcDbEntity
  8
姿図
100
AcDbLine
 10
3128.166633062853
 20
-153.7149752167417
 30
0.0
 11
3128.35658460345
 21
-153.1230884618614
 31
0.0
  0
LINE
  5
186B4
330
18
100
AcDbEntity
  8
姿図
100
AcDbLine
 10
3128.307635666664
 20
-152.5788502970923
 30
0.0
 11
3128.355277988251
 21
-152.5078863986834
 31
0.0
  0
LINE
  5
186B5
330
18
100
AcDbEntity
  8
姿図
100
AcDbLine
 10
3128.301323250058
 20
-152.6860118869691
 30
0.0
 11
3128.307635666664
 21
-152.5788502970923
 31
0.0
  0
LINE
  5
186B6
330
18
100
AcDbEntity
  8
姿図
100
AcDbLine
 10
3128.35658460345
 20
-153.1230884618614
 30
0.0
 11
3128.301323250058
 21
-152.6860118869691
 31
0.0
  0
LINE
  5
186B7
330
18
100
AcDbEntity
  8
姿図
100
AcDbLine
 10
3129.56973793832
 20
-154.3601094329421
 30
0.0
 11
3129.569326323193
 21
-155.227664148853
 31
0.0
  0
LINE
  5
186B8
330
18
100
AcDbEntity
  8
姿図
100
AcDbLine
 10
3129.571259983
 20
-151.1521198438514
 30
0.0
 11
3129.570349940422
 21
-153.0702022468996
 31
0.0
  0
LINE
  5
186B9
330
18
100
AcDbEntity
  8
姿図
100
AcDbLine
 10
3128.679769657934
 20
-141.6173276491501
 30
0.0
 11
3129.189864812091
 21
-141.6164930782867
 31
0.0
  0
LINE
  5
186BA
330
18
100
AcDbEntity
  8
姿図
100
AcDbLine
 10
3129.48715281837
 20
-141.2287018671865
 30
0.0
 11
3130.246852365739
 21
-141.0972035741657
 31
0.0
  0
LINE
  5
186BB
330
18
100
AcDbEntity
  8
姿図
100
AcDbLine
 10
3129.189864812091
 20
-141.6164930782867
 30
0.0
 11
3129.48715281837
 21
-141.2287018671865
 31
0.0
  0
LINE
  5
186BC
330
18
100
AcDbEntity
  8
姿図
100
AcDbLine
 10
3129.192884427711
 20
-151.3263904580314
 30
0.0
 11
3129.48715281837
 21
-141.2287018671865
 31
0.0
  0
LINE
  5
186BD
330
18
100
AcDbEntity
  8
姿図
100
AcDbLine
 10
3129.571259983
 20
-151.1521198438514
 30
0.0
 11
3130.204288407544
 21
-151.257150169066
 31
0.0
  0
LINE
  5
186BE
330
18
100
AcDbEntity
  8
姿図
100
AcDbLine
 10
3129.385781695706
 20
-151.1706592466259
 30
0.0
 11
3129.571259983
 21
-151.1521198438514
 31
0.0
  0
LINE
  5
186BF
330
18
100
AcDbEntity
  8
姿図
100
AcDbLine
 10
3129.192884427711
 20
-151.3263904580314
 30
0.0
 11
3129.385781695706
 21
-151.1706592466259
 31
0.0
  0
LINE
  5
186C0
330
18
100
AcDbEntity
  8
姿図
100
AcDbLine
 10
3130.457141820348
 20
-151.335432467679
 30
0.0
 11
3130.453262688671
 21
-152.0297259246128
 31
0.0
  0
LINE
  5
186C1
330
18
100
AcDbEntity
  8
姿図
100
AcDbLine
 10
3130.204288407544
 20
-151.257150169066
 30
0.0
 11
3130.457141820348
 21
-151.335432467679
 31
0.0
  0
LINE
  5
186C2
330
18
100
AcDbEntity
  8
姿図
100
AcDbLine
 10
3130.168203234537
 20
-145.0007482089301
 30
0.0
 11
3130.204288407544
 21
-151.257150169066
 31
0.0
  0
LINE
  5
186C3
330
18
100
AcDbEntity
  8
姿図
100
AcDbLine
 10
3130.35957777181
 20
-148.318480214965
 30
0.0
 11
3130.719712205454
 21
-148.0479113479543
 31
0.0
  0
ARC
  5
186C4
330
18
100
AcDbEntity
  8
姿図
100
AcDbCircle
 10
3130.887293589535
 20
-148.5447235319876
 30
0.0
 40
0.5741689845109768
100
AcDbArc
 50
156.7941273154083
 51
207.5593620771012
  0
LINE
  5
186C5
330
18
100
AcDbEntity
  8
姿図
100
AcDbLine
 10
3130.378274436497
 20
-148.8103727830963
 30
0.0
 11
3131.239897698124
 21
-150.2982283692473
 31
0.0
  0
ARC
  5
186C6
330
18
100
AcDbEntity
  8
姿図
100
AcDbCircle
 10
3130.693838361691
 20
-150.5528794652129
 30
0.0
 40
0.6025180325782685
100
AcDbArc
 50
333.2541164958415
 51
25.00167590419462
  0
LINE
  5
186C7
330
18
100
AcDbEntity
  8
姿図
100
AcDbLine
 10
3130.548167335272
 20
-151.9374556189092
 30
0.0
 11
3131.231893760621
 21
-150.8240332357265
 31
0.0
  0
ARC
  5
186C8
330
18
100
AcDbEntity
  8
姿図
100
AcDbCircle
 10
3127.00438297928
 20
-149.7640451750468
 30
0.0
 40
4.157176989167163
100
AcDbArc
 50
310.48643226142
 51
328.479122477344
  0
ARC
  5
186C9
330
18
100
AcDbEntity
  8
姿図
100
AcDbCircle
 10
3130.224938726885
 20
-153.5403259874416
 30
0.0
 40
0.8059173721818391
100
AcDbArc
 50
130.316294996619
 51
179.4608858840927
  0
ARC
  5
186CA
330
18
100
AcDbEntity
  8
姿図
100
AcDbCircle
 10
3132.408948894253
 20
-153.4156248313481
 30
0.0
 40
2.992184822990797
100
AcDbArc
 50
182.2432068658968
 51
215.2678058197685
  0
ARC
  5
186CB
330
18
100
AcDbEntity
  8
姿図
100
AcDbCircle
 10
3132.736950113779
 20
-152.4239395520309
 30
0.0
 40
1.681899462714203
100
AcDbArc
 50
126.7373714880059
 51
170.758781273488
  0
ARC
  5
186CC
330
18
100
AcDbEntity
  8
姿図
100
AcDbCircle
 10
3133.009342330063
 20
-152.1864851170882
 30
0.0
 40
1.932737988582935
100
AcDbArc
 50
179.0322273053239
 51
212.0901701310436
  0
ARC
  5
186CD
330
18
100
AcDbEntity
  8
姿図
100
AcDbCircle
 10
3132.535941265375
 20
-152.2540267502656
 30
0.0
 40
1.289209111054253
100
AcDbArc
 50
130.0785474406308
 51
171.8327998775875
  0
ARC
  5
186CE
330
18
100
AcDbEntity
  8
姿図
100
AcDbCircle
 10
3132.330119592029
 20
-152.2931068865397
 30
0.0
 40
1.093139033588491
100
AcDbArc
 50
168.2703751251378
 51
210.7658796790982
  0
ELLIPSE
  5
186CF
330
18
100
AcDbEntity
  8
姿図
100
AcDbEllipse
 10
3146.450810394021
 20
-151.2490399488835
 30
0.0
 11
0.4335286067598152
 21
-0.008685463249465578
 31
0.0
210
0.0
220
0.0
230
1.0
 40
0.6207444020835624
 41
0.0
 42
6.283185307179586
  0
ELLIPSE
  5
186D0
330
18
100
AcDbEntity
  8
姿図
100
AcDbEllipse
 10
3146.454538105106
 20
-151.0687425502311
 30
0.0
 11
-0.5161332283555157
 21
0.0
 31
0.0
210
0.0
220
0.0
230
1.0
 40
0.8782894644009034
 41
0.0
 42
6.283185307179586
  0
LINE
  5
186D1
330
18
100
AcDbEntity
  8
姿図
100
AcDbLine
 10
3149.150767010317
 20
-151.6549455738146
 30
0.0
 11
3149.165534934858
 21
-145.7646742253716
 31
0.0
  0
LINE
  5
186D2
330
18
100
AcDbEntity
  8
姿図
100
AcDbLine
 10
3148.97753816499
 20
-145.9760748044611
 30
0.0
 11
3148.855252634489
 21
-151.6447026837205
 31
0.0
  0
LINE
  5
186D3
330
18
100
AcDbEntity
  8
姿図
100
AcDbLine
 10
3144.006709431153
 20
-151.6264278544342
 30
0.0
 11
3144.001499887709
 21
-145.7705464727311
 31
0.0
  0
LINE
  5
186D4
330
18
100
AcDbEntity
  8
姿図
100
AcDbLine
 10
3144.212996128151
 20
-145.964330309742
 30
0.0
 11
3144.264666413899
 21
-151.6189847798584
 31
0.0
  0
ARC
  5
186D5
330
18
100
AcDbEntity
  8
姿図
100
AcDbCircle
 10
3148.888208219633
 20
-170.8982341879333
 30
0.0
 40
25.13508994411331
100
AcDbArc
 50
60.36132191100526
 51
89.36781715225317
  0
ARC
  5
186D6
330
18
100
AcDbEntity
  8
姿図
100
AcDbCircle
 10
3144.536131273684
 20
-172.3105620047287
 30
0.0
 40
26.54539988693985
100
AcDbArc
 50
91.15403020510966
 51
118.1443348443558
  0
LINE
  5
186D7
330
18
100
AcDbEntity
  8
姿図
100
AcDbLine
 10
3148.97753816499
 20
-145.9760748044611
 30
0.0
 11
3149.165534934858
 21
-145.7646742253716
 31
0.0
  0
LINE
  5
186D8
330
18
100
AcDbEntity
  8
姿図
100
AcDbLine
 10
3144.001499887709
 20
-145.7705464727311
 30
0.0
 11
3144.212996128151
 21
-145.964330309742
 31
0.0
  0
ARC
  5
186D9
330
18
100
AcDbEntity
  8
姿図
100
AcDbCircle
 10
3145.975665063381
 20
-397.3322442671939
 30
0.0
 40
251.3740940691706
100
AcDbArc
 50
89.31576581817518
 51
90.4017689997036
  0
LINE
  5
186DA
330
18
100
AcDbEntity
  8
姿図
100
AcDbLine
 10
3161.617013561101
 20
-152.1498155174719
 30
0.0
 11
3161.318231957182
 21
-149.0517869622942
 31
0.0
  0
LINE
  5
186DB
330
18
100
AcDbEntity
  8
姿図
100
AcDbLine
 10
3161.822663835755
 20
-152.5951893585822
 30
0.0
 11
3161.617013561101
 21
-152.1498155174719
 31
0.0
  0
LINE
  5
186DC
330
18
100
AcDbEntity
  8
姿図
100
AcDbLine
 10
3161.924518750352
 20
-154.4817939101468
 30
0.0
 11
3161.822663835755
 21
-152.5951893585822
 31
0.0
  0
LINE
  5
186DD
330
18
100
AcDbEntity
  8
姿図
100
AcDbLine
 10
3131.591447924833
 20
-152.1433301724256
 30
0.0
 11
3132.0148169192
 21
-148.9038334423318
 31
0.0
  0
LINE
  5
186DE
330
18
100
AcDbEntity
  8
姿図
100
AcDbLine
 10
3131.407193316977
 20
-152.5400063306785
 30
0.0
 11
3131.591447924833
 21
-152.1433301724256
 31
0.0
  0
LINE
  5
186DF
330
18
100
AcDbEntity
  8
姿図
100
AcDbLine
 10
3131.307726400367
 20
-154.4375050832856
 30
0.0
 11
3131.407193316977
 21
-152.5400063306785
 31
0.0
  0
ARC
  5
186E0
330
18
100
AcDbEntity
  8
姿図
100
AcDbCircle
 10
3157.370240431309
 20
-166.3574128649622
 30
0.0
 40
12.6187720365096
100
AcDbArc
 50
52.28944218343053
 51
63.78077132055711
  0
ARC
  5
186E1
330
18
100
AcDbEntity
  8
姿図
100
AcDbCircle
 10
3147.774557389422
 20
-187.0915159398215
 30
0.0
 40
35.46328343830577
100
AcDbArc
 50
64.67277808720961
 51
91.7711464803476
  0
ARC
  5
186E2
330
18
100
AcDbEntity
  8
姿図
100
AcDbCircle
 10
3145.106582018447
 20
-185.2712891700277
 30
0.0
 40
33.66283429323502
100
AcDbArc
 50
87.32358175998458
 51
119.6892030509198
  0
ELLIPSE
  5
186E3
330
18
100
AcDbEntity
  8
姿図
100
AcDbEllipse
 10
3146.694934944652
 20
-162.4172484225161
 30
0.0
 11
-17.9280599133497
 21
0.5020642418964099
 31
0.0
210
0.0
220
0.0
230
1.0
 40
0.4417103177870492
 41
0.0
 42
6.283185307179586
  0
SPLINE
  5
186E4
330
18
100
AcDbEntity
  8
姿図
100
AcDbSpline
210
0.0
220
0.0
230
1.0
 70
    24
 71
     3
 72
     8
 73
     4
 74
     0
 42
0.000000001
 43
0.0000000001
 40
175.0
 40
175.0
 40
175.0
 40
175.0
 40
176.0
 40
176.0
 40
176.0
 40
176.0
 10
3128.289248156412
 20
-154.5220275058051
 30
0.0
 10
3128.289248156412
 20
-154.5220275058051
 30
0.0
 10
3128.307479601724
 20
-154.0661173495552
 30
0.0
 10
3128.307479601724
 20
-154.0661173495552
 30
0.0
  0
SPLINE
  5
186E5
330
18
100
AcDbEntity
  8
姿図
100
AcDbSpline
210
0.0
220
0.0
230
1.0
 70
    24
 71
     3
 72
     8
 73
     4
 74
     0
 42
0.000000001
 43
0.0000000001
 40
174.0
 40
174.0
 40
174.0
 40
174.0
 40
175.0
 40
175.0
 40
175.0
 40
175.0
 10
3128.489856066568
 20
-155.0326319979928
 30
0.0
 10
3128.489856066568
 20
-155.0326319979928
 30
0.0
 10
3128.289248156412
 20
-154.5220275058051
 30
0.0
 10
3128.289248156412
 20
-154.5220275058051
 30
0.0
  0
SPLINE
  5
186E6
330
18
100
AcDbEntity
  8
姿図
100
AcDbSpline
210
0.0
220
0.0
230
1.0
 70
     8
 71
     3
 72
     8
 73
     4
 74
     0
 42
0.000000001
 43
0.0000000001
 40
173.0
 40
173.0
 40
173.0
 40
173.0
 40
174.0
 40
174.0
 40
174.0
 40
174.0
 10
3128.433549425944
 20
-156.0275480136175
 30
0.0
 10
3128.435843859537
 20
-155.6699884433052
 30
0.0
 10
3128.489856066568
 20
-155.0326319979928
 30
0.0
 10
3128.489856066568
 20
-155.0326319979928
 30
0.0
  0
SPLINE
  5
186E7
330
18
100
AcDbEntity
  8
姿図
100
AcDbSpline
210
0.0
220
0.0
230
1.0
 70
     8
 71
     3
 72
    11
 73
     7
 74
     0
 42
0.000000001
 43
0.0000000001
 40
171.0
 40
171.0
 40
171.0
 40
171.0
 40
172.0
 40
172.0
 40
172.0
 40
173.0
 40
173.0
 40
173.0
 40
173.0
 10
3132.665043078287
 20
-168.6437081698676
 30
0.0
 10
3125.377425890787
 20
-165.7836036776799
 30
0.0
 10
3125.259851672037
 20
-162.2964366854927
 30
0.0
 10
3125.259851672037
 20
-161.238640787055
 30
0.0
 10
3125.259851672037
 20
-160.18072086518
 30
0.0
 10
3125.495000109537
 20
-158.3000294589302
 30
0.0
 10
3128.433549425944
 20
-156.0275480136175
 30
0.0
  0
SPLINE
  5
186E8
330
18
100
AcDbEntity
  8
姿図
100
AcDbSpline
210
0.0
220
0.0
230
1.0
 70
     8
 71
     3
 72
     8
 73
     4
 74
     0
 42
0.000000001
 43
0.0000000001
 40
170.0
 40
170.0
 40
170.0
 40
170.0
 40
171.0
 40
171.0
 40
171.0
 40
171.0
 10
3160.405055285319
 20
-168.9572394198677
 30
0.0
 10
3152.004203722819
 20
-171.7694708651799
 30
0.0
 10
3139.952722277506
 20
-171.5040607089301
 30
0.0
 10
3132.665043078287
 20
-168.6437081698676
 30
0.0
  0
SPLINE
  5
186E9
330
18
100
AcDbEntity
  8
姿図
100
AcDbSpline
210
0.0
220
0.0
230
1.0
 70
     8
 71
     3
 72
     8
 73
     4
 74
     0
 42
0.000000001
 43
0.0000000001
 40
169.0
 40
169.0
 40
169.0
 40
169.0
 40
170.0
 40
170.0
 40
170.0
 40
170.0
 10
3167.753567980631
 20
-159.3248351229928
 30
0.0
 10
3168.528466418131
 20
-160.8747560214302
 30
0.0
 10
3169.651746691568
 20
-165.8619864901801
 30
0.0
 10
3160.405055285319
 20
-168.9572394198677
 30
0.0
  0
SPLINE
  5
186EA
330
18
100
AcDbEntity
  8
姿図
100
AcDbSpline
210
0.0
220
0.0
230
1.0
 70
     8
 71
     3
 72
     8
 73
     4
 74
     0
 42
0.000000001
 43
0.0000000001
 40
168.0
 40
168.0
 40
168.0
 40
168.0
 40
169.0
 40
169.0
 40
169.0
 40
169.0
 10
3165.088800402506
 20
-156.3745655917425
 30
0.0
 10
3165.088800402506
 20
-156.3745655917425
 30
0.0
 10
3166.978545519693
 20
-157.7749142245553
 30
0.0
 10
3167.753567980631
 20
-159.3248351229928
 30
0.0
  0
SPLINE
  5
186EB
330
18
100
AcDbEntity
  8
姿図
100
AcDbSpline
210
0.0
220
0.0
230
1.0
 70
     8
 71
     3
 72
     8
 73
     4
 74
     0
 42
0.000000001
 43
0.0000000001
 40
141.0
 40
141.0
 40
141.0
 40
141.0
 40
142.0
 40
142.0
 40
142.0
 40
142.0
 10
3165.034354113443
 20
-141.5144493808053
 30
0.0
 10
3165.047996691568
 20
-141.745629068305
 30
0.0
 10
3165.129604113443
 20
-142.3301515292425
 30
0.0
 10
3165.129604113443
 20
-142.3301515292425
 30
0.0
  0
SPLINE
  5
186EC
330
18
100
AcDbEntity
  8
姿図
100
AcDbSpline
210
0.0
220
0.0
230
1.0
 70
     8
 71
     3
 72
    11
 73
     7
 74
     0
 42
0.000000001
 43
0.0000000001
 40
139.0
 40
139.0
 40
139.0
 40
139.0
 40
140.0
 40
140.0
 40
140.0
 40
141.0
 40
141.0
 40
141.0
 40
141.0
 10
3164.096240832193
 20
-141.079375162055
 30
0.0
 10
3164.096240832193
 20
-141.079375162055
 30
0.0
 10
3164.626441027506
 20
-141.0657325839303
 30
0.0
 10
3164.748852160318
 20
-141.1065362948676
 30
0.0
 10
3164.871263293131
 20
-141.1473400058049
 30
0.0
 10
3165.020835558756
 20
-141.2832696933052
 30
0.0
 10
3165.034354113443
 20
-141.5144493808053
 30
0.0
  0
SPLINE
  5
186ED
330
18
100
AcDbEntity
  8
姿図
100
AcDbSpline
210
0.0
220
0.0
230
1.0
 70
     8
 71
     3
 72
    14
 73
    10
 74
     0
 42
0.000000001
 43
0.0000000001
 40
136.0
 40
136.0
 40
136.0
 40
136.0
 40
137.0
 40
137.0
 40
137.0
 40
138.0
 40
138.0
 40
138.0
 40
139.0
 40
139.0
 40
139.0
 40
139.0
 10
3163.375664660318
 20
-145.6475304354927
 30
0.0
 10
3163.402825793131
 20
-145.0765265292426
 30
0.0
 10
3163.470914660318
 20
-141.4736456698676
 30
0.0
 10
3163.470914660318
 20
-141.29691227143
 30
0.0
 10
3163.470914660318
 20
-141.1201788729928
 30
0.0
 10
3163.457272082193
 20
-140.8346769198675
 30
0.0
 10
3163.701970324381
 20
-140.8346769198675
 30
0.0
 10
3163.946668566568
 20
-140.8346769198675
 30
0.0
 10
3164.096240832193
 20
-141.079375162055
 30
0.0
 10
3164.096240832193
 20
-141.079375162055
 30
0.0
  0
SPLINE
  5
186EE
330
18
100
AcDbEntity
  8
姿図
100
AcDbSpline
210
0.0
220
0.0
230
1.0
 70
     8
 71
     3
 72
     8
 73
     4
 74
     0
 42
0.000000001
 43
0.0000000001
 40
133.0
 40
133.0
 40
133.0
 40
133.0
 40
134.0
 40
134.0
 40
134.0
 40
134.0
 10
3163.076644152506
 20
-151.3984972323675
 30
0.0
 10
3163.130966418131
 20
-151.4664620761174
 30
0.0
 10
3163.171770129068
 20
-151.4121398104927
 30
0.0
 10
3163.171770129068
 20
-151.4121398104927
 30
0.0
  0
SPLINE
  5
186EF
330
18
100
AcDbEntity
  8
姿図
100
AcDbSpline
210
0.0
220
0.0
230
1.0
 70
     8
 71
     3
 72
     8
 73
     4
 74
     0
 42
0.000000001
 43
0.0000000001
 40
132.0
 40
132.0
 40
132.0
 40
132.0
 40
133.0
 40
133.0
 40
133.0
 40
133.0
 10
3162.165692004069
 20
-149.9573448886177
 30
0.0
 10
3162.165692004069
 20
-149.9573448886177
 30
0.0
 10
3162.723053332194
 20
-150.4467413729927
 30
0.0
 10
3163.076644152506
 20
-151.3984972323675
 30
0.0
  0
SPLINE
  5
186F0
330
18
100
AcDbEntity
  8
姿図
100
AcDbSpline
210
0.0
220
0.0
230
1.0
 70
     8
 71
     3
 72
     8
 73
     4
 74
     0
 42
0.000000001
 43
0.0000000001
 40
131.0
 40
131.0
 40
131.0
 40
131.0
 40
132.0
 40
132.0
 40
132.0
 40
132.0
 10
3162.818303332193
 20
-148.6794073886177
 30
0.0
 10
3162.655212511881
 20
-149.0736778964302
 30
0.0
 10
3162.165692004069
 20
-149.9573448886177
 30
0.0
 10
3162.165692004069
 20
-149.9573448886177
 30
0.0
  0
SPLINE
  5
186F1
330
18
100
AcDbEntity
  8
姿図
100
AcDbSpline
210
0.0
220
0.0
230
1.0
 70
     8
 71
     3
 72
     8
 73
     4
 74
     0
 42
0.000000001
 43
0.0000000001
 40
130.0
 40
130.0
 40
130.0
 40
130.0
 40
131.0
 40
131.0
 40
131.0
 40
131.0
 10
3162.695892199381
 20
-148.0403146151799
 30
0.0
 10
3162.872625597819
 20
-148.1763683261175
 30
0.0
 10
3162.981518175943
 20
-148.2850128573679
 30
0.0
 10
3162.818303332193
 20
-148.6794073886177
 30
0.0
  0
SPLINE
  5
186F2
330
18
100
AcDbEntity
  8
姿図
100
AcDbSpline
210
0.0
220
0.0
230
1.0
 70
     8
 71
     3
 72
     8
 73
     4
 74
     0
 42
0.000000001
 43
0.0000000001
 40
129.0
 40
129.0
 40
129.0
 40
129.0
 40
130.0
 40
130.0
 40
130.0
 40
130.0
 10
3161.336347277506
 20
-147.1294864901803
 30
0.0
 10
3161.472400988443
 20
-147.1974513339302
 30
0.0
 10
3162.519158800943
 20
-147.9043849276801
 30
0.0
 10
3162.695892199381
 20
-148.0403146151799
 30
0.0
  0
SPLINE
  5
186F3
330
18
100
AcDbEntity
  8
姿図
100
AcDbSpline
210
0.0
220
0.0
230
1.0
 70
     8
 71
     3
 72
     8
 73
     4
 74
     0
 42
0.000000001
 43
0.0000000001
 40
128.0
 40
128.0
 40
128.0
 40
128.0
 40
129.0
 40
129.0
 40
129.0
 40
129.0
 10
3161.105291613444
 20
-147.1566476229924
 30
0.0
 10
3161.105291613444
 20
-147.1566476229924
 30
0.0
 10
3161.200417590006
 20
-147.0613976229926
 30
0.0
 10
3161.336347277506
 20
-147.1294864901803
 30
0.0
  0
SPLINE
  5
186F4
330
18
100
AcDbEntity
  8
姿図
100
AcDbSpline
210
0.0
220
0.0
230
1.0
 70
     8
 71
     3
 72
     8
 73
     4
 74
     0
 42
0.000000001
 43
0.0000000001
 40
127.0
 40
127.0
 40
127.0
 40
127.0
 40
128.0
 40
128.0
 40
128.0
 40
128.0
 10
3161.091649035318
 20
-144.7230597323675
 30
0.0
 10
3161.091649035318
 20
-145.11733024018
 30
0.0
 10
3161.105291613444
 20
-147.1566476229924
 30
0.0
 10
3161.105291613444
 20
-147.1566476229924
 30
0.0
  0
SPLINE
  5
186F5
330
18
100
AcDbEntity
  8
姿図
100
AcDbSpline
210
0.0
220
0.0
230
1.0
 70
     8
 71
     3
 72
     8
 73
     4
 74
     0
 42
0.000000001
 43
0.0000000001
 40
126.0
 40
126.0
 40
126.0
 40
126.0
 40
127.0
 40
127.0
 40
127.0
 40
127.0
 10
3161.608206652506
 20
-138.7001095370553
 30
0.0
 10
3161.513080675943
 20
-140.3452804354926
 30
0.0
 10
3161.159613879068
 20
-144.5326837558051
 30
0.0
 10
3161.091649035318
 20
-144.7230597323675
 30
0.0
  0
SPLINE
  5
186F6
330
18
100
AcDbEntity
  8
姿図
100
AcDbSpline
210
0.0
220
0.0
230
1.0
 70
     8
 71
     3
 72
     8
 73
     4
 74
     0
 42
0.000000001
 43
0.0000000001
 40
125.0
 40
125.0
 40
125.0
 40
125.0
 40
126.0
 40
126.0
 40
126.0
 40
126.0
 10
3161.621849230631
 20
-134.4719025058054
 30
0.0
 10
3161.621849230631
 20
-134.4719025058054
 30
0.0
 10
3161.703456652506
 20
-137.0549386386175
 30
0.0
 10
3161.608206652506
 20
-138.7001095370553
 30
0.0
  0
SPLINE
  5
186F7
330
18
100
AcDbEntity
  8
姿図
100
AcDbSpline
210
0.0
220
0.0
230
1.0
 70
     8
 71
     3
 72
     8
 73
     4
 74
     0
 42
0.000000001
 43
0.0000000001
 40
124.0
 40
124.0
 40
124.0
 40
124.0
 40
125.0
 40
125.0
 40
125.0
 40
125.0
 10
3161.784940050944
 20
-134.4447413729928
 30
0.0
 10
3161.703456652506
 20
-134.5263487948674
 30
0.0
 10
3161.621849230631
 20
-134.4719025058054
 30
0.0
 10
3161.621849230631
 20
-134.4719025058054
 30
0.0
  0
SPLINE
  5
186F8
330
18
100
AcDbEntity
  8
姿図
100
AcDbSpline
210
0.0
220
0.0
230
1.0
 70
     8
 71
     3
 72
     8
 73
     4
 74
     0
 42
0.000000001
 43
0.0000000001
 40
123.0
 40
123.0
 40
123.0
 40
123.0
 40
124.0
 40
124.0
 40
124.0
 40
124.0
 10
3161.839386340006
 20
-133.5473077792427
 30
0.0
 10
3161.839386340006
 20
-133.5473077792427
 30
0.0
 10
3161.866547472819
 20
-134.3631339511177
 30
0.0
 10
3161.784940050944
 20
-134.4447413729928
 30
0.0
  0
SPLINE
  5
186F9
330
18
100
AcDbEntity
  8
姿図
100
AcDbSpline
210
0.0
220
0.0
230
1.0
 70
     8
 71
     3
 72
     8
 73
     4
 74
     0
 42
0.000000001
 43
0.0000000001
 40
122.0
 40
122.0
 40
122.0
 40
122.0
 40
123.0
 40
123.0
 40
123.0
 40
123.0
 10
3162.627927355631
 20
-133.4929855136176
 30
0.0
 10
3162.491997668131
 20
-133.4929855136176
 30
0.0
 10
3161.839386340006
 20
-133.5473077792427
 30
0.0
 10
3161.839386340006
 20
-133.5473077792427
 30
0.0
  0
SPLINE
  5
186FA
330
18
100
AcDbEntity
  8
姿図
100
AcDbSpline
210
0.0
220
0.0
230
1.0
 70
     8
 71
     3
 72
     8
 73
     4
 74
     0
 42
0.000000001
 43
0.0000000001
 40
121.0
 40
121.0
 40
121.0
 40
121.0
 40
122.0
 40
122.0
 40
122.0
 40
122.0
 10
3162.845464465006
 20
-133.6832374667425
 30
0.0
 10
3162.736695910318
 20
-133.7105226229929
 30
0.0
 10
3162.641569933756
 20
-133.6832374667425
 30
0.0
 10
3162.627927355631
 20
-133.4929855136176
 30
0.0
  0
SPLINE
  5
186FB
330
18
100
AcDbEntity
  8
姿図
100
AcDbSpline
210
0.0
220
0.0
230
1.0
 70
     8
 71
     3
 72
     8
 73
     4
 74
     0
 42
0.000000001
 43
0.0000000001
 40
120.0
 40
120.0
 40
120.0
 40
120.0
 40
121.0
 40
121.0
 40
121.0
 40
121.0
 10
3163.117323840006
 20
-133.1258761386176
 30
0.0
 10
3163.063001574381
 20
-133.31625211518
 30
0.0
 10
3162.954233019693
 20
-133.6560763339299
 30
0.0
 10
3162.845464465006
 20
-133.6832374667425
 30
0.0
  0
SPLINE
  5
186FC
330
18
100
AcDbEntity
  8
姿図
100
AcDbSpline
210
0.0
220
0.0
230
1.0
 70
     8
 71
     3
 72
     8
 73
     4
 74
     0
 42
0.000000001
 43
0.0000000001
 40
119.0
 40
119.0
 40
119.0
 40
119.0
 40
120.0
 40
120.0
 40
120.0
 40
120.0
 10
3163.158127550943
 20
-131.3585421542426
 30
0.0
 10
3163.171770129068
 20
-131.6575626620553
 30
0.0
 10
3163.171770129068
 20
-132.9356241854927
 30
0.0
 10
3163.117323840006
 20
-133.1258761386176
 30
0.0
  0
SPLINE
  5
186FD
330
18
100
AcDbEntity
  8
姿図
100
AcDbSpline
210
0.0
220
0.0
230
1.0
 70
     8
 71
     3
 72
    11
 73
     7
 74
     0
 42
0.000000001
 43
0.0000000001
 40
117.0
 40
117.0
 40
117.0
 40
117.0
 40
118.0
 40
118.0
 40
118.0
 40
119.0
 40
119.0
 40
119.0
 40
119.0
 10
3162.695892199381
 20
-131.0730402011178
 30
0.0
 10
3162.709534777506
 20
-130.9098253573676
 30
0.0
 10
3162.668731066568
 20
-130.8418605136177
 30
0.0
 10
3162.804660754068
 20
-130.8418605136177
 30
0.0
 10
3162.940714465006
 20
-130.8418605136177
 30
0.0
 10
3163.144608996256
 20
-131.0593976229926
 30
0.0
 10
3163.158127550943
 20
-131.3585421542426
 30
0.0
  0
SPLINE
  5
186FE
330
18
100
AcDbEntity
  8
姿図
100
AcDbSpline
210
0.0
220
0.0
230
1.0
 70
     8
 71
     3
 72
     8
 73
     4
 74
     0
 42
0.000000001
 43
0.0000000001
 40
116.0
 40
116.0
 40
116.0
 40
116.0
 40
117.0
 40
117.0
 40
117.0
 40
117.0
 10
3161.907351183756
 20
-130.9777902011175
 30
0.0
 10
3161.907351183756
 20
-130.9777902011175
 30
0.0
 10
3162.600766222818
 20
-130.9505050448676
 30
0.0
 10
3162.695892199381
 20
-131.0730402011178
 30
0.0
  0
SPLINE
  5
186FF
330
18
100
AcDbEntity
  8
姿図
100
AcDbSpline
210
0.0
220
0.0
230
1.0
 70
     8
 71
     3
 72
    14
 73
    10
 74
     0
 42
0.000000001
 43
0.0000000001
 40
113.0
 40
113.0
 40
113.0
 40
113.0
 40
114.0
 40
114.0
 40
114.0
 40
115.0
 40
115.0
 40
115.0
 40
116.0
 40
116.0
 40
116.0
 40
116.0
 10
3161.200417590006
 20
-130.1484454745552
 30
0.0
 10
3161.200417590006
 20
-130.1484454745552
 30
0.0
 10
3161.227578722818
 20
-130.012391763618
 30
0.0
 10
3161.431597277506
 20
-130.012391763618
 30
0.0
 10
3161.635491808756
 20
-130.012391763618
 30
0.0
 10
3161.880190050943
 20
-130.012391763618
 30
0.0
 10
3161.880190050943
 20
-130.2165343417429
 30
0.0
 10
3161.880190050943
 20
-130.4204288729926
 30
0.0
 10
3161.907351183756
 20
-130.9777902011175
 30
0.0
 10
3161.907351183756
 20
-130.9777902011175
 30
0.0
  0
SPLINE
  5
18700
330
18
100
AcDbEntity
  8
姿図
100
AcDbSpline
210
0.0
220
0.0
230
1.0
 70
     8
 71
     3
 72
    11
 73
     7
 74
     0
 42
0.000000001
 43
0.0000000001
 40
111.0
 40
111.0
 40
111.0
 40
111.0
 40
112.0
 40
112.0
 40
112.0
 40
113.0
 40
113.0
 40
113.0
 40
113.0
 10
3160.928434191568
 20
-130.0804806308053
 30
0.0
 10
3160.928434191568
 20
-130.0804806308053
 30
0.0
 10
3160.969237902506
 20
-129.9717120761176
 30
0.0
 10
3161.050845324381
 20
-129.9717120761176
 30
0.0
 10
3161.132328722818
 20
-129.9717120761176
 30
0.0
 10
3161.200417590006
 20
-130.1484454745552
 30
0.0
 10
3161.200417590006
 20
-130.1484454745552
 30
0.0
  0
SPLINE
  5
18701
330
18
100
AcDbEntity
  8
姿図
100
AcDbSpline
210
0.0
220
0.0
230
1.0
 70
    24
 71
     3
 72
     8
 73
     4
 74
     0
 42
0.000000001
 43
0.0000000001
 40
110.0
 40
110.0
 40
110.0
 40
110.0
 40
111.0
 40
111.0
 40
111.0
 40
111.0
 10
3160.928434191568
 20
-131.4265069979925
 30
0.0
 10
3160.928434191568
 20
-131.4265069979925
 30
0.0
 10
3160.928434191568
 20
-130.0804806308053
 30
0.0
 10
3160.928434191568
 20
-130.0804806308053
 30
0.0
  0
SPLINE
  5
18702
330
18
100
AcDbEntity
  8
姿図
100
AcDbSpline
210
0.0
220
0.0
230
1.0
 70
     8
 71
     3
 72
    11
 73
     7
 74
     0
 42
0.000000001
 43
0.0000000001
 40
108.0
 40
108.0
 40
108.0
 40
108.0
 40
109.0
 40
109.0
 40
109.0
 40
110.0
 40
110.0
 40
110.0
 40
110.0
 10
3160.262304308756
 20
-131.4944718417424
 30
0.0
 10
3160.330269152506
 20
-131.3855792636178
 30
0.0
 10
3160.439037707193
 20
-131.3176144198675
 30
0.0
 10
3160.629413683756
 20
-131.3176144198675
 30
0.0
 10
3160.819789660318
 20
-131.3176144198675
 30
0.0
 10
3160.928434191568
 20
-131.4265069979925
 30
0.0
 10
3160.928434191568
 20
-131.4265069979925
 30
0.0
  0
SPLINE
  5
18703
330
18
100
AcDbEntity
  8
姿図
100
AcDbSpline
210
0.0
220
0.0
230
1.0
 70
     8
 71
     3
 72
     8
 73
     4
 74
     0
 42
0.000000001
 43
0.0000000001
 40
107.0
 40
107.0
 40
107.0
 40
107.0
 40
108.0
 40
108.0
 40
108.0
 40
108.0
 10
3160.221500597818
 20
-131.8342960604924
 30
0.0
 10
3160.221500597818
 20
-131.8342960604924
 30
0.0
 10
3160.194215441568
 20
-131.6031163729928
 30
0.0
 10
3160.262304308756
 20
-131.4944718417424
 30
0.0
  0
SPLINE
  5
18704
330
18
100
AcDbEntity
  8
姿図
100
AcDbSpline
210
0.0
220
0.0
230
1.0
 70
     8
 71
     3
 72
    11
 73
     7
 74
     0
 42
0.000000001
 43
0.0000000001
 40
105.0
 40
105.0
 40
105.0
 40
105.0
 40
106.0
 40
106.0
 40
106.0
 40
107.0
 40
107.0
 40
107.0
 40
107.0
 10
3160.126374621256
 20
-132.4189425448677
 30
0.0
 10
3160.003963488443
 20
-132.3646202792426
 30
0.0
 10
3159.976802355631
 20
-132.2966554354927
 30
0.0
 10
3159.976802355631
 20
-132.2014054354928
 30
0.0
 10
3159.976802355631
 20
-132.1062794589299
 30
0.0
 10
3160.221500597818
 20
-131.8342960604924
 30
0.0
 10
3160.221500597818
 20
-131.8342960604924
 30
0.0
  0
SPLINE
  5
18705
330
18
100
AcDbEntity
  8
姿図
100
AcDbSpline
210
0.0
220
0.0
230
1.0
 70
     8
 71
     3
 72
     8
 73
     4
 74
     0
 42
0.000000001
 43
0.0000000001
 40
104.0
 40
104.0
 40
104.0
 40
104.0
 40
105.0
 40
105.0
 40
105.0
 40
105.0
 10
3160.085570910318
 20
-132.8811778964301
 30
0.0
 10
3160.085570910318
 20
-132.8811778964301
 30
0.0
 10
3160.031124621256
 20
-132.5277110995554
 30
0.0
 10
3160.126374621256
 20
-132.4189425448677
 30
0.0
  0
SPLINE
  5
18706
330
18
100
AcDbEntity
  8
姿図
100
AcDbSpline
210
0.0
220
0.0
230
1.0
 70
    24
 71
     3
 72
     8
 73
     4
 74
     0
 42
0.000000001
 43
0.0000000001
 40
103.0
 40
103.0
 40
103.0
 40
103.0
 40
104.0
 40
104.0
 40
104.0
 40
104.0
 10
3159.596174425943
 20
-132.4052999667425
 30
0.0
 10
3159.596174425943
 20
-132.4052999667425
 30
0.0
 10
3160.085570910318
 20
-132.8811778964301
 30
0.0
 10
3160.085570910318
 20
-132.8811778964301
 30
0.0
  0
SPLINE
  5
18707
330
18
100
AcDbEntity
  8
姿図
100
AcDbSpline
210
0.0
220
0.0
230
1.0
 70
    24
 71
     3
 72
     8
 73
     4
 74
     0
 42
0.000000001
 43
0.0000000001
 40
102.0
 40
102.0
 40
102.0
 40
102.0
 40
103.0
 40
103.0
 40
103.0
 40
103.0
 10
3159.718461535319
 20
-132.3373351229926
 30
0.0
 10
3159.718461535319
 20
-132.3373351229926
 30
0.0
 10
3159.596174425943
 20
-132.4052999667425
 30
0.0
 10
3159.596174425943
 20
-132.4052999667425
 30
0.0
  0
SPLINE
  5
18708
330
18
100
AcDbEntity
  8
姿図
100
AcDbSpline
210
0.0
220
0.0
230
1.0
 70
     8
 71
     3
 72
    11
 73
     7
 74
     0
 42
0.000000001
 43
0.0000000001
 40
100.0
 40
100.0
 40
100.0
 40
100.0
 40
101.0
 40
101.0
 40
101.0
 40
102.0
 40
102.0
 40
102.0
 40
102.0
 10
3159.636854113443
 20
-131.8479386386176
 30
0.0
 10
3159.636854113443
 20
-131.8479386386176
 30
0.0
 10
3159.759265246256
 20
-131.8206534823677
 30
0.0
 10
3159.759265246256
 20
-131.9159034823675
 30
0.0
 10
3159.759265246256
 20
-132.0111534823678
 30
0.0
 10
3159.718461535319
 20
-132.3373351229926
 30
0.0
 10
3159.718461535319
 20
-132.3373351229926
 30
0.0
  0
SPLINE
  5
18709
330
18
100
AcDbEntity
  8
姿図
100
AcDbSpline
210
0.0
220
0.0
230
1.0
 70
    24
 71
     3
 72
     8
 73
     4
 74
     0
 42
0.000000001
 43
0.0000000001
 40
99.0
 40
99.0
 40
99.0
 40
99.0
 40
100.0
 40
100.0
 40
100.0
 40
100.0
 10
3159.310548449381
 20
-132.160601724555
 30
0.0
 10
3159.310548449381
 20
-132.160601724555
 30
0.0
 10
3159.636854113443
 20
-131.8479386386176
 30
0.0
 10
3159.636854113443
 20
-131.8479386386176
 30
0.0
  0
SPLINE
  5
1870A
330
18
100
AcDbEntity
  8
姿図
100
AcDbSpline
210
0.0
220
0.0
230
1.0
 70
    24
 71
     3
 72
     8
 73
     4
 74
     0
 42
0.000000001
 43
0.0000000001
 40
98.0
 40
98.0
 40
98.0
 40
98.0
 40
99.0
 40
99.0
 40
99.0
 40
99.0
 10
3158.998629504069
 20
-131.9454210604928
 30
0.0
 10
3158.998629504069
 20
-131.9454210604928
 30
0.0
 10
3159.310548449381
 20
-132.160601724555
 30
0.0
 10
3159.310548449381
 20
-132.160601724555
 30
0.0
  0
SPLINE
  5
1870B
330
18
100
AcDbEntity
  8
姿図
100
AcDbSpline
210
0.0
220
0.0
230
1.0
 70
     8
 71
     3
 72
     8
 73
     4
 74
     0
 42
0.000000001
 43
0.0000000001
 40
94.0
 40
94.0
 40
94.0
 40
94.0
 40
95.0
 40
95.0
 40
95.0
 40
95.0
 10
3156.712753527506
 20
-120.0257765292428
 30
0.0
 10
3157.261433215006
 20
-123.3181027011175
 30
0.0
 10
3157.548919543131
 20
-125.1734933261174
 30
0.0
 10
3157.548919543131
 20
-125.3825968417424
 30
0.0
  0
SPLINE
  5
1870C
330
18
100
AcDbEntity
  8
姿図
100
AcDbSpline
210
0.0
220
0.0
230
1.0
 70
     8
 71
     3
 72
     8
 73
     4
 74
     0
 42
0.000000001
 43
0.0000000001
 40
93.0
 40
93.0
 40
93.0
 40
93.0
 40
94.0
 40
94.0
 40
94.0
 40
94.0
 10
3154.726890246256
 20
-112.4218375643987
 30
0.0
 10
3154.909700793131
 20
-112.9967482089302
 30
0.0
 10
3156.164073840006
 20
-116.7333263339302
 30
0.0
 10
3156.712753527506
 20
-120.0257765292428
 30
0.0
  0
SPLINE
  5
1870D
330
18
100
AcDbEntity
  8
姿図
100
AcDbSpline
210
0.0
220
0.0
230
1.0
 70
     8
 71
     3
 72
     8
 73
     4
 74
     0
 42
0.000000001
 43
0.0000000001
 40
92.0
 40
92.0
 40
92.0
 40
92.0
 40
93.0
 40
93.0
 40
93.0
 40
93.0
 10
3153.681620715006
 20
-111.8208819979924
 30
0.0
 10
3154.047365832193
 20
-111.7947130526801
 30
0.0
 10
3154.543955675943
 20
-111.8469889315862
 30
0.0
 10
3154.726890246256
 20
-112.4218375643987
 30
0.0
  0
SPLINE
  5
1870E
330
18
100
AcDbEntity
  8
姿図
100
AcDbSpline
210
0.0
220
0.0
230
1.0
 70
     8
 71
     3
 72
     8
 73
     4
 74
     0
 42
0.000000001
 43
0.0000000001
 40
91.0
 40
91.0
 40
91.0
 40
91.0
 40
92.0
 40
92.0
 40
92.0
 40
92.0
 10
3152.244437121256
 20
-112.0299235018989
 30
0.0
 10
3152.244437121256
 20
-112.0299235018989
 30
0.0
 10
3153.315875597818
 20
-111.8469889315862
 30
0.0
 10
3153.681620715006
 20
-111.8208819979924
 30
0.0
  0
SPLINE
  5
1870F
330
18
100
AcDbEntity
  8
姿図
100
AcDbSpline
210
0.0
220
0.0
230
1.0
 70
     8
 71
     3
 72
     8
 73
     4
 74
     0
 42
0.000000001
 43
0.0000000001
 40
90.0
 40
90.0
 40
90.0
 40
90.0
 40
91.0
 40
91.0
 40
91.0
 40
91.0
 10
3152.166054308756
 20
-110.5666329745551
 30
0.0
 10
3152.192223254068
 20
-110.723398599555
 30
0.0
 10
3152.244437121256
 20
-112.0299235018989
 30
0.0
 10
3152.244437121256
 20
-112.0299235018989
 30
0.0
  0
SPLINE
  5
18710
330
18
100
AcDbEntity
  8
姿図
100
AcDbSpline
210
0.0
220
0.0
230
1.0
 70
     8
 71
     3
 72
    11
 73
     7
 74
     0
 42
0.000000001
 43
0.0000000001
 40
88.0
 40
88.0
 40
88.0
 40
88.0
 40
89.0
 40
89.0
 40
89.0
 40
90.0
 40
90.0
 40
90.0
 40
90.0
 10
3151.774140246256
 20
-110.514357095649
 30
0.0
 10
3151.774140246256
 20
-110.514357095649
 30
0.0
 10
3151.800309191568
 20
-110.3053155917429
 30
0.0
 10
3151.956950793131
 20
-110.3053155917429
 30
0.0
 10
3152.113840441568
 20
-110.3053155917429
 30
0.0
 10
3152.139885363443
 20
-110.4098053378362
 30
0.0
 10
3152.166054308756
 20
-110.5666329745551
 30
0.0
  0
SPLINE
  5
18711
330
18
100
AcDbEntity
  8
姿図
100
AcDbSpline
210
0.0
220
0.0
230
1.0
 70
     8
 71
     3
 72
     8
 73
     4
 74
     0
 42
0.000000001
 43
0.0000000001
 40
87.0
 40
87.0
 40
87.0
 40
87.0
 40
88.0
 40
88.0
 40
88.0
 40
88.0
 10
3151.643419543131
 20
-111.7163302401801
 30
0.0
 10
3151.747971300943
 20
-111.1937574862737
 30
0.0
 10
3151.774140246256
 20
-110.514357095649
 30
0.0
 10
3151.774140246256
 20
-110.514357095649
 30
0.0
  0
SPLINE
  5
18712
330
18
100
AcDbEntity
  8
姿図
100
AcDbSpline
210
0.0
220
0.0
230
1.0
 70
     8
 71
     3
 72
     8
 73
     4
 74
     0
 42
0.000000001
 43
0.0000000001
 40
86.0
 40
86.0
 40
86.0
 40
86.0
 40
87.0
 40
87.0
 40
87.0
 40
87.0
 10
3150.389294543131
 20
-111.0369298495549
 30
0.0
 10
3150.389294543131
 20
-111.0369298495549
 30
0.0
 10
3151.434440050944
 20
-111.4550748690864
 30
0.0
 10
3151.643419543131
 20
-111.7163302401801
 30
0.0
  0
SPLINE
  5
18713
330
18
100
AcDbEntity
  8
姿図
100
AcDbSpline
210
0.0
220
0.0
230
1.0
 70
     8
 71
     3
 72
    17
 73
    13
 74
     0
 42
0.000000001
 43
0.0000000001
 40
82.0
 40
82.0
 40
82.0
 40
82.0
 40
83.0
 40
83.0
 40
83.0
 40
84.0
 40
84.0
 40
84.0
 40
85.0
 40
85.0
 40
85.0
 40
86.0
 40
86.0
 40
86.0
 40
86.0
 10
3149.840490832194
 20
-110.8539952792427
 30
0.0
 10
3149.918873644694
 20
-110.2791466464301
 30
0.0
 10
3149.918873644694
 20
-110.0963360995553
 30
0.0
 10
3149.918873644694
 20
-109.9917843417426
 30
0.0
 10
3149.918873644694
 20
-109.8872325839299
 30
0.0
 10
3149.840490832194
 20
-109.6259152011177
 30
0.0
 10
3150.154022082193
 20
-109.6259152011177
 30
0.0
 10
3150.467553332193
 20
-109.6259152011177
 30
0.0
 10
3150.363125597818
 20
-109.8611256503365
 30
0.0
 10
3150.363125597818
 20
-109.9917843417426
 30
0.0
 10
3150.363125597818
 20
-110.1224430331491
 30
0.0
 10
3150.389294543131
 20
-111.0369298495549
 30
0.0
 10
3150.389294543131
 20
-111.0369298495549
 30
0.0
  0
SPLINE
  5
18714
330
18
100
AcDbEntity
  8
姿図
100
AcDbSpline
210
0.0
220
0.0
230
1.0
 70
     8
 71
     3
 72
     8
 73
     4
 74
     0
 42
0.000000001
 43
0.0000000001
 40
81.0
 40
81.0
 40
81.0
 40
81.0
 40
82.0
 40
82.0
 40
82.0
 40
82.0
 10
3148.533903918131
 20
-110.5927399081489
 30
0.0
 10
3148.533903918131
 20
-110.5927399081489
 30
0.0
 10
3149.526959582193
 20
-110.7495675448678
 30
0.0
 10
3149.840490832194
 20
-110.8539952792427
 30
0.0
  0
SPLINE
  5
18715
330
18
100
AcDbEntity
  8
姿図
100
AcDbSpline
210
0.0
220
0.0
230
1.0
 70
     8
 71
     3
 72
    14
 73
    10
 74
     0
 42
0.000000001
 43
0.0000000001
 40
78.0
 40
78.0
 40
78.0
 40
78.0
 40
79.0
 40
79.0
 40
79.0
 40
80.0
 40
80.0
 40
80.0
 40
81.0
 40
81.0
 40
81.0
 40
81.0
 10
3148.063607043131
 20
-109.4952565097116
 30
0.0
 10
3148.063607043131
 20
-109.4952565097116
 30
0.0
 10
3148.089775988443
 20
-109.2601080722112
 30
0.0
 10
3148.272586535319
 20
-109.2601080722112
 30
0.0
 10
3148.455521105631
 20
-109.2601080722112
 30
0.0
 10
3148.533903918131
 20
-109.442980630805
 30
0.0
 10
3148.533903918131
 20
-109.5998082675238
 30
0.0
 10
3148.533903918131
 20
-109.7565738925238
 30
0.0
 10
3148.533903918131
 20
-110.5927399081489
 30
0.0
 10
3148.533903918131
 20
-110.5927399081489
 30
0.0
  0
SPLINE
  5
18716
330
18
100
AcDbEntity
  8
姿図
100
AcDbSpline
210
0.0
220
0.0
230
1.0
 70
     8
 71
     3
 72
     8
 73
     4
 74
     0
 42
0.000000001
 43
0.0000000001
 40
77.0
 40
77.0
 40
77.0
 40
77.0
 40
78.0
 40
78.0
 40
78.0
 40
78.0
 10
3148.049517422023
 20
-110.5615557550924
 30
0.0
 10
3148.037438097818
 20
-110.1224430331491
 30
0.0
 10
3148.063607043131
 20
-109.4952565097116
 30
0.0
 10
3148.063607043131
 20
-109.4952565097116
 30
0.0
  0
SPLINE
  5
18717
330
18
100
AcDbEntity
  8
姿図
100
AcDbSpline
210
0.0
220
0.0
230
1.0
 70
     8
 71
     3
 72
     8
 73
     4
 74
     0
 42
0.000000001
 43
0.0000000001
 40
76.0
 40
76.0
 40
76.0
 40
76.0
 40
77.0
 40
77.0
 40
77.0
 40
77.0
 10
3146.652592394693
 20
-110.514357095649
 30
0.0
 10
3146.652592394693
 20
-110.514357095649
 30
0.0
 10
3147.436544543131
 20
-110.4620812167424
 30
0.0
 10
3148.049517422023
 20
-110.5615557550924
 30
0.0
  0
SPLINE
  5
18718
330
18
100
AcDbEntity
  8
姿図
100
AcDbSpline
210
0.0
220
0.0
230
1.0
 70
     8
 71
     3
 72
    14
 73
    10
 74
     0
 42
0.000000001
 43
0.0000000001
 40
73.0
 40
73.0
 40
73.0
 40
73.0
 40
74.0
 40
74.0
 40
74.0
 40
75.0
 40
75.0
 40
75.0
 40
76.0
 40
76.0
 40
76.0
 40
76.0
 10
3146.208402453287
 20
-109.4691495761177
 30
0.0
 10
3146.208402453287
 20
-109.4692115878366
 30
0.0
 10
3146.156126574381
 20
-109.2340011386174
 30
0.0
 10
3146.391275011881
 20
-109.2340011386174
 30
0.0
 10
3146.626423449381
 20
-109.2340011386174
 30
0.0
 10
3146.626423449381
 20
-109.3646598300239
 30
0.0
 10
3146.626423449381
 20
-109.5213634433054
 30
0.0
 10
3146.626423449381
 20
-109.6781910800238
 30
0.0
 10
3146.652592394693
 20
-110.514357095649
 30
0.0
 10
3146.652592394693
 20
-110.514357095649
 30
0.0
  0
SPLINE
  5
18719
330
18
100
AcDbEntity
  8
姿図
100
AcDbSpline
210
0.0
220
0.0
230
1.0
 70
     8
 71
     3
 72
     8
 73
     4
 74
     0
 42
0.000000001
 43
0.0000000001
 40
72.0
 40
72.0
 40
72.0
 40
72.0
 40
73.0
 40
73.0
 40
73.0
 40
73.0
 10
3146.182233507975
 20
-110.514357095649
 30
0.0
 10
3146.182233507975
 20
-109.9656153964303
 30
0.0
 10
3146.208402453287
 20
-109.4691495761177
 30
0.0
 10
3146.208402453287
 20
-109.4691495761177
 30
0.0
  0
SPLINE
  5
1871A
330
18
100
AcDbEntity
  8
姿図
100
AcDbSpline
210
0.0
220
0.0
230
1.0
 70
     8
 71
     3
 72
     8
 73
     4
 74
     0
 42
0.000000001
 43
0.0000000001
 40
71.0
 40
71.0
 40
71.0
 40
71.0
 40
72.0
 40
72.0
 40
72.0
 40
72.0
 10
3144.745049914225
 20
-110.7756744784612
 30
0.0
 10
3144.745049914225
 20
-110.7756744784612
 30
0.0
 10
3145.607384875162
 20
-110.5666329745551
 30
0.0
 10
3146.182233507975
 20
-110.514357095649
 30
0.0
  0
SPLINE
  5
1871B
330
18
100
AcDbEntity
  8
姿図
100
AcDbSpline
210
0.0
220
0.0
230
1.0
 70
     8
 71
     3
 72
    14
 73
    10
 74
     0
 42
0.000000001
 43
0.0000000001
 40
68.0
 40
68.0
 40
68.0
 40
68.0
 40
69.0
 40
69.0
 40
69.0
 40
70.0
 40
70.0
 40
70.0
 40
71.0
 40
71.0
 40
71.0
 40
71.0
 10
3144.222477160318
 20
-110.8539952792427
 30
0.0
 10
3144.248646105631
 20
-110.435974283149
 30
0.0
 10
3144.196370226725
 20
-109.442980630805
 30
0.0
 10
3144.483732531412
 20
-109.442980630805
 30
0.0
 10
3144.771218859537
 20
-109.442980630805
 30
0.0
 10
3144.718942980631
 20
-109.5998082675238
 30
0.0
 10
3144.718942980631
 20
-109.8349567050242
 30
0.0
 10
3144.718942980631
 20
-110.0701671542425
 30
0.0
 10
3144.745049914225
 20
-110.7756744784612
 30
0.0
 10
3144.745049914225
 20
-110.7756744784612
 30
0.0
  0
SPLINE
  5
1871C
330
18
100
AcDbEntity
  8
姿図
100
AcDbSpline
210
0.0
220
0.0
230
1.0
 70
     8
 71
     3
 72
     8
 73
     4
 74
     0
 42
0.000000001
 43
0.0000000001
 40
67.0
 40
67.0
 40
67.0
 40
67.0
 40
68.0
 40
68.0
 40
68.0
 40
68.0
 10
3142.915890246256
 20
-111.5857335604925
 30
0.0
 10
3142.915890246256
 20
-111.5857335604925
 30
0.0
 10
3143.334035265787
 20
-111.2198644198676
 30
0.0
 10
3144.222477160318
 20
-110.8539952792427
 30
0.0
  0
SPLINE
  5
1871D
330
18
100
AcDbEntity
  8
姿図
100
AcDbSpline
210
0.0
220
0.0
230
1.0
 70
     8
 71
     3
 72
    14
 73
    10
 74
     0
 42
0.000000001
 43
0.0000000001
 40
64.0
 40
64.0
 40
64.0
 40
64.0
 40
65.0
 40
65.0
 40
65.0
 40
66.0
 40
66.0
 40
66.0
 40
67.0
 40
67.0
 40
67.0
 40
67.0
 10
3142.367210558756
 20
-111.8469889315862
 30
0.0
 10
3142.39331749235
 20
-111.2460333651803
 30
0.0
 10
3142.288827746256
 20
-110.1224430331491
 30
0.0
 10
3142.602358996256
 20
-110.1224430331491
 30
0.0
 10
3142.915890246256
 20
-110.1224430331491
 30
0.0
 10
3142.837507433756
 20
-110.2791466464301
 30
0.0
 10
3142.837507433756
 20
-110.435974283149
 30
0.0
 10
3142.837507433756
 20
-110.5927399081489
 30
0.0
 10
3142.915890246256
 20
-111.5857335604925
 30
0.0
 10
3142.915890246256
 20
-111.5857335604925
 30
0.0
  0
SPLINE
  5
1871E
330
18
100
AcDbEntity
  8
姿図
100
AcDbSpline
210
0.0
220
0.0
230
1.0
 70
     8
 71
     3
 72
     8
 73
     4
 74
     0
 42
0.000000001
 43
0.0000000001
 40
63.0
 40
63.0
 40
63.0
 40
63.0
 40
64.0
 40
64.0
 40
64.0
 40
64.0
 10
3140.851644152506
 20
-111.6641163729925
 30
0.0
 10
3141.321941027506
 20
-111.6117784823674
 30
0.0
 10
3142.210382922037
 20
-111.8992648104928
 30
0.0
 10
3142.367210558756
 20
-111.8469889315862
 30
0.0
  0
SPLINE
  5
1871F
330
18
100
AcDbEntity
  8
姿図
100
AcDbSpline
210
0.0
220
0.0
230
1.0
 70
     8
 71
     3
 72
     8
 73
     4
 74
     0
 42
0.000000001
 43
0.0000000001
 40
62.0
 40
62.0
 40
62.0
 40
62.0
 40
63.0
 40
63.0
 40
63.0
 40
63.0
 10
3140.015478136881
 20
-112.1083063143989
 30
0.0
 10
3140.146136828287
 20
-111.7424991854924
 30
0.0
 10
3140.48434874235
 20
-111.7048580722113
 30
0.0
 10
3140.851644152506
 20
-111.6641163729925
 30
0.0
  0
SPLINE
  5
18720
330
18
100
AcDbEntity
  8
姿図
100
AcDbSpline
210
0.0
220
0.0
230
1.0
 70
     8
 71
     3
 72
     8
 73
     4
 74
     0
 42
0.000000001
 43
0.0000000001
 40
61.0
 40
61.0
 40
61.0
 40
61.0
 40
62.0
 40
62.0
 40
62.0
 40
62.0
 10
3138.212487414225
 20
-117.6217682284615
 30
0.0
 10
3138.89188780485
 20
-115.034949380805
 30
0.0
 10
3139.884881457193
 20
-112.4741134433049
 30
0.0
 10
3140.015478136881
 20
-112.1083063143989
 30
0.0
  0
SPLINE
  5
18721
330
18
100
AcDbEntity
  8
姿図
100
AcDbSpline
210
0.0
220
0.0
230
1.0
 70
     8
 71
     3
 72
     8
 73
     4
 74
     0
 42
0.000000001
 43
0.0000000001
 40
60.0
 40
60.0
 40
60.0
 40
60.0
 40
61.0
 40
61.0
 40
61.0
 40
61.0
 10
3136.9308292111
 20
-124.7262648104926
 30
0.0
 10
3137.028993761881
 20
-123.7075362948677
 30
0.0
 10
3137.5330870236
 20
-120.208711099555
 30
0.0
 10
3138.212487414225
 20
-117.6217682284615
 30
0.0
  0
SPLINE
  5
18722
330
18
100
AcDbEntity
  8
姿図
100
AcDbSpline
210
0.0
220
0.0
230
1.0
 70
    24
 71
     3
 72
     8
 73
     4
 74
     0
 42
0.000000001
 43
0.0000000001
 40
55.0
 40
55.0
 40
55.0
 40
55.0
 40
56.0
 40
56.0
 40
56.0
 40
56.0
 10
3134.850832140787
 20
-131.7910118808055
 30
0.0
 10
3134.850832140787
 20
-131.7910118808055
 30
0.0
 10
3134.961771105631
 20
-131.6599191073675
 30
0.0
 10
3134.961771105631
 20
-131.6599191073675
 30
0.0
  0
SPLINE
  5
18723
330
18
100
AcDbEntity
  8
姿図
100
AcDbSpline
210
0.0
220
0.0
230
1.0
 70
     8
 71
     3
 72
     8
 73
     4
 74
     0
 42
0.000000001
 43
0.0000000001
 40
54.0
 40
54.0
 40
54.0
 40
54.0
 40
55.0
 40
55.0
 40
55.0
 40
55.0
 10
3134.488001574381
 20
-131.3979816073676
 30
0.0
 10
3134.548525011881
 20
-131.45838102143
 30
0.0
 10
3134.850832140787
 20
-131.7910118808055
 30
0.0
 10
3134.850832140787
 20
-131.7910118808055
 30
0.0
  0
SPLINE
  5
18724
330
18
100
AcDbEntity
  8
姿図
100
AcDbSpline
210
0.0
220
0.0
230
1.0
 70
     8
 71
     3
 72
     8
 73
     4
 74
     0
 42
0.000000001
 43
0.0000000001
 40
53.0
 40
53.0
 40
53.0
 40
53.0
 40
54.0
 40
54.0
 40
54.0
 40
54.0
 10
3134.367078722818
 20
-131.4282433261179
 30
0.0
 10
3134.367078722818
 20
-131.4282433261179
 30
0.0
 10
3134.4275401486
 20
-131.3374581698678
 30
0.0
 10
3134.488001574381
 20
-131.3979816073676
 30
0.0
  0
SPLINE
  5
18725
330
18
100
AcDbEntity
  8
姿図
100
AcDbSpline
210
0.0
220
0.0
230
1.0
 70
    24
 71
     3
 72
     8
 73
     4
 74
     0
 42
0.000000001
 43
0.0000000001
 40
52.0
 40
52.0
 40
52.0
 40
52.0
 40
53.0
 40
53.0
 40
53.0
 40
53.0
 10
3134.377186632975
 20
-131.8816730136174
 30
0.0
 10
3134.377186632975
 20
-131.8816730136174
 30
0.0
 10
3134.367078722818
 20
-131.4282433261179
 30
0.0
 10
3134.367078722818
 20
-131.4282433261179
 30
0.0
  0
SPLINE
  5
18726
330
18
100
AcDbEntity
  8
姿図
100
AcDbSpline
210
0.0
220
0.0
230
1.0
 70
     8
 71
     3
 72
     8
 73
     4
 74
     0
 42
0.000000001
 43
0.0000000001
 40
51.0
 40
51.0
 40
51.0
 40
51.0
 40
52.0
 40
52.0
 40
52.0
 40
52.0
 10
3134.528309191568
 20
-132.0631193026799
 30
0.0
 10
3134.387232531412
 20
-131.9018888339302
 30
0.0
 10
3134.377186632975
 20
-131.8816730136174
 30
0.0
 10
3134.377186632975
 20
-131.8816730136174
 30
0.0
  0
SPLINE
  5
18727
330
18
100
AcDbEntity
  8
姿図
100
AcDbSpline
210
0.0
220
0.0
230
1.0
 70
     8
 71
     3
 72
     8
 73
     4
 74
     0
 42
0.000000001
 43
0.0000000001
 40
50.0
 40
50.0
 40
50.0
 40
50.0
 40
51.0
 40
51.0
 40
51.0
 40
51.0
 10
3133.093438662522
 20
-133.5157307784258
 30
0.0
 10
3133.093438662522
 20
-133.5157307784258
 30
0.0
 10
3134.014356066568
 20
-132.4159659823678
 30
0.0
 10
3134.528309191568
 20
-132.0631193026799
 30
0.0
  0
SPLINE
  5
18728
330
18
100
AcDbEntity
  8
姿図
100
AcDbSpline
210
0.0
220
0.0
230
1.0
 70
    24
 71
     3
 72
     8
 73
     4
 74
     0
 42
0.000000001
 43
0.0000000001
 40
49.0
 40
49.0
 40
49.0
 40
49.0
 40
50.0
 40
50.0
 40
50.0
 40
50.0
 10
3133.038210232113
 20
-132.5441516324814
 30
0.0
 10
3133.038210232113
 20
-132.5441516324814
 30
0.0
 10
3133.093438662522
 20
-133.5157307784258
 30
0.0
 10
3133.093438662522
 20
-133.5157307784258
 30
0.0
  0
SPLINE
  5
18729
330
18
100
AcDbEntity
  8
姿図
100
AcDbSpline
210
0.0
220
0.0
230
1.0
 70
    24
 71
     3
 72
     8
 73
     4
 74
     0
 42
0.000000001
 43
0.0000000001
 40
48.0
 40
48.0
 40
48.0
 40
48.0
 40
49.0
 40
49.0
 40
49.0
 40
49.0
 10
3133.459971300943
 20
-132.5771964511174
 30
0.0
 10
3133.038210232113
 20
-132.5441516324814
 30
0.0
 10
3133.038210232113
 20
-132.5441516324814
 30
0.0
 10
3133.038210232113
 20
-132.5441516324814
 30
0.0
  0
SPLINE
  5
1872A
330
18
100
AcDbEntity
  8
姿図
100
AcDbSpline
210
0.0
220
0.0
230
1.0
 70
     8
 71
     3
 72
     8
 73
     4
 74
     0
 42
0.000000001
 43
0.0000000001
 40
47.0
 40
47.0
 40
47.0
 40
47.0
 40
48.0
 40
48.0
 40
48.0
 40
48.0
 10
3133.863171496256
 20
-132.4258878573675
 30
0.0
 10
3133.863171496256
 20
-132.4258878573675
 30
0.0
 10
3133.752294543131
 20
-132.6175040683053
 30
0.0
 10
3133.459971300943
 20
-132.5771964511174
 30
0.0
  0
SPLINE
  5
1872B
330
18
100
AcDbEntity
  8
姿図
100
AcDbSpline
210
0.0
220
0.0
230
1.0
 70
     8
 71
     3
 72
     8
 73
     4
 74
     0
 42
0.000000001
 43
0.0000000001
 40
46.0
 40
46.0
 40
46.0
 40
46.0
 40
47.0
 40
47.0
 40
47.0
 40
47.0
 10
3133.903479113444
 20
-131.9221046542426
 30
0.0
 10
3133.9135870236
 20
-131.9925499667426
 30
0.0
 10
3133.863171496256
 20
-132.4258878573675
 30
0.0
 10
3133.863171496256
 20
-132.4258878573675
 30
0.0
  0
SPLINE
  5
1872C
330
18
100
AcDbEntity
  8
姿図
100
AcDbSpline
210
0.0
220
0.0
230
1.0
 70
     8
 71
     3
 72
     8
 73
     4
 74
     0
 42
0.000000001
 43
0.0000000001
 40
45.0
 40
45.0
 40
45.0
 40
45.0
 40
46.0
 40
46.0
 40
46.0
 40
46.0
 10
3134.0445557736
 20
-131.6801349276799
 30
0.0
 10
3134.034509875162
 20
-131.7707960604927
 30
0.0
 10
3133.893433215006
 20
-131.8514112948675
 30
0.0
 10
3133.903479113444
 20
-131.9221046542426
 30
0.0
  0
SPLINE
  5
1872D
330
18
100
AcDbEntity
  8
姿図
100
AcDbSpline
210
0.0
220
0.0
230
1.0
 70
     8
 71
     3
 72
     8
 73
     4
 74
     0
 42
0.000000001
 43
0.0000000001
 40
44.0
 40
44.0
 40
44.0
 40
44.0
 40
45.0
 40
45.0
 40
45.0
 40
45.0
 10
3133.923632922037
 20
-131.4180734042426
 30
0.0
 10
3134.0445557736
 20
-131.5793038729927
 30
0.0
 10
3134.054663683756
 20
-131.5894737948676
 30
0.0
 10
3134.0445557736
 20
-131.6801349276799
 30
0.0
  0
SPLINE
  5
1872E
330
18
100
AcDbEntity
  8
姿図
100
AcDbSpline
210
0.0
220
0.0
230
1.0
 70
     8
 71
     3
 72
     8
 73
     4
 74
     0
 42
0.000000001
 43
0.0000000001
 40
43.0
 40
43.0
 40
43.0
 40
43.0
 40
44.0
 40
44.0
 40
44.0
 40
44.0
 10
3133.480125109537
 20
-130.8334269198677
 30
0.0
 10
3133.711986925943
 20
-130.9343819979928
 30
0.0
 10
3133.802648058756
 20
-131.2568429354925
 30
0.0
 10
3133.923632922037
 20
-131.4180734042426
 30
0.0
  0
SPLINE
  5
1872F
330
18
100
AcDbEntity
  8
姿図
100
AcDbSpline
210
0.0
220
0.0
230
1.0
 70
     8
 71
     3
 72
     8
 73
     4
 74
     0
 42
0.000000001
 43
0.0000000001
 40
42.0
 40
42.0
 40
42.0
 40
42.0
 40
43.0
 40
43.0
 40
43.0
 40
43.0
 10
3133.107930773599
 20
-130.8793155917425
 30
0.0
 10
3133.148238390787
 20
-130.869269693305
 30
0.0
 10
3133.248387316568
 20
-130.7327198886175
 30
0.0
 10
3133.480125109537
 20
-130.8334269198677
 30
0.0
  0
SPLINE
  5
18730
330
18
100
AcDbEntity
  8
姿図
100
AcDbSpline
210
0.0
220
0.0
230
1.0
 70
     8
 71
     3
 72
    11
 73
     7
 74
     0
 42
0.000000001
 43
0.0000000001
 40
40.0
 40
40.0
 40
40.0
 40
40.0
 40
41.0
 40
41.0
 40
41.0
 40
42.0
 40
42.0
 40
42.0
 40
42.0
 10
3132.924190050943
 20
-129.4619757479928
 30
0.0
 10
3132.924190050943
 20
-129.4619757479928
 30
0.0
 10
3133.107930773599
 20
-129.4093898104926
 30
0.0
 10
3133.107930773599
 20
-129.5668995761176
 30
0.0
 10
3133.107930773599
 20
-129.7244093417427
 30
0.0
 10
3133.107930773599
 20
-130.8793155917425
 30
0.0
 10
3133.107930773599
 20
-130.8793155917425
 30
0.0
  0
SPLINE
  5
18731
330
18
100
AcDbEntity
  8
姿図
100
AcDbSpline
210
0.0
220
0.0
230
1.0
 70
     8
 71
     3
 72
     8
 73
     4
 74
     0
 42
0.000000001
 43
0.0000000001
 40
39.0
 40
39.0
 40
39.0
 40
39.0
 40
40.0
 40
40.0
 40
40.0
 40
40.0
 10
3132.8192042111
 20
-129.6456544589302
 30
0.0
 10
3132.924190050943
 20
-129.8031642245552
 30
0.0
 10
3132.924190050943
 20
-129.4619757479928
 30
0.0
 10
3132.924190050943
 20
-129.4619757479928
 30
0.0
  0
SPLINE
  5
18732
330
18
100
AcDbEntity
  8
姿図
100
AcDbSpline
210
0.0
220
0.0
230
1.0
 70
     8
 71
     3
 72
     8
 73
     4
 74
     0
 42
0.000000001
 43
0.0000000001
 40
38.0
 40
38.0
 40
38.0
 40
38.0
 40
39.0
 40
39.0
 40
39.0
 40
39.0
 10
3132.215520129068
 20
-129.4619757479928
 30
0.0
 10
3132.215520129068
 20
-129.4619757479928
 30
0.0
 10
3132.714218371256
 20
-129.4882687167425
 30
0.0
 10
3132.8192042111
 20
-129.6456544589302
 30
0.0
  0
SPLINE
  5
18733
330
18
100
AcDbEntity
  8
姿図
100
AcDbSpline
210
0.0
220
0.0
230
1.0
 70
    24
 71
     3
 72
     8
 73
     4
 74
     0
 42
0.000000001
 43
0.0000000001
 40
37.0
 40
37.0
 40
37.0
 40
37.0
 40
38.0
 40
38.0
 40
38.0
 40
38.0
 10
3132.110534289225
 20
-130.4593722323676
 30
0.0
 10
3132.110534289225
 20
-130.4593722323676
 30
0.0
 10
3132.215520129068
 20
-129.4619757479928
 30
0.0
 10
3132.215520129068
 20
-129.4619757479928
 30
0.0
  0
SPLINE
  5
18734
330
18
100
AcDbEntity
  8
姿図
100
AcDbSpline
210
0.0
220
0.0
230
1.0
 70
     8
 71
     3
 72
     8
 73
     4
 74
     0
 42
0.000000001
 43
0.0000000001
 40
36.0
 40
36.0
 40
36.0
 40
36.0
 40
37.0
 40
37.0
 40
37.0
 40
37.0
 10
3131.323109484537
 20
-130.4856652011177
 30
0.0
 10
3131.611836047037
 20
-130.4593722323676
 30
0.0
 10
3132.110534289225
 20
-130.4593722323676
 30
0.0
 10
3132.110534289225
 20
-130.4593722323676
 30
0.0
  0
SPLINE
  5
18735
330
18
100
AcDbEntity
  8
姿図
100
AcDbSpline
210
0.0
220
0.0
230
1.0
 70
     8
 71
     3
 72
     8
 73
     4
 74
     0
 42
0.000000001
 43
0.0000000001
 40
35.0
 40
35.0
 40
35.0
 40
35.0
 40
36.0
 40
36.0
 40
36.0
 40
36.0
 10
3130.981796984537
 20
-130.4593722323676
 30
0.0
 10
3131.165599718912
 20
-130.2232316073674
 30
0.0
 10
3131.323109484537
 20
-130.1969386386178
 30
0.0
 10
3131.323109484537
 20
-130.4856652011177
 30
0.0
  0
SPLINE
  5
18736
330
18
100
AcDbEntity
  8
姿図
100
AcDbSpline
210
0.0
220
0.0
230
1.0
 70
     8
 71
     3
 72
    14
 73
    10
 74
     0
 42
0.000000001
 43
0.0000000001
 40
32.0
 40
32.0
 40
32.0
 40
32.0
 40
33.0
 40
33.0
 40
33.0
 40
34.0
 40
34.0
 40
34.0
 40
35.0
 40
35.0
 40
35.0
 40
35.0
 10
3131.270585558756
 20
-132.9529874667429
 30
0.0
 10
3131.270585558756
 20
-132.9529874667429
 30
0.0
 10
3131.349340441569
 20
-133.1628351229925
 30
0.0
 10
3131.060613879069
 20
-133.1366661776802
 30
0.0
 10
3130.771887316569
 20
-133.1104972323675
 30
0.0
 10
3130.7981182736
 20
-132.0868077792426
 30
0.0
 10
3130.7981182736
 20
-131.7980812167426
 30
0.0
 10
3130.7981182736
 20
-131.5093546542427
 30
0.0
 10
3130.7981182736
 20
-130.6955128573678
 30
0.0
 10
3130.981796984537
 20
-130.4593722323676
 30
0.0
  0
SPLINE
  5
18737
330
18
100
AcDbEntity
  8
姿図
100
AcDbSpline
210
0.0
220
0.0
230
1.0
 70
    24
 71
     3
 72
     8
 73
     4
 74
     0
 42
0.000000001
 43
0.0000000001
 40
31.0
 40
31.0
 40
31.0
 40
31.0
 40
32.0
 40
32.0
 40
32.0
 40
32.0
 10
3132.084241320475
 20
-133.0579112948677
 30
0.0
 10
3132.084241320475
 20
-133.0579112948677
 30
0.0
 10
3131.270585558756
 20
-132.9529874667429
 30
0.0
 10
3131.270585558756
 20
-132.9529874667429
 30
0.0
  0
SPLINE
  5
18738
330
18
100
AcDbEntity
  8
姿図
100
AcDbSpline
210
0.0
220
0.0
230
1.0
 70
    24
 71
     3
 72
     8
 73
     4
 74
     0
 42
0.000000001
 43
0.0000000001
 40
30.0
 40
30.0
 40
30.0
 40
30.0
 40
31.0
 40
31.0
 40
31.0
 40
31.0
 10
3132.084241320475
 20
-133.9503839511177
 30
0.0
 10
3132.084241320475
 20
-133.9503839511177
 30
0.0
 10
3132.084241320475
 20
-133.0579112948677
 30
0.0
 10
3132.084241320475
 20
-133.0579112948677
 30
0.0
  0
SPLINE
  5
18739
330
18
100
AcDbEntity
  8
姿図
100
AcDbSpline
210
0.0
220
0.0
230
1.0
 70
    24
 71
     3
 72
     8
 73
     4
 74
     0
 42
0.000000001
 43
0.0000000001
 40
29.0
 40
29.0
 40
29.0
 40
29.0
 40
30.0
 40
30.0
 40
30.0
 40
30.0
 10
3132.2417510861
 20
-133.9503839511177
 30
0.0
 10
3132.2417510861
 20
-133.9503839511177
 30
0.0
 10
3132.084241320475
 20
-133.9503839511177
 30
0.0
 10
3132.084241320475
 20
-133.9503839511177
 30
0.0
  0
SPLINE
  5
1873A
330
18
100
AcDbEntity
  8
姿図
100
AcDbSpline
210
0.0
220
0.0
230
1.0
 70
     8
 71
     3
 72
     8
 73
     4
 74
     0
 42
0.000000001
 43
0.0000000001
 40
28.0
 40
28.0
 40
28.0
 40
28.0
 40
29.0
 40
29.0
 40
29.0
 40
29.0
 10
3132.215520129068
 20
-138.2812823886176
 30
0.0
 10
3132.189289172037
 20
-135.7613741854926
 30
0.0
 10
3132.2417510861
 20
-133.9503839511177
 30
0.0
 10
3132.2417510861
 20
-133.9503839511177
 30
0.0
  0
SPLINE
  5
1873B
330
18
100
AcDbEntity
  8
姿図
100
AcDbSpline
210
0.0
220
0.0
230
1.0
 70
     8
 71
     3
 72
     8
 73
     4
 74
     0
 42
0.000000001
 43
0.0000000001
 40
27.0
 40
27.0
 40
27.0
 40
27.0
 40
28.0
 40
28.0
 40
28.0
 40
28.0
 10
3132.661694445474
 20
-144.2657853183051
 30
0.0
 10
3132.642222765787
 20
-144.0317530917424
 30
0.0
 10
3132.2417510861
 20
-140.8010665683051
 30
0.0
 10
3132.215520129068
 20
-138.2812823886176
 30
0.0
  0
SPLINE
  5
1873C
330
18
100
AcDbEntity
  8
姿図
100
AcDbSpline
210
0.0
220
0.0
230
1.0
 70
     8
 71
     3
 72
     8
 73
     4
 74
     0
 42
0.000000001
 43
0.0000000001
 40
26.0
 40
26.0
 40
26.0
 40
26.0
 40
27.0
 40
27.0
 40
27.0
 40
27.0
 10
3132.661694445474
 20
-145.9456827792425
 30
0.0
 10
3132.687987414225
 20
-144.7120216464301
 30
0.0
 10
3132.687987414225
 20
-144.5808048495552
 30
0.0
 10
3132.661694445474
 20
-144.2657853183051
 30
0.0
  0
SPLINE
  5
1873D
330
18
100
AcDbEntity
  8
姿図
100
AcDbSpline
210
0.0
220
0.0
230
1.0
 70
     8
 71
     3
 72
     8
 73
     4
 74
     0
 42
0.000000001
 43
0.0000000001
 40
25.0
 40
25.0
 40
25.0
 40
25.0
 40
26.0
 40
26.0
 40
26.0
 40
26.0
 10
3132.714218371256
 20
-148.3342501620551
 30
0.0
 10
3132.714218371256
 20
-148.3342501620551
 30
0.0
 10
3132.5304776486
 20
-147.3368536776803
 30
0.0
 10
3132.661694445474
 20
-145.9456827792425
 30
0.0
  0
SPLINE
  5
1873E
330
18
100
AcDbEntity
  8
姿図
100
AcDbSpline
210
0.0
220
0.0
230
1.0
 70
     8
 71
     3
 72
     8
 73
     4
 74
     0
 42
0.000000001
 43
0.0000000001
 40
24.0
 40
24.0
 40
24.0
 40
24.0
 40
25.0
 40
25.0
 40
25.0
 40
25.0
 10
3132.136765246256
 20
-147.25797477143
 30
0.0
 10
3132.2417510861
 20
-147.4417775058051
 30
0.0
 10
3132.714218371256
 20
-148.3342501620551
 30
0.0
 10
3132.714218371256
 20
-148.3342501620551
 30
0.0
  0
SPLINE
  5
1873F
330
18
100
AcDbEntity
  8
姿図
100
AcDbSpline
210
0.0
220
0.0
230
1.0
 70
     8
 71
     3
 72
     8
 73
     4
 74
     0
 42
0.000000001
 43
0.0000000001
 40
23.0
 40
23.0
 40
23.0
 40
23.0
 40
24.0
 40
24.0
 40
24.0
 40
24.0
 10
3131.611836047037
 20
-147.3368536776803
 30
0.0
 10
3131.979255480631
 20
-147.1005890292428
 30
0.0
 10
3132.031779406412
 20
-147.0742960604927
 30
0.0
 10
3132.136765246256
 20
-147.25797477143
 30
0.0
  0
SPLINE
  5
18740
330
18
100
AcDbEntity
  8
姿図
100
AcDbSpline
210
0.0
220
0.0
230
1.0
 70
     8
 71
     3
 72
     8
 73
     4
 74
     0
 42
0.000000001
 43
0.0000000001
 40
22.0
 40
22.0
 40
22.0
 40
22.0
 40
23.0
 40
23.0
 40
23.0
 40
23.0
 10
3130.719712205454
 20
-148.0479113479543
 30
0.0
 10
3130.719712205454
 20
-148.0479113479543
 30
0.0
 10
3131.244292590006
 20
-147.5731183261174
 30
0.0
 10
3131.611836047037
 20
-147.3368536776803
 30
0.0
  0
SPLINE
  5
18741
330
18
100
AcDbEntity
  8
姿図
100
AcDbSpline
210
0.0
220
0.0
230
1.0
 70
     8
 71
     3
 72
     8
 73
     4
 74
     0
 42
0.000000001
 43
0.0000000001
 40
21.0
 40
21.0
 40
21.0
 40
21.0
 40
22.0
 40
22.0
 40
22.0
 40
22.0
 10
3130.693070422037
 20
-145.735711099555
 30
0.0
 10
3130.745656359537
 20
-145.9981446933049
 30
0.0
 10
3130.719712205454
 20
-148.0479113479543
 30
0.0
 10
3130.719712205454
 20
-148.0479113479543
 30
0.0
  0
SPLINE
  5
18742
330
18
100
AcDbEntity
  8
姿図
100
AcDbSpline
210
0.0
220
0.0
230
1.0
 70
     8
 71
     3
 72
     8
 73
     4
 74
     0
 42
0.000000001
 43
0.0000000001
 40
20.0
 40
20.0
 40
20.0
 40
20.0
 40
21.0
 40
21.0
 40
21.0
 40
21.0
 10
3130.168203234537
 20
-145.0007482089301
 30
0.0
 10
3130.168203234537
 20
-145.0007482089301
 30
0.0
 10
3130.640608507975
 20
-145.4731534823674
 30
0.0
 10
3130.693070422037
 20
-145.735711099555
 30
0.0
  0
SPLINE
  5
18743
330
18
100
AcDbEntity
  8
姿図
100
AcDbSpline
210
0.0
220
0.0
230
1.0
 70
     8
 71
     3
 72
    11
 73
     7
 74
     0
 42
0.000000001
 43
0.0000000001
 40
18.0
 40
18.0
 40
18.0
 40
18.0
 40
19.0
 40
19.0
 40
19.0
 40
20.0
 40
20.0
 40
20.0
 40
20.0
 10
3129.958169543131
 20
-140.7223116854926
 30
0.0
 10
3130.220665148599
 20
-140.696018716743
 30
0.0
 10
3130.246896105631
 20
-140.9585763339302
 30
0.0
 10
3130.246896105631
 20
-141.0897931308051
 30
0.0
 10
3130.246896105631
 20
-141.22100992768
 30
0.0
 10
3130.168203234537
 20
-145.0007482089301
 30
0.0
 10
3130.168203234537
 20
-145.0007482089301
 30
0.0
  0
SPLINE
  5
18744
330
18
100
AcDbEntity
  8
姿図
100
AcDbSpline
210
0.0
220
0.0
230
1.0
 70
     8
 71
     3
 72
     8
 73
     4
 74
     0
 42
0.000000001
 43
0.0000000001
 40
17.0
 40
17.0
 40
17.0
 40
17.0
 40
18.0
 40
18.0
 40
18.0
 40
18.0
 10
3129.538226183756
 20
-140.9847452792425
 30
0.0
 10
3129.538164172037
 20
-140.9847452792425
 30
0.0
 10
3129.695735949381
 20
-140.7486046542427
 30
0.0
 10
3129.958169543131
 20
-140.7223116854926
 30
0.0
  0
SPLINE
  5
18745
330
18
100
AcDbEntity
  8
姿図
100
AcDbSpline
210
0.0
220
0.0
230
1.0
 70
     8
 71
     3
 72
    14
 73
    10
 74
     0
 42
0.000000001
 43
0.0000000001
 40
14.0
 40
14.0
 40
14.0
 40
14.0
 40
15.0
 40
15.0
 40
15.0
 40
16.0
 40
16.0
 40
16.0
 40
17.0
 40
17.0
 40
17.0
 40
17.0
 10
3128.593291613443
 20
-142.6121808261174
 30
0.0
 10
3128.593291613443
 20
-142.2446993808049
 30
0.0
 10
3128.698277453287
 20
-141.5621984042428
 30
0.0
 10
3128.698277453287
 20
-141.3785196933051
 30
0.0
 10
3128.698277453287
 20
-141.1948409823677
 30
0.0
 10
3128.855787218912
 20
-140.9847452792425
 30
0.0
 10
3129.0657588986
 20
-140.9847452792425
 30
0.0
 10
3129.275730578287
 20
-140.9847452792425
 30
0.0
 10
3129.538226183756
 20
-140.9847452792425
 30
0.0
 10
3129.538226183756
 20
-140.9847452792425
 30
0.0
  0
SPLINE
  5
18746
330
18
100
AcDbEntity
  8
姿図
100
AcDbSpline
210
0.0
220
0.0
230
1.0
 70
    24
 71
     3
 72
     8
 73
     4
 74
     0
 42
0.000000001
 43
0.0000000001
 40
4.0
 40
4.0
 40
4.0
 40
4.0
 40
5.0
 40
5.0
 40
5.0
 40
5.0
 10
3128.517017199381
 20
-146.0840929354928
 30
0.0
 10
3128.517017199381
 20
-146.0840929354928
 30
0.0
 10
3128.527683215006
 20
-144.7114015292428
 30
0.0
 10
3128.527683215006
 20
-144.7114015292428
 30
0.0
  0
SPLINE
  5
18747
330
18
100
AcDbEntity
  8
姿図
100
AcDbSpline
210
0.0
220
0.0
230
1.0
 70
     8
 71
     3
 72
     8
 73
     4
 74
     0
 42
0.000000001
 43
0.0000000001
 40
4.0
 40
4.0
 40
4.0
 40
4.0
 40
5.0
 40
5.0
 40
5.0
 40
5.0
 10
3140.240332629068
 20
-126.978034341743
 30
0.0
 10
3139.505989855631
 20
-126.4818165683051
 30
0.0
 10
3139.069427355631
 20
-126.1246290683054
 30
0.0
 10
3138.831302355631
 20
-125.8466925448676
 30
0.0
  0
SPLINE
  5
18748
330
18
100
AcDbEntity
  8
姿図
100
AcDbSpline
210
0.0
220
0.0
230
1.0
 70
     8
 71
     3
 72
     8
 73
     4
 74
     0
 42
0.000000001
 43
0.0000000001
 40
3.0
 40
3.0
 40
3.0
 40
3.0
 40
4.0
 40
4.0
 40
4.0
 40
4.0
 10
3141.768487414225
 20
-127.6725655917427
 30
0.0
 10
3141.768487414225
 20
-127.6725655917427
 30
0.0
 10
3141.173050890787
 20
-127.5535030917428
 30
0.0
 10
3140.240332629068
 20
-126.978034341743
 30
0.0
  0
SPLINE
  5
18749
330
18
100
AcDbEntity
  8
姿図
100
AcDbSpline
210
0.0
220
0.0
230
1.0
 70
     8
 71
     3
 72
     8
 73
     4
 74
     0
 42
0.000000001
 43
0.0000000001
 40
2.0
 40
2.0
 40
2.0
 40
2.0
 40
3.0
 40
3.0
 40
3.0
 40
3.0
 10
3141.808174914225
 20
-129.0618761386178
 30
0.0
 10
3141.768487414225
 20
-128.6253136386177
 30
0.0
 10
3141.768487414225
 20
-127.6725655917427
 30
0.0
 10
3141.768487414225
 20
-127.6725655917427
 30
0.0
  0
SPLINE
  5
1874A
330
18
100
AcDbEntity
  8
姿図
100
AcDbSpline
210
0.0
220
0.0
230
1.0
 70
     8
 71
     3
 72
     8
 73
     4
 74
     0
 42
0.000000001
 43
0.0000000001
 40
1.0
 40
1.0
 40
1.0
 40
1.0
 40
2.0
 40
2.0
 40
2.0
 40
2.0
 10
3138.116803332193
 20
-130.1334386386176
 30
0.0
 10
3138.533584093912
 20
-129.9945323886174
 30
0.0
 10
3139.92277061735
 20
-129.4984386386178
 30
0.0
 10
3141.808174914225
 20
-129.0618761386178
 30
0.0
  0
SPLINE
  5
1874B
330
18
100
AcDbEntity
  8
姿図
100
AcDbSpline
210
0.0
220
0.0
230
1.0
 70
     8
 71
     3
 72
     8
 73
     4
 74
     0
 42
0.000000001
 43
0.0000000001
 40
0.0
 40
0.0
 40
0.0
 40
0.0
 40
1.0
 40
1.0
 40
1.0
 40
1.0
 10
3138.831302355631
 20
-125.8466925448676
 30
0.0
 10
3138.672490343912
 20
-126.3032228183052
 30
0.0
 10
3138.096959582193
 20
-129.2206261386178
 30
0.0
 10
3138.116803332193
 20
-130.1334386386176
 30
0.0
  0
SPLINE
  5
1874C
330
18
100
AcDbEntity
  8
姿図
100
AcDbSpline
210
0.0
220
0.0
230
1.0
 70
     8
 71
     3
 72
    11
 73
     7
 74
     0
 42
0.000000001
 43
0.0000000001
 40
3.0
 40
3.0
 40
3.0
 40
3.0
 40
4.0
 40
4.0
 40
4.0
 40
5.0
 40
5.0
 40
5.0
 40
5.0
 10
3156.037693957193
 20
-130.3517198886176
 30
0.0
 10
3156.117192980631
 20
-130.1532823886179
 30
0.0
 10
3156.097225207193
 20
-129.4587511386177
 30
0.0
 10
3155.878943957193
 20
-128.2084708651802
 30
0.0
 10
3155.660662707193
 20
-126.9581905917427
 30
0.0
 10
3155.680506457194
 20
-126.8588478183052
 30
0.0
 10
3155.581287707193
 20
-126.4024415683053
 30
0.0
  0
SPLINE
  5
1874D
330
18
100
AcDbEntity
  8
姿図
100
AcDbSpline
210
0.0
220
0.0
230
1.0
 70
     8
 71
     3
 72
     8
 73
     4
 74
     0
 42
0.000000001
 43
0.0000000001
 40
2.0
 40
2.0
 40
2.0
 40
2.0
 40
3.0
 40
3.0
 40
3.0
 40
3.0
 10
3153.021195910319
 20
-129.3000011386176
 30
0.0
 10
3153.259320910318
 20
-129.3198448886175
 30
0.0
 10
3155.779725207193
 20
-130.1731261386177
 30
0.0
 10
3156.037693957193
 20
-130.3517198886176
 30
0.0
  0
SPLINE
  5
1874E
330
18
100
AcDbEntity
  8
姿図
100
AcDbSpline
210
0.0
220
0.0
230
1.0
 70
     8
 71
     3
 72
     8
 73
     4
 74
     0
 42
0.000000001
 43
0.0000000001
 40
1.0
 40
1.0
 40
1.0
 40
1.0
 40
2.0
 40
2.0
 40
2.0
 40
2.0
 10
3153.021195910319
 20
-127.8114718417424
 30
0.0
 10
3153.001352160319
 20
-128.0695646151804
 30
0.0
 10
3153.021195910319
 20
-129.2404698886177
 30
0.0
 10
3153.021195910319
 20
-129.3000011386176
 30
0.0
  0
SPLINE
  5
1874F
330
18
100
AcDbEntity
  8
姿図
100
AcDbSpline
210
0.0
220
0.0
230
1.0
 70
     8
 71
     3
 72
     8
 73
     4
 74
     0
 42
0.000000001
 43
0.0000000001
 40
0.0
 40
0.0
 40
0.0
 40
0.0
 40
1.0
 40
1.0
 40
1.0
 40
1.0
 10
3155.581287707193
 20
-126.4024415683053
 30
0.0
 10
3155.382850207193
 20
-126.6010030917429
 30
0.0
 10
3154.708038683756
 20
-127.2161593417428
 30
0.0
 10
3153.021195910319
 20
-127.8114718417424
 30
0.0
  0
ENDSEC
  0
SECTION
  2
OBJECTS
  0
DICTIONARY
  5
C
330
0
100
AcDbDictionary
281
     1
  3
ACAD_GROUP
350
D
  3
ACAD_IMAGE_VARS
350
18A7D
  3
ACAD_LAYOUT
350
617
  3
ACAD_MLINESTYLE
350
E
  3
ACAD_PLOTSETTINGS
350
618
  3
ACAD_PLOTSTYLENAME
350
615
  3
ACAD_SCALELIST
350
10B46
  3
AcadDim
350
50AA
  3
AcDbVariableDictionary
350
6DE
  3
APPDATA
350
18A7C
  3
ASE_INDEX_DICTIONARY
350
E61A
  3
DWGPROPS
350
18AA1
  0
DICTIONARY
  5
115BE
330
2
100
AcDbDictionary
280
     1
281
     1
  3
ACAD_LAYERSTATES
360
115BF
  0
DICTIONARY
  5
10B6E
330
F
100
AcDbDictionary
280
     1
281
     1
  3
ADSK_XREC_LAYER_RECONCILED
360
10B6F
  0
DICTIONARY
  5
10B72
330
34
100
AcDbDictionary
280
     1
281
     1
  3
ADSK_XREC_LAYER_RECONCILED
360
10B73
  0
DICTIONARY
  5
10B7A
330
2F4
100
AcDbDictionary
280
     1
281
     1
  3
ADSK_XREC_LAYER_RECONCILED
360
10B7B
  0
DICTIONARY
  5
10B7E
330
305
100
AcDbDictionary
280
     1
281
     1
  3
ADSK_XREC_LAYER_RECONCILED
360
10B7F
  0
DICTIONARY
  5
13ED2
330
18
100
AcDbDictionary
280
     1
281
     1
  3
ACAD_SORTENTS
360
13ED3
  0
DICTIONARY
  5
D
102
{ACAD_REACTORS
330
C
102
}
330
C
100
AcDbDictionary
281
     1
  0
RASTERVARIABLES
  5
18A7D
102
{ACAD_REACTORS
330
C
102
}
330
C
100
AcDbRasterVariables
 90
        0
 70
     1
 71
     1
 72
     0
  0
DICTIONARY
  5
617
102
{ACAD_REACTORS
330
C
102
}
330
C
100
AcDbDictionary
281
     1
  3
Model
350
619
  3
ﾚｲｱｳﾄ1
350
61A
  0
DICTIONARY
  5
E
102
{ACAD_REACTORS
330
C
102
}
330
C
100
AcDbDictionary
281
     1
  3
STANDARD
350
1B
  0
DICTIONARY
  5
618
102
{ACAD_REACTORS
330
C
102
}
330
C
100
AcDbDictionary
281
     1
  0
ACDBDICTIONARYWDFLT
  5
615
102
{ACAD_REACTORS
330
C
102
}
330
C
100
AcDbDictionary
281
     1
  3
Normal
350
616
100
AcDbDictionaryWithDefault
340
616
  0
DICTIONARY
  5
10B46
102
{ACAD_REACTORS
330
C
102
}
330
C
100
AcDbDictionary
281
     1
  3
A0
350
10B47
  3
A1
350
10B48
  3
A2
350
10B49
  3
A3
350
10B4A
  3
A4
350
10B4B
  3
A5
350
10B4C
  3
A6
350
10B4D
  3
A7
350
10B4E
  3
A8
350
10B4F
  3
A9
350
10B50
  3
B0
350
10B51
  3
B1
350
10B52
  3
B2
350
10B53
  3
B3
350
10B54
  3
B4
350
10B55
  3
B5
350
10B56
  3
B6
350
10B57
  3
B7
350
10B58
  3
B8
350
10B59
  3
B9
350
10B5A
  3
C0
350
10B5B
  3
C1
350
10B5C
  3
C2
350
10B5D
  3
C3
350
10B5E
  3
C4
350
10B5F
  3
C5
350
10B60
  3
C6
350
10B61
  3
C7
350
10B62
  3
C8
350
10B63
  3
C9
350
10B64
  3
D0
350
10B65
  3
D1
350
10B66
  3
D2
350
10B67
  0
XRECORD
  5
50AA
102
{ACAD_REACTORS
330
C
102
}
330
C
100
AcDbXrecord
280
     1
 90
   990106
  3
OPEN
 60
     0
 61
     0
 62
     1
 63
     3
 64
     1
 65
     0
 66
     0
 67
     3
 68
     1
 69
     0
 70
     0
 71
     0
 72
     0
 40
0.0
170
     2
340
0
  0
DICTIONARY
  5
6DE
102
{ACAD_REACTORS
330
C
102
}
330
C
100
AcDbDictionary
281
     1
  3
DIMASSOC
350
6DF
  3
INDEXCTL
350
10BAA
  3
PROJECTNAME
350
6E0
  3
SORTENTS
350
10BA9
  0
DICTIONARY
  5
18A7C
102
{ACAD_REACTORS
330
C
102
}
330
C
100
AcDbDictionary
281
     1
  0
DICTIONARY
  5
E61A
102
{ACAD_REACTORS
330
C
102
}
330
C
100
AcDbDictionary
281
     1
  3
ASEBlockHierarchyIndexRecord
350
E61C
1001
DCO15
1040
1543850671.093
  0
XRECORD
  5
18AA1
102
{ACAD_REACTORS
330
C
102
}
330
C
100
AcDbXrecord
280
     1
  1
DWGPROPS COOKIE
  2

  3

  4

  6

  7

  8
SPAX
  9

300
=
301
=
302
=
303
=
304
=
305
=
306
=
307
=
308
=
309
=
 40
0.0
 41
2448636.244629629
 42
2456821.200797384
  1

 90
        0
  0
DICTIONARY
  5
115BF
102
{ACAD_REACTORS
330
115BE
102
}
330
115BE
100
AcDbDictionary
281
     1
  0
XRECORD
  5
10B6F
102
{ACAD_REACTORS
330
10B6E
102
}
330
10B6E
100
AcDbXrecord
280
     1
290
     1
  0
XRECORD
  5
10B73
102
{ACAD_REACTORS
330
10B72
102
}
330
10B72
100
AcDbXrecord
280
     1
290
     1
  0
XRECORD
  5
10B7B
102
{ACAD_REACTORS
330
10B7A
102
}
330
10B7A
100
AcDbXrecord
280
     1
290
     1
  0
XRECORD
  5
10B7F
102
{ACAD_REACTORS
330
10B7E
102
}
330
10B7E
100
AcDbXrecord
280
     1
290
     1
  0
SORTENTSTABLE
  5
13ED3
102
{ACAD_REACTORS
330
13ED2
102
}
330
13ED2
100
AcDbSortentsTable
330
18
331
0
  5
4514
331
32B5
  5
32B5
331
3E99
  5
3E99
331
5BEB
  5
5BEB
331
ABCE
  5
ABCE
  0
LAYOUT
  5
619
102
{ACAD_REACTORS
330
617
102
}
330
617
100
AcDbPlotSettings
  1

  2
JUST PDF 2
  4
A4
  6

 40
3.174999952316284
 41
3.174999952316284
 42
3.175003051757812
 43
3.17498779296875
 44
209.8886566162109
 45
297.0530090332031
 46
14.27171755861536
 47
9.85517307462581
 48
3103.347519573013
 49
-600.0000026088373
140
3453.337956562826
141
-58.01465233150441
142
1.0
143
2.0
 70
 11940
 72
     1
 73
     0
 74
     4
  7
spax form.ctb
 75
     0
147
0.5
148
-3103.347519573013
149
600.0000026088373
100
AcDbLayout
  1
Model
 70
     1
 71
     0
 10
0.0
 20
0.0
 11
12.0
 21
9.0
 12
0.0
 22
0.0
 32
0.0
 14
3094.046180844821
 24
-197.5666706719514
 34
0.0
 15
3201.086180844821
 25
-109.2707518023748
 35
0.0
146
0.0
 13
0.0
 23
0.0
 33
0.0
 16
1.0
 26
0.0
 36
0.0
 17
0.0
 27
1.0
 37
0.0
 76
     0
330
18
331
17FCC
1001
ACAD_PSEXT
1000
JUST PDF 2
1000
JUST PDF 2
1000
JUST PDF 2 Port:
1000

1070
     0
  0
LAYOUT
  5
61A
102
{ACAD_REACTORS
330
617
102
}
330
617
100
AcDbPlotSettings
  1

  2
Canon LASER SHOT LBP-750
  4

  6

 40
0.0
 41
0.0
 42
0.0
 43
0.0
 44
0.0
 45
0.0
 46
0.0
 47
0.0
 48
0.0
 49
0.0
140
0.0
141
0.0
142
1.0
143
1.0
 70
   688
 72
     0
 73
     0
 74
     5
  7
spax form.ctb
 75
    16
147
1.0
148
0.0
149
0.0
100
AcDbLayout
  1
ﾚｲｱｳﾄ1
 70
     0
 71
     1
 10
0.0
 20
0.0
 11
12.0
 21
9.0
 12
0.0
 22
0.0
 32
0.0
 14
1.000000000000000E+20
 24
1.000000000000000E+20
 34
1.000000000000000E+20
 15
-1.000000000000000E+20
 25
-1.000000000000000E+20
 35
-1.000000000000000E+20
146
0.0
 13
0.0
 23
0.0
 33
0.0
 16
1.0
 26
0.0
 36
0.0
 17
0.0
 27
1.0
 37
0.0
 76
     0
330
15
  0
MLINESTYLE
  5
1B
102
{ACAD_REACTORS
330
E
102
}
330
E
100
AcDbMlineStyle
  2
STANDARD
 70
     0
  3

 62
     0
 51
90.0
 52
90.0
 71
     2
 49
0.5
 62
   256
  6
BYLAYER
 49
-0.5
 62
   256
  6
BYLAYER
  0
ACDBPLACEHOLDER
  5
616
102
{ACAD_REACTORS
330
615
102
}
330
615
  0
SCALE
  5
10B47
102
{ACAD_REACTORS
330
10B46
102
}
330
10B46
100
AcDbScale
 70
     0
300
1:1
140
1.0
141
1.0
290
     1
  0
SCALE
  5
10B48
102
{ACAD_REACTORS
330
10B46
102
}
330
10B46
100
AcDbScale
 70
     0
300
1:2
140
1.0
141
2.0
290
     0
  0
SCALE
  5
10B49
102
{ACAD_REACTORS
330
10B46
102
}
330
10B46
100
AcDbScale
 70
     0
300
1:4
140
1.0
141
4.0
290
     0
  0
SCALE
  5
10B4A
102
{ACAD_REACTORS
330
10B46
102
}
330
10B46
100
AcDbScale
 70
     0
300
1:5
140
1.0
141
5.0
290
     0
  0
SCALE
  5
10B4B
102
{ACAD_REACTORS
330
10B46
102
}
330
10B46
100
AcDbScale
 70
     0
300
1:8
140
1.0
141
8.0
290
     0
  0
SCALE
  5
10B4C
102
{ACAD_REACTORS
330
10B46
102
}
330
10B46
100
AcDbScale
 70
     0
300
1:10
140
1.0
141
10.0
290
     0
  0
SCALE
  5
10B4D
102
{ACAD_REACTORS
330
10B46
102
}
330
10B46
100
AcDbScale
 70
     0
300
1:16
140
1.0
141
16.0
290
     0
  0
SCALE
  5
10B4E
102
{ACAD_REACTORS
330
10B46
102
}
330
10B46
100
AcDbScale
 70
     0
300
1:20
140
1.0
141
20.0
290
     0
  0
SCALE
  5
10B4F
102
{ACAD_REACTORS
330
10B46
102
}
330
10B46
100
AcDbScale
 70
     0
300
1:30
140
1.0
141
30.0
290
     0
  0
SCALE
  5
10B50
102
{ACAD_REACTORS
330
10B46
102
}
330
10B46
100
AcDbScale
 70
     0
300
1:40
140
1.0
141
40.0
290
     0
  0
SCALE
  5
10B51
102
{ACAD_REACTORS
330
10B46
102
}
330
10B46
100
AcDbScale
 70
     0
300
1:50
140
1.0
141
50.0
290
     0
  0
SCALE
  5
10B52
102
{ACAD_REACTORS
330
10B46
102
}
330
10B46
100
AcDbScale
 70
     0
300
1:100
140
1.0
141
100.0
290
     0
  0
SCALE
  5
10B53
102
{ACAD_REACTORS
330
10B46
102
}
330
10B46
100
AcDbScale
 70
     0
300
2:1
140
2.0
141
1.0
290
     0
  0
SCALE
  5
10B54
102
{ACAD_REACTORS
330
10B46
102
}
330
10B46
100
AcDbScale
 70
     0
300
4:1
140
4.0
141
1.0
290
     0
  0
SCALE
  5
10B55
102
{ACAD_REACTORS
330
10B46
102
}
330
10B46
100
AcDbScale
 70
     0
300
8:1
140
8.0
141
1.0
290
     0
  0
SCALE
  5
10B56
102
{ACAD_REACTORS
330
10B46
102
}
330
10B46
100
AcDbScale
 70
     0
300
10:1
140
10.0
141
1.0
290
     0
  0
SCALE
  5
10B57
102
{ACAD_REACTORS
330
10B46
102
}
330
10B46
100
AcDbScale
 70
     0
300
100:1
140
100.0
141
1.0
290
     0
  0
SCALE
  5
10B58
102
{ACAD_REACTORS
330
10B46
102
}
330
10B46
100
AcDbScale
 70
     0
300
1/128" = 1'-0"
140
0.0078125
141
12.0
290
     0
  0
SCALE
  5
10B59
102
{ACAD_REACTORS
330
10B46
102
}
330
10B46
100
AcDbScale
 70
     0
300
1/64" = 1'-0"
140
0.015625
141
12.0
290
     0
  0
SCALE
  5
10B5A
102
{ACAD_REACTORS
330
10B46
102
}
330
10B46
100
AcDbScale
 70
     0
300
1/32" = 1'-0"
140
0.03125
141
12.0
290
     0
  0
SCALE
  5
10B5B
102
{ACAD_REACTORS
330
10B46
102
}
330
10B46
100
AcDbScale
 70
     0
300
1/16" = 1'-0"
140
0.0625
141
12.0
290
     0
  0
SCALE
  5
10B5C
102
{ACAD_REACTORS
330
10B46
102
}
330
10B46
100
AcDbScale
 70
     0
300
3/32" = 1'-0"
140
0.09375
141
12.0
290
     0
  0
SCALE
  5
10B5D
102
{ACAD_REACTORS
330
10B46
102
}
330
10B46
100
AcDbScale
 70
     0
300
1/8" = 1'-0"
140
0.125
141
12.0
290
     0
  0
SCALE
  5
10B5E
102
{ACAD_REACTORS
330
10B46
102
}
330
10B46
100
AcDbScale
 70
     0
300
3/16" = 1'-0"
140
0.1875
141
12.0
290
     0
  0
SCALE
  5
10B5F
102
{ACAD_REACTORS
330
10B46
102
}
330
10B46
100
AcDbScale
 70
     0
300
1/4" = 1'-0"
140
0.25
141
12.0
290
     0
  0
SCALE
  5
10B60
102
{ACAD_REACTORS
330
10B46
102
}
330
10B46
100
AcDbScale
 70
     0
300
3/8" = 1'-0"
140
0.375
141
12.0
290
     0
  0
SCALE
  5
10B61
102
{ACAD_REACTORS
330
10B46
102
}
330
10B46
100
AcDbScale
 70
     0
300
1/2" = 1'-0"
140
0.5
141
12.0
290
     0
  0
SCALE
  5
10B62
102
{ACAD_REACTORS
330
10B46
102
}
330
10B46
100
AcDbScale
 70
     0
300
3/4" = 1'-0"
140
0.75
141
12.0
290
     0
  0
SCALE
  5
10B63
102
{ACAD_REACTORS
330
10B46
102
}
330
10B46
100
AcDbScale
 70
     0
300
1" = 1'-0"
140
1.0
141
12.0
290
     0
  0
SCALE
  5
10B64
102
{ACAD_REACTORS
330
10B46
102
}
330
10B46
100
AcDbScale
 70
     0
300
1-1/2" = 1'-0"
140
1.5
141
12.0
290
     0
  0
SCALE
  5
10B65
102
{ACAD_REACTORS
330
10B46
102
}
330
10B46
100
AcDbScale
 70
     0
300
3" = 1'-0"
140
3.0
141
12.0
290
     0
  0
SCALE
  5
10B66
102
{ACAD_REACTORS
330
10B46
102
}
330
10B46
100
AcDbScale
 70
     0
300
6" = 1'-0"
140
6.0
141
12.0
290
     0
  0
SCALE
  5
10B67
102
{ACAD_REACTORS
330
10B46
102
}
330
10B46
100
AcDbScale
 70
     0
300
1'-0" = 1'-0"
140
12.0
141
12.0
290
     0
  0
DICTIONARYVAR
  5
6DF
102
{ACAD_REACTORS
330
6DE
102
}
330
6DE
100
DictionaryVariables
280
     0
  1
1
  0
DICTIONARYVAR
  5
10BAA
102
{ACAD_REACTORS
330
6DE
102
}
330
6DE
100
DictionaryVariables
280
     0
  1
0
  0
DICTIONARYVAR
  5
6E0
102
{ACAD_REACTORS
330
6DE
102
}
330
6DE
100
DictionaryVariables
280
     0
  1

  0
DICTIONARYVAR
  5
10BA9
102
{ACAD_REACTORS
330
6DE
102
}
330
6DE
100
DictionaryVariables
280
     0
  1
127
  0
XRECORD
  5
E61C
102
{ACAD_REACTORS
330
E61A
102
}
330
E61A
100
AcDbXrecord
280
     1
330
0
330
0
330
0
330
0
330
0
330
0
330
0
330
0
330
0
330
0
330
0
330
0
330
0
330
0
330
0
330
0
330
0
330
0
330
0
330
0
330
0
330
0
330
0
330
0
330
0
330
0
330
0
330
0
330
0
330
0
330
0
330
0
330
0
330
0
330
0
330
0
330
0
330
0
330
0
330
0
330
0
330
0
330
0
330
0
330
0
330
0
330
0
330
0
330
0
330
0
330
0
330
0
330
0
330
0
330
0
330
0
330
0
330
0
330
0
330
0
330
0
330
0
330
0
330
0
330
0
330
0
330
0
330
0
330
0
330
0
330
0
330
0
330
0
330
0
330
0
330
0
330
0
330
0
330
0
330
0
330
0
330
0
330
0
330
0
330
0
330
0
330
0
330
0
330
0
330
0
330
0
330
0
330
0
330
0
330
0
330
0
330
0
330
0
330
0
330
0
330
0
330
0
330
0
330
0
330
0
330
0
330
0
330
0
330
0
330
0
330
0
330
0
330
0
330
0
330
0
330
0
330
0
330
0
330
0
330
0
330
0
330
0
330
0
330
0
330
0
330
0
330
0
330
0
330
0
330
0
330
0
330
0
  0
ENDSEC
  0
EOF
