  0
SECTION
  2
HEADER
  9
$ACADVER
  1
AC1015
  9
$ACADMAINTVER
 70
     6
  9
$DWGCODEPAGE
  3
ANSI_932
  9
$INSBASE
 10
0.0
 20
0.0
 30
0.0
  9
$EXTMIN
 10
4397.416512970432
 20
2181.795867978995
 30
0.0
  9
$EXTMAX
 10
4481.416512970432
 20
2264.456798541335
 30
0.0
  9
$LIMMIN
 10
0.0
 20
0.0
  9
$LIMMAX
 10
840.0
 20
594.0
  9
$ORTHOMODE
 70
     1
  9
$REGENMODE
 70
     1
  9
$FILLMODE
 70
     1
  9
$QTEXTMODE
 70
     0
  9
$MIRRTEXT
 70
     1
  9
$LTSCALE
 40
7.0
  9
$ATTMODE
 70
     0
  9
$TEXTSIZE
 40
6.0
  9
$TRACEWID
 40
1.0
  9
$TEXTSTYLE
  7
STANDARD
  9
$CLAYER
  8
寸法線
  9
$CELTYPE
  6
BYLAYER
  9
$CECOLOR
 62
   256
  9
$CELTSCALE
 40
1.0
  9
$DISPSILH
 70
     0
  9
$DIMSCALE
 40
1.0
  9
$DIMASZ
 40
4.0
  9
$DIMEXO
 40
3.0
  9
$DIMDLI
 40
7.149999999999999
  9
$DIMRND
 40
0.0
  9
$DIMDLE
 40
0.0
  9
$DIMEXE
 40
2.0
  9
$DIMTP
 40
0.0
  9
$DIMTM
 40
0.0
  9
$DIMTXT
 40
5.0
  9
$DIMCEN
 40
0.0
  9
$DIMTSZ
 40
0.0
  9
$DIMTOL
 70
     0
  9
$DIMLIM
 70
     0
  9
$DIMTIH
 70
     0
  9
$DIMTOH
 70
     0
  9
$DIMSE1
 70
     0
  9
$DIMSE2
 70
     0
  9
$DIMTAD
 70
     3
  9
$DIMZIN
 70
     8
  9
$DIMBLK
  1
OPEN
  9
$DIMASO
 70
     1
  9
$DIMSHO
 70
     0
  9
$DIMPOST
  1

  9
$DIMAPOST
  1

  9
$DIMALT
 70
     0
  9
$DIMALTD
 70
     2
  9
$DIMALTF
 40
25.4
  9
$DIMLFAC
 40
1.0
  9
$DIMTOFL
 70
     0
  9
$DIMTVP
 40
0.0
  9
$DIMTIX
 70
     0
  9
$DIMSOXD
 70
     0
  9
$DIMSAH
 70
     0
  9
$DIMBLK1
  1

  9
$DIMBLK2
  1

  9
$DIMSTYLE
  2
STANDARD
  9
$DIMCLRD
 70
     8
  9
$DIMCLRE
 70
     8
  9
$DIMCLRT
 70
     0
  9
$DIMTFAC
 40
1.0
  9
$DIMGAP
 40
2.0
  9
$DIMJUST
 70
     0
  9
$DIMSD1
 70
     0
  9
$DIMSD2
 70
     0
  9
$DIMTOLJ
 70
     1
  9
$DIMTZIN
 70
     0
  9
$DIMALTZ
 70
     0
  9
$DIMALTTZ
 70
     0
  9
$DIMUPT
 70
     1
  9
$DIMDEC
 70
     2
  9
$DIMTDEC
 70
     2
  9
$DIMALTU
 70
     2
  9
$DIMALTTD
 70
     2
  9
$DIMTXSTY
  7
STANDARD
  9
$DIMAUNIT
 70
     0
  9
$DIMADEC
 70
     2
  9
$DIMALTRND
 40
0.0
  9
$DIMAZIN
 70
     2
  9
$DIMDSEP
 70
    46
  9
$DIMATFIT
 70
     3
  9
$DIMFRAC
 70
     0
  9
$DIMLDRBLK
  1
OPEN
  9
$DIMLUNIT
 70
     2
  9
$DIMLWD
 70
    -2
  9
$DIMLWE
 70
    -2
  9
$DIMTMOVE
 70
     0
  9
$LUNITS
 70
     2
  9
$LUPREC
 70
     2
  9
$SKETCHINC
 40
0.1
  9
$FILLETRAD
 40
0.0
  9
$AUNITS
 70
     0
  9
$AUPREC
 70
     2
  9
$MENU
  1
ACAD
  9
$ELEVATION
 40
0.0
  9
$PELEVATION
 40
0.0
  9
$THICKNESS
 40
0.0
  9
$LIMCHECK
 70
     0
  9
$CHAMFERA
 40
0.0
  9
$CHAMFERB
 40
0.0
  9
$CHAMFERC
 40
0.0
  9
$CHAMFERD
 40
0.0
  9
$SKPOLY
 70
     0
  9
$TDCREATE
 40
2453703.481561227
  9
$TDUCREATE
 40
2453703.106561227
  9
$TDUPDATE
 40
2456821.577402708
  9
$TDUUPDATE
 40
2456821.202402708
  9
$TDINDWG
 40
0.3308895833
  9
$TDUSRTIMER
 40
2456821.202044861
  9
$USRTIMER
 70
     1
  9
$ANGBASE
 50
0.0
  9
$ANGDIR
 70
     0
  9
$PDMODE
 70
     3
  9
$PDSIZE
 40
0.0
  9
$PLINEWID
 40
0.0
  9
$SPLFRAME
 70
     0
  9
$SPLINETYPE
 70
     6
  9
$SPLINESEGS
 70
     8
  9
$HANDSEED
  5
2CBAD
  9
$SURFTAB1
 70
     6
  9
$SURFTAB2
 70
     6
  9
$SURFTYPE
 70
     6
  9
$SURFU
 70
     6
  9
$SURFV
 70
     6
  9
$UCSBASE
  2

  9
$UCSNAME
  2

  9
$UCSORG
 10
0.0
 20
0.0
 30
0.0
  9
$UCSXDIR
 10
1.0
 20
0.0
 30
0.0
  9
$UCSYDIR
 10
0.0
 20
1.0
 30
0.0
  9
$UCSORTHOREF
  2

  9
$UCSORTHOVIEW
 70
     0
  9
$UCSORGTOP
 10
0.0
 20
0.0
 30
0.0
  9
$UCSORGBOTTOM
 10
0.0
 20
0.0
 30
0.0
  9
$UCSORGLEFT
 10
0.0
 20
0.0
 30
0.0
  9
$UCSORGRIGHT
 10
0.0
 20
0.0
 30
0.0
  9
$UCSORGFRONT
 10
0.0
 20
0.0
 30
0.0
  9
$UCSORGBACK
 10
0.0
 20
0.0
 30
0.0
  9
$PUCSBASE
  2

  9
$PUCSNAME
  2

  9
$PUCSORG
 10
0.0
 20
0.0
 30
0.0
  9
$PUCSXDIR
 10
1.0
 20
0.0
 30
0.0
  9
$PUCSYDIR
 10
0.0
 20
1.0
 30
0.0
  9
$PUCSORTHOREF
  2

  9
$PUCSORTHOVIEW
 70
     0
  9
$PUCSORGTOP
 10
0.0
 20
0.0
 30
0.0
  9
$PUCSORGBOTTOM
 10
0.0
 20
0.0
 30
0.0
  9
$PUCSORGLEFT
 10
0.0
 20
0.0
 30
0.0
  9
$PUCSORGRIGHT
 10
0.0
 20
0.0
 30
0.0
  9
$PUCSORGFRONT
 10
0.0
 20
0.0
 30
0.0
  9
$PUCSORGBACK
 10
0.0
 20
0.0
 30
0.0
  9
$USERI1
 70
     0
  9
$USERI2
 70
     0
  9
$USERI3
 70
     0
  9
$USERI4
 70
     0
  9
$USERI5
 70
     0
  9
$USERR1
 40
0.0
  9
$USERR2
 40
0.0
  9
$USERR3
 40
0.0
  9
$USERR4
 40
0.0
  9
$USERR5
 40
0.0
  9
$WORLDVIEW
 70
     0
  9
$SHADEDGE
 70
     3
  9
$SHADEDIF
 70
    70
  9
$TILEMODE
 70
     1
  9
$MAXACTVP
 70
    16
  9
$PINSBASE
 10
0.0
 20
0.0
 30
0.0
  9
$PLIMCHECK
 70
     0
  9
$PEXTMIN
 10
1.000000000000000E+20
 20
1.000000000000000E+20
 30
1.000000000000000E+20
  9
$PEXTMAX
 10
-1.000000000000000E+20
 20
-1.000000000000000E+20
 30
-1.000000000000000E+20
  9
$PLIMMIN
 10
0.0
 20
0.0
  9
$PLIMMAX
 10
0.0
 20
0.0
  9
$UNITMODE
 70
     0
  9
$VISRETAIN
 70
     0
  9
$PLINEGEN
 70
     0
  9
$PSLTSCALE
 70
     0
  9
$TREEDEPTH
 70
  3020
  9
$CMLSTYLE
  2
STANDARD
  9
$CMLJUST
 70
     0
  9
$CMLSCALE
 40
1.0
  9
$PROXYGRAPHICS
 70
     1
  9
$MEASUREMENT
 70
     0
  9
$CELWEIGHT
370
    -1
  9
$ENDCAPS
280
     0
  9
$JOINSTYLE
280
     0
  9
$LWDISPLAY
290
     0
  9
$INSUNITS
 70
     0
  9
$HYPERLINKBASE
  1

  9
$STYLESHEET
  1
spax form.ctb
  9
$XEDIT
290
     1
  9
$CEPSNTYPE
380
     0
  9
$PSTYLEMODE
290
     1
  9
$FINGERPRINTGUID
  2
{C1CFCF3E-DF91-11D3-B30C-0060B0FA8DFC}
  9
$VERSIONGUID
  2
{CBEC629A-DC66-4F11-9313-6AF449962E5B}
  9
$EXTNAMES
290
     1
  9
$PSVPSCALE
 40
0.0
  9
$OLESTARTUP
290
     0
  0
ENDSEC
  0
SECTION
  2
CLASSES
  0
CLASS
  1
LWPOLYLINE
  2
AcDbPolyline
  3
ObjectDBX Classes
 90
        0
280
     0
281
     1
  0
CLASS
  1
ACDBDICTIONARYWDFLT
  2
AcDbDictionaryWithDefault
  3
ObjectDBX Classes
 90
        0
280
     0
281
     0
  0
CLASS
  1
ACDBPLACEHOLDER
  2
AcDbPlaceHolder
  3
ObjectDBX Classes
 90
        0
280
     0
281
     0
  0
CLASS
  1
LAYOUT
  2
AcDbLayout
  3
ObjectDBX Classes
 90
        0
280
     0
281
     0
  0
CLASS
  1
DICTIONARYVAR
  2
AcDbDictionaryVar
  3
ObjectDBX Classes
 90
        0
280
     0
281
     0
  0
CLASS
  1
LONG_TRANSACTION
  2
AcDbLongTransaction
  3
ObjectDBX Classes
 90
        0
280
     0
281
     0
  0
CLASS
  1
LWPOLYLINE
  2
AcDbPolyline
  3
ObjectDBX Classes
 90
        0
280
     0
281
     1
  0
CLASS
  1
HATCH
  2
AcDbHatch
  3
ObjectDBX Classes
 90
        0
280
     0
281
     1
  0
CLASS
  1
XRECORD
  2
AcDbXrecord
  3
ObjectDBX Classes
 90
        0
280
     0
281
     0
  0
CLASS
  1
MATERIAL
  2
AcDbMaterial
  3
ObjectDBX Classes
 90
     1153
280
     0
281
     0
  0
CLASS
  1
VISUALSTYLE
  2
AcDbVisualStyle
  3
ObjectDBX Classes
 90
     4095
280
     0
281
     0
  0
CLASS
  1
TABLESTYLE
  2
AcDbTableStyle
  3
ObjectDBX Classes
 90
     4095
280
     0
281
     0
  0
CLASS
  1
SCALE
  2
AcDbScale
  3
ObjectDBX Classes
 90
     1153
280
     0
281
     0
  0
CLASS
  1
MLEADERSTYLE
  2
AcDbMLeaderStyle
  3
ACDB_MLEADERSTYLE_CLASS
 90
     4095
280
     0
281
     0
  0
CLASS
  1
CELLSTYLEMAP
  2
AcDbCellStyleMap
  3
ObjectDBX Classes
 90
     1152
280
     0
281
     0
  0
CLASS
  1
SORTENTSTABLE
  2
AcDbSortentsTable
  3
ObjectDBX Classes
 90
        0
280
     0
281
     0
  0
CLASS
  1
RASTERVARIABLES
  2
AcDbRasterVariables
  3
ISM
 90
        0
280
     0
281
     0
  0
CLASS
  1
SUN
  2
AcDbSun
  3
SCENEOE
 90
     1153
280
     0
281
     0
  0
ENDSEC
  0
SECTION
  2
TABLES
  0
TABLE
  2
VPORT
  5
8
330
0
100
AcDbSymbolTable
 70
     1
  0
VPORT
  5
2C0F7
330
8
100
AcDbSymbolTableRecord
100
AcDbViewportTableRecord
  2
*Active
 70
     0
 10
0.0
 20
0.0
 11
1.0
 21
1.0
 12
4439.416512970432
 22
2223.126333260165
 13
0.0
 23
0.0
 14
1.0
 24
1.0
 15
20.0
 25
20.0
 16
0.0
 26
0.0
 36
1.0
 17
0.0
 27
0.0
 37
0.0
 40
84.314149173586
 41
1.731829573934837
 42
50.0
 43
0.0
 44
0.0
 50
0.0
 51
0.0
 71
    16
 72
  2000
 73
     1
 74
     0
 75
     0
 76
     0
 77
     0
 78
     1
281
     0
 65
     1
110
0.0
120
0.0
130
0.0
111
1.0
121
0.0
131
0.0
112
0.0
122
1.0
132
0.0
 79
     0
146
0.0
  0
ENDTAB
  0
TABLE
  2
LTYPE
  5
5
330
0
100
AcDbSymbolTable
 70
     4
  0
LTYPE
  5
12
330
5
100
AcDbSymbolTableRecord
100
AcDbLinetypeTableRecord
  2
BYBLOCK
 70
     0
  3

 72
    65
 73
     0
 40
0.0
  0
LTYPE
  5
13
330
5
100
AcDbSymbolTableRecord
100
AcDbLinetypeTableRecord
  2
BYLAYER
 70
     0
  3

 72
    65
 73
     0
 40
0.0
  0
LTYPE
  5
14
330
5
100
AcDbSymbolTableRecord
100
AcDbLinetypeTableRecord
  2
CONTINUOUS
 70
     0
  3
Solid line
 72
    65
 73
     0
 40
0.0
  0
LTYPE
  5
176F7
330
5
100
AcDbSymbolTableRecord
100
AcDbLinetypeTableRecord
  2
PHANTOM
 70
     0
  3
_____ _ _ _____ _ _ _____ _ _ _____ _ _ ____
 72
    65
 73
     6
 40
2.5
 49
1.25
 74
     0
 49
-0.25
 74
     0
 49
0.25
 74
     0
 49
-0.25
 74
     0
 49
0.25
 74
     0
 49
-0.25
 74
     0
  0
LTYPE
  5
176F8
330
5
100
AcDbSymbolTableRecord
100
AcDbLinetypeTableRecord
  2
CENTER
 70
     0
  3
____ _ ____ _ ____ _ ____ _ ____ _ ____ _ ____ 
 72
    65
 73
     4
 40
2.0
 49
1.25
 74
     0
 49
-0.25
 74
     0
 49
0.25
 74
     0
 49
-0.25
 74
     0
  0
ENDTAB
  0
TABLE
  2
LAYER
  5
2
102
{ACAD_XDICTIONARY
360
17708
102
}
330
0
100
AcDbSymbolTable
 70
    10
  0
LAYER
  5
F
102
{ACAD_XDICTIONARY
360
28AB0
102
}
330
2
100
AcDbSymbolTableRecord
100
AcDbLayerTableRecord
  2
0
 70
     0
 62
     7
  6
CONTINUOUS
370
    -3
390
40CA
  0
LAYER
  5
4C
102
{ACAD_XDICTIONARY
360
28AB2
102
}
330
2
100
AcDbSymbolTableRecord
100
AcDbLayerTableRecord
  2
寸法線
 70
     0
 62
     7
  6
CONTINUOUS
370
    -3
390
40CA
  0
LAYER
  5
40D4
102
{ACAD_XDICTIONARY
360
28AB6
102
}
330
2
100
AcDbSymbolTableRecord
100
AcDbLayerTableRecord
  2
文字
 70
     0
 62
     7
  6
CONTINUOUS
370
    -3
390
40CA
  0
LAYER
  5
176FE
102
{ACAD_XDICTIONARY
360
28AC0
102
}
330
2
100
AcDbSymbolTableRecord
100
AcDbLayerTableRecord
  2
姿図
 70
     0
 62
     8
  6
CONTINUOUS
370
    -3
390
40CA
  0
ENDTAB
  0
TABLE
  2
STYLE
  5
3
330
0
100
AcDbSymbolTable
 70
     1
  0
STYLE
  5
10
330
3
100
AcDbSymbolTableRecord
100
AcDbTextStyleTableRecord
  2
STANDARD
 70
     0
 40
0.0
 41
1.0
 50
0.0
 71
     0
 42
6.0
  3
MONOTXT
  4
BIGFONT
  0
ENDTAB
  0
TABLE
  2
VIEW
  5
6
330
0
100
AcDbSymbolTable
 70
     1
  0
VIEW
  5
41
330
6
100
AcDbSymbolTableRecord
100
AcDbViewTableRecord
  2
CUT1
 70
     0
 40
612.7795527156796
 10
420.0000000000169
 20
306.3897763578398
 41
840.0000000000338
 11
0.0
 21
0.0
 31
1.0
 12
0.0
 22
0.0
 32
0.0
 42
50.0
 43
0.0
 44
0.0
 50
0.0
 71
     0
281
     0
 72
     0
  0
ENDTAB
  0
TABLE
  2
UCS
  5
7
330
0
100
AcDbSymbolTable
 70
     0
  0
ENDTAB
  0
TABLE
  2
APPID
  5
9
330
0
100
AcDbSymbolTable
 70
     6
  0
APPID
  5
11
330
9
100
AcDbSymbolTableRecord
100
AcDbRegAppTableRecord
  2
ACAD
 70
     0
  0
APPID
  5
28AAC
330
9
100
AcDbSymbolTableRecord
100
AcDbRegAppTableRecord
  2
ACAD_MLEADERVER
 70
     0
  0
APPID
  5
2952F
330
9
100
AcDbSymbolTableRecord
100
AcDbRegAppTableRecord
  2
ACAD_EXEMPT_FROM_CAD_STANDARDS
 70
     0
  0
APPID
  5
29536
330
9
100
AcDbSymbolTableRecord
100
AcDbRegAppTableRecord
  2
ACAD_DSTYLE_DIMJAG
 70
     0
  0
APPID
  5
29537
330
9
100
AcDbSymbolTableRecord
100
AcDbRegAppTableRecord
  2
ACAD_DSTYLE_DIMTALN
 70
     0
  0
APPID
  5
29604
330
9
100
AcDbSymbolTableRecord
100
AcDbRegAppTableRecord
  2
ACAD_PSEXT
 70
     0
  0
ENDTAB
  0
TABLE
  2
DIMSTYLE
  5
A
330
0
100
AcDbSymbolTable
 70
     1
100
AcDbDimStyleTable
  0
DIMSTYLE
105
1B3A
330
A
100
AcDbSymbolTableRecord
100
AcDbDimStyleTableRecord
  2
STANDARD
 70
     0
 41
4.0
 42
3.0
 43
7.149999999999999
 44
2.0
 73
     0
 74
     0
 77
     3
 78
     8
 79
     2
140
5.0
141
0.0
147
2.0
176
     8
177
     8
178
     0
179
     2
271
     2
272
     2
288
     1
340
10
341
49C3
342
49C3
  0
ENDTAB
  0
TABLE
  2
BLOCK_RECORD
  5
1
330
0
100
AcDbSymbolTable
 70
    36
  0
BLOCK_RECORD
  5
18
102
{ACAD_XDICTIONARY
360
9FD5
102
}
330
1
100
AcDbSymbolTableRecord
100
AcDbBlockTableRecord
  2
*MODEL_SPACE
340
40CD
  0
BLOCK_RECORD
  5
15
330
1
100
AcDbSymbolTableRecord
100
AcDbBlockTableRecord
  2
*PAPER_SPACE
340
40CE
  0
BLOCK_RECORD
  5
49C3
330
1
100
AcDbSymbolTableRecord
100
AcDbBlockTableRecord
  2
_OPEN
340
0
102
{BLKREFS
331
206B0
331
206B1
331
206C2
331
206C3
331
206CC
331
206CD
331
206D6
331
206D7
331
27F70
331
27F71
331
289A8
331
289A9
331
289B2
331
289B3
331
289C4
331
289C5
331
289D0
331
289D1
331
28A0D
331
28A0E
331
29502
331
29503
331
2950B
331
2950C
331
29515
331
29516
331
2951E
331
2951F
331
29528
331
29529
331
2AAAB
331
2AAAC
331
2AAB4
331
2AAB5
331
2AABD
331
2AABE
331
2AAC6
331
2AAC7
331
2B5E3
331
2B5E4
331
2B5F5
331
2B5F6
331
2B60A
331
2B60B
331
2B63D
331
2B63E
331
2C0B4
331
2C0B5
331
2C0BD
331
2C0BE
331
2C0C6
331
2C0C7
331
2CB3F
331
2CB40
331
2CB48
331
2CB49
331
2CB51
331
2CB52
102
}
  0
ENDTAB
  0
ENDSEC
  0
SECTION
  2
BLOCKS
  0
BLOCK
  5
52
330
18
100
AcDbEntity
  8
0
100
AcDbBlockBegin
  2
*MODEL_SPACE
 70
     0
 10
0.0
 20
0.0
 30
0.0
  3
*MODEL_SPACE
  1
*MODEL_SPACE
  0
ENDBLK
  5
53
330
18
100
AcDbEntity
  8
0
100
AcDbBlockEnd
  0
BLOCK
  5
50
330
15
100
AcDbEntity
 67
     1
  8
0
100
AcDbBlockBegin
  2
*PAPER_SPACE
 70
     0
 10
0.0
 20
0.0
 30
0.0
  3
*PAPER_SPACE
  1
*PAPER_SPACE
  0
ENDBLK
  5
51
330
15
100
AcDbEntity
 67
     1
  8
0
100
AcDbBlockEnd
  0
BLOCK
  5
49C7
330
49C3
100
AcDbEntity
  8
0
100
AcDbBlockBegin
  2
_OPEN
 70
     0
 10
0.0
 20
0.0
 30
0.0
  3
_OPEN
  1
_OPEN
  0
LINE
  5
49C4
330
49C3
100
AcDbEntity
  8
0
  6
ByBlock
 62
     0
100
AcDbLine
 10
-1.0
 20
0.1666666666666667
 30
0.0
 11
0.0
 21
0.0
 31
0.0
  0
LINE
  5
49C5
330
49C3
100
AcDbEntity
  8
0
  6
ByBlock
 62
     0
100
AcDbLine
 10
0.0
 20
0.0
 30
0.0
 11
-1.0
 21
-0.1666666666666667
 31
0.0
  0
LINE
  5
49C6
330
49C3
100
AcDbEntity
  8
0
  6
ByBlock
 62
     0
100
AcDbLine
 10
0.0
 20
0.0
 30
0.0
 11
-1.0
 21
0.0
 31
0.0
  0
ENDBLK
  5
49C8
330
49C3
100
AcDbEntity
  8
0
100
AcDbBlockEnd
  0
ENDSEC
  0
SECTION
  2
ENTITIES
  0
TEXT
  5
25FFE
330
18
100
AcDbEntity
  8
文字
100
AcDbText
 10
3610.46400429503
 20
2256.126268841174
 30
0.0
 40
4.0
  1

100
AcDbText
  0
TEXT
  5
25FFF
330
18
100
AcDbEntity
  8
文字
100
AcDbText
 10
3610.46400429503
 20
2262.215500980381
 30
0.0
 40
4.0
  1

100
AcDbText
  0
TEXT
  5
2C0FF
330
18
100
AcDbEntity
  8
文字
100
AcDbText
 10
4397.416512970432
 20
2181.795867978995
 30
0.0
 40
7.199999999999999
  1
SX-B1342D/BF
100
AcDbText
  0
SPLINE
  5
2C138
330
18
100
AcDbEntity
  8
姿図
100
AcDbSpline
210
0.0
220
0.0
230
1.0
 70
     8
 71
     3
 72
     8
 73
     4
 74
     0
 42
0.000000001
 43
0.0000000001
 40
131.0
 40
131.0
 40
131.0
 40
131.0
 40
132.0
 40
132.0
 40
132.0
 40
132.0
 10
4457.727574588022
 20
2225.452286741367
 30
0.0
 10
4457.566295887935
 20
2225.062397016975
 30
0.0
 10
4457.082214496876
 20
2224.188548546922
 30
0.0
 10
4457.082214496876
 20
2224.188548546922
 30
0.0
  0
LINE
  5
2C139
330
18
100
AcDbEntity
  8
姿図
100
AcDbLine
 10
4426.847684240744
 20
2222.02685198849
 30
0.0
 11
4427.266349135172
 21
2225.230354310472
 31
0.0
  0
ARC
  5
2C13A
330
18
100
AcDbEntity
  8
姿図
100
AcDbCircle
 10
4443.952258310046
 20
2203.480335795377
 30
0.0
 40
24.8558111669565
100
AcDbArc
 50
60.3613219110082
 51
89.36781715225317
  0
LINE
  5
2C13B
330
18
100
AcDbEntity
  8
姿図
100
AcDbLine
 10
4439.32899301958
 20
2228.137196297144
 30
0.0
 11
4439.380089191042
 21
2222.54537132114
 31
0.0
  0
LINE
  5
2C13C
330
18
100
AcDbEntity
  8
姿図
100
AcDbLine
 10
4439.124998396994
 20
2222.538010947393
 30
0.0
 11
4439.119846737365
 21
2228.32882698041
 31
0.0
  0
LINE
  5
2C13D
330
18
100
AcDbEntity
  8
姿図
100
AcDbLine
 10
4444.040595700453
 20
2228.125582296811
 30
0.0
 11
4443.91966889807
 21
2222.519939171766
 31
0.0
  0
LINE
  5
2C13E
330
18
100
AcDbEntity
  8
姿図
100
AcDbLine
 10
4444.211899780834
 20
2222.509810091562
 30
0.0
 11
4444.226503617324
 21
2228.334633980577
 31
0.0
  0
LINE
  5
2C13F
330
18
100
AcDbEntity
  8
姿図
100
AcDbLine
 10
4425.647990457834
 20
2225.322776517938
 30
0.0
 11
4426.500040127664
 21
2223.851452660522
 31
0.0
  0
LINE
  5
2C140
330
18
100
AcDbEntity
  8
姿図
100
AcDbLine
 10
4425.44025338034
 20
2229.090071930169
 30
0.0
 11
4425.47593760698
 21
2222.903185547368
 31
0.0
  0
LINE
  5
2C141
330
18
100
AcDbEntity
  8
姿図
100
AcDbLine
 10
4424.475771449145
 20
2222.834714594947
 30
0.0
 11
4424.76677019102
 21
2232.820206645893
 31
0.0
  0
LINE
  5
2C142
330
18
100
AcDbEntity
  8
姿図
100
AcDbLine
 10
4423.807413856685
 20
2228.018764367235
 30
0.0
 11
4423.647471747901
 21
2221.666346386969
 31
0.0
  0
LINE
  5
2C143
330
18
100
AcDbEntity
  8
姿図
100
AcDbLine
 10
4460.05759188403
 20
2228.018028494839
 30
0.0
 11
4460.142863502377
 21
2219.157449703988
 31
0.0
  0
LINE
  5
2C144
330
18
100
AcDbEntity
  8
姿図
100
AcDbLine
 10
4459.90510543018
 20
2219.704045315984
 30
0.0
 11
4459.674969961334
 21
2232.382967664471
 31
0.0
  0
LINE
  5
2C145
330
18
100
AcDbEntity
  8
姿図
100
AcDbLine
 10
4459.650537915839
 20
2219.704022759521
 30
0.0
 11
4459.475480235902
 21
2232.377104595383
 31
0.0
  0
LINE
  5
2C146
330
18
100
AcDbEntity
  8
姿図
100
AcDbLine
 10
4459.328346597873
 20
2222.683673175683
 30
0.0
 11
4459.150622910347
 21
2232.808692899556
 31
0.0
  0
LINE
  5
2C147
330
18
100
AcDbEntity
  8
姿図
100
AcDbLine
 10
4458.278743012501
 20
2228.450476172791
 30
0.0
 11
4458.213662421271
 21
2222.764870014447
 31
0.0
  0
LINE
  5
2C148
330
18
100
AcDbEntity
  8
姿図
100
AcDbLine
 10
4424.47278538481
 20
2232.436724226027
 30
0.0
 11
4424.004109477515
 21
2219.871664483745
 31
0.0
  0
SPLINE
  5
2C14C
330
18
100
AcDbEntity
  8
姿図
100
AcDbSpline
210
0.0
220
0.0
230
1.0
 70
     8
 71
     3
 72
    12
 73
     8
 74
     0
 42
0.000000001
 43
0.0000000001
 40
1.326784550487973
 40
1.326784550487973
 40
1.326784550487973
 40
1.326784550487973
 40
1.368286203966514
 40
1.368286203966514
 40
1.660455600340546
 40
1.660455600340546
 40
1.836188845990134
 40
1.836188845990134
 40
1.836188845990134
 40
1.836188845990134
 10
4437.458133044574
 20
2218.313312596772
 30
0.0
 10
4437.687475420093
 20
2218.281559941962
 30
0.0
 10
4437.918163281436
 20
2218.25186967457
 30
0.0
 10
4439.781999708842
 20
2218.030071956353
 30
0.0
 10
4441.470150527667
 20
2217.940542357829
 30
0.0
 10
4444.140841500772
 20
2217.971769424973
 30
0.0
 10
4445.136349422734
 20
2218.02295402698
 30
0.0
 10
4446.107905905052
 20
2218.112031416055
 30
0.0
  0
SPLINE
  5
2C14D
330
18
100
AcDbEntity
  8
姿図
100
AcDbSpline
210
0.0
220
0.0
230
1.0
 70
     8
 71
     3
 72
    16
 73
    12
 74
     0
 42
0.000000001
 43
0.0000000001
 40
1.091313670261284
 40
1.091313670261284
 40
1.091313670261284
 40
1.091313670261284
 40
1.158765753316955
 40
1.158765753316955
 40
1.368286203966514
 40
1.368286203966514
 40
1.660455600340546
 40
1.660455600340546
 40
1.952624996714579
 40
1.952624996714579
 40
2.071539202576769
 40
2.071539202576769
 40
2.071539202576769
 40
2.071539202576769
 10
4433.722919984759
 20
2217.756105725327
 30
0.0
 10
4434.059846661217
 20
2217.668708351287
 30
0.0
 10
4434.403436895662
 20
2217.586035842547
 30
0.0
 10
4435.83819195634
 20
2217.267155327992
 30
0.0
 10
4436.979635486488
 20
2217.074275716088
 30
0.0
 10
4439.781999708842
 20
2216.740792594399
 30
0.0
 10
4441.470150527667
 20
2216.651262995874
 30
0.0
 10
4444.805434834414
 20
2216.690260823793
 30
0.0
 10
4446.452232816213
 20
2216.818823275585
 30
0.0
 10
4448.63384576864
 20
2217.143053383016
 30
0.0
 10
4449.24892321603
 20
2217.253753117419
 30
0.0
 10
4449.843328371953
 20
2217.379994025526
 30
0.0
  0
SPLINE
  5
2C14E
330
18
100
AcDbEntity
  8
姿図
100
AcDbSpline
210
0.0
220
0.0
230
1.0
 70
     8
 71
     3
 72
    14
 73
    10
 74
     0
 42
0.000000001
 43
0.0000000001
 40
1.190660659220019
 40
1.190660659220019
 40
1.190660659220019
 40
1.190660659220019
 40
1.368286203966514
 40
1.368286203966514
 40
1.660455600340546
 40
1.660455600340546
 40
1.952624996714579
 40
1.952624996714579
 40
1.972280409730163
 40
1.972280409730163
 40
1.972280409730163
 40
1.972280409730163
 10
4435.252311625756
 20
2218.038699969892
 30
0.0
 10
4436.186381435882
 20
2217.846779537251
 30
0.0
 10
4437.157795646013
 20
2217.690179895393
 30
0.0
 10
4439.781999708842
 20
2217.377897945801
 30
0.0
 10
4441.470150527667
 20
2217.288368347276
 30
0.0
 10
4444.805434834414
 20
2217.327366175195
 30
0.0
 10
4446.452232816213
 20
2217.455928626986
 30
0.0
 10
4448.107081220167
 20
2217.701871279279
 30
0.0
 10
4448.210955045825
 20
2217.717835897366
 30
0.0
 10
4448.31437068097
 20
2217.734256324379
 30
0.0
  0
SPLINE
  5
2C14F
330
18
100
AcDbEntity
  8
姿図
100
AcDbSpline
210
0.0
220
0.0
230
1.0
 70
     8
 71
     3
 72
    16
 73
    12
 74
     0
 42
0.000000001
 43
0.0000000001
 40
1.006434101146146
 40
1.006434101146146
 40
1.006434101146146
 40
1.006434101146146
 40
1.158765753316955
 40
1.158765753316955
 40
1.368286203966514
 40
1.368286203966514
 40
1.660455600340546
 40
1.660455600340546
 40
1.952624996714579
 40
1.952624996714579
 40
2.156373646803174
 40
2.156373646803174
 40
2.156373646803174
 40
2.156373646803174
 10
4432.484320993919
 20
2217.462563142105
 30
0.0
 10
4433.204337425694
 20
2217.239368382095
 30
0.0
 10
4433.963749285822
 20
2217.038413097936
 30
0.0
 10
4435.83819195634
 20
2216.621810111362
 30
0.0
 10
4436.979635486488
 20
2216.428930499459
 30
0.0
 10
4439.781999708842
 20
2216.09544737777
 30
0.0
 10
4441.470150527667
 20
2216.005917779245
 30
0.0
 10
4444.805434834414
 20
2216.044915607164
 30
0.0
 10
4446.452232816213
 20
2216.173478058955
 30
0.0
 10
4449.084060570031
 20
2216.564618840555
 30
0.0
 10
4450.118384356698
 20
2216.774962439162
 30
0.0
 10
4451.082229216955
 20
2217.028065203958
 30
0.0
  0
SPLINE
  5
2C150
330
18
100
AcDbEntity
  8
姿図
100
AcDbSpline
210
0.0
220
0.0
230
1.0
 70
     8
 71
     3
 72
    18
 73
    14
 74
     0
 42
0.000000001
 43
0.0000000001
 40
0.9319726051199986
 40
0.9319726051199986
 40
0.9319726051199986
 40
0.9319726051199986
 40
0.9492453026673957
 40
0.9492453026673957
 40
1.158765753316955
 40
1.158765753316955
 40
1.368286203966514
 40
1.368286203966514
 40
1.660455600340546
 40
1.660455600340546
 40
1.952624996714579
 40
1.952624996714579
 40
2.230780318692987
 40
2.230780318692987
 40
2.230780318692987
 40
2.230780318692987
 10
4431.45783686211
 20
2217.168310089738
 30
0.0
 10
4431.53484894605
 20
2217.140628423769
 30
0.0
 10
4431.612427505828
 20
2217.113209962846
 30
0.0
 10
4432.638320246704
 20
2216.75675404658
 30
0.0
 10
4433.667503600613
 20
2216.467149630715
 30
0.0
 10
4435.83819195634
 20
2215.984704759961
 30
0.0
 10
4436.979635486488
 20
2215.791825148057
 30
0.0
 10
4439.781999708842
 20
2215.458342026368
 30
0.0
 10
4441.470150527667
 20
2215.368812427843
 30
0.0
 10
4444.805434834414
 20
2215.407810255762
 30
0.0
 10
4446.452232816213
 20
2215.536372707553
 30
0.0
 10
4449.47893537958
 20
2215.986199564416
 30
0.0
 10
4450.867567168225
 20
2216.298107732425
 30
0.0
 10
4452.108841617513
 20
2216.685022716736
 30
0.0
  0
SPLINE
  5
2C151
330
18
100
AcDbEntity
  8
姿図
100
AcDbSpline
210
0.0
220
0.0
230
1.0
 70
     8
 71
     3
 72
    20
 73
    16
 74
     0
 42
0.000000001
 43
0.0000000001
 40
0.8603225299771156
 40
0.8603225299771156
 40
0.8603225299771156
 40
0.8603225299771156
 40
0.9492453026673957
 40
0.9492453026673957
 40
1.158765753316955
 40
1.158765753316955
 40
1.368286203966514
 40
1.368286203966514
 40
1.660455600340546
 40
1.660455600340546
 40
1.952624996714579
 40
1.952624996714579
 40
2.244794393088612
 40
2.244794393088612
 40
2.302371271135109
 40
2.302371271135109
 40
2.302371271135109
 40
2.302371271135109
 10
4430.529590609356
 20
2216.855307757316
 30
0.0
 10
4430.900764223945
 20
2216.702208709136
 30
0.0
 10
4431.288320307015
 20
2216.55527563678
 30
0.0
 10
4432.638320246704
 20
2216.086205678209
 30
0.0
 10
4433.667503600613
 20
2215.796601262344
 30
0.0
 10
4435.83819195634
 20
2215.314156391589
 30
0.0
 10
4436.979635486488
 20
2215.121276779686
 30
0.0
 10
4439.781999708842
 20
2214.787793657997
 30
0.0
 10
4441.470150527667
 20
2214.698264059472
 30
0.0
 10
4444.805434834414
 20
2214.737261887391
 30
0.0
 10
4446.452232816213
 20
2214.865824339182
 30
0.0
 10
4449.553307809061
 20
2215.326704385281
 30
0.0
 10
4451.007269599177
 20
2215.659223450403
 30
0.0
 10
4452.549159352833
 20
2216.15516906785
 30
0.0
 10
4452.796549379724
 20
2216.239983655455
 30
0.0
 10
4453.037044461718
 20
2216.327685243822
 30
0.0
  0
SPLINE
  5
2C152
330
18
100
AcDbEntity
  8
姿図
100
AcDbSpline
210
0.0
220
0.0
230
1.0
 70
     8
 71
     3
 72
    24
 73
    20
 74
     0
 42
0.000000001
 43
0.0000000001
 40
0.5543166416818401
 40
0.5543166416818401
 40
0.5543166416818401
 40
0.5543166416818401
 40
0.7397248520178367
 40
0.7397248520178367
 40
0.9492453026673957
 40
0.9492453026673957
 40
1.158765753316955
 40
1.158765753316955
 40
1.368286203966514
 40
1.368286203966514
 40
1.660455600340546
 40
1.660455600340546
 40
1.952624996714579
 40
1.952624996714579
 40
2.244794393088612
 40
2.244794393088612
 40
2.469780447170401
 40
2.469780447170401
 40
2.608359762056138
 40
2.608359762056138
 40
2.608359762056138
 40
2.608359762056138
 10
4427.345617759564
 20
2215.257172819568
 30
0.0
 10
4427.846060909399
 20
2214.878697183846
 30
0.0
 10
4428.439311573467
 20
2214.507432741146
 30
0.0
 10
4429.876559445203
 20
2213.761413339547
 30
0.0
 10
4430.742799935837
 20
2213.39229321042
 30
0.0
 10
4432.638320246704
 20
2212.733677156043
 30
0.0
 10
4433.667503600613
 20
2212.444072740177
 30
0.0
 10
4435.83819195634
 20
2211.961627869423
 30
0.0
 10
4436.979635486488
 20
2211.768748257519
 30
0.0
 10
4439.781999708842
 20
2211.435265135829
 30
0.0
 10
4441.470150527667
 20
2211.345735537305
 30
0.0
 10
4444.805434834414
 20
2211.384733365224
 30
0.0
 10
4446.452232816213
 20
2211.513295817015
 30
0.0
 10
4449.553307809061
 20
2211.974175863113
 30
0.0
 10
4451.007269599177
 20
2212.306694928236
 30
0.0
 10
4453.287198646103
 20
2213.040029342212
 30
0.0
 10
4454.180690060391
 20
2213.407461456692
 30
0.0
 10
4455.421982763373
 20
2214.052165891243
 30
0.0
 10
4455.847290616816
 20
2214.309963632143
 30
0.0
 10
4456.22085364212
 20
2214.573394664269
 30
0.0
  0
SPLINE
  5
2C153
330
18
100
AcDbEntity
  8
姿図
100
AcDbSpline
210
0.0
220
0.0
230
1.0
 70
     8
 71
     3
 72
    22
 73
    18
 74
     0
 42
0.000000001
 43
0.0000000001
 40
0.734614039002979
 40
0.734614039002979
 40
0.734614039002979
 40
0.734614039002979
 40
0.7397248520178367
 40
0.7397248520178367
 40
0.9492453026673957
 40
0.9492453026673957
 40
1.158765753316955
 40
1.158765753316955
 40
1.368286203966514
 40
1.368286203966514
 40
1.660455600340546
 40
1.660455600340546
 40
1.952624996714579
 40
1.952624996714579
 40
2.244794393088612
 40
2.244794393088612
 40
2.428034951064766
 40
2.428034951064766
 40
2.428034951064766
 40
2.428034951064766
 10
4429.05844744872
 20
2216.242556246901
 30
0.0
 10
4429.076922935796
 20
2216.232870264454
 30
0.0
 10
4429.095460585122
 20
2216.223199971062
 30
0.0
 10
4429.876559445203
 20
2215.817761969971
 30
0.0
 10
4430.742799935837
 20
2215.448641840844
 30
0.0
 10
4432.638320246704
 20
2214.790025786467
 30
0.0
 10
4433.667503600613
 20
2214.500421370601
 30
0.0
 10
4435.83819195634
 20
2214.017976499847
 30
0.0
 10
4436.979635486488
 20
2213.825096887943
 30
0.0
 10
4439.781999708842
 20
2213.491613766254
 30
0.0
 10
4441.470150527667
 20
2213.402084167729
 30
0.0
 10
4444.805434834414
 20
2213.441081995648
 30
0.0
 10
4446.452232816213
 20
2213.569644447439
 30
0.0
 10
4449.553307809061
 20
2214.030524493538
 30
0.0
 10
4451.007269599177
 20
2214.363043558661
 30
0.0
 10
4453.103159651511
 20
2215.037182214579
 30
0.0
 10
4453.845733655284
 20
2215.32912445183
 30
0.0
 10
4454.508483959691
 20
2215.644058793867
 30
0.0
  0
SPLINE
  5
2C154
330
18
100
AcDbEntity
  8
姿図
100
AcDbSpline
210
0.0
220
0.0
230
1.0
 70
     8
 71
     3
 72
    20
 73
    16
 74
     0
 42
0.000000001
 43
0.0000000001
 40
0.7979399139812271
 40
0.7979399139812271
 40
0.7979399139812271
 40
0.7979399139812271
 40
0.9492453026673957
 40
0.9492453026673957
 40
1.158765753316955
 40
1.158765753316955
 40
1.368286203966514
 40
1.368286203966514
 40
1.660455600340546
 40
1.660455600340546
 40
1.952624996714579
 40
1.952624996714579
 40
2.244794393088612
 40
2.244794393088612
 40
2.364720152282226
 40
2.364720152282226
 40
2.364720152282226
 40
2.364720152282226
 10
4429.773189151629
 20
2216.56064696355
 30
0.0
 10
4430.364220998024
 20
2216.286264468979
 30
0.0
 10
4431.006134211819
 20
2216.027692280739
 30
0.0
 10
4432.638320246704
 20
2215.460574154838
 30
0.0
 10
4433.667503600613
 20
2215.170969738972
 30
0.0
 10
4435.83819195634
 20
2214.688524868218
 30
0.0
 10
4436.979635486488
 20
2214.495645256315
 30
0.0
 10
4439.781999708842
 20
2214.162162134625
 30
0.0
 10
4441.470150527667
 20
2214.0726325361
 30
0.0
 10
4444.805434834414
 20
2214.111630364019
 30
0.0
 10
4446.452232816213
 20
2214.240192815811
 30
0.0
 10
4449.553307809061
 20
2214.701072861909
 30
0.0
 10
4451.007269599177
 20
2215.033591927031
 30
0.0
 10
4452.824030332236
 20
2215.617949220654
 30
0.0
 10
4453.324781674138
 20
2215.801757135185
 30
0.0
 10
4453.793497403017
 20
2215.996761947368
 30
0.0
  0
SPLINE
  5
2C155
330
18
100
AcDbEntity
  8
姿図
100
AcDbSpline
210
0.0
220
0.0
230
1.0
 70
     8
 71
     3
 72
    24
 73
    20
 74
     0
 42
0.000000001
 43
0.0000000001
 40
0.6739897110637463
 40
0.6739897110637463
 40
0.6739897110637463
 40
0.6739897110637463
 40
0.7397248520178367
 40
0.7397248520178367
 40
0.9492453026673957
 40
0.9492453026673957
 40
1.158765753316955
 40
1.158765753316955
 40
1.368286203966514
 40
1.368286203966514
 40
1.660455600340546
 40
1.660455600340546
 40
1.952624996714579
 40
1.952624996714579
 40
2.244794393088612
 40
2.244794393088612
 40
2.469780447170401
 40
2.469780447170401
 40
2.488655450135048
 40
2.488655450135048
 40
2.488655450135048
 40
2.488655450135048
 10
4428.427615489596
 20
2215.922831925544
 30
0.0
 10
4428.645850026504
 20
2215.793987533033
 30
0.0
 10
4428.874832925208
 20
2215.667170668258
 30
0.0
 10
4429.876559445203
 20
2215.147213440483
 30
0.0
 10
4430.742799935837
 20
2214.778093311355
 30
0.0
 10
4432.638320246704
 20
2214.119477256978
 30
0.0
 10
4433.667503600613
 20
2213.829872841113
 30
0.0
 10
4435.83819195634
 20
2213.347427970358
 30
0.0
 10
4436.979635486488
 20
2213.154548358455
 30
0.0
 10
4439.781999708842
 20
2212.821065236765
 30
0.0
 10
4441.470150527667
 20
2212.73153563824
 30
0.0
 10
4444.805434834414
 20
2212.77053346616
 30
0.0
 10
4446.452232816213
 20
2212.899095917951
 30
0.0
 10
4449.553307809061
 20
2213.359975964049
 30
0.0
 10
4451.007269599177
 20
2213.692495029172
 30
0.0
 10
4453.287198646103
 20
2214.425829443147
 30
0.0
 10
4454.180690060391
 20
2214.793261557628
 30
0.0
 10
4455.013285726785
 20
2215.225696322629
 30
0.0
 10
4455.076841804643
 20
2215.259390732964
 30
0.0
 10
4455.139500633992
 20
2215.293292592049
 30
0.0
  0
SPLINE
  5
2C156
330
18
100
AcDbEntity
  8
姿図
100
AcDbSpline
210
0.0
220
0.0
230
1.0
 70
     8
 71
     3
 72
    24
 73
    20
 74
     0
 42
0.000000001
 43
0.0000000001
 40
0.6153340928930858
 40
0.6153340928930858
 40
0.6153340928930858
 40
0.6153340928930858
 40
0.7397248520178367
 40
0.7397248520178367
 40
0.9492453026673957
 40
0.9492453026673957
 40
1.158765753316955
 40
1.158765753316955
 40
1.368286203966514
 40
1.368286203966514
 40
1.660455600340546
 40
1.660455600340546
 40
1.952624996714579
 40
1.952624996714579
 40
2.244794393088612
 40
2.244794393088612
 40
2.469780447170401
 40
2.469780447170401
 40
2.547299382396412
 40
2.547299382396412
 40
2.547299382396412
 40
2.547299382396412
 10
4427.869453679232
 20
2215.601593483769
 30
0.0
 10
4428.245362662453
 20
2215.351861750549
 30
0.0
 10
4428.661369910975
 20
2215.107422638001
 30
0.0
 10
4429.876559445203
 20
2214.476665072111
 30
0.0
 10
4430.742799935837
 20
2214.107544942984
 30
0.0
 10
4432.638320246704
 20
2213.448928888607
 30
0.0
 10
4433.667503600613
 20
2213.159324472741
 30
0.0
 10
4435.83819195634
 20
2212.676879601987
 30
0.0
 10
4436.979635486488
 20
2212.483999990084
 30
0.0
 10
4439.781999708842
 20
2212.150516868394
 30
0.0
 10
4441.470150527667
 20
2212.060987269869
 30
0.0
 10
4444.805434834414
 20
2212.099985097788
 30
0.0
 10
4446.452232816213
 20
2212.22854754958
 30
0.0
 10
4449.553307809061
 20
2212.689427595678
 30
0.0
 10
4451.007269599177
 20
2213.0219466608
 30
0.0
 10
4453.287198646103
 20
2213.755281074776
 30
0.0
 10
4454.180690060391
 20
2214.122713189257
 30
0.0
 10
4455.213509101737
 20
2214.659140266
 30
0.0
 10
4455.463208634265
 20
2214.800376164292
 30
0.0
 10
4455.697256105492
 20
2214.944260477487
 30
0.0
  0
SPLINE
  5
2C157
330
18
100
AcDbEntity
  8
姿図
100
AcDbSpline
210
0.0
220
0.0
230
1.0
 70
     8
 71
     3
 72
    30
 73
    26
 74
     0
 42
0.000000001
 43
0.0000000001
 40
0.3354232995066272
 40
0.3354232995066272
 40
0.3354232995066272
 40
0.3354232995066272
 40
0.3976533010262082
 40
0.3976533010262082
 40
0.5302044013682776
 40
0.5302044013682776
 40
0.7397248520178367
 40
0.7397248520178367
 40
0.9492453026673957
 40
0.9492453026673957
 40
1.158765753316955
 40
1.158765753316955
 40
1.368286203966514
 40
1.368286203966514
 40
1.660455600340546
 40
1.660455600340546
 40
1.952624996714579
 40
1.952624996714579
 40
2.244794393088612
 40
2.244794393088612
 40
2.469780447170401
 40
2.469780447170401
 40
2.69476650125219
 40
2.69476650125219
 40
2.828108566806494
 40
2.828108566806494
 40
2.828108566806494
 40
2.828108566806494
 10
4425.969723973276
 20
2213.989215590317
 30
0.0
 10
4426.062321734979
 20
2213.864875067226
 30
0.0
 10
4426.165474789928
 20
2213.73895390577
 30
0.0
 10
4426.522465959924
 20
2213.341843877971
 30
0.0
 10
4426.814724342734
 20
2213.067522295509
 30
0.0
 10
4427.693135398659
 20
2212.366218912551
 30
0.0
 10
4428.351560874426
 20
2211.943581293223
 30
0.0
 10
4429.876559445203
 20
2211.152013920896
 30
0.0
 10
4430.742799935837
 20
2210.782893791769
 30
0.0
 10
4432.638320246704
 20
2210.124277737392
 30
0.0
 10
4433.667503600613
 20
2209.834673321526
 30
0.0
 10
4435.83819195634
 20
2209.352228450772
 30
0.0
 10
4436.979635486488
 20
2209.159348838868
 30
0.0
 10
4439.781999708842
 20
2208.825865717179
 30
0.0
 10
4441.470150527667
 20
2208.736336118654
 30
0.0
 10
4444.805434834414
 20
2208.775333946573
 30
0.0
 10
4446.452232816213
 20
2208.903896398364
 30
0.0
 10
4449.553307809061
 20
2209.364776444463
 30
0.0
 10
4451.007269599177
 20
2209.697295509586
 30
0.0
 10
4453.287198646103
 20
2210.430629923561
 30
0.0
 10
4454.180690060391
 20
2210.798062038042
 30
0.0
 10
4455.716994510937
 20
2211.595990109081
 30
0.0
 10
4456.359068946531
 20
2212.026735027118
 30
0.0
 10
4457.154216790885
 20
2212.71960210216
 30
0.0
 10
4457.399946600118
 20
2212.978543840901
 30
0.0
 10
4457.597053663083
 20
2213.231794783352
 30
0.0
  0
SPLINE
  5
2C158
330
18
100
AcDbEntity
  8
姿図
100
AcDbSpline
210
0.0
220
0.0
230
1.0
 70
     8
 71
     3
 72
    30
 73
    26
 74
     0
 42
0.000000001
 43
0.0000000001
 40
0.3920830818550671
 40
0.3920830818550671
 40
0.3920830818550671
 40
0.3920830818550671
 40
0.3976533010262082
 40
0.3976533010262082
 40
0.5302044013682776
 40
0.5302044013682776
 40
0.7397248520178367
 40
0.7397248520178367
 40
0.9492453026673957
 40
0.9492453026673957
 40
1.158765753316955
 40
1.158765753316955
 40
1.368286203966514
 40
1.368286203966514
 40
1.660455600340546
 40
1.660455600340546
 40
1.952624996714579
 40
1.952624996714579
 40
2.244794393088612
 40
2.244794393088612
 40
2.469780447170401
 40
2.469780447170401
 40
2.69476650125219
 40
2.69476650125219
 40
2.771095018135638
 40
2.771095018135638
 40
2.771095018135638
 40
2.771095018135638
 10
4426.249163563809
 20
2214.316676405346
 30
0.0
 10
4426.259198127347
 20
2214.305335798775
 30
0.0
 10
4426.269319782072
 20
2214.293987126478
 30
0.0
 10
4426.522465959924
 20
2214.012392246342
 30
0.0
 10
4426.814724342734
 20
2213.738070663881
 30
0.0
 10
4427.693135398659
 20
2213.036767280922
 30
0.0
 10
4428.351560874426
 20
2212.614129661594
 30
0.0
 10
4429.876559445203
 20
2211.822562289267
 30
0.0
 10
4430.742799935837
 20
2211.45344216014
 30
0.0
 10
4432.638320246704
 20
2210.794826105763
 30
0.0
 10
4433.667503600613
 20
2210.505221689898
 30
0.0
 10
4435.83819195634
 20
2210.022776819143
 30
0.0
 10
4436.979635486488
 20
2209.82989720724
 30
0.0
 10
4439.781999708842
 20
2209.49641408555
 30
0.0
 10
4441.470150527667
 20
2209.406884487025
 30
0.0
 10
4444.805434834414
 20
2209.445882314944
 30
0.0
 10
4446.452232816213
 20
2209.574444766736
 30
0.0
 10
4449.553307809061
 20
2210.035324812834
 30
0.0
 10
4451.007269599177
 20
2210.367843877957
 30
0.0
 10
4453.287198646103
 20
2211.101178291932
 30
0.0
 10
4454.180690060391
 20
2211.468610406413
 30
0.0
 10
4455.716994510937
 20
2212.266538477452
 30
0.0
 10
4456.359068946531
 20
2212.69728339549
 30
0.0
 10
4457.027700902679
 20
2213.279908464558
 30
0.0
 10
4457.180640705974
 20
2213.427861847194
 30
0.0
 10
4457.317432425384
 20
2213.57490334716
 30
0.0
  0
SPLINE
  5
2C159
330
18
100
AcDbEntity
  8
姿図
100
AcDbSpline
210
0.0
220
0.0
230
1.0
 70
     8
 71
     3
 72
    26
 73
    22
 74
     0
 42
0.000000001
 43
0.0000000001
 40
0.5041065256970889
 40
0.5041065256970889
 40
0.5041065256970889
 40
0.5041065256970889
 40
0.5302044013682776
 40
0.5302044013682776
 40
0.7397248520178367
 40
0.7397248520178367
 40
0.9492453026673957
 40
0.9492453026673957
 40
1.158765753316955
 40
1.158765753316955
 40
1.368286203966514
 40
1.368286203966514
 40
1.660455600340546
 40
1.660455600340546
 40
1.952624996714579
 40
1.952624996714579
 40
2.244794393088612
 40
2.244794393088612
 40
2.469780447170401
 40
2.469780447170401
 40
2.658672262395626
 40
2.658672262395626
 40
2.658672262395626
 40
2.658672262395626
 10
4426.959658504873
 20
2214.968178833648
 30
0.0
 10
4427.022935595442
 20
2214.914525397493
 30
0.0
 10
4427.088087296241
 20
2214.860920804966
 30
0.0
 10
4427.693135398659
 20
2214.377864178782
 30
0.0
 10
4428.351560874426
 20
2213.955226559454
 30
0.0
 10
4429.876559445203
 20
2213.163659187127
 30
0.0
 10
4430.742799935837
 20
2212.794539058
 30
0.0
 10
4432.638320246704
 20
2212.135923003623
 30
0.0
 10
4433.667503600613
 20
2211.846318587758
 30
0.0
 10
4435.83819195634
 20
2211.363873717003
 30
0.0
 10
4436.979635486488
 20
2211.170994105099
 30
0.0
 10
4439.781999708842
 20
2210.83751098341
 30
0.0
 10
4441.470150527667
 20
2210.747981384885
 30
0.0
 10
4444.805434834414
 20
2210.786979212804
 30
0.0
 10
4446.452232816213
 20
2210.915541664596
 30
0.0
 10
4449.553307809061
 20
2211.376421710694
 30
0.0
 10
4451.007269599177
 20
2211.708940775816
 30
0.0
 10
4453.287198646103
 20
2212.442275189792
 30
0.0
 10
4454.180690060391
 20
2212.809707304273
 30
0.0
 10
4455.59376078425
 20
2213.543630060618
 30
0.0
 10
4456.149809592087
 20
2213.900990484458
 30
0.0
 10
4456.607081172948
 20
2214.264483900225
 30
0.0
  0
SPLINE
  5
2C15A
330
18
100
AcDbEntity
  8
姿図
100
AcDbSpline
210
0.0
220
0.0
230
1.0
 70
     8
 71
     3
 72
    28
 73
    24
 74
     0
 42
0.000000001
 43
0.0000000001
 40
0.4481365490448796
 40
0.4481365490448796
 40
0.4481365490448796
 40
0.4481365490448796
 40
0.5302044013682776
 40
0.5302044013682776
 40
0.7397248520178367
 40
0.7397248520178367
 40
0.9492453026673957
 40
0.9492453026673957
 40
1.158765753316955
 40
1.158765753316955
 40
1.368286203966514
 40
1.368286203966514
 40
1.660455600340546
 40
1.660455600340546
 40
1.952624996714579
 40
1.952624996714579
 40
2.244794393088612
 40
2.244794393088612
 40
2.469780447170401
 40
2.469780447170401
 40
2.69476650125219
 40
2.69476650125219
 40
2.714790372245272
 40
2.714790372245272
 40
2.714790372245272
 40
2.714790372245272
 10
4426.578499399167
 20
2214.64300194188
 30
0.0
 10
4426.752064511757
 20
2214.474357985208
 30
0.0
 10
4426.944361089987
 20
2214.305120166585
 30
0.0
 10
4427.693135398659
 20
2213.70731581041
 30
0.0
 10
4428.351560874426
 20
2213.284678191083
 30
0.0
 10
4429.876559445203
 20
2212.493110818756
 30
0.0
 10
4430.742799935837
 20
2212.123990689629
 30
0.0
 10
4432.638320246704
 20
2211.465374635252
 30
0.0
 10
4433.667503600613
 20
2211.175770219386
 30
0.0
 10
4435.83819195634
 20
2210.693325348632
 30
0.0
 10
4436.979635486488
 20
2210.500445736728
 30
0.0
 10
4439.781999708842
 20
2210.166962615039
 30
0.0
 10
4441.470150527667
 20
2210.077433016514
 30
0.0
 10
4444.805434834414
 20
2210.116430844433
 30
0.0
 10
4446.452232816213
 20
2210.244993296224
 30
0.0
 10
4449.553307809061
 20
2210.705873342323
 30
0.0
 10
4451.007269599177
 20
2211.038392407445
 30
0.0
 10
4453.287198646103
 20
2211.771726821421
 30
0.0
 10
4454.180690060391
 20
2212.139158935901
 30
0.0
 10
4455.716994510937
 20
2212.937087006941
 30
0.0
 10
4456.359068946531
 20
2213.367831924978
 30
0.0
 10
4456.902758104854
 20
2213.841585730053
 30
0.0
 10
4456.946060854782
 20
2213.880329134223
 30
0.0
 10
4456.988237608603
 20
2213.919074541205
 30
0.0
  0
SPLINE
  5
2C15B
330
18
100
AcDbEntity
  8
姿図
100
AcDbSpline
210
0.0
220
0.0
230
1.0
 70
     8
 71
     3
 72
    34
 73
    30
 74
     0
 42
0.000000001
 43
0.0000000001
 40
0.2139299656021869
 40
0.2139299656021869
 40
0.2139299656021869
 40
0.2139299656021869
 40
0.2651022006841388
 40
0.2651022006841388
 40
0.3976533010262082
 40
0.3976533010262082
 40
0.5302044013682776
 40
0.5302044013682776
 40
0.7397248520178367
 40
0.7397248520178367
 40
0.9492453026673957
 40
0.9492453026673957
 40
1.158765753316955
 40
1.158765753316955
 40
1.368286203966514
 40
1.368286203966514
 40
1.660455600340546
 40
1.660455600340546
 40
1.952624996714579
 40
1.952624996714579
 40
2.244794393088612
 40
2.244794393088612
 40
2.469780447170401
 40
2.469780447170401
 40
2.69476650125219
 40
2.69476650125219
 40
2.851074505126578
 40
2.851074505126578
 40
2.950762975643702
 40
2.950762975643702
 40
2.950762975643702
 40
2.950762975643702
 10
4425.545151266529
 20
2213.309048590306
 30
0.0
 10
4425.588811312649
 20
2213.21364693656
 30
0.0
 10
4425.638858649547
 20
2213.116619057217
 30
0.0
 10
4425.84311173482
 20
2212.762448191988
 30
0.0
 10
4426.036591591796
 20
2212.496520965413
 30
0.0
 10
4426.522465959924
 20
2211.956043777036
 30
0.0
 10
4426.814724342734
 20
2211.681722194573
 30
0.0
 10
4427.693135398659
 20
2210.980418811615
 30
0.0
 10
4428.351560874426
 20
2210.557781192287
 30
0.0
 10
4429.876559445203
 20
2209.766213819961
 30
0.0
 10
4430.742799935837
 20
2209.397093690834
 30
0.0
 10
4432.638320246704
 20
2208.738477636457
 30
0.0
 10
4433.667503600613
 20
2208.448873220591
 30
0.0
 10
4435.83819195634
 20
2207.966428349836
 30
0.0
 10
4436.979635486488
 20
2207.773548737933
 30
0.0
 10
4439.781999708842
 20
2207.440065616243
 30
0.0
 10
4441.470150527667
 20
2207.350536017718
 30
0.0
 10
4444.805434834414
 20
2207.389533845638
 30
0.0
 10
4446.452232816213
 20
2207.518096297429
 30
0.0
 10
4449.553307809061
 20
2207.978976343527
 30
0.0
 10
4451.007269599177
 20
2208.31149540865
 30
0.0
 10
4453.287198646103
 20
2209.044829822626
 30
0.0
 10
4454.180690060391
 20
2209.412261937106
 30
0.0
 10
4455.716994510937
 20
2210.210190008146
 30
0.0
 10
4456.359068946531
 20
2210.640934926183
 30
0.0
 10
4457.205179345448
 20
2211.378209184578
 30
0.0
 10
4457.483104245933
 20
2211.681973428609
 30
0.0
 10
4457.829452167014
 20
2212.164025925976
 30
0.0
 10
4457.937370642827
 20
2212.347502410314
 30
0.0
 10
4458.021532394485
 20
2212.526138667096
 30
0.0
  0
SPLINE
  5
2C15C
330
18
100
AcDbEntity
  8
姿図
100
AcDbSpline
210
0.0
220
0.0
230
1.0
 70
     8
 71
     3
 72
    32
 73
    28
 74
     0
 42
0.000000001
 43
0.0000000001
 40
0.2736862359558179
 40
0.2736862359558179
 40
0.2736862359558179
 40
0.2736862359558179
 40
0.3976533010262082
 40
0.3976533010262082
 40
0.5302044013682776
 40
0.5302044013682776
 40
0.7397248520178367
 40
0.7397248520178367
 40
0.9492453026673957
 40
0.9492453026673957
 40
1.158765753316955
 40
1.158765753316955
 40
1.368286203966514
 40
1.368286203966514
 40
1.660455600340546
 40
1.660455600340546
 40
1.952624996714579
 40
1.952624996714579
 40
2.244794393088612
 40
2.244794393088612
 40
2.469780447170401
 40
2.469780447170401
 40
2.69476650125219
 40
2.69476650125219
 40
2.851074505126578
 40
2.851074505126578
 40
2.890390267939805
 40
2.890390267939805
 40
2.890390267939805
 40
2.890390267939805
 10
4425.72495986423
 20
2213.638748044709
 30
0.0
 10
4425.868378740081
 20
2213.398535480223
 30
0.0
 10
4426.052324251512
 20
2213.14956862939
 30
0.0
 10
4426.522465959924
 20
2212.626592145406
 30
0.0
 10
4426.814724342734
 20
2212.352270562945
 30
0.0
 10
4427.693135398659
 20
2211.650967179986
 30
0.0
 10
4428.351560874426
 20
2211.228329560658
 30
0.0
 10
4429.876559445203
 20
2210.436762188332
 30
0.0
 10
4430.742799935837
 20
2210.067642059205
 30
0.0
 10
4432.638320246704
 20
2209.409026004827
 30
0.0
 10
4433.667503600613
 20
2209.119421588962
 30
0.0
 10
4435.83819195634
 20
2208.636976718207
 30
0.0
 10
4436.979635486488
 20
2208.444097106304
 30
0.0
 10
4439.781999708842
 20
2208.110613984615
 30
0.0
 10
4441.470150527667
 20
2208.02108438609
 30
0.0
 10
4444.805434834414
 20
2208.060082214009
 30
0.0
 10
4446.452232816213
 20
2208.1886446658
 30
0.0
 10
4449.553307809061
 20
2208.649524711899
 30
0.0
 10
4451.007269599177
 20
2208.982043777021
 30
0.0
 10
4453.287198646103
 20
2209.715378190997
 30
0.0
 10
4454.180690060391
 20
2210.082810305477
 30
0.0
 10
4455.716994510937
 20
2210.880738376517
 30
0.0
 10
4456.359068946531
 20
2211.311483294554
 30
0.0
 10
4457.205179345448
 20
2212.048757552949
 30
0.0
 10
4457.483104245933
 20
2212.35252179698
 30
0.0
 10
4457.747771503822
 20
2212.720889859471
 30
0.0
 10
4457.796770930761
 20
2212.794263466105
 30
0.0
 10
4457.841774043185
 20
2212.866940644137
 30
0.0
  0
SPLINE
  5
2C15D
330
18
100
AcDbEntity
  8
姿図
100
AcDbSpline
210
0.0
220
0.0
230
1.0
 70
     8
 71
     3
 72
    36
 73
    32
 74
     0
 42
0.000000001
 43
0.0000000001
 40
0.1519250428741453
 40
0.1519250428741453
 40
0.1519250428741453
 40
0.1519250428741453
 40
0.2651022006841388
 40
0.2651022006841388
 40
0.3976533010262082
 40
0.3976533010262082
 40
0.5302044013682776
 40
0.5302044013682776
 40
0.7397248520178367
 40
0.7397248520178367
 40
0.9492453026673957
 40
0.9492453026673957
 40
1.158765753316955
 40
1.158765753316955
 40
1.368286203966514
 40
1.368286203966514
 40
1.660455600340546
 40
1.660455600340546
 40
1.952624996714579
 40
1.952624996714579
 40
2.244794393088612
 40
2.244794393088612
 40
2.469780447170401
 40
2.469780447170401
 40
2.69476650125219
 40
2.69476650125219
 40
2.851074505126578
 40
2.851074505126578
 40
3.007382509000966
 40
3.007382509000966
 40
3.013465200237514
 40
3.013465200237514
 40
3.013465200237514
 40
3.013465200237514
 10
4425.413766452772
 20
2212.978116074739
 30
0.0
 10
4425.477574414539
 20
2212.775857114883
 30
0.0
 10
4425.56992512654
 20
2212.565599911845
 30
0.0
 10
4425.84311173482
 20
2212.091899662499
 30
0.0
 10
4426.036591591796
 20
2211.825972435925
 30
0.0
 10
4426.522465959924
 20
2211.285495247547
 30
0.0
 10
4426.814724342734
 20
2211.011173665085
 30
0.0
 10
4427.693135398659
 20
2210.309870282127
 30
0.0
 10
4428.351560874426
 20
2209.887232662799
 30
0.0
 10
4429.876559445203
 20
2209.095665290472
 30
0.0
 10
4430.742799935837
 20
2208.726545161345
 30
0.0
 10
4432.638320246704
 20
2208.067929106968
 30
0.0
 10
4433.667503600613
 20
2207.778324691102
 30
0.0
 10
4435.83819195634
 20
2207.295879820348
 30
0.0
 10
4436.979635486488
 20
2207.103000208444
 30
0.0
 10
4439.781999708842
 20
2206.769517086755
 30
0.0
 10
4441.470150527667
 20
2206.679987488229
 30
0.0
 10
4444.805434834414
 20
2206.718985316149
 30
0.0
 10
4446.452232816213
 20
2206.84754776794
 30
0.0
 10
4449.553307809061
 20
2207.308427814039
 30
0.0
 10
4451.007269599177
 20
2207.640946879161
 30
0.0
 10
4453.287198646103
 20
2208.374281293137
 30
0.0
 10
4454.180690060391
 20
2208.741713407617
 30
0.0
 10
4455.716994510937
 20
2209.539641478657
 30
0.0
 10
4456.359068946531
 20
2209.970386396694
 30
0.0
 10
4457.205179345448
 20
2210.707660655089
 30
0.0
 10
4457.483104245933
 20
2211.01142489912
 30
0.0
 10
4457.906055009758
 20
2211.600094440802
 30
0.0
 10
4458.051263467471
 20
2211.884002061164
 30
0.0
 10
4458.146081931478
 20
2212.165726102287
 30
0.0
 10
4458.14955440385
 20
2212.176259739432
 30
0.0
 10
4458.152948162731
 20
2212.186775361002
 30
0.0
  0
SPLINE
  5
2C15E
330
18
100
AcDbEntity
  8
姿図
100
AcDbSpline
210
0.0
220
0.0
230
1.0
 70
     8
 71
     3
 72
    38
 73
    34
 74
     0
 42
0.000000001
 43
0.0000000001
 40
0.0875809345588952
 40
0.0875809345588952
 40
0.0875809345588952
 40
0.0875809345588952
 40
0.1325511003420694
 40
0.1325511003420694
 40
0.2651022006841388
 40
0.2651022006841388
 40
0.3976533010262082
 40
0.3976533010262082
 40
0.5302044013682776
 40
0.5302044013682776
 40
0.7397248520178367
 40
0.7397248520178367
 40
0.9492453026673957
 40
0.9492453026673957
 40
1.158765753316955
 40
1.158765753316955
 40
1.368286203966514
 40
1.368286203966514
 40
1.660455600340546
 40
1.660455600340546
 40
1.952624996714579
 40
1.952624996714579
 40
2.244794393088612
 40
2.244794393088612
 40
2.469780447170401
 40
2.469780447170401
 40
2.69476650125219
 40
2.69476650125219
 40
2.851074505126578
 40
2.851074505126578
 40
3.007382509000966
 40
3.007382509000966
 40
3.07848309170727
 40
3.07848309170727
 40
3.07848309170727
 40
3.07848309170727
 10
4425.331567153897
 20
2212.645188810369
 30
0.0
 10
4425.344711830133
 20
2212.568039835662
 30
0.0
 10
4425.361954302049
 20
2212.490010962987
 30
0.0
 10
4425.446937652014
 20
2212.177061377871
 30
0.0
 10
4425.548386286485
 20
2211.932399471943
 30
0.0
 10
4425.84311173482
 20
2211.421351294128
 30
0.0
 10
4426.036591591796
 20
2211.155424067553
 30
0.0
 10
4426.522465959924
 20
2210.614946879175
 30
0.0
 10
4426.814724342734
 20
2210.340625296714
 30
0.0
 10
4427.693135398659
 20
2209.639321913755
 30
0.0
 10
4428.351560874426
 20
2209.216684294428
 30
0.0
 10
4429.876559445203
 20
2208.425116922101
 30
0.0
 10
4430.742799935837
 20
2208.055996792973
 30
0.0
 10
4432.638320246704
 20
2207.397380738596
 30
0.0
 10
4433.667503600613
 20
2207.107776322731
 30
0.0
 10
4435.83819195634
 20
2206.625331451977
 30
0.0
 10
4436.979635486488
 20
2206.432451840073
 30
0.0
 10
4439.781999708842
 20
2206.098968718383
 30
0.0
 10
4441.470150527667
 20
2206.009439119859
 30
0.0
 10
4444.805434834414
 20
2206.048436947778
 30
0.0
 10
4446.452232816213
 20
2206.176999399569
 30
0.0
 10
4449.553307809061
 20
2206.637879445667
 30
0.0
 10
4451.007269599177
 20
2206.97039851079
 30
0.0
 10
4453.287198646103
 20
2207.703732924766
 30
0.0
 10
4454.180690060391
 20
2208.071165039246
 30
0.0
 10
4455.716994510937
 20
2208.869093110286
 30
0.0
 10
4456.359068946531
 20
2209.299838028323
 30
0.0
 10
4457.205179345448
 20
2210.037112286718
 30
0.0
 10
4457.483104245933
 20
2210.340876530749
 30
0.0
 10
4457.906055009758
 20
2210.929546072431
 30
0.0
 10
4458.051263467471
 20
2211.213453692793
 30
0.0
 10
4458.184045292606
 20
2211.607974240623
 30
0.0
 10
4458.214744947407
 20
2211.728735485042
 30
0.0
 10
4458.235336398538
 20
2211.848385470661
 30
0.0
  0
SPLINE
  5
2C15F
330
18
100
AcDbEntity
  8
姿図
100
AcDbSpline
210
0.0
220
0.0
230
1.0
 70
     8
 71
     3
 72
     8
 73
     4
 74
     0
 42
0.000000001
 43
0.0000000001
 40
170.0
 40
170.0
 40
170.0
 40
170.0
 40
171.0
 40
171.0
 40
171.0
 40
171.0
 10
4455.341140408334
 20
2205.399763954908
 30
0.0
 10
4447.033631640974
 20
2202.618779525655
 30
0.0
 10
4435.116055545053
 20
2202.881240680169
 30
0.0
 10
4427.909350559159
 20
2205.709811524353
 30
0.0
  0
ELLIPSE
  5
2C160
330
18
100
AcDbEntity
  8
姿図
100
AcDbEllipse
 10
4441.78335473812
 20
2211.867088385623
 30
0.0
 11
-17.72885924764582
 21
0.4964857503197829
 31
0.0
210
0.0
220
0.0
230
1.0
 40
0.4417103177870492
 41
0.0
 42
6.283185307179586
  0
ARC
  5
2C161
330
18
100
AcDbEntity
  8
姿図
100
AcDbCircle
 10
4442.850981377947
 20
2187.466979396288
 30
0.0
 40
35.06924695565792
100
AcDbArc
 50
64.67277808723567
 51
91.7711464803476
  0
SPLINE
  5
2C162
330
18
100
AcDbEntity
  8
姿図
100
AcDbSpline
210
0.0
220
0.0
230
1.0
 70
    11
 71
     3
 72
    70
 73
    66
 74
     0
 42
0.000000001
 43
0.0000000001
 40
0.0
 40
0.0
 40
0.0
 40
0.0
 40
0.1325511003420694
 40
0.1325511003420694
 40
0.2651022006841388
 40
0.2651022006841388
 40
0.3976533010262082
 40
0.3976533010262082
 40
0.5302044013682776
 40
0.5302044013682776
 40
0.7397248520178367
 40
0.7397248520178367
 40
0.9492453026673957
 40
0.9492453026673957
 40
1.158765753316955
 40
1.158765753316955
 40
1.368286203966514
 40
1.368286203966514
 40
1.660455600340546
 40
1.660455600340546
 40
1.952624996714579
 40
1.952624996714579
 40
2.244794393088612
 40
2.244794393088612
 40
2.469780447170401
 40
2.469780447170401
 40
2.69476650125219
 40
2.69476650125219
 40
2.851074505126578
 40
2.851074505126578
 40
3.007382509000966
 40
3.007382509000966
 40
3.163690512875355
 40
3.163690512875355
 40
3.319998516749743
 40
3.319998516749743
 40
3.476306520624131
 40
3.476306520624131
 40
3.632614524498519
 40
3.632614524498519
 40
3.788922528372907
 40
3.788922528372907
 40
3.945230532247295
 40
3.945230532247295
 40
4.1996485318078
 40
4.1996485318078
 40
4.454066531368306
 40
4.454066531368306
 40
4.708484530928811
 40
4.708484530928811
 40
4.962902530489317
 40
4.962902530489317
 40
5.217320530049823
 40
5.217320530049823
 40
5.471738529610328
 40
5.471738529610328
 40
5.726156529170834
 40
5.726156529170834
 40
5.897880152543986
 40
5.897880152543986
 40
6.069603775917138
 40
6.069603775917138
 40
6.20406405414118
 40
6.20406405414118
 40
6.283185307179586
 40
6.283185307179586
 40
6.283185307179586
 40
6.283185307179586
 10
4425.300007192765
 20
2212.328694350198
 30
0.0
 10
4425.293806559079
 20
2212.107277800362
 30
0.0
 10
4425.32002737479
 20
2211.884451147055
 30
0.0
 10
4425.446937652014
 20
2211.417106442231
 30
0.0
 10
4425.548386286485
 20
2211.172444536302
 30
0.0
 10
4425.84311173482
 20
2210.661396358488
 30
0.0
 10
4426.036591591796
 20
2210.395469131913
 30
0.0
 10
4426.522465959924
 20
2209.854991943535
 30
0.0
 10
4426.814724342734
 20
2209.580670361074
 30
0.0
 10
4427.693135398659
 20
2208.879366978115
 30
0.0
 10
4428.351560874426
 20
2208.456729358787
 30
0.0
 10
4429.876559445203
 20
2207.665161986461
 30
0.0
 10
4430.742799935837
 20
2207.296041857333
 30
0.0
 10
4432.638320246704
 20
2206.637425802956
 30
0.0
 10
4433.667503600613
 20
2206.347821387091
 30
0.0
 10
4435.83819195634
 20
2205.865376516336
 30
0.0
 10
4436.979635486488
 20
2205.672496904433
 30
0.0
 10
4439.781999708842
 20
2205.339013782743
 30
0.0
 10
4441.470150527667
 20
2205.249484184219
 30
0.0
 10
4444.805434834414
 20
2205.288482012138
 30
0.0
 10
4446.452232816213
 20
2205.417044463929
 30
0.0
 10
4449.553307809061
 20
2205.877924510027
 30
0.0
 10
4451.007269599177
 20
2206.21044357515
 30
0.0
 10
4453.287198646103
 20
2206.943777989125
 30
0.0
 10
4454.180690060391
 20
2207.311210103606
 30
0.0
 10
4455.716994510937
 20
2208.109138174646
 30
0.0
 10
4456.359068946531
 20
2208.539883092683
 30
0.0
 10
4457.205179345448
 20
2209.277157351078
 30
0.0
 10
4457.483104245933
 20
2209.580921595109
 30
0.0
 10
4457.906055009758
 20
2210.169591136791
 30
0.0
 10
4458.051263467471
 20
2210.453498757153
 30
0.0
 10
4458.233797138249
 20
2210.995841684884
 30
0.0
 10
4458.272793541841
 20
2211.254506139848
 30
0.0
 10
4458.261271860076
 20
2211.778198028333
 30
0.0
 10
4458.210336789151
 20
2212.045350435297
 30
0.0
 10
4457.996522344785
 20
2212.614102573034
 30
0.0
 10
4457.832228033301
 20
2212.915282622717
 30
0.0
 10
4457.368237508241
 20
2213.539759618298
 30
0.0
 10
4457.068619575229
 20
2213.862224506017
 30
0.0
 10
4456.333076557437
 20
2214.505323501618
 30
0.0
 10
4455.897454733512
 20
2214.825786175111
 30
0.0
 10
4454.901376662833
 20
2215.445807298147
 30
0.0
 10
4454.341056886758
 20
2215.745398970384
 30
0.0
 10
4452.726404356201
 20
2216.487117005465
 30
0.0
 10
4451.582518497375
 20
2216.900273026868
 30
0.0
 10
4449.091959797986
 20
2217.594169426696
 30
0.0
 10
4447.745472809822
 20
2217.875086920937
 30
0.0
 10
4444.945223596922
 20
2218.281655971763
 30
0.0
 10
4443.491624241606
 20
2218.407349964156
 30
0.0
 10
4440.578074575606
 20
2218.493971143193
 30
0.0
 10
4439.11829411046
 20
2218.454894094577
 30
0.0
 10
4436.293765918974
 20
2218.215497925444
 30
0.0
 10
4434.929178849759
 20
2218.015129493707
 30
0.0
 10
4432.391862839737
 20
2217.470440244111
 30
0.0
 10
4431.219307015264
 20
2217.125938942756
 30
0.0
 10
4429.153516777957
 20
2216.32703081447
 30
0.0
 10
4428.260829350467
 20
2215.872140742494
 30
0.0
 10
4427.057790047178
 20
2215.068580300146
 30
0.0
 10
4426.652544781318
 20
2214.733847414101
 30
0.0
 10
4426.008605726392
 20
2214.07079540278
 30
0.0
 10
4425.770376998358
 20
2213.743393010541
 30
0.0
 10
4425.478086954847
 20
2213.187986303945
 30
0.0
 10
4425.394488840464
 20
2212.954063680949
 30
0.0
 10
4425.319133851614
 20
2212.59273933645
 30
0.0
 10
4425.303708421241
 20
2212.460860396511
 30
0.0
 10
4425.300007192765
 20
2212.328694350198
 30
0.0
  0
ARC
  5
2C163
330
18
100
AcDbEntity
  8
姿図
100
AcDbCircle
 10
4442.624276094459
 20
2184.877519707788
 30
0.0
 40
37.11772922268197
100
AcDbArc
 50
66.16327990533367
 51
91.29781924381929
  0
SPLINE
  5
2C204
330
18
100
AcDbEntity
  8
姿図
100
AcDbSpline
210
0.0
220
0.0
230
1.0
 70
     8
 71
     3
 72
    11
 73
     7
 74
     0
 42
0.000000001
 43
0.0000000001
 40
171.0
 40
171.0
 40
171.0
 40
171.0
 40
172.0
 40
172.0
 40
172.0
 40
173.0
 40
173.0
 40
173.0
 40
173.0
 10
4427.909350559159
 20
2205.709811524353
 30
0.0
 10
4420.702706895965
 20
2208.538137077739
 30
0.0
 10
4420.586439057422
 20
2211.986557770013
 30
0.0
 10
4420.586439057422
 20
2213.03260038069
 30
0.0
 10
4420.586439057422
 20
2214.078765636766
 30
0.0
 10
4420.818974734506
 20
2215.938560471836
 30
0.0
 10
4423.724873502953
 20
2218.185792123311
 30
0.0
  0
SPLINE
  5
2C205
330
18
100
AcDbEntity
  8
姿図
100
AcDbSpline
210
0.0
220
0.0
230
1.0
 70
     8
 71
     3
 72
     8
 73
     4
 74
     0
 42
0.000000001
 43
0.0000000001
 40
173.0
 40
173.0
 40
173.0
 40
173.0
 40
174.0
 40
174.0
 40
174.0
 40
174.0
 10
4423.724873502953
 20
2218.185792123311
 30
0.0
 10
4423.72714244284
 20
2218.539378809509
 30
0.0
 10
4423.780554514237
 20
2219.169653516541
 30
0.0
 10
4423.780554514237
 20
2219.169653516541
 30
0.0
  0
SPLINE
  5
2C206
330
18
100
AcDbEntity
  8
姿図
100
AcDbSpline
210
0.0
220
0.0
230
1.0
 70
    24
 71
     3
 72
     8
 73
     4
 74
     0
 42
0.000000001
 43
0.0000000001
 40
174.0
 40
174.0
 40
174.0
 40
174.0
 40
175.0
 40
175.0
 40
175.0
 40
175.0
 10
4423.780554514237
 20
2219.169653516541
 30
0.0
 10
4423.780554514237
 20
2219.169653516541
 30
0.0
 10
4423.582175580861
 20
2219.674584625482
 30
0.0
 10
4423.582175580861
 20
2219.674584625482
 30
0.0
  0
SPLINE
  5
2C207
330
18
100
AcDbEntity
  8
姿図
100
AcDbSpline
210
0.0
220
0.0
230
1.0
 70
    24
 71
     3
 72
     8
 73
     4
 74
     0
 42
0.000000001
 43
0.0000000001
 40
175.0
 40
175.0
 40
175.0
 40
175.0
 40
176.0
 40
176.0
 40
176.0
 40
176.0
 10
4423.582175580861
 20
2219.674584625482
 30
0.0
 10
4423.582175580861
 20
2219.674584625482
 30
0.0
 10
4423.600204454558
 20
2220.125429113329
 30
0.0
 10
4423.600204454558
 20
2220.125429113329
 30
0.0
  0
ARC
  5
2C208
330
18
100
AcDbEntity
  8
姿図
100
AcDbCircle
 10
4440.212650177762
 20
2189.266981424195
 30
0.0
 40
33.28880280108795
100
AcDbArc
 50
87.32358175998458
 51
119.6892030509458
  0
LINE
  5
2C209
330
18
100
AcDbEntity
  8
姿図
100
AcDbLine
 10
4426.567115177661
 20
2219.758167909973
 30
0.0
 11
4426.665476906308
 21
2221.634583343107
 31
0.0
  0
LINE
  5
2C20A
330
18
100
AcDbEntity
  8
姿図
100
AcDbLine
 10
4426.665476906308
 20
2221.634583343107
 30
0.0
 11
4426.847684240744
 21
2222.02685198849
 31
0.0
  0
ELLIPSE
  5
2C20B
330
18
100
AcDbEntity
  8
姿図
100
AcDbEllipse
 10
4441.545628974569
 20
2223.089499748216
 30
0.0
 11
-0.5103984147071211
 21
0.0
 31
0.0
210
0.0
220
0.0
230
1.0
 40
0.8782894644009032
 41
0.0
 42
6.283185307179586
  0
ELLIPSE
  5
2C20C
330
18
100
AcDbEntity
  8
姿図
100
AcDbEllipse
 10
4441.541942682496
 20
2222.911205653993
 30
0.0
 11
0.4287116222402616
 21
-0.00858895810224929
 31
0.0
210
0.0
220
0.0
230
1.0
 40
0.6207444020835625
 41
0.0
 42
6.283185307179586
  0
ARC
  5
2C20D
330
18
100
AcDbEntity
  8
姿図
100
AcDbCircle
 10
4427.578148444971
 20
2221.878739460088
 30
0.0
 40
1.080993044326397
100
AcDbArc
 50
168.2703751251378
 51
210.7658796790905
  0
ARC
  5
2C20E
330
18
100
AcDbEntity
  8
姿図
100
AcDbCircle
 10
4427.781683210835
 20
2221.917385372626
 30
0.0
 40
1.274884565375872
100
AcDbArc
 50
130.0785474406335
 51
171.8327998775677
  0
ARC
  5
2C20F
330
18
100
AcDbEntity
  8
姿図
100
AcDbCircle
 10
4428.249824263694
 20
2221.984176543213
 30
0.0
 40
1.911263122043124
100
AcDbArc
 50
179.0322273053044
 51
212.0901701310446
  0
ARC
  5
2C210
330
18
100
AcDbEntity
  8
姿図
100
AcDbCircle
 10
4427.98045862759
 20
2221.749360490881
 30
0.0
 40
1.663211690906267
100
AcDbArc
 50
126.7373714880123
 51
170.7587812735012
  0
ARC
  5
2C211
330
18
100
AcDbEntity
  8
姿図
100
AcDbCircle
 10
4427.656101866058
 20
2220.768693936889
 30
0.0
 40
2.958938324957566
100
AcDbArc
 50
182.2432068658838
 51
215.2678058197613
  0
ARC
  5
2C212
330
18
100
AcDbEntity
  8
姿図
100
AcDbCircle
 10
4425.496358478327
 20
2220.645378349197
 30
0.0
 40
0.7969627347131522
100
AcDbArc
 50
130.3162949966214
 51
179.4608858840927
  0
ARC
  5
2C213
330
18
100
AcDbEntity
  8
姿図
100
AcDbCircle
 10
4422.311586683474
 20
2224.379700485898
 30
0.0
 40
4.110986133731973
100
AcDbArc
 50
310.486432261401
 51
328.4791224773516
  0
LINE
  5
2C214
330
18
100
AcDbEntity
  8
姿図
100
AcDbLine
 10
4425.815995657733
 20
2222.230439046968
 30
0.0
 11
4426.492125122801
 21
2223.331490070337
 31
0.0
  0
ARC
  5
2C215
330
18
100
AcDbEntity
  8
姿図
100
AcDbCircle
 10
4425.960048117191
 20
2223.599631021179
 30
0.0
 40
0.5958233877718433
100
AcDbArc
 50
333.2541164958345
 51
25.0016759041877
  0
LINE
  5
2C216
330
18
100
AcDbEntity
  8
姿図
100
AcDbLine
 10
4425.47593760698
 20
2222.903185547368
 30
0.0
 11
4425.725981537419
 21
2222.825773052073
 31
0.0
  0
LINE
  5
2C217
330
18
100
AcDbEntity
  8
姿図
100
AcDbLine
 10
4425.725981537419
 20
2222.825773052073
 30
0.0
 11
4425.722145507205
 21
2222.139193966883
 31
0.0
  0
LINE
  5
2C218
330
18
100
AcDbEntity
  8
姿図
100
AcDbLine
 10
4424.475771449145
 20
2222.834714594947
 30
0.0
 11
4424.666525414163
 21
2222.988715459559
 31
0.0
  0
LINE
  5
2C219
330
18
100
AcDbEntity
  8
姿図
100
AcDbLine
 10
4424.666525414163
 20
2222.988715459559
 30
0.0
 11
4424.849942831597
 21
2223.007048868969
 31
0.0
  0
LINE
  5
2C21A
330
18
100
AcDbEntity
  8
姿図
100
AcDbLine
 10
4424.849942831597
 20
2223.007048868969
 30
0.0
 11
4425.47593760698
 21
2222.903185547368
 31
0.0
  0
LINE
  5
2C21B
330
18
100
AcDbEntity
  8
姿図
100
AcDbLine
 10
4424.849942831597
 20
2223.007048868969
 30
0.0
 11
4424.849042900603
 21
2221.110278492622
 31
0.0
  0
LINE
  5
2C21C
330
18
100
AcDbEntity
  8
姿図
100
AcDbLine
 10
4424.848437698525
 20
2219.834703608646
 30
0.0
 11
4424.8480306569
 21
2218.976788389578
 31
0.0
  0
LINE
  5
2C21D
330
18
100
AcDbEntity
  8
姿図
100
AcDbLine
 10
4423.648763845153
 20
2221.057979902271
 30
0.0
 11
4423.594116506799
 21
2221.490200070775
 31
0.0
  0
LINE
  5
2C21E
330
18
100
AcDbEntity
  8
姿図
100
AcDbLine
 10
4423.594116506799
 20
2221.490200070775
 30
0.0
 11
4423.600358785443
 21
2221.59617097632
 31
0.0
  0
LINE
  5
2C21F
330
18
100
AcDbEntity
  8
姿図
100
AcDbLine
 10
4423.600358785443
 20
2221.59617097632
 30
0.0
 11
4423.647471747901
 21
2221.666346386969
 31
0.0
  0
LINE
  5
2C220
330
18
100
AcDbEntity
  8
姿図
100
AcDbLine
 10
4423.46092287723
 20
2220.472669666889
 30
0.0
 11
4423.648763845153
 21
2221.057979902271
 31
0.0
  0
LINE
  5
2C221
330
18
100
AcDbEntity
  8
姿図
100
AcDbLine
 10
4426.492125122801
 20
2223.331490070337
 30
0.0
 11
4427.068870968598
 21
2223.719308666142
 31
0.0
  0
LINE
  5
2C222
330
18
100
AcDbEntity
  8
姿図
100
AcDbLine
 10
4426.54321535676
 20
2223.721784531606
 30
0.0
 11
4427.121422267779
 21
2224.121415962904
 31
0.0
  0
ARC
  5
2C223
330
18
100
AcDbEntity
  8
姿図
100
AcDbCircle
 10
4440.392862860183
 20
2187.36759501239
 30
0.0
 40
34.64474431425761
100
AcDbArc
 50
87.76797878116228
 51
118.2602568684251
  0
ARC
  5
2C224
330
18
100
AcDbEntity
  8
姿図
100
AcDbCircle
 10
4432.097689018348
 20
2205.867152366451
 30
0.0
 40
14.49562056744876
100
AcDbArc
 50
124.0118240638609
 51
138.6946390210097
  0
LINE
  5
2C225
330
18
100
AcDbEntity
  8
姿図
100
AcDbLine
 10
4424.004109477515
 20
2219.871664483745
 30
0.0
 11
4423.780554514237
 21
2219.169653516541
 31
0.0
  0
LINE
  5
2C226
330
18
100
AcDbEntity
  8
姿図
100
AcDbLine
 10
4423.46092287723
 20
2220.472669666889
 30
0.0
 11
4423.600204454558
 21
2220.125429113329
 31
0.0
  0
SPLINE
  5
2C49E
330
18
100
AcDbEntity
  8
姿図
100
AcDbSpline
210
0.0
220
0.0
230
1.0
 70
     8
 71
     3
 72
     8
 73
     4
 74
     0
 42
0.000000001
 43
0.0000000001
 40
132.0
 40
132.0
 40
132.0
 40
132.0
 40
133.0
 40
133.0
 40
133.0
 40
133.0
 10
4457.082214496876
 20
2224.188548546922
 30
0.0
 10
4457.082214496876
 20
2224.188548546922
 30
0.0
 10
4457.633382921355
 20
2223.704589801263
 30
0.0
 10
4457.983044954775
 20
2222.763409006992
 30
0.0
  0
SPLINE
  5
2C49F
330
18
100
AcDbEntity
  8
姿図
100
AcDbSpline
210
0.0
220
0.0
230
1.0
 70
     8
 71
     3
 72
     8
 73
     4
 74
     0
 42
0.000000001
 43
0.0000000001
 40
133.0
 40
133.0
 40
133.0
 40
133.0
 40
134.0
 40
134.0
 40
134.0
 40
134.0
 10
4457.983044954775
 20
2222.763409006992
 30
0.0
 10
4458.036763639671
 20
2222.696199328172
 30
0.0
 10
4458.077113976043
 20
2222.749918013069
 30
0.0
 10
4458.077113976043
 20
2222.749918013069
 30
0.0
  0
SPLINE
  5
2C4A0
330
18
100
AcDbEntity
  8
姿図
100
AcDbSpline
210
0.0
220
0.0
230
1.0
 70
     8
 71
     3
 72
     8
 73
     4
 74
     0
 42
0.000000001
 43
0.0000000001
 40
168.0
 40
168.0
 40
168.0
 40
168.0
 40
169.0
 40
169.0
 40
169.0
 40
169.0
 10
4459.972843913109
 20
2217.842630296055
 30
0.0
 10
4459.972843913109
 20
2217.842630296055
 30
0.0
 10
4461.841591862327
 20
2216.457841092496
 30
0.0
 10
4462.608002962588
 20
2214.925141537374
 30
0.0
  0
SPLINE
  5
2C4A1
330
18
100
AcDbEntity
  8
姿図
100
AcDbSpline
210
0.0
220
0.0
230
1.0
 70
     8
 71
     3
 72
     8
 73
     4
 74
     0
 42
0.000000001
 43
0.0000000001
 40
169.0
 40
169.0
 40
169.0
 40
169.0
 40
170.0
 40
170.0
 40
170.0
 40
170.0
 10
4462.608002962588
 20
2214.925141537374
 30
0.0
 10
4463.374291417449
 20
2213.392441982252
 30
0.0
 10
4464.485090798959
 20
2208.460625185377
 30
0.0
 10
4455.341140408334
 20
2205.399763954908
 30
0.0
  0
ARC
  5
2C4A2
330
18
100
AcDbEntity
  8
姿図
100
AcDbCircle
 10
4452.340045719369
 20
2207.970703548093
 30
0.0
 40
12.47856345832616
100
AcDbArc
 50
52.28944218343688
 51
63.78077132055433
  0
LINE
  5
2C4A3
330
18
100
AcDbEntity
  8
姿図
100
AcDbLine
 10
4456.843720945979
 20
2219.714371181188
 30
0.0
 11
4456.742997752655
 21
2221.580013459958
 31
0.0
  0
LINE
  5
2C4A4
330
18
100
AcDbEntity
  8
姿図
100
AcDbLine
 10
4456.742997752655
 20
2221.580013459958
 30
0.0
 11
4456.539632481052
 21
2222.020438702833
 31
0.0
  0
LINE
  5
2C4A5
330
18
100
AcDbEntity
  8
姿図
100
AcDbLine
 10
4456.539632481052
 20
2222.020438702833
 30
0.0
 11
4456.244170672733
 21
2225.084044718509
 31
0.0
  0
LINE
  5
2C4A6
330
18
100
AcDbEntity
  8
姿図
100
AcDbLine
 10
4460.142863502377
 20
2219.157449703988
 30
0.0
 11
4459.90510543018
 21
2219.704045315984
 31
0.0
  0
LINE
  5
2C4A7
330
18
100
AcDbEntity
  8
姿図
100
AcDbLine
 10
4459.90510543018
 20
2219.704045315984
 30
0.0
 11
4459.650537915839
 21
2219.704022759521
 31
0.0
  0
LINE
  5
2C4A8
330
18
100
AcDbEntity
  8
姿図
100
AcDbLine
 10
4458.077113976044
 20
2222.749918013069
 30
0.0
 11
4458.843981186756
 21
2222.833889672888
 31
0.0
  0
LINE
  5
2C4A9
330
18
100
AcDbEntity
  8
姿図
100
AcDbLine
 10
4458.843981186756
 20
2222.833889672888
 30
0.0
 11
4459.188381147418
 21
2222.608304424305
 31
0.0
  0
ARC
  5
2C4AA
330
18
100
AcDbEntity
  8
姿図
100
AcDbCircle
 10
4459.238071548126
 20
2222.683673175683
 30
0.0
 40
0.0902750497470179
100
AcDbArc
 50
236.6032503128546
 51
1.861606254991113
  0
LINE
  5
2C4AB
330
18
100
AcDbEntity
  8
姿図
100
AcDbLine
 10
4458.843981186756
 20
2222.833889672888
 30
0.0
 11
4458.788613317665
 21
2218.653892300225
 31
0.0
  0
LINE
  5
2C4AC
330
18
100
AcDbEntity
  8
姿図
100
AcDbLine
 10
4459.650537915839
 20
2219.704022759521
 30
0.0
 11
4459.967386307117
 21
2218.844343608405
 31
0.0
  0
LINE
  5
2C4AD
330
18
100
AcDbEntity
  8
姿図
100
AcDbLine
 10
4460.142863502377
 20
2219.157449703988
 30
0.0
 11
4459.967386307117
 21
2218.844343608405
 31
0.0
  0
LINE
  5
2C4AE
330
18
100
AcDbEntity
  8
姿図
100
AcDbLine
 10
4459.967386307117
 20
2218.844343608405
 30
0.0
 11
4459.972843913109
 21
2217.842630296055
 31
0.0
  0
LINE
  5
2C4AF
330
18
100
AcDbEntity
  8
姿図
100
AcDbLine
 10
4457.082214496876
 20
2224.188548546922
 30
0.0
 11
4456.858598579713
 21
2223.708087774479
 31
0.0
  0
LINE
  5
2C4B0
330
18
100
AcDbEntity
  8
姿図
100
AcDbLine
 10
4456.858598579713
 20
2223.708087774479
 30
0.0
 11
4456.338361195749
 21
2224.107395131978
 31
0.0
  0
ARC
  5
2C4B1
330
18
100
AcDbEntity
  8
姿図
100
AcDbCircle
 10
4457.217696102006
 20
2223.565147199869
 30
0.0
 40
0.3865010199037808
100
AcDbArc
 50
158.2947226871589
 51
211.3256838175315
  0
LINE
  5
2C4B2
330
18
100
AcDbEntity
  8
姿図
100
AcDbLine
 10
4456.88753693553
 20
2223.364204513566
 30
0.0
 11
4458.550655476894
 21
2221.240286388388
 31
0.0
  0
ARC
  5
2C4B3
330
18
100
AcDbEntity
  8
姿図
100
AcDbCircle
 10
4458.197664989742
 20
2220.819320306281
 30
0.0
 40
0.5493766706950322
100
AcDbArc
 50
2.983045740784426
 51
50.01933376895087
  0
ARC
  5
2C4B4
330
18
100
AcDbEntity
  8
姿図
100
AcDbCircle
 10
4457.312713942898
 20
2220.649784108288
 30
0.0
 40
1.447209381110728
100
AcDbArc
 50
339.9809974842785
 51
7.868623721152925
  0
LINE
  5
2C4B5
330
18
100
AcDbEntity
  8
姿図
100
AcDbLine
 10
4458.67248168269
 20
2220.154358345337
 30
0.0
 11
4458.378515427466
 21
2219.507654147292
 31
0.0
  0
LINE
  5
2C4B6
330
18
100
AcDbEntity
  8
姿図
100
AcDbLine
 10
4458.378515427466
 20
2219.507654147292
 30
0.0
 11
4458.399825999633
 21
2218.879122724967
 31
0.0
  0
ARC
  5
2C4B7
330
18
100
AcDbEntity
  8
姿図
100
AcDbCircle
 10
4455.56450537602
 20
2221.785910876248
 30
0.0
 40
1.461412398526377
100
AcDbArc
 50
8.373754848832117
 51
52.69836353275855
  0
ARC
  5
2C4B8
330
18
100
AcDbEntity
  8
姿図
100
AcDbCircle
 10
4456.055300909259
 20
2221.68269136616
 30
0.0
 40
1.005972120399329
100
AcDbArc
 50
315.7091229369838
 51
18.31062691736127
  0
ARC
  5
2C4B9
330
18
100
AcDbEntity
  8
姿図
100
AcDbCircle
 10
4455.540185798704
 20
2221.847718215698
 30
0.0
 40
1.334716275422323
100
AcDbArc
 50
0.0
 51
46.24047802662292
  0
ARC
  5
2C4BA
330
18
100
AcDbEntity
  8
姿図
100
AcDbCircle
 10
4455.590487452493
 20
2221.786416981349
 30
0.0
 40
1.285876651004052
100
AcDbArc
 50
335.5055713375621
 51
2.732481191940487
  0
LINE
  5
2C4BB
330
18
100
AcDbEntity
  8
姿図
100
AcDbLine
 10
4456.856239341087
 20
2223.428282126268
 30
0.0
 11
4456.378352689323
 21
2223.692728407414
 31
0.0
  0
ARC
  5
2C4BC
330
18
100
AcDbEntity
  8
姿図
100
AcDbCircle
 10
4453.7504244202
 20
2209.347995390382
 30
0.0
 40
10.24218057844424
100
AcDbArc
 50
30.10092971952713
 51
67.77350120352567
  0
ARC
  5
2C4BD
330
18
100
AcDbEntity
  8
姿図
100
AcDbCircle
 10
4453.465580302066
 20
2210.658111121484
 30
0.0
 40
9.914051713579775
100
AcDbArc
 50
13.70046046630352
 51
22.7043797469085
  0
SPLINE
  5
2C5B3
330
18
100
AcDbEntity
  8
姿図
100
AcDbSpline
210
0.0
220
0.0
230
1.0
 70
     8
 71
     3
 72
     8
 73
     4
 74
     0
 42
0.000000001
 43
0.0000000001
 40
81.0
 40
81.0
 40
81.0
 40
81.0
 40
82.0
 40
82.0
 40
82.0
 40
82.0
 10
4443.601890723005
 20
2263.115769027608
 30
0.0
 10
4443.601890723005
 20
2263.115769027608
 30
0.0
 10
4444.583912435244
 20
2262.960683920187
 30
0.0
 10
4444.893960004689
 20
2262.857416493971
 30
0.0
  0
ARC
  5
2C5B4
330
18
100
AcDbEntity
  8
姿図
100
AcDbCircle
 10
4443.40436540637
 20
2257.745743046911
 30
0.0
 40
4.789094399679947
100
AcDbArc
 50
70.7977179457682
 51
87.8500788721898
  0
ARC
  5
2C5B5
330
18
100
AcDbEntity
  8
姿図
100
AcDbCircle
 10
4442.738388984519
 20
2255.483716206295
 30
0.0
 40
7.414887224566905
100
AcDbArc
 50
72.48901557824038
 51
83.37017240572861
  0
ARC
  5
2C5BC
330
18
100
AcDbEntity
  8
姿図
100
AcDbCircle
 10
4441.623029232687
 20
2204.532609341091
 30
0.0
 40
28.04169377734166
100
AcDbArc
 50
80.20625711297683
 51
96.42590072155491
  0
ARC
  5
2C5BD
330
18
100
AcDbEntity
  8
姿図
100
AcDbCircle
 10
4442.055849299362
 20
2209.493639066835
 30
0.0
 40
23.60322672269927
100
AcDbArc
 50
78.12404047177415
 51
94.74995000104923
  0
ARC
  5
2C5BE
330
18
100
AcDbEntity
  8
姿図
100
AcDbCircle
 10
4441.708315802819
 20
2191.633807495712
 30
0.0
 40
37.37641840280175
100
AcDbArc
 50
82.26642964453976
 51
95.15078153006687
  0
ARC
  5
2C5BF
330
18
100
AcDbEntity
  8
姿図
100
AcDbCircle
 10
4441.95857159811
 20
2210.974509195771
 30
0.0
 40
25.61482830047292
100
AcDbArc
 50
74.89723041579192
 51
103.6002725992934
  0
ARC
  5
2C5C0
330
18
100
AcDbEntity
  8
姿図
100
AcDbCircle
 10
4442.806427784382
 20
2213.642556576856
 30
0.0
 40
21.33134132830569
100
AcDbArc
 50
69.37373870165685
 51
86.60023055440318
  0
ARC
  5
2C5C1
330
18
100
AcDbEntity
  8
姿図
100
AcDbCircle
 10
4442.905665692158
 20
2212.718001137824
 30
0.0
 40
20.91672600107922
100
AcDbArc
 50
69.16539260965742
 51
86.95759899233144
  0
ARC
  5
2C5C2
330
18
100
AcDbEntity
  8
姿図
100
AcDbCircle
 10
4441.833148490847
 20
2217.508096502905
 30
0.0
 40
26.69899724262588
100
AcDbArc
 50
80.53548983360687
 51
101.9272810341534
  0
ARC
  5
2C5C3
330
18
100
AcDbEntity
  8
姿図
100
AcDbCircle
 10
4441.949501990923
 20
2219.042173482504
 30
0.0
 40
26.28926143976335
100
AcDbArc
 50
76.60595789985418
 51
100.9608874613417
  0
ARC
  5
2C5C4
330
18
100
AcDbEntity
  8
姿図
100
AcDbCircle
 10
4442.327663699014
 20
2238.051842951786
 30
0.0
 40
17.14259137306725
100
AcDbArc
 50
71.35276458398927
 51
109.4717975942664
  0
ARC
  5
2C5C5
330
18
100
AcDbEntity
  8
姿図
100
AcDbCircle
 10
4441.699912885611
 20
2207.642088653941
 30
0.0
 40
27.01062348187041
100
AcDbArc
 50
71.67295501632334
 51
85.11625161579612
  0
ARC
  5
2C5C6
330
18
100
AcDbEntity
  8
姿図
100
AcDbCircle
 10
4441.833148490847
 20
2217.508096502905
 30
0.0
 40
26.34299724262588
100
AcDbArc
 50
80.53548983360687
 51
101.9272810341534
  0
ARC
  5
2C5C7
330
18
100
AcDbEntity
  8
姿図
100
AcDbCircle
 10
4441.95857159811
 20
2210.974509195771
 30
0.0
 40
25.79282830047292
100
AcDbArc
 50
74.89723041579192
 51
103.6002725992934
  0
ARC
  5
2C5C8
330
18
100
AcDbEntity
  8
姿図
100
AcDbCircle
 10
4442.327663699014
 20
2238.051842951786
 30
0.0
 40
16.85779137306725
100
AcDbArc
 50
69.64678306273838
 51
110.8157935129273
  0
ARC
  5
2C5C9
330
18
100
AcDbEntity
  8
姿図
100
AcDbCircle
 10
4442.133430940734
 20
2239.061794819983
 30
0.0
 40
8.801429624951863
100
AcDbArc
 50
67.29173057237249
 51
101.2188577830055
  0
ARC
  5
2C5CA
330
18
100
AcDbEntity
  8
姿図
100
AcDbCircle
 10
4441.833690210546
 20
2238.175898024587
 30
0.0
 40
10.12894651037756
100
AcDbArc
 50
67.00328808230185
 51
91.1547726230548
  0
SPLINE
  5
2C5CD
330
18
100
AcDbEntity
  8
姿図
100
AcDbSpline
210
0.0
220
0.0
230
1.0
 70
     8
 71
     3
 72
     8
 73
     4
 74
     0
 42
0.000000001
 43
0.0000000001
 40
61.0
 40
61.0
 40
61.0
 40
61.0
 40
62.0
 40
62.0
 40
62.0
 40
62.0
 10
4433.395156624698
 20
2256.164841021966
 30
0.0
 10
4434.067008122093
 20
2258.722917437981
 30
0.0
 10
4435.048968511634
 20
2261.255299642843
 30
0.0
 10
4435.178114117101
 20
2261.617042248095
 30
0.0
  0
SPLINE
  5
2C5CE
330
18
100
AcDbEntity
  8
姿図
100
AcDbSpline
210
0.0
220
0.0
230
1.0
 70
     8
 71
     3
 72
     8
 73
     4
 74
     0
 42
0.000000001
 43
0.0000000001
 40
62.0
 40
62.0
 40
62.0
 40
62.0
 40
63.0
 40
63.0
 40
63.0
 40
63.0
 10
4435.178114117101
 20
2261.617042248095
 30
0.0
 10
4435.30732104527
 20
2261.978784853346
 30
0.0
 10
4435.641775049176
 20
2262.016007732036
 30
0.0
 10
4436.00498939922
 20
2262.056296745707
 30
0.0
  0
SPLINE
  5
2C5CF
330
18
100
AcDbEntity
  8
姿図
100
AcDbSpline
210
0.0
220
0.0
230
1.0
 70
     8
 71
     3
 72
     8
 73
     4
 74
     0
 42
0.000000001
 43
0.0000000001
 40
63.0
 40
63.0
 40
63.0
 40
63.0
 40
64.0
 40
64.0
 40
64.0
 40
64.0
 10
4436.00498939922
 20
2262.056296745707
 30
0.0
 10
4436.470060753387
 20
2262.108053104214
 30
0.0
 10
4437.348631071312
 20
2261.823761068624
 30
0.0
 10
4437.503716178733
 20
2261.875456104431
 30
0.0
  0
SPLINE
  5
2C5D0
330
18
100
AcDbEntity
  8
姿図
100
AcDbSpline
210
0.0
220
0.0
230
1.0
 70
     8
 71
     3
 72
    14
 73
    10
 74
     0
 42
0.000000001
 43
0.0000000001
 40
64.0
 40
64.0
 40
64.0
 40
64.0
 40
65.0
 40
65.0
 40
65.0
 40
66.0
 40
66.0
 40
66.0
 40
67.0
 40
67.0
 40
67.0
 40
67.0
 10
4437.503716178733
 20
2261.875456104431
 30
0.0
 10
4437.529533035287
 20
2262.469734386766
 30
0.0
 10
4437.426204286372
 20
2263.580840381775
 30
0.0
 10
4437.736251855817
 20
2263.580840381775
 30
0.0
 10
4438.046299425261
 20
2263.580840381775
 30
0.0
 10
4437.9687875329
 20
2263.425877919752
 30
0.0
 10
4437.9687875329
 20
2263.27079281233
 30
0.0
 10
4437.9687875329
 20
2263.115769027608
 30
0.0
 10
4438.046299425261
 20
2262.133808638068
 30
0.0
 10
4438.046299425261
 20
2262.133808638068
 30
0.0
  0
SPLINE
  5
2C5D1
330
18
100
AcDbEntity
  8
姿図
100
AcDbSpline
210
0.0
220
0.0
230
1.0
 70
     8
 71
     3
 72
     8
 73
     4
 74
     0
 42
0.000000001
 43
0.0000000001
 40
67.0
 40
67.0
 40
67.0
 40
67.0
 40
68.0
 40
68.0
 40
68.0
 40
68.0
 10
4438.046299425261
 20
2262.133808638068
 30
0.0
 10
4438.046299425261
 20
2262.133808638068
 30
0.0
 10
4438.45979838902
 20
2262.49561256602
 30
0.0
 10
4439.338368706945
 20
2262.857416493971
 30
0.0
  0
SPLINE
  5
2C5D2
330
18
100
AcDbEntity
  8
姿図
100
AcDbSpline
210
0.0
220
0.0
230
1.0
 70
     8
 71
     3
 72
    14
 73
    10
 74
     0
 42
0.000000001
 43
0.0000000001
 40
68.0
 40
68.0
 40
68.0
 40
68.0
 40
69.0
 40
69.0
 40
69.0
 40
70.0
 40
70.0
 40
70.0
 40
71.0
 40
71.0
 40
71.0
 40
71.0
 10
4439.338368706945
 20
2262.857416493971
 30
0.0
 10
4439.364246886199
 20
2263.27079281233
 30
0.0
 10
4439.312551850391
 20
2264.252753201871
 30
0.0
 10
4439.596721240583
 20
2264.252753201871
 30
0.0
 10
4439.881013276174
 20
2264.252753201871
 30
0.0
 10
4439.829318240365
 20
2264.097668094449
 30
0.0
 10
4439.829318240365
 20
2263.865132417365
 30
0.0
 10
4439.829318240365
 20
2263.632535417582
 30
0.0
 10
4439.855135096919
 20
2262.934867063633
 30
0.0
 10
4439.855135096919
 20
2262.934867063633
 30
0.0
  0
SPLINE
  5
2C5D3
330
18
100
AcDbEntity
  8
姿図
100
AcDbSpline
210
0.0
220
0.0
230
1.0
 70
     8
 71
     3
 72
     8
 73
     4
 74
     0
 42
0.000000001
 43
0.0000000001
 40
71.0
 40
71.0
 40
71.0
 40
71.0
 40
72.0
 40
72.0
 40
72.0
 40
72.0
 10
4439.855135096919
 20
2262.934867063633
 30
0.0
 10
4439.855135096919
 20
2262.934867063633
 30
0.0
 10
4440.707888558291
 20
2263.141585884162
 30
0.0
 10
4441.276349984073
 20
2263.193280919969
 30
0.0
  0
SPLINE
  5
2C5D4
330
18
100
AcDbEntity
  8
姿図
100
AcDbSpline
210
0.0
220
0.0
230
1.0
 70
     8
 71
     3
 72
     8
 73
     4
 74
     0
 42
0.000000001
 43
0.0000000001
 40
72.0
 40
72.0
 40
72.0
 40
72.0
 40
73.0
 40
73.0
 40
73.0
 40
73.0
 10
4441.276349984073
 20
2263.193280919969
 30
0.0
 10
4441.276349984073
 20
2263.735925489197
 30
0.0
 10
4441.302228163326
 20
2264.226875022617
 30
0.0
 10
4441.302228163326
 20
2264.226875022617
 30
0.0
  0
SPLINE
  5
2C5D5
330
18
100
AcDbEntity
  8
姿図
100
AcDbSpline
210
0.0
220
0.0
230
1.0
 70
     8
 71
     3
 72
    14
 73
    10
 74
     0
 42
0.000000001
 43
0.0000000001
 40
73.0
 40
73.0
 40
73.0
 40
73.0
 40
74.0
 40
74.0
 40
74.0
 40
75.0
 40
75.0
 40
75.0
 40
76.0
 40
76.0
 40
76.0
 40
76.0
 10
4441.302228163326
 20
2264.226875022617
 30
0.0
 10
4441.302228163326
 20
2264.226813699917
 30
0.0
 10
4441.250533127519
 20
2264.459410699701
 30
0.0
 10
4441.483068804602
 20
2264.459410699701
 30
0.0
 10
4441.715604481686
 20
2264.459410699701
 30
0.0
 10
4441.715604481686
 20
2264.330203771532
 30
0.0
 10
4441.715604481686
 20
2264.17524130951
 30
0.0
 10
4441.715604481686
 20
2264.020156202087
 30
0.0
 10
4441.741482660938
 20
2263.193280919969
 30
0.0
 10
4441.741482660938
 20
2263.193280919969
 30
0.0
  0
SPLINE
  5
2C5D6
330
18
100
AcDbEntity
  8
姿図
100
AcDbSpline
210
0.0
220
0.0
230
1.0
 70
     8
 71
     3
 72
     8
 73
     4
 74
     0
 42
0.000000001
 43
0.0000000001
 40
76.0
 40
76.0
 40
76.0
 40
76.0
 40
77.0
 40
77.0
 40
77.0
 40
77.0
 10
4441.741482660938
 20
2263.193280919969
 30
0.0
 10
4441.741482660938
 20
2263.193280919969
 30
0.0
 10
4442.516724229949
 20
2263.244975955777
 30
0.0
 10
4443.122886299076
 20
2263.146606690075
 30
0.0
  0
SPLINE
  5
2C5D7
330
18
100
AcDbEntity
  8
姿図
100
AcDbSpline
210
0.0
220
0.0
230
1.0
 70
     8
 71
     3
 72
     8
 73
     4
 74
     0
 42
0.000000001
 43
0.0000000001
 40
77.0
 40
77.0
 40
77.0
 40
77.0
 40
78.0
 40
78.0
 40
78.0
 40
78.0
 10
4443.122886299076
 20
2263.146606690075
 30
0.0
 10
4443.110941189585
 20
2263.580840381775
 30
0.0
 10
4443.136819368838
 20
2264.201058166063
 30
0.0
 10
4443.136819368838
 20
2264.201058166063
 30
0.0
  0
SPLINE
  5
2C5D8
330
18
100
AcDbEntity
  8
姿図
100
AcDbSpline
210
0.0
220
0.0
230
1.0
 70
     8
 71
     3
 72
    14
 73
    10
 74
     0
 42
0.000000001
 43
0.0000000001
 40
78.0
 40
78.0
 40
78.0
 40
78.0
 40
79.0
 40
79.0
 40
79.0
 40
80.0
 40
80.0
 40
80.0
 40
81.0
 40
81.0
 40
81.0
 40
81.0
 10
4443.136819368838
 20
2264.201058166063
 30
0.0
 10
4443.136819368838
 20
2264.201058166063
 30
0.0
 10
4443.162697548092
 20
2264.433593843146
 30
0.0
 10
4443.343476866668
 20
2264.433593843146
 30
0.0
 10
4443.524378830643
 20
2264.433593843146
 30
0.0
 10
4443.601890723005
 20
2264.252753201871
 30
0.0
 10
4443.601890723005
 20
2264.097668094449
 30
0.0
 10
4443.601890723005
 20
2263.942644309726
 30
0.0
 10
4443.601890723005
 20
2263.115769027608
 30
0.0
 10
4443.601890723005
 20
2263.115769027608
 30
0.0
  0
ARC
  5
2C5D9
330
18
100
AcDbEntity
  8
姿図
100
AcDbCircle
 10
4442.263976540555
 20
2247.457208142732
 30
0.0
 40
15.17943885981804
100
AcDbArc
 50
86.82667943648595
 51
91.93617680841405
  0
ARC
  5
2C5DA
330
18
100
AcDbEntity
  8
姿図
100
AcDbCircle
 10
4441.392074114914
 20
2257.198343275657
 30
0.0
 40
5.411081025692985
100
AcDbArc
 50
91.34825162537344
 51
106.1526956119196
  0
ARC
  5
2C5DB
330
18
100
AcDbEntity
  8
姿図
100
AcDbCircle
 10
4441.617902391967
 20
2251.655087994543
 30
0.0
 40
10.84101700673923
100
AcDbArc
 50
102.1351952757639
 51
109.2685643810361
  0
ARC
  5
2C5DC
330
18
100
AcDbEntity
  8
姿図
100
AcDbCircle
 10
4442.585734447895
 20
2262.55856395347
 30
0.0
 40
3.261088330060268
100
AcDbArc
 50
174.7419248562935
 51
185.3614170438439
  0
ARC
  5
2C5DD
330
18
100
AcDbEntity
  8
姿図
100
AcDbCircle
 10
4432.105025636028
 20
2262.210292395427
 30
0.0
 40
7.783906802217627
100
AcDbArc
 50
1.365722849775119
 51
5.341181684532476
  0
ARC
  5
2C5DE
330
18
100
AcDbEntity
  8
姿図
100
AcDbCircle
 10
4505.496747426325
 20
2261.628423483306
 30
0.0
 40
64.23946004161219
100
AcDbArc
 50
178.6041508399731
 51
179.1263384126918
  0
ARC
  5
2C5DF
330
18
100
AcDbEntity
  8
姿図
100
AcDbCircle
 10
4445.751682027181
 20
2262.978919154702
 30
0.0
 40
4.015924541549868
100
AcDbArc
 50
176.9402153515069
 51
185.0132830991897
  0
ARC
  5
2C5E0
330
18
100
AcDbEntity
  8
姿図
100
AcDbCircle
 10
4447.065089981586
 20
2262.74194766237
 30
0.0
 40
3.962917965729672
100
AcDbArc
 50
174.1392337818201
 51
181.8592762369217
  0
ARC
  5
2C5E1
330
18
100
AcDbEntity
  8
姿図
100
AcDbCircle
 10
4385.893192102691
 20
2264.587814760687
 30
0.0
 40
57.72747019479135
100
AcDbArc
 50
357.9585972418036
 51
358.5388039584643
  0
ARC
  5
2C5E2
330
18
100
AcDbEntity
  8
姿図
100
AcDbCircle
 10
4438.35247856491
 20
2262.003873510393
 30
0.0
 40
0.3326090843017449
100
AcDbArc
 50
157.0047897508196
 51
200.2384915194997
  0
LINE
  5
2C5E3
330
18
100
AcDbEntity
  8
姿図
100
AcDbLine
 10
4437.503716178733
 20
2261.875456104431
 30
0.0
 11
4438.040404486623
 21
2261.888814514129
 31
0.0
  0
ARC
  5
2C5E4
330
18
100
AcDbEntity
  8
姿図
100
AcDbCircle
 10
4440.118929471004
 20
2260.371803103103
 30
0.0
 40
2.037288430148934
100
AcDbArc
 50
96.54474250752902
 51
112.511565693126
  0
ARC
  5
2C5E5
330
18
100
AcDbEntity
  8
姿図
100
AcDbCircle
 10
4441.957267146307
 20
2251.720776769478
 30
0.0
 40
10.90915193982139
100
AcDbArc
 50
91.08276367019977
 51
93.63957692303383
  0
ARC
  5
2C5E6
330
18
100
AcDbEntity
  8
姿図
100
AcDbCircle
 10
4442.840237064336
 20
2259.620753327258
 30
0.0
 40
3.004242223699468
100
AcDbArc
 50
75.66568337680162
 51
84.95818041632184
  0
ARC
  5
2C5E7
330
18
100
AcDbEntity
  8
姿図
100
AcDbCircle
 10
4440.186572382148
 20
2258.91708365798
 30
0.0
 40
3.76369989236904
100
AcDbArc
 50
103.2376313139114
 51
125.1451841017905
  0
ARC
  5
2C5E8
330
18
100
AcDbEntity
  8
姿図
100
AcDbCircle
 10
4441.614214895275
 20
2256.87211926852
 30
0.0
 40
6.073095248581613
100
AcDbArc
 50
93.24365212843523
 51
106.6502285820057
  0
ARC
  5
2C5E9
330
18
100
AcDbEntity
  8
姿図
100
AcDbCircle
 10
4441.909439721594
 20
2250.558876093604
 30
0.0
 40
12.37925443046904
100
AcDbArc
 50
84.45978160155543
 51
90.80287533105246
  0
SPLINE
  5
2C5EA
330
18
100
AcDbEntity
  8
姿図
100
AcDbSpline
210
0.0
220
0.0
230
1.0
 70
     8
 71
     3
 72
     8
 73
     4
 74
     0
 42
0.000000001
 43
0.0000000001
 40
0.0
 40
0.0
 40
0.0
 40
0.0
 40
1.0
 40
1.0
 40
1.0
 40
1.0
 10
4434.007095844532
 20
2248.03130475352
 30
0.0
 10
4433.850048410722
 20
2247.579847038676
 30
0.0
 10
4433.280912435244
 20
2244.694859310811
 30
0.0
 10
4433.300535699133
 20
2243.792189171922
 30
0.0
  0
SPLINE
  5
2C5EB
330
18
100
AcDbEntity
  8
姿図
100
AcDbSpline
210
0.0
220
0.0
230
1.0
 70
     8
 71
     3
 72
     8
 73
     4
 74
     0
 42
0.000000001
 43
0.0000000001
 40
1.0
 40
1.0
 40
1.0
 40
1.0
 40
2.0
 40
2.0
 40
2.0
 40
2.0
 10
4433.300535699133
 20
2243.792189171922
 30
0.0
 10
4433.7126855635
 20
2243.929552019145
 30
0.0
 10
4435.08643668112
 20
2244.420133616367
 30
0.0
 10
4436.950892041365
 20
2244.851845421922
 30
0.0
  0
SPLINE
  5
2C5EC
330
18
100
AcDbEntity
  8
姿図
100
AcDbSpline
210
0.0
220
0.0
230
1.0
 70
    24
 71
     3
 72
     8
 73
     4
 74
     0
 42
0.000000001
 43
0.0000000001
 40
4.0
 40
4.0
 40
4.0
 40
4.0
 40
5.0
 40
5.0
 40
5.0
 40
5.0
 10
4423.807413856684
 20
2228.018764367235
 30
0.0
 10
4423.807413856684
 20
2228.018764367235
 30
0.0
 10
4423.817961361025
 20
2229.376203646749
 30
0.0
 10
4423.817961361025
 20
2229.376203646749
 30
0.0
  0
SPLINE
  5
2C5ED
330
18
100
AcDbEntity
  8
姿図
100
AcDbSpline
210
0.0
220
0.0
230
1.0
 70
     8
 71
     3
 72
    14
 73
    10
 74
     0
 42
0.000000001
 43
0.0000000001
 40
14.0
 40
14.0
 40
14.0
 40
14.0
 40
15.0
 40
15.0
 40
15.0
 40
16.0
 40
16.0
 40
16.0
 40
17.0
 40
17.0
 40
17.0
 40
17.0
 10
4423.882840777258
 20
2231.452099675395
 30
0.0
 10
4423.882840777258
 20
2231.815497993537
 30
0.0
 10
4423.98666010777
 20
2232.490415625916
 30
0.0
 10
4423.98666010777
 20
2232.672053462287
 30
0.0
 10
4423.98666010777
 20
2232.853691298659
 30
0.0
 10
4424.142419764888
 20
2233.061452605082
 30
0.0
 10
4424.350058425913
 20
2233.061452605082
 30
0.0
 10
4424.557697086937
 20
2233.061452605082
 30
0.0
 10
4424.817276074567
 20
2233.061452605082
 30
0.0
 10
4424.817276074567
 20
2233.061452605082
 30
0.0
  0
SPLINE
  5
2C5EE
330
18
100
AcDbEntity
  8
姿図
100
AcDbSpline
210
0.0
220
0.0
230
1.0
 70
     8
 71
     3
 72
     8
 73
     4
 74
     0
 42
0.000000001
 43
0.0000000001
 40
17.0
 40
17.0
 40
17.0
 40
17.0
 40
18.0
 40
18.0
 40
18.0
 40
18.0
 10
4424.817276074567
 20
2233.061452605082
 30
0.0
 10
4424.817214751867
 20
2233.061452605082
 30
0.0
 10
4424.973035731686
 20
2233.29496944536
 30
0.0
 10
4425.232553396616
 20
2233.320970270013
 30
0.0
  0
SPLINE
  5
2C5EF
330
18
100
AcDbEntity
  8
姿図
100
AcDbSpline
210
0.0
220
0.0
230
1.0
 70
     8
 71
     3
 72
    11
 73
     7
 74
     0
 42
0.000000001
 43
0.0000000001
 40
18.0
 40
18.0
 40
18.0
 40
18.0
 40
19.0
 40
19.0
 40
19.0
 40
20.0
 40
20.0
 40
20.0
 40
20.0
 10
4425.232553396616
 20
2233.320970270013
 30
0.0
 10
4425.492132384246
 20
2233.346971094666
 30
0.0
 10
4425.518071886199
 20
2233.087330784336
 30
0.0
 10
4425.518071886199
 20
2232.95757195187
 30
0.0
 10
4425.518071886199
 20
2232.827813119405
 30
0.0
 10
4425.44025338034
 20
2229.090071930169
 30
0.0
 10
4425.44025338034
 20
2229.090071930169
 30
0.0
  0
SPLINE
  5
2C5F0
330
18
100
AcDbEntity
  8
姿図
100
AcDbSpline
210
0.0
220
0.0
230
1.0
 70
     8
 71
     3
 72
     8
 73
     4
 74
     0
 42
0.000000001
 43
0.0000000001
 40
20.0
 40
20.0
 40
20.0
 40
20.0
 40
21.0
 40
21.0
 40
21.0
 40
21.0
 10
4425.44025338034
 20
2229.090071930169
 30
0.0
 10
4425.44025338034
 20
2229.090071930169
 30
0.0
 10
4425.907409706295
 20
2228.622915604214
 30
0.0
 10
4425.959288710201
 20
2228.363275293884
 30
0.0
  0
SPLINE
  5
2C5F1
330
18
100
AcDbEntity
  8
姿図
100
AcDbSpline
210
0.0
220
0.0
230
1.0
 70
     8
 71
     3
 72
     8
 73
     4
 74
     0
 42
0.000000001
 43
0.0000000001
 40
21.0
 40
21.0
 40
21.0
 40
21.0
 40
22.0
 40
22.0
 40
22.0
 40
22.0
 10
4425.959288710201
 20
2228.363275293884
 30
0.0
 10
4426.011290359506
 20
2228.103757628954
 30
0.0
 10
4425.985634473802
 20
2226.076766159356
 30
0.0
 10
4425.985634473802
 20
2226.076766159356
 30
0.0
  0
SPLINE
  5
2C5F2
330
18
100
AcDbEntity
  8
姿図
100
AcDbSpline
210
0.0
220
0.0
230
1.0
 70
     8
 71
     3
 72
     8
 73
     4
 74
     0
 42
0.000000001
 43
0.0000000001
 40
22.0
 40
22.0
 40
22.0
 40
22.0
 40
23.0
 40
23.0
 40
23.0
 40
23.0
 10
4425.985634473802
 20
2226.076766159356
 30
0.0
 10
4425.985634473802
 20
2226.076766159356
 30
0.0
 10
4426.504386187415
 20
2226.546283703172
 30
0.0
 10
4426.867845828256
 20
2226.77992318885
 30
0.0
  0
SPLINE
  5
2C5F3
330
18
100
AcDbEntity
  8
姿図
100
AcDbSpline
210
0.0
220
0.0
230
1.0
 70
     8
 71
     3
 72
     8
 73
     4
 74
     0
 42
0.000000001
 43
0.0000000001
 40
23.0
 40
23.0
 40
23.0
 40
23.0
 40
24.0
 40
24.0
 40
24.0
 40
24.0
 10
4426.867845828256
 20
2226.77992318885
 30
0.0
 10
4427.2311828237
 20
2227.013562674527
 30
0.0
 10
4427.283123150305
 20
2227.03956349918
 30
0.0
 10
4427.386942480817
 20
2226.857925662808
 30
0.0
  0
SPLINE
  5
2C5F4
330
18
100
AcDbEntity
  8
姿図
100
AcDbSpline
210
0.0
220
0.0
230
1.0
 70
     8
 71
     3
 72
     8
 73
     4
 74
     0
 42
0.000000001
 43
0.0000000001
 40
24.0
 40
24.0
 40
24.0
 40
24.0
 40
25.0
 40
25.0
 40
25.0
 40
25.0
 10
4427.386942480817
 20
2226.857925662808
 30
0.0
 10
4427.490761811329
 20
2226.676165181037
 30
0.0
 10
4427.957979459983
 20
2225.793608887634
 30
0.0
 10
4427.957979459983
 20
2225.793608887634
 30
0.0
  0
SPLINE
  5
2C5F5
330
18
100
AcDbEntity
  8
姿図
100
AcDbSpline
210
0.0
220
0.0
230
1.0
 70
     8
 71
     3
 72
     8
 73
     4
 74
     0
 42
0.000000001
 43
0.0000000001
 40
25.0
 40
25.0
 40
25.0
 40
25.0
 40
26.0
 40
26.0
 40
26.0
 40
26.0
 10
4427.957979459983
 20
2225.793608887634
 30
0.0
 10
4427.957979459983
 20
2225.793608887634
 30
0.0
 10
4427.776280300913
 20
2226.77992318885
 30
0.0
 10
4427.906039133378
 20
2228.15563663286
 30
0.0
  0
SPLINE
  5
2C5F6
330
18
100
AcDbEntity
  8
姿図
100
AcDbSpline
210
0.0
220
0.0
230
1.0
 70
     8
 71
     3
 72
     8
 73
     4
 74
     0
 42
0.000000001
 43
0.0000000001
 40
26.0
 40
26.0
 40
26.0
 40
26.0
 40
27.0
 40
27.0
 40
27.0
 40
27.0
 10
4427.906039133378
 20
2228.15563663286
 30
0.0
 10
4427.93203995803
 20
2229.375590419752
 30
0.0
 10
4427.93203995803
 20
2229.505349252218
 30
0.0
 10
4427.906039133378
 20
2229.816868566454
 30
0.0
  0
SPLINE
  5
2C5F7
330
18
100
AcDbEntity
  8
姿図
100
AcDbSpline
210
0.0
220
0.0
230
1.0
 70
     8
 71
     3
 72
     8
 73
     4
 74
     0
 42
0.000000001
 43
0.0000000001
 40
27.0
 40
27.0
 40
27.0
 40
27.0
 40
28.0
 40
28.0
 40
28.0
 40
28.0
 10
4427.906039133378
 20
2229.816868566454
 30
0.0
 10
4427.886783805687
 20
2230.048300434943
 30
0.0
 10
4427.490761811329
 20
2233.243090441454
 30
0.0
 10
4427.464822309375
 20
2235.734877019145
 30
0.0
  0
SPLINE
  5
2C5F8
330
18
100
AcDbEntity
  8
姿図
100
AcDbSpline
210
0.0
220
0.0
230
1.0
 70
     8
 71
     3
 72
     8
 73
     4
 74
     0
 42
0.000000001
 43
0.0000000001
 40
28.0
 40
28.0
 40
28.0
 40
28.0
 40
29.0
 40
29.0
 40
29.0
 40
29.0
 10
4427.464822309375
 20
2235.734877019145
 30
0.0
 10
4427.438882807422
 20
2238.226786242235
 30
0.0
 10
4427.490761811329
 20
2240.017654362895
 30
0.0
 10
4427.490761811329
 20
2240.017654362895
 30
0.0
  0
SPLINE
  5
2C5F9
330
18
100
AcDbEntity
  8
姿図
100
AcDbSpline
210
0.0
220
0.0
230
1.0
 70
    24
 71
     3
 72
     8
 73
     4
 74
     0
 42
0.000000001
 43
0.0000000001
 40
29.0
 40
29.0
 40
29.0
 40
29.0
 40
30.0
 40
30.0
 40
30.0
 40
30.0
 10
4427.490761811329
 20
2240.017654362895
 30
0.0
 10
4427.490761811329
 20
2240.017654362895
 30
0.0
 10
4427.335002154212
 20
2240.017654362895
 30
0.0
 10
4427.335002154212
 20
2240.017654362895
 30
0.0
  0
SPLINE
  5
2C5FA
330
18
100
AcDbEntity
  8
姿図
100
AcDbSpline
210
0.0
220
0.0
230
1.0
 70
    24
 71
     3
 72
     8
 73
     4
 74
     0
 42
0.000000001
 43
0.0000000001
 40
30.0
 40
30.0
 40
30.0
 40
30.0
 40
31.0
 40
31.0
 40
31.0
 40
31.0
 10
4427.335002154212
 20
2240.017654362895
 30
0.0
 10
4427.335002154212
 20
2240.017654362895
 30
0.0
 10
4427.335002154212
 20
2240.900210656298
 30
0.0
 10
4427.335002154212
 20
2240.900210656298
 30
0.0
  0
SPLINE
  5
2C5FB
330
18
100
AcDbEntity
  8
姿図
100
AcDbSpline
210
0.0
220
0.0
230
1.0
 70
    24
 71
     3
 72
     8
 73
     4
 74
     0
 42
0.000000001
 43
0.0000000001
 40
31.0
 40
31.0
 40
31.0
 40
31.0
 40
32.0
 40
32.0
 40
32.0
 40
32.0
 10
4427.335002154212
 20
2240.900210656298
 30
0.0
 10
4427.335002154212
 20
2240.900210656298
 30
0.0
 10
4426.530387012067
 20
2241.00396866411
 30
0.0
 10
4426.530387012067
 20
2241.00396866411
 30
0.0
  0
SPLINE
  5
2C5FC
330
18
100
AcDbEntity
  8
姿図
100
AcDbSpline
210
0.0
220
0.0
230
1.0
 70
     8
 71
     3
 72
    14
 73
    10
 74
     0
 42
0.000000001
 43
0.0000000001
 40
32.0
 40
32.0
 40
32.0
 40
32.0
 40
33.0
 40
33.0
 40
33.0
 40
34.0
 40
34.0
 40
34.0
 40
35.0
 40
35.0
 40
35.0
 40
35.0
 10
4426.530387012067
 20
2241.00396866411
 30
0.0
 10
4426.530387012067
 20
2241.00396866411
 30
0.0
 10
4426.608266840626
 20
2240.796452648485
 30
0.0
 10
4426.322748351043
 20
2240.822330827738
 30
0.0
 10
4426.037229861459
 20
2240.848209006992
 30
0.0
 10
4426.063169363413
 20
2241.86052413286
 30
0.0
 10
4426.063169363413
 20
2242.146042622443
 30
0.0
 10
4426.063169363413
 20
2242.431561112027
 30
0.0
 10
4426.063169363413
 20
2243.23636022227
 30
0.0
 10
4426.244807199784
 20
2243.469877062548
 30
0.0
  0
SPLINE
  5
2C5FD
330
18
100
AcDbEntity
  8
姿図
100
AcDbSpline
210
0.0
220
0.0
230
1.0
 70
     8
 71
     3
 72
     8
 73
     4
 74
     0
 42
0.000000001
 43
0.0000000001
 40
35.0
 40
35.0
 40
35.0
 40
35.0
 40
36.0
 40
36.0
 40
36.0
 40
36.0
 10
4426.244807199784
 20
2243.469877062548
 30
0.0
 10
4426.426567681555
 20
2243.703393902826
 30
0.0
 10
4426.582327338673
 20
2243.729394727478
 30
0.0
 10
4426.582327338673
 20
2243.443876237895
 30
0.0
  0
SPLINE
  5
2C5FE
330
18
100
AcDbEntity
  8
姿図
100
AcDbSpline
210
0.0
220
0.0
230
1.0
 70
     8
 71
     3
 72
     8
 73
     4
 74
     0
 42
0.000000001
 43
0.0000000001
 40
36.0
 40
36.0
 40
36.0
 40
36.0
 40
37.0
 40
37.0
 40
37.0
 40
37.0
 10
4426.582327338673
 20
2243.443876237895
 30
0.0
 10
4426.867845828256
 20
2243.469877062548
 30
0.0
 10
4427.361002978863
 20
2243.469877062548
 30
0.0
 10
4427.361002978863
 20
2243.469877062548
 30
0.0
  0
SPLINE
  5
2C5FF
330
18
100
AcDbEntity
  8
姿図
100
AcDbSpline
210
0.0
220
0.0
230
1.0
 70
    24
 71
     3
 72
     8
 73
     4
 74
     0
 42
0.000000001
 43
0.0000000001
 40
37.0
 40
37.0
 40
37.0
 40
37.0
 40
38.0
 40
38.0
 40
38.0
 40
38.0
 10
4427.361002978863
 20
2243.469877062548
 30
0.0
 10
4427.361002978863
 20
2243.469877062548
 30
0.0
 10
4427.464822309375
 20
2244.456191363763
 30
0.0
 10
4427.464822309375
 20
2244.456191363763
 30
0.0
  0
SPLINE
  5
2C600
330
18
100
AcDbEntity
  8
姿図
100
AcDbSpline
210
0.0
220
0.0
230
1.0
 70
     8
 71
     3
 72
     8
 73
     4
 74
     0
 42
0.000000001
 43
0.0000000001
 40
38.0
 40
38.0
 40
38.0
 40
38.0
 40
39.0
 40
39.0
 40
39.0
 40
39.0
 10
4427.464822309375
 20
2244.456191363763
 30
0.0
 10
4427.464822309375
 20
2244.456191363763
 30
0.0
 10
4427.957979459983
 20
2244.43019053911
 30
0.0
 10
4428.061798790495
 20
2244.274553527391
 30
0.0
  0
SPLINE
  5
2C601
330
18
100
AcDbEntity
  8
姿図
100
AcDbSpline
210
0.0
220
0.0
230
1.0
 70
     8
 71
     3
 72
     8
 73
     4
 74
     0
 42
0.000000001
 43
0.0000000001
 40
39.0
 40
39.0
 40
39.0
 40
39.0
 40
40.0
 40
40.0
 40
40.0
 40
40.0
 10
4428.061798790495
 20
2244.274553527391
 30
0.0
 10
4428.165618121007
 20
2244.118793870273
 30
0.0
 10
4428.165618121007
 20
2244.456191363763
 30
0.0
 10
4428.165618121007
 20
2244.456191363763
 30
0.0
  0
SPLINE
  5
2C602
330
18
100
AcDbEntity
  8
姿図
100
AcDbSpline
210
0.0
220
0.0
230
1.0
 70
     8
 71
     3
 72
    11
 73
     7
 74
     0
 42
0.000000001
 43
0.0000000001
 40
40.0
 40
40.0
 40
40.0
 40
40.0
 40
41.0
 40
41.0
 40
41.0
 40
42.0
 40
42.0
 40
42.0
 40
42.0
 10
4428.165618121007
 20
2244.456191363763
 30
0.0
 10
4428.165618121007
 20
2244.456191363763
 30
0.0
 10
4428.347317280079
 20
2244.508193013069
 30
0.0
 10
4428.347317280079
 20
2244.35243335595
 30
0.0
 10
4428.347317280079
 20
2244.196673698832
 30
0.0
 10
4428.347317280079
 20
2243.054599740499
 30
0.0
 10
4428.347317280079
 20
2243.054599740499
 30
0.0
  0
SPLINE
  5
2C603
330
18
100
AcDbEntity
  8
姿図
100
AcDbSpline
210
0.0
220
0.0
230
1.0
 70
     8
 71
     3
 72
     8
 73
     4
 74
     0
 42
0.000000001
 43
0.0000000001
 40
42.0
 40
42.0
 40
42.0
 40
42.0
 40
43.0
 40
43.0
 40
43.0
 40
43.0
 10
4428.347317280079
 20
2243.054599740499
 30
0.0
 10
4428.387177034854
 20
2243.064534017843
 30
0.0
 10
4428.486213194792
 20
2243.199566602478
 30
0.0
 10
4428.715376123395
 20
2243.099978538242
 30
0.0
  0
SPLINE
  5
2C604
330
18
100
AcDbEntity
  8
姿図
100
AcDbSpline
210
0.0
220
0.0
230
1.0
 70
     8
 71
     3
 72
     8
 73
     4
 74
     0
 42
0.000000001
 43
0.0000000001
 40
43.0
 40
43.0
 40
43.0
 40
43.0
 40
44.0
 40
44.0
 40
44.0
 40
44.0
 10
4428.715376123395
 20
2243.099978538242
 30
0.0
 10
4428.944661697396
 20
2243.000145183207
 30
0.0
 10
4429.034315484289
 20
2242.681267145013
 30
0.0
 10
4429.153956071312
 20
2242.521828125915
 30
0.0
  0
SPLINE
  5
2C605
330
18
100
AcDbEntity
  8
姿図
100
AcDbSpline
210
0.0
220
0.0
230
1.0
 70
     8
 71
     3
 72
     8
 73
     4
 74
     0
 42
0.000000001
 43
0.0000000001
 40
44.0
 40
44.0
 40
44.0
 40
44.0
 40
45.0
 40
45.0
 40
45.0
 40
45.0
 10
4429.153956071312
 20
2242.521828125915
 30
0.0
 10
4429.273535335635
 20
2242.362389106819
 30
0.0
 10
4429.283530935678
 20
2242.352332184075
 30
0.0
 10
4429.273535335635
 20
2242.262678397183
 30
0.0
  0
SPLINE
  5
2C606
330
18
100
AcDbEntity
  8
姿図
100
AcDbSpline
210
0.0
220
0.0
230
1.0
 70
     8
 71
     3
 72
     8
 73
     4
 74
     0
 42
0.000000001
 43
0.0000000001
 40
45.0
 40
45.0
 40
45.0
 40
45.0
 40
46.0
 40
46.0
 40
46.0
 40
46.0
 10
4429.273535335635
 20
2242.262678397183
 30
0.0
 10
4429.263601058291
 20
2242.173024610291
 30
0.0
 10
4429.124091916581
 20
2242.093305100742
 30
0.0
 10
4429.134026193924
 20
2242.023397223138
 30
0.0
  0
SPLINE
  5
2C607
330
18
100
AcDbEntity
  8
姿図
100
AcDbSpline
210
0.0
220
0.0
230
1.0
 70
     8
 71
     3
 72
     8
 73
     4
 74
     0
 42
0.000000001
 43
0.0000000001
 40
46.0
 40
46.0
 40
46.0
 40
46.0
 40
47.0
 40
47.0
 40
47.0
 40
47.0
 10
4429.134026193924
 20
2242.023397223138
 30
0.0
 10
4429.144021793968
 20
2241.953734636332
 30
0.0
 10
4429.09416643915
 20
2241.525211611159
 30
0.0
 10
4429.09416643915
 20
2241.525211611159
 30
0.0
  0
SPLINE
  5
2C608
330
18
100
AcDbEntity
  8
姿図
100
AcDbSpline
210
0.0
220
0.0
230
1.0
 70
     8
 71
     3
 72
     8
 73
     4
 74
     0
 42
0.000000001
 43
0.0000000001
 40
47.0
 40
47.0
 40
47.0
 40
47.0
 40
48.0
 40
48.0
 40
48.0
 40
48.0
 10
4429.09416643915
 20
2241.525211611159
 30
0.0
 10
4429.09416643915
 20
2241.525211611159
 30
0.0
 10
4428.984521452172
 20
2241.335724469232
 30
0.0
 10
4428.695446246008
 20
2241.375584224006
 30
0.0
  0
SPLINE
  5
2C609
330
18
100
AcDbEntity
  8
姿図
100
AcDbSpline
210
0.0
220
0.0
230
1.0
 70
    24
 71
     3
 72
     8
 73
     4
 74
     0
 42
0.000000001
 43
0.0000000001
 40
48.0
 40
48.0
 40
48.0
 40
48.0
 40
49.0
 40
49.0
 40
49.0
 40
49.0
 10
4428.695446246008
 20
2241.375584224006
 30
0.0
 10
4428.278371411276
 20
2241.408261877991
 30
0.0
 10
4428.278371411276
 20
2241.408261877991
 30
0.0
 10
4428.278371411276
 20
2241.408261877991
 30
0.0
  0
SPLINE
  5
2C60A
330
18
100
AcDbEntity
  8
姿図
100
AcDbSpline
210
0.0
220
0.0
230
1.0
 70
    24
 71
     3
 72
     8
 73
     4
 74
     0
 42
0.000000001
 43
0.0000000001
 40
49.0
 40
49.0
 40
49.0
 40
49.0
 40
50.0
 40
50.0
 40
50.0
 40
50.0
 10
4428.278371411276
 20
2241.408261877991
 30
0.0
 10
4428.278371411276
 20
2241.408261877991
 30
0.0
 10
4428.332986192458
 20
2240.44747805589
 30
0.0
 10
4428.332986192458
 20
2240.44747805589
 30
0.0
  0
SPLINE
  5
2C60B
330
18
100
AcDbEntity
  8
姿図
100
AcDbSpline
210
0.0
220
0.0
230
1.0
 70
     8
 71
     3
 72
     8
 73
     4
 74
     0
 42
0.000000001
 43
0.0000000001
 40
50.0
 40
50.0
 40
50.0
 40
50.0
 40
51.0
 40
51.0
 40
51.0
 40
51.0
 10
4428.332986192458
 20
2240.44747805589
 30
0.0
 10
4428.332986192458
 20
2240.44747805589
 30
0.0
 10
4429.243671180904
 20
2241.535023243103
 30
0.0
 10
4429.751913715627
 20
2241.883949404127
 30
0.0
  0
SPLINE
  5
2C60C
330
18
100
AcDbEntity
  8
姿図
100
AcDbSpline
210
0.0
220
0.0
230
1.0
 70
     8
 71
     3
 72
     8
 73
     4
 74
     0
 42
0.000000001
 43
0.0000000001
 40
51.0
 40
51.0
 40
51.0
 40
51.0
 40
52.0
 40
52.0
 40
52.0
 40
52.0
 10
4429.751913715627
 20
2241.883949404127
 30
0.0
 10
4429.612404573916
 20
2242.043388423225
 30
0.0
 10
4429.602470296572
 20
2242.063379623311
 30
0.0
 10
4429.602470296572
 20
2242.063379623311
 30
0.0
  0
SPLINE
  5
2C60D
330
18
100
AcDbEntity
  8
姿図
100
AcDbSpline
210
0.0
220
0.0
230
1.0
 70
    24
 71
     3
 72
     8
 73
     4
 74
     0
 42
0.000000001
 43
0.0000000001
 40
52.0
 40
52.0
 40
52.0
 40
52.0
 40
53.0
 40
53.0
 40
53.0
 40
53.0
 10
4429.602470296572
 20
2242.063379623311
 30
0.0
 10
4429.602470296572
 20
2242.063379623311
 30
0.0
 10
4429.592474696528
 20
2242.511771203172
 30
0.0
 10
4429.592474696528
 20
2242.511771203172
 30
0.0
  0
SPLINE
  5
2C60E
330
18
100
AcDbEntity
  8
姿図
100
AcDbSpline
210
0.0
220
0.0
230
1.0
 70
     8
 71
     3
 72
     8
 73
     4
 74
     0
 42
0.000000001
 43
0.0000000001
 40
53.0
 40
53.0
 40
53.0
 40
53.0
 40
54.0
 40
54.0
 40
54.0
 40
54.0
 10
4429.592474696528
 20
2242.511771203172
 30
0.0
 10
4429.592474696528
 20
2242.511771203172
 30
0.0
 10
4429.65226432869
 20
2242.601547635464
 30
0.0
 10
4429.712053960851
 20
2242.541696680603
 30
0.0
  0
SPLINE
  5
2C60F
330
18
100
AcDbEntity
  8
姿図
100
AcDbSpline
210
0.0
220
0.0
230
1.0
 70
     8
 71
     3
 72
     8
 73
     4
 74
     0
 42
0.000000001
 43
0.0000000001
 40
54.0
 40
54.0
 40
54.0
 40
54.0
 40
55.0
 40
55.0
 40
55.0
 40
55.0
 10
4429.712053960851
 20
2242.541696680603
 30
0.0
 10
4429.771904915713
 20
2242.481968371141
 30
0.0
 10
4430.070853076521
 20
2242.153033410204
 30
0.0
 10
4430.070853076521
 20
2242.153033410204
 30
0.0
  0
SPLINE
  5
2C610
330
18
100
AcDbEntity
  8
姿図
100
AcDbSpline
210
0.0
220
0.0
230
1.0
 70
    24
 71
     3
 72
     8
 73
     4
 74
     0
 42
0.000000001
 43
0.0000000001
 40
55.0
 40
55.0
 40
55.0
 40
55.0
 40
56.0
 40
56.0
 40
56.0
 40
56.0
 10
4430.070853076521
 20
2242.153033410204
 30
0.0
 10
4430.070853076521
 20
2242.153033410204
 30
0.0
 10
4430.180559386199
 20
2242.28266959727
 30
0.0
 10
4430.180559386199
 20
2242.28266959727
 30
0.0
  0
ARC
  5
2C611
330
18
100
AcDbEntity
  8
姿図
100
AcDbCircle
 10
4441.072076744418
 20
1979.562259161441
 30
0.0
 40
248.5810485795132
100
AcDbArc
 50
89.31576581817518
 51
90.4017689997036
  0
LINE
  5
2C612
330
18
100
AcDbEntity
  8
姿図
100
AcDbLine
 10
4439.119846737365
 20
2228.32882698041
 30
0.0
 11
4439.32899301958
 21
2228.137196297144
 31
0.0
  0
LINE
  5
2C613
330
18
100
AcDbEntity
  8
姿図
100
AcDbLine
 10
4444.040595700453
 20
2228.125582296811
 30
0.0
 11
4444.226503617324
 21
2228.334633980577
 31
0.0
  0
ARC
  5
2C614
330
18
100
AcDbEntity
  8
姿図
100
AcDbCircle
 10
4439.648537774607
 20
2202.08370050988
 30
0.0
 40
26.25045099930719
100
AcDbArc
 50
91.15403020508364
 51
118.1443348443473
  0
ARC
  5
2C615
330
18
100
AcDbEntity
  8
姿図
100
AcDbCircle
 10
4426.151353842504
 20
2225.585474110701
 30
0.0
 40
0.5677893291275214
100
AcDbArc
 50
156.7941273154356
 51
207.5593620771095
  0
LINE
  5
2C616
330
18
100
AcDbEntity
  8
姿図
100
AcDbLine
 10
4425.629501533866
 20
2225.809203613091
 30
0.0
 11
4425.985634473802
 21
2226.076766159356
 31
0.0
  0
LINE
  5
2C617
330
18
100
AcDbEntity
  8
姿図
100
AcDbLine
 10
4424.47278538481
 20
2232.436724226027
 30
0.0
 11
4424.76677019102
 21
2232.820206645893
 31
0.0
  0
LINE
  5
2C618
330
18
100
AcDbEntity
  8
姿図
100
AcDbLine
 10
4424.76677019102
 20
2232.820206645893
 30
0.0
 11
4425.518028632307
 21
2232.950243846769
 31
0.0
  0
LINE
  5
2C619
330
18
100
AcDbEntity
  8
姿図
100
AcDbLine
 10
4423.968357954587
 20
2232.435898928174
 30
0.0
 11
4424.47278538481
 21
2232.436724226027
 31
0.0
  0
LINE
  5
2C61A
330
18
100
AcDbEntity
  8
姿図
100
AcDbLine
 10
4423.882840777258
 20
2231.452099675395
 30
0.0
 11
4423.817961361025
 21
2229.376203646749
 31
0.0
  0
ARC
  5
2C61B
330
18
100
AcDbEntity
  8
姿図
100
AcDbCircle
 10
4430.795441283128
 20
2226.799302566946
 30
0.0
 40
2.146243904512017
100
AcDbArc
 50
143.5969539955274
 51
199.2391027668208
  0
ARC
  5
2C61C
330
18
100
AcDbEntity
  8
姿図
100
AcDbCircle
 10
4433.922463088104
 20
2225.028027649926
 30
0.0
 40
5.730415653452248
100
AcDbArc
 50
119.015692092419
 51
147.9017269467096
  0
ARC
  5
2C61D
330
18
100
AcDbEntity
  8
姿図
100
AcDbCircle
 10
4439.482184375607
 20
2216.68916346808
 30
0.0
 40
15.74060572484499
100
AcDbArc
 50
93.63344175986109
 51
121.9914343462321
  0
ARC
  5
2C61E
330
18
100
AcDbEntity
  8
姿図
100
AcDbCircle
 10
4432.091361165651
 20
2226.25167660128
 30
0.0
 40
4.158686133267145
100
AcDbArc
 50
137.1536766610123
 51
186.3238021850829
  0
ARC
  5
2C61F
330
18
100
AcDbEntity
  8
姿図
100
AcDbCircle
 10
4436.488152692986
 20
2221.629963064527
 30
0.0
 40
10.5327949949985
100
AcDbArc
 50
108.8291533387819
 51
134.9849815097704
  0
ARC
  5
2C620
330
18
100
AcDbEntity
  8
姿図
100
AcDbCircle
 10
4440.342820765203
 20
2213.756078643858
 30
0.0
 40
19.26123756502222
100
AcDbArc
 50
90.7183767634397
 51
112.1242565673988
  0
ARC
  5
2C621
330
18
100
AcDbEntity
  8
姿図
100
AcDbCircle
 10
4436.245027301453
 20
2213.6615909469
 30
0.0
 40
14.61774686859161
100
AcDbArc
 50
107.3347820979761
 51
120.919339271532
  0
ARC
  5
2C622
330
18
100
AcDbEntity
  8
姿図
100
AcDbCircle
 10
4440.250819192387
 20
2201.584237899499
 30
0.0
 40
27.34101981673046
100
AcDbArc
 50
93.98074746305326
 51
107.8070272858408
  0
ARC
  5
2C623
330
18
100
AcDbEntity
  8
姿図
100
AcDbCircle
 10
4441.714442785473
 20
2192.041131389554
 30
0.0
 40
36.38033507195226
100
AcDbArc
 50
86.04057786561219
 51
94.08972909081169
  0
ARC
  5
2C624
330
18
100
AcDbEntity
  8
姿図
100
AcDbCircle
 10
4432.612617566361
 20
2229.227810514649
 30
0.0
 40
4.785943161113557
100
AcDbArc
 50
133.9639200721579
 51
170.8405462653849
  0
ARC
  5
2C625
330
18
100
AcDbEntity
  8
姿図
100
AcDbCircle
 10
4438.286806221948
 20
2222.483472750278
 30
0.0
 40
13.59256669942097
100
AcDbArc
 50
99.96213688778847
 51
131.4432276129823
  0
LINE
  5
2C626
330
18
100
AcDbEntity
  8
姿図
100
AcDbLine
 10
4439.9649287912
 20
2234.962168491055
 30
0.0
 11
4439.932348008508
 21
2233.68123338453
 31
0.0
  0
LINE
  5
2C627
330
18
100
AcDbEntity
  8
姿図
100
AcDbLine
 10
4443.994099584577
 20
2234.864470007034
 30
0.0
 11
4444.015820189215
 21
2233.605245656833
 31
0.0
  0
LINE
  5
2C628
330
18
100
AcDbEntity
  8
姿図
100
AcDbLine
 10
4433.655940251771
 20
2233.803738982714
 30
0.0
 11
4433.630762622172
 21
2232.50767348446
 31
0.0
  0
LINE
  5
2C629
330
18
100
AcDbEntity
  8
姿図
100
AcDbLine
 10
4433.790719169971
 20
2233.84975192401
 30
0.0
 11
4433.765043561893
 21
2232.558006136118
 31
0.0
  0
ARC
  5
2C62A
330
18
100
AcDbEntity
  8
姿図
100
AcDbCircle
 10
4437.957909604347
 20
2219.743353435217
 30
0.0
 40
13.47783615143199
100
AcDbArc
 50
101.6191646447263
 51
108.7268299157164
  0
ARC
  5
2C62B
330
18
100
AcDbEntity
  8
姿図
100
AcDbCircle
 10
4441.446891074941
 20
2208.118791825543
 30
0.0
 40
25.5895287026658
100
AcDbArc
 50
98.03653202735244
 51
104.0295974476451
  0
ARC
  5
2C62C
330
18
100
AcDbEntity
  8
姿図
100
AcDbCircle
 10
4434.613771880026
 20
2273.012650488598
 30
0.0
 40
39.6893893055646
100
AcDbArc
 50
274.7050686475697
 51
277.7010870989286
  0
ARC
  5
2C62D
330
18
100
AcDbEntity
  8
姿図
100
AcDbCircle
 10
4438.416890284632
 20
2220.078591155436
 30
0.0
 40
14.52743363763967
100
AcDbArc
 50
101.6513119512677
 51
109.1305283859465
  0
ARC
  5
2C62E
330
18
100
AcDbEntity
  8
姿図
100
AcDbCircle
 10
4440.780318499244
 20
2211.826279988899
 30
0.0
 40
23.09610639820993
100
AcDbArc
 50
97.8834796779995
 51
103.259381772706
  0
ARC
  5
2C62F
330
18
100
AcDbEntity
  8
姿図
100
AcDbCircle
 10
4440.940049337994
 20
2215.221875010428
 30
0.0
 40
19.7643630502498
100
AcDbArc
 50
92.82796783640627
 51
99.69259792309352
  0
ARC
  5
2C630
330
18
100
AcDbEntity
  8
姿図
100
AcDbCircle
 10
4444.047193425315
 20
2234.884890560942
 30
0.0
 40
0.0568854546098731
100
AcDbArc
 50
64.78605873795277
 51
201.0373661889485
  0
LINE
  5
2C631
330
18
100
AcDbEntity
  8
姿図
100
AcDbLine
 10
4432.0488223225
 20
2233.136350217502
 30
0.0
 11
4432.030574112972
 21
2231.813967040456
 31
0.0
  0
LINE
  5
2C632
330
18
100
AcDbEntity
  8
姿図
100
AcDbLine
 10
4428.097750182756
 20
2229.441754142431
 30
0.0
 11
4428.097750182756
 21
2228.25248124943
 31
0.0
  0
LINE
  5
2C633
330
18
100
AcDbEntity
  8
姿図
100
AcDbLine
 10
4428.34419726476
 20
2229.419360003732
 30
0.0
 11
4428.355382221729
 21
2228.692195874301
 31
0.0
  0
ARC
  5
2C634
330
18
100
AcDbEntity
  8
姿図
100
AcDbCircle
 10
4434.110957931795
 20
2226.716221053079
 30
0.0
 40
6.36886872037799
100
AcDbArc
 50
108.9438959803165
 51
154.8854103977459
  0
ARC
  5
2C635
330
18
100
AcDbEntity
  8
姿図
100
AcDbCircle
 10
4433.864075617767
 20
2227.235109084728
 30
0.0
 40
6.17412272579023
100
AcDbArc
 50
107.0981770184414
 51
159.0592581893319
  0
LINE
  5
2C636
330
18
100
AcDbEntity
  8
姿図
100
AcDbLine
 10
4428.097750182756
 20
2229.441754142431
 30
0.0
 11
4428.34419726476
 21
2229.419360003732
 31
0.0
  0
ARC
  5
2C637
330
18
100
AcDbEntity
  8
姿図
100
AcDbCircle
 10
4435.323223650721
 20
2224.314354667476
 30
0.0
 40
8.228991907381392
100
AcDbArc
 50
129.8401163891949
 51
151.4081270048952
  0
ARC
  5
2C638
330
18
100
AcDbEntity
  8
姿図
100
AcDbCircle
 10
4433.863435587577
 20
2226.493648381704
 30
0.0
 40
5.627181516154526
100
AcDbArc
 50
109.0089422507595
 51
132.6441520738917
  0
ARC
  5
2C639
330
18
100
AcDbEntity
  8
姿図
100
AcDbCircle
 10
4434.527614576282
 20
2234.996840059198
 30
0.0
 40
7.599200043631534
100
AcDbArc
 50
113.106063594084
 51
142.4422239073841
  0
ARC
  5
2C63A
330
18
100
AcDbEntity
  8
姿図
100
AcDbCircle
 10
4439.987962237457
 20
2225.235880960234
 30
0.0
 40
18.75786154390135
100
AcDbArc
 50
101.2911751080621
 51
116.7488075271169
  0
LINE
  5
2C63B
330
18
100
AcDbEntity
  8
姿図
100
AcDbLine
 10
4427.361002978863
 20
2243.469877062548
 30
0.0
 11
4427.335002154212
 21
2240.900210656298
 31
0.0
  0
LINE
  5
2C63C
330
18
100
AcDbEntity
  8
姿図
100
AcDbLine
 10
4426.582327338673
 20
2243.443876237895
 30
0.0
 11
4426.530387012068
 21
2241.00396866411
 31
0.0
  0
LINE
  5
2C63D
330
18
100
AcDbEntity
  8
姿図
100
AcDbLine
 10
4426.559425581634
 20
2242.368061469196
 30
0.0
 11
4427.219682245533
 21
2242.34505593546
 31
0.0
  0
LINE
  5
2C63E
330
18
100
AcDbEntity
  8
姿図
100
AcDbLine
 10
4427.219682245533
 20
2242.34505593546
 30
0.0
 11
4427.242505019092
 21
2243.05117517639
 31
0.0
  0
LINE
  5
2C63F
330
18
100
AcDbEntity
  8
姿図
100
AcDbLine
 10
4427.242505019092
 20
2243.05117517639
 30
0.0
 11
4426.57460389643
 21
2243.081065942791
 31
0.0
  0
LINE
  5
2C640
330
18
100
AcDbEntity
  8
姿図
100
AcDbLine
 10
4428.347317280079
 20
2243.054599740499
 30
0.0
 11
4428.278371411276
 21
2241.408261877991
 31
0.0
  0
ARC
  5
2C641
330
18
100
AcDbEntity
  8
姿図
100
AcDbCircle
 10
4431.291195691414
 20
2240.383030206603
 30
0.0
 40
2.149918007386824
100
AcDbArc
 50
124.5846265695701
 51
135.7229484200001
  0
ARC
  5
2C642
330
18
100
AcDbEntity
  8
姿図
100
AcDbCircle
 10
4437.385783994607
 20
2232.647371494443
 30
0.0
 40
12.03138525640127
100
AcDbArc
 50
120.0620188068536
 51
126.7889442656496
  0
ARC
  5
2C643
330
18
100
AcDbEntity
  8
姿図
100
AcDbCircle
 10
4432.530293928103
 20
2240.943533685962
 30
0.0
 40
2.419343806759386
100
AcDbArc
 50
108.3841773672834
 51
118.9609150740286
  0
ARC
  5
2C644
330
18
100
AcDbEntity
  8
姿図
100
AcDbCircle
 10
4435.415897247483
 20
2235.52197393094
 30
0.0
 40
8.536463823646017
100
AcDbArc
 50
104.3475444510762
 51
115.303770921927
  0
ARC
  5
2C645
330
18
100
AcDbEntity
  8
姿図
100
AcDbCircle
 10
4433.524181097076
 20
2243.632863846806
 30
0.0
 40
1.800435711694352
100
AcDbArc
 50
178.617117758602
 51
192.6231261899865
  0
ARC
  5
2C646
330
18
100
AcDbEntity
  8
姿図
100
AcDbCircle
 10
4490.389799322465
 20
2242.089936693387
 30
0.0
 40
58.68697430021523
100
AcDbArc
 50
173.1011023855655
 51
178.4510389818543
  0
ARC
  5
2C647
330
18
100
AcDbEntity
  8
姿図
100
AcDbCircle
 10
4461.220807968813
 20
2240.773028646748
 30
0.0
 40
28.16502617831935
100
AcDbArc
 50
155.6660590133416
 51
165.0660546530575
  0
ARC
  5
2C648
330
18
100
AcDbEntity
  8
姿図
100
AcDbCircle
 10
4445.190067418949
 20
2248.061462475096
 30
0.0
 40
10.55529681861884
100
AcDbArc
 50
144.3463591481286
 51
155.858166328275
  0
LINE
  5
2C649
330
18
100
AcDbEntity
  8
姿図
100
AcDbLine
 10
4426.633070602236
 20
2242.687319118455
 30
0.0
 11
4427.14641891475
 21
2242.669902669802
 31
0.0
  0
ARC
  5
2C64A
330
18
100
AcDbEntity
  8
姿図
100
AcDbCircle
 10
4442.187402553511
 20
2205.006831179053
 30
0.0
 40
29.67365656335478
100
AcDbArc
 50
94.3133279251343
 51
106.4527785740842
  0
LINE
  5
2C64B
330
18
100
AcDbEntity
  8
姿図
100
AcDbLine
 10
4427.957979459983
 20
2225.793608887634
 30
0.0
 11
4428.028386509899
 21
2225.622142732174
 31
0.0
  0
ARC
  5
2C64C
330
18
100
AcDbEntity
  8
姿図
100
AcDbCircle
 10
4434.909992935476
 20
2234.414811917242
 30
0.0
 40
7.929554934305198
100
AcDbArc
 50
113.9969872917377
 51
151.6481519903326
  0
ARC
  5
2C64D
330
18
100
AcDbEntity
  8
姿図
100
AcDbCircle
 10
4439.987962237457
 20
2225.235880960234
 30
0.0
 40
18.40186154390135
100
AcDbArc
 50
101.2911751080621
 51
116.7488075271169
  0
LINE
  5
2C64E
330
18
100
AcDbEntity
  8
姿図
100
AcDbLine
 10
4428.332986192458
 20
2240.44747805589
 30
0.0
 11
4428.262640332272
 21
2239.981463795189
 31
0.0
  0
ARC
  5
2C64F
330
18
100
AcDbEntity
  8
姿図
100
AcDbCircle
 10
4432.612617566361
 20
2229.227810514649
 30
0.0
 40
4.963943161113557
100
AcDbArc
 50
133.9639200721579
 51
164.6147139170571
  0
ARC
  5
2C650
330
18
100
AcDbEntity
  8
姿図
100
AcDbCircle
 10
4438.286806221948
 20
2222.483472750278
 30
0.0
 40
13.77056669942097
100
AcDbArc
 50
99.96213688778847
 51
131.4432276129823
  0
LINE
  5
2C651
330
18
100
AcDbEntity
  8
姿図
100
AcDbLine
 10
4428.061798790495
 20
2244.274553527391
 30
0.0
 11
4427.931604118296
 21
2238.180436828516
 31
0.0
  0
LINE
  5
2C652
330
18
100
AcDbEntity
  8
姿図
100
AcDbLine
 10
4427.947611663263
 20
2238.929713626434
 30
0.0
 11
4428.503431783193
 21
2239.629016974925
 31
0.0
  0
ARC
  5
2C653
330
18
100
AcDbEntity
  8
姿図
100
AcDbCircle
 10
4441.185351543663
 20
2242.828515561134
 30
0.0
 40
4.926176262210318
100
AcDbArc
 50
98.92556514658793
 51
135.3216510111875
  0
ARC
  5
2C654
330
18
100
AcDbEntity
  8
姿図
100
AcDbCircle
 10
4438.305482237382
 20
2245.669999095612
 30
0.0
 40
0.8804913944504884
100
AcDbArc
 50
135.0333121997359
 51
236.7780662264011
  0
ARC
  5
2C655
330
18
100
AcDbEntity
  8
姿図
100
AcDbCircle
 10
4441.577162112151
 20
2241.279531604015
 30
0.0
 40
7.023451227494228
100
AcDbArc
 50
89.57255103718201
 51
121.1664846586868
  0
ARC
  5
2C656
330
18
100
AcDbEntity
  8
姿図
100
AcDbCircle
 10
4439.450922921615
 20
2244.791164953839
 30
0.0
 40
2.918277375674741
100
AcDbArc
 50
121.1274254391886
 51
160.8469930756532
  0
ARC
  5
2C657
330
18
100
AcDbEntity
  8
姿図
100
AcDbCircle
 10
4275.079400654455
 20
2250.334289688009
 30
0.0
 40
161.6484558516821
100
AcDbArc
 50
358.5598251122301
 51
1.310040796657912
  0
ARC
  5
2C658
330
18
100
AcDbEntity
  8
姿図
100
AcDbCircle
 10
4437.904918714783
 20
2251.390604311749
 30
0.0
 40
4.765259900453005
100
AcDbArc
 50
223.2358012149326
 51
255.1214594254941
  0
SPLINE
  5
2C659
330
18
100
AcDbEntity
  8
姿図
100
AcDbSpline
210
0.0
220
0.0
230
1.0
 70
     8
 71
     3
 72
     8
 73
     4
 74
     0
 42
0.000000001
 43
0.0000000001
 40
3.0
 40
3.0
 40
3.0
 40
3.0
 40
4.0
 40
4.0
 40
4.0
 40
4.0
 10
4436.676793791235
 20
2246.27155530956
 30
0.0
 10
4436.676793791235
 20
2246.27155530956
 30
0.0
 10
4435.610219775319
 20
2246.46250877106
 30
0.0
 10
4434.23850165114
 20
2247.654477943966
 30
0.0
  0
SPLINE
  5
2C65A
330
18
100
AcDbEntity
  8
姿図
100
AcDbSpline
210
0.0
220
0.0
230
1.0
 70
    24
 71
     3
 72
     8
 73
     4
 74
     0
 42
0.000000001
 43
0.0000000001
 40
2.0
 40
2.0
 40
2.0
 40
2.0
 40
3.0
 40
3.0
 40
3.0
 40
3.0
 10
4436.707838768958
 20
2245.358720541697
 30
0.0
 10
4436.707838768958
 20
2245.358720541697
 30
0.0
 10
4436.676793791235
 20
2246.27155530956
 30
0.0
 10
4436.676793791235
 20
2246.27155530956
 30
0.0
  0
ARC
  5
2C65B
330
18
100
AcDbEntity
  8
姿図
100
AcDbCircle
 10
4437.507933320615
 20
2245.641439941172
 30
0.0
 40
0.8485761901155741
100
AcDbArc
 50
199.4612426901134
 51
246.4715084496298
  0
SPLINE
  5
2C65C
330
18
100
AcDbEntity
  8
姿図
100
AcDbSpline
210
0.0
220
0.0
230
1.0
 70
     8
 71
     3
 72
     8
 73
     4
 74
     0
 42
0.000000001
 43
0.0000000001
 40
60.0
 40
60.0
 40
60.0
 40
60.0
 40
61.0
 40
61.0
 40
61.0
 40
61.0
 10
4432.127739068274
 20
2249.139283290846
 30
0.0
 10
4432.224812901824
 20
2250.146692600742
 30
0.0
 10
4432.723305127302
 20
2253.606641960551
 30
0.0
 10
4433.395156624698
 20
2256.164841021966
 30
0.0
  0
ARC
  5
2C65D
330
18
100
AcDbEntity
  8
姿図
100
AcDbCircle
 10
4456.979902737285
 20
2255.642883333272
 30
0.0
 40
20.41666301661463
100
AcDbArc
 50
164.9003244817098
 51
183.4293730745962
  0
SPLINE
  5
2C68F
330
18
100
AcDbEntity
  8
姿図
100
AcDbSpline
210
0.0
220
0.0
230
1.0
 70
     8
 71
     3
 72
    17
 73
    13
 74
     0
 42
0.000000001
 43
0.0000000001
 40
82.0
 40
82.0
 40
82.0
 40
82.0
 40
83.0
 40
83.0
 40
83.0
 40
84.0
 40
84.0
 40
84.0
 40
85.0
 40
85.0
 40
85.0
 40
86.0
 40
86.0
 40
86.0
 40
86.0
 10
4444.893960004689
 20
2262.857416493971
 30
0.0
 10
4444.97147189705
 20
2263.425877919752
 30
0.0
 10
4444.97147189705
 20
2263.606657238329
 30
0.0
 10
4444.97147189705
 20
2263.710047309943
 30
0.0
 10
4444.97147189705
 20
2263.813437381558
 30
0.0
 10
4444.893960004689
 20
2264.071851237895
 30
0.0
 10
4445.204007574133
 20
2264.071851237895
 30
0.0
 10
4445.514055143578
 20
2264.071851237895
 30
0.0
 10
4445.410787717363
 20
2263.839254238112
 30
0.0
 10
4445.410787717363
 20
2263.710047309943
 30
0.0
 10
4445.410787717363
 20
2263.580840381775
 30
0.0
 10
4445.436665896616
 20
2262.676514529996
 30
0.0
 10
4445.436665896616
 20
2262.676514529996
 30
0.0
  0
SPLINE
  5
2C690
330
18
100
AcDbEntity
  8
姿図
100
AcDbSpline
210
0.0
220
0.0
230
1.0
 70
     8
 71
     3
 72
     8
 73
     4
 74
     0
 42
0.000000001
 43
0.0000000001
 40
86.0
 40
86.0
 40
86.0
 40
86.0
 40
87.0
 40
87.0
 40
87.0
 40
87.0
 10
4445.436665896616
 20
2262.676514529996
 30
0.0
 10
4445.436665896616
 20
2262.676514529996
 30
0.0
 10
4446.470198676563
 20
2262.263015566237
 30
0.0
 10
4446.676856174394
 20
2262.0046630326
 30
0.0
  0
SPLINE
  5
2C691
330
18
100
AcDbEntity
  8
姿図
100
AcDbSpline
210
0.0
220
0.0
230
1.0
 70
     8
 71
     3
 72
     8
 73
     4
 74
     0
 42
0.000000001
 43
0.0000000001
 40
87.0
 40
87.0
 40
87.0
 40
87.0
 40
88.0
 40
88.0
 40
88.0
 40
88.0
 10
4446.676856174394
 20
2262.0046630326
 30
0.0
 10
4446.780246246008
 20
2262.521429422574
 30
0.0
 10
4446.806124425262
 20
2263.193280919969
 30
0.0
 10
4446.806124425262
 20
2263.193280919969
 30
0.0
  0
SPLINE
  5
2C692
330
18
100
AcDbEntity
  8
姿図
100
AcDbSpline
210
0.0
220
0.0
230
1.0
 70
     8
 71
     3
 72
    11
 73
     7
 74
     0
 42
0.000000001
 43
0.0000000001
 40
88.0
 40
88.0
 40
88.0
 40
88.0
 40
89.0
 40
89.0
 40
89.0
 40
90.0
 40
90.0
 40
90.0
 40
90.0
 10
4446.806124425262
 20
2263.193280919969
 30
0.0
 10
4446.806124425262
 20
2263.193280919969
 30
0.0
 10
4446.832002604515
 20
2263.399999740499
 30
0.0
 10
4446.986903743838
 20
2263.399999740499
 30
0.0
 10
4447.142050173959
 20
2263.399999740499
 30
0.0
 10
4447.167805707813
 20
2263.296670991584
 30
0.0
 10
4447.193683887067
 20
2263.141585884162
 30
0.0
  0
SPLINE
  5
2C693
330
18
100
AcDbEntity
  8
姿図
100
AcDbSpline
210
0.0
220
0.0
230
1.0
 70
     8
 71
     3
 72
     8
 73
     4
 74
     0
 42
0.000000001
 43
0.0000000001
 40
90.0
 40
90.0
 40
90.0
 40
90.0
 40
91.0
 40
91.0
 40
91.0
 40
91.0
 10
4447.193683887067
 20
2263.141585884162
 30
0.0
 10
4447.219562066321
 20
2262.98656209944
 30
0.0
 10
4447.271195779428
 20
2261.694554140456
 30
0.0
 10
4447.271195779428
 20
2261.694554140456
 30
0.0
  0
SPLINE
  5
2C694
330
18
100
AcDbEntity
  8
姿図
100
AcDbSpline
210
0.0
220
0.0
230
1.0
 70
     8
 71
     3
 72
     8
 73
     4
 74
     0
 42
0.000000001
 43
0.0000000001
 40
91.0
 40
91.0
 40
91.0
 40
91.0
 40
92.0
 40
92.0
 40
92.0
 40
92.0
 10
4447.271195779428
 20
2261.694554140456
 30
0.0
 10
4447.271195779428
 20
2261.694554140456
 30
0.0
 10
4448.330729384029
 20
2261.875456104431
 30
0.0
 10
4448.692410666581
 20
2261.901272960985
 30
0.0
  0
SPLINE
  5
2C695
330
18
100
AcDbEntity
  8
姿図
100
AcDbSpline
210
0.0
220
0.0
230
1.0
 70
     8
 71
     3
 72
     8
 73
     4
 74
     0
 42
0.000000001
 43
0.0000000001
 40
92.0
 40
92.0
 40
92.0
 40
92.0
 40
93.0
 40
93.0
 40
93.0
 40
93.0
 10
4448.692410666581
 20
2261.901272960985
 30
0.0
 10
4449.054091949133
 20
2261.927151140238
 30
0.0
 10
4449.545164127952
 20
2261.875456104431
 30
0.0
 10
4449.726066091928
 20
2261.30699467865
 30
0.0
  0
ARC
  5
2C696
330
18
100
AcDbEntity
  8
姿図
100
AcDbCircle
 10
4443.983464079951
 20
2255.386509611526
 30
0.0
 40
6.935470996468705
100
AcDbArc
 50
65.64773604258475
 51
77.78217439901705
  0
ARC
  5
2C697
330
18
100
AcDbEntity
  8
姿図
100
AcDbCircle
 10
4440.288150642305
 20
2262.274137702456
 30
0.0
 40
5.164214987315041
100
AcDbArc
 50
358.7878634453216
 51
4.468807970952554
  0
ARC
  5
2C698
330
18
100
AcDbEntity
  8
姿図
100
AcDbCircle
 10
4465.355319721912
 20
2263.128114470607
 30
0.0
 40
20.39393014002813
100
AcDbArc
 50
178.9519072955405
 51
182.4160770027777
  0
ARC
  5
2C699
330
18
100
AcDbEntity
  8
姿図
100
AcDbCircle
 10
4444.805602226314
 20
2262.556622839036
 30
0.0
 40
0.3135026632238292
100
AcDbArc
 50
59.73516729329931
 51
73.62991183402796
  0
ARC
  5
2C69A
330
18
100
AcDbEntity
  8
姿図
100
AcDbCircle
 10
4444.731090556387
 20
2260.728314407313
 30
0.0
 40
2.327030221867914
100
AcDbArc
 50
24.81417256258006
 51
33.2633590941623
  0
LINE
  5
2C69B
330
18
100
AcDbEntity
  8
姿図
100
AcDbLine
 10
4446.843274678537
 20
2261.70491457505
 30
0.0
 11
4447.271195779429
 21
2261.694554140456
 31
0.0
  0
ARC
  5
2C69C
330
18
100
AcDbEntity
  8
姿図
100
AcDbCircle
 10
4444.729812699103
 20
2260.00367933512
 30
0.0
 40
2.278433254476653
100
AcDbArc
 50
71.54136661979263
 51
83.70799580805796
  0
ARC
  5
2C69D
330
18
100
AcDbEntity
  8
姿図
100
AcDbCircle
 10
4442.13975707855
 20
2252.869111895689
 30
0.0
 40
10.10919947342625
100
AcDbArc
 50
62.76850285567655
 51
70.88433192246352
  0
SPLINE
  5
2C69E
330
18
100
AcDbEntity
  8
姿図
100
AcDbSpline
210
0.0
220
0.0
230
1.0
 70
     8
 71
     3
 72
     8
 73
     4
 74
     0
 42
0.000000001
 43
0.0000000001
 40
2.0
 40
2.0
 40
2.0
 40
2.0
 40
3.0
 40
3.0
 40
3.0
 40
3.0
 10
4448.039323915278
 20
2244.616366255256
 30
0.0
 10
4448.274803081946
 20
2244.596742991367
 30
0.0
 10
4450.767202886633
 20
2243.752942644145
 30
0.0
 10
4451.022305317189
 20
2243.576333269144
 30
0.0
  0
SPLINE
  5
2C69F
330
18
100
AcDbEntity
  8
姿図
100
AcDbSpline
210
0.0
220
0.0
230
1.0
 70
     8
 71
     3
 72
    11
 73
     7
 74
     0
 42
0.000000001
 43
0.0000000001
 40
3.0
 40
3.0
 40
3.0
 40
3.0
 40
4.0
 40
4.0
 40
4.0
 40
5.0
 40
5.0
 40
5.0
 40
5.0
 10
4451.022305317189
 20
2243.576333269144
 30
0.0
 10
4451.100921018144
 20
2243.772565908034
 30
0.0
 10
4451.081175108855
 20
2244.459380144145
 30
0.0
 10
4450.865319206077
 20
2245.695768414544
 30
0.0
 10
4450.6494633033
 20
2246.932156684943
 30
0.0
 10
4450.669086567188
 20
2247.030395649787
 30
0.0
 10
4450.570970247744
 20
2247.481730719232
 30
0.0
  0
SPLINE
  5
2C6A0
330
18
100
AcDbEntity
  8
姿図
100
AcDbSpline
210
0.0
220
0.0
230
1.0
 70
     8
 71
     3
 72
     8
 73
     4
 74
     0
 42
0.000000001
 43
0.0000000001
 40
94.0
 40
94.0
 40
94.0
 40
94.0
 40
95.0
 40
95.0
 40
95.0
 40
95.0
 10
4451.689864225609
 20
2253.787543924527
 30
0.0
 10
4452.232447472137
 20
2250.531799154561
 30
0.0
 10
4452.516739507727
 20
2248.69702398095
 30
0.0
 10
4452.516739507727
 20
2248.490243837721
 30
0.0
  0
SPLINE
  5
2C6A1
330
18
100
AcDbEntity
  8
姿図
100
AcDbSpline
210
0.0
220
0.0
230
1.0
 70
    24
 71
     3
 72
     8
 73
     4
 74
     0
 42
0.000000001
 43
0.0000000001
 40
98.0
 40
98.0
 40
98.0
 40
98.0
 40
99.0
 40
99.0
 40
99.0
 40
99.0
 10
4453.95034158021
 20
2242.000339888069
 30
0.0
 10
4453.95034158021
 20
2242.000339888069
 30
0.0
 10
4454.258794759463
 20
2241.787550120273
 30
0.0
 10
4454.258794759463
 20
2241.787550120273
 30
0.0
  0
SPLINE
  5
2C6A2
330
18
100
AcDbEntity
  8
姿図
100
AcDbSpline
210
0.0
220
0.0
230
1.0
 70
    24
 71
     3
 72
     8
 73
     4
 74
     0
 42
0.000000001
 43
0.0000000001
 40
99.0
 40
99.0
 40
99.0
 40
99.0
 40
100.0
 40
100.0
 40
100.0
 40
100.0
 10
4454.258794759463
 20
2241.787550120273
 30
0.0
 10
4454.258794759463
 20
2241.787550120273
 30
0.0
 10
4454.581474805036
 20
2242.096739171923
 30
0.0
 10
4454.581474805036
 20
2242.096739171923
 30
0.0
  0
SPLINE
  5
2C6A3
330
18
100
AcDbEntity
  8
姿図
100
AcDbSpline
210
0.0
220
0.0
230
1.0
 70
     8
 71
     3
 72
    11
 73
     7
 74
     0
 42
0.000000001
 43
0.0000000001
 40
100.0
 40
100.0
 40
100.0
 40
100.0
 40
101.0
 40
101.0
 40
101.0
 40
102.0
 40
102.0
 40
102.0
 40
102.0
 10
4454.581474805036
 20
2242.096739171923
 30
0.0
 10
4454.581474805036
 20
2242.096739171923
 30
0.0
 10
4454.702525814151
 20
2242.12372115977
 30
0.0
 10
4454.702525814151
 20
2242.029529493103
 30
0.0
 10
4454.702525814151
 20
2241.935337826436
 30
0.0
 10
4454.662175477779
 20
2241.612780426263
 30
0.0
 10
4454.662175477779
 20
2241.612780426263
 30
0.0
  0
SPLINE
  5
2C6A4
330
18
100
AcDbEntity
  8
姿図
100
AcDbSpline
210
0.0
220
0.0
230
1.0
 70
    24
 71
     3
 72
     8
 73
     4
 74
     0
 42
0.000000001
 43
0.0000000001
 40
102.0
 40
102.0
 40
102.0
 40
102.0
 40
103.0
 40
103.0
 40
103.0
 40
103.0
 10
4454.662175477779
 20
2241.612780426263
 30
0.0
 10
4454.662175477779
 20
2241.612780426263
 30
0.0
 10
4454.541247114064
 20
2241.545570747443
 30
0.0
 10
4454.541247114064
 20
2241.545570747443
 30
0.0
  0
SPLINE
  5
2C6A5
330
18
100
AcDbEntity
  8
姿図
100
AcDbSpline
210
0.0
220
0.0
230
1.0
 70
    24
 71
     3
 72
     8
 73
     4
 74
     0
 42
0.000000001
 43
0.0000000001
 40
103.0
 40
103.0
 40
103.0
 40
103.0
 40
104.0
 40
104.0
 40
104.0
 40
104.0
 10
4454.541247114064
 20
2241.545570747443
 30
0.0
 10
4454.541247114064
 20
2241.545570747443
 30
0.0
 10
4455.025205859723
 20
2241.074980350308
 30
0.0
 10
4455.025205859723
 20
2241.074980350308
 30
0.0
  0
SPLINE
  5
2C6A6
330
18
100
AcDbEntity
  8
姿図
100
AcDbSpline
210
0.0
220
0.0
230
1.0
 70
     8
 71
     3
 72
     8
 73
     4
 74
     0
 42
0.000000001
 43
0.0000000001
 40
104.0
 40
104.0
 40
104.0
 40
104.0
 40
105.0
 40
105.0
 40
105.0
 40
105.0
 10
4455.025205859723
 20
2241.074980350308
 30
0.0
 10
4455.025205859723
 20
2241.074980350308
 30
0.0
 10
4454.971364529429
 20
2241.424519738329
 30
0.0
 10
4455.065556196095
 20
2241.53207975352
 30
0.0
  0
SPLINE
  5
2C6A7
330
18
100
AcDbEntity
  8
姿図
100
AcDbSpline
210
0.0
220
0.0
230
1.0
 70
     8
 71
     3
 72
    11
 73
     7
 74
     0
 42
0.000000001
 43
0.0000000001
 40
105.0
 40
105.0
 40
105.0
 40
105.0
 40
106.0
 40
106.0
 40
106.0
 40
107.0
 40
107.0
 40
107.0
 40
107.0
 10
4455.065556196095
 20
2241.53207975352
 30
0.0
 10
4454.944505186981
 20
2241.585798438416
 30
0.0
 10
4454.917645844533
 20
2241.653008117235
 30
0.0
 10
4454.917645844533
 20
2241.747199783902
 30
0.0
 10
4454.917645844533
 20
2241.841268805169
 30
0.0
 10
4455.159625217362
 20
2242.110230165846
 30
0.0
 10
4455.159625217362
 20
2242.110230165846
 30
0.0
  0
SPLINE
  5
2C6A8
330
18
100
AcDbEntity
  8
姿図
100
AcDbSpline
210
0.0
220
0.0
230
1.0
 70
     8
 71
     3
 72
     8
 73
     4
 74
     0
 42
0.000000001
 43
0.0000000001
 40
107.0
 40
107.0
 40
107.0
 40
107.0
 40
108.0
 40
108.0
 40
108.0
 40
108.0
 10
4455.159625217362
 20
2242.110230165846
 30
0.0
 10
4455.159625217362
 20
2242.110230165846
 30
0.0
 10
4455.132643229515
 20
2242.338841190152
 30
0.0
 10
4455.199975553734
 20
2242.446278559943
 30
0.0
  0
SPLINE
  5
2C6A9
330
18
100
AcDbEntity
  8
姿図
100
AcDbSpline
210
0.0
220
0.0
230
1.0
 70
     8
 71
     3
 72
    11
 73
     7
 74
     0
 42
0.000000001
 43
0.0000000001
 40
108.0
 40
108.0
 40
108.0
 40
108.0
 40
109.0
 40
109.0
 40
109.0
 40
110.0
 40
110.0
 40
110.0
 40
110.0
 10
4455.199975553734
 20
2242.446278559943
 30
0.0
 10
4455.267185232553
 20
2242.553961220533
 30
0.0
 10
4455.374745247744
 20
2242.621170899353
 30
0.0
 10
4455.563005935678
 20
2242.621170899353
 30
0.0
 10
4455.751266623613
 20
2242.621170899353
 30
0.0
 10
4455.858703993405
 20
2242.513488238763
 30
0.0
 10
4455.858703993405
 20
2242.513488238763
 30
0.0
  0
SPLINE
  5
2C6AA
330
18
100
AcDbEntity
  8
姿図
100
AcDbSpline
210
0.0
220
0.0
230
1.0
 70
    24
 71
     3
 72
     8
 73
     4
 74
     0
 42
0.000000001
 43
0.0000000001
 40
110.0
 40
110.0
 40
110.0
 40
110.0
 40
111.0
 40
111.0
 40
111.0
 40
111.0
 10
4455.858703993405
 20
2242.513488238763
 30
0.0
 10
4455.858703993405
 20
2242.513488238763
 30
0.0
 10
4455.858703993405
 20
2243.844558757426
 30
0.0
 10
4455.858703993405
 20
2243.844558757426
 30
0.0
  0
SPLINE
  5
2C6AB
330
18
100
AcDbEntity
  8
姿図
100
AcDbSpline
210
0.0
220
0.0
230
1.0
 70
     8
 71
     3
 72
    11
 73
     7
 74
     0
 42
0.000000001
 43
0.0000000001
 40
111.0
 40
111.0
 40
111.0
 40
111.0
 40
112.0
 40
112.0
 40
112.0
 40
113.0
 40
113.0
 40
113.0
 40
113.0
 10
4455.858703993405
 20
2243.844558757426
 30
0.0
 10
4455.858703993405
 20
2243.844558757426
 30
0.0
 10
4455.899054329775
 20
2243.952118772617
 30
0.0
 10
4455.979755002518
 20
2243.952118772617
 30
0.0
 10
4456.060333029862
 20
2243.952118772617
 30
0.0
 10
4456.127665354081
 20
2243.777349078607
 30
0.0
 10
4456.127665354081
 20
2243.777349078607
 30
0.0
  0
SPLINE
  5
2C6AC
330
18
100
AcDbEntity
  8
姿図
100
AcDbSpline
210
0.0
220
0.0
230
1.0
 70
     8
 71
     3
 72
    14
 73
    10
 74
     0
 42
0.000000001
 43
0.0000000001
 40
113.0
 40
113.0
 40
113.0
 40
113.0
 40
114.0
 40
114.0
 40
114.0
 40
115.0
 40
115.0
 40
115.0
 40
116.0
 40
116.0
 40
116.0
 40
116.0
 10
4456.127665354081
 20
2243.777349078607
 30
0.0
 10
4456.127665354081
 20
2243.777349078607
 30
0.0
 10
4456.154524696529
 20
2243.911891081645
 30
0.0
 10
4456.356276378387
 20
2243.911891081645
 30
0.0
 10
4456.557905414845
 20
2243.911891081645
 30
0.0
 10
4456.799884787675
 20
2243.911891081645
 30
0.0
 10
4456.799884787675
 20
2243.710016754388
 30
0.0
 10
4456.799884787675
 20
2243.50838771793
 30
0.0
 10
4456.826744130123
 20
2242.957219293451
 30
0.0
 10
4456.826744130123
 20
2242.957219293451
 30
0.0
  0
SPLINE
  5
2C6AD
330
18
100
AcDbEntity
  8
姿図
100
AcDbSpline
210
0.0
220
0.0
230
1.0
 70
     8
 71
     3
 72
     8
 73
     4
 74
     0
 42
0.000000001
 43
0.0000000001
 40
116.0
 40
116.0
 40
116.0
 40
116.0
 40
117.0
 40
117.0
 40
117.0
 40
117.0
 10
4456.826744130123
 20
2242.957219293451
 30
0.0
 10
4456.826744130123
 20
2242.957219293451
 30
0.0
 10
4457.51245455764
 20
2242.984201281297
 30
0.0
 10
4457.606523578907
 20
2242.863027626784
 30
0.0
  0
SPLINE
  5
2C6AE
330
18
100
AcDbEntity
  8
姿図
100
AcDbSpline
210
0.0
220
0.0
230
1.0
 70
     8
 71
     3
 72
    11
 73
     7
 74
     0
 42
0.000000001
 43
0.0000000001
 40
117.0
 40
117.0
 40
117.0
 40
117.0
 40
118.0
 40
118.0
 40
118.0
 40
119.0
 40
119.0
 40
119.0
 40
119.0
 10
4457.606523578907
 20
2242.863027626784
 30
0.0
 10
4457.620014572831
 20
2243.02442897227
 30
0.0
 10
4457.579664236459
 20
2243.091638651089
 30
0.0
 10
4457.714083594099
 20
2243.091638651089
 30
0.0
 10
4457.848625597137
 20
2243.091638651089
 30
0.0
 10
4458.050254633596
 20
2242.876518620707
 30
0.0
 10
4458.063622982119
 20
2242.580697917582
 30
0.0
  0
SPLINE
  5
2C6AF
330
18
100
AcDbEntity
  8
姿図
100
AcDbSpline
210
0.0
220
0.0
230
1.0
 70
     8
 71
     3
 72
     8
 73
     4
 74
     0
 42
0.000000001
 43
0.0000000001
 40
119.0
 40
119.0
 40
119.0
 40
119.0
 40
120.0
 40
120.0
 40
120.0
 40
120.0
 10
4458.063622982119
 20
2242.580697917582
 30
0.0
 10
4458.077113976043
 20
2242.284999859857
 30
0.0
 10
4458.077113976043
 20
2241.021139020013
 30
0.0
 10
4458.023272645747
 20
2240.833000977478
 30
0.0
  0
SPLINE
  5
2C6B0
330
18
100
AcDbEntity
  8
姿図
100
AcDbSpline
210
0.0
220
0.0
230
1.0
 70
     8
 71
     3
 72
     8
 73
     4
 74
     0
 42
0.000000001
 43
0.0000000001
 40
120.0
 40
120.0
 40
120.0
 40
120.0
 40
121.0
 40
121.0
 40
121.0
 40
121.0
 10
4458.023272645747
 20
2240.833000977478
 30
0.0
 10
4457.969553960852
 20
2240.644740289544
 30
0.0
 10
4457.86199394566
 20
2240.308691895447
 30
0.0
 10
4457.75443393047
 20
2240.281832552999
 30
0.0
  0
SPLINE
  5
2C6B1
330
18
100
AcDbEntity
  8
姿図
100
AcDbSpline
210
0.0
220
0.0
230
1.0
 70
     8
 71
     3
 72
     8
 73
     4
 74
     0
 42
0.000000001
 43
0.0000000001
 40
121.0
 40
121.0
 40
121.0
 40
121.0
 40
122.0
 40
122.0
 40
122.0
 40
122.0
 10
4457.75443393047
 20
2240.281832552999
 30
0.0
 10
4457.646873915279
 20
2240.254850565152
 30
0.0
 10
4457.552804894012
 20
2240.281832552999
 30
0.0
 10
4457.539313900088
 20
2240.469970595534
 30
0.0
  0
SPLINE
  5
2C6B2
330
18
100
AcDbEntity
  8
姿図
100
AcDbSpline
210
0.0
220
0.0
230
1.0
 70
     8
 71
     3
 72
     8
 73
     4
 74
     0
 42
0.000000001
 43
0.0000000001
 40
122.0
 40
122.0
 40
122.0
 40
122.0
 40
123.0
 40
123.0
 40
123.0
 40
123.0
 10
4457.539313900088
 20
2240.469970595534
 30
0.0
 10
4457.404894542449
 20
2240.469970595534
 30
0.0
 10
4456.759534451303
 20
2240.416251910638
 30
0.0
 10
4456.759534451303
 20
2240.416251910638
 30
0.0
  0
SPLINE
  5
2C6B3
330
18
100
AcDbEntity
  8
姿図
100
AcDbSpline
210
0.0
220
0.0
230
1.0
 70
     8
 71
     3
 72
     8
 73
     4
 74
     0
 42
0.000000001
 43
0.0000000001
 40
123.0
 40
123.0
 40
123.0
 40
123.0
 40
124.0
 40
124.0
 40
124.0
 40
124.0
 10
4456.759534451303
 20
2240.416251910638
 30
0.0
 10
4456.759534451303
 20
2240.416251910638
 30
0.0
 10
4456.786393793751
 20
2239.609490474006
 30
0.0
 10
4456.705693121008
 20
2239.528789801263
 30
0.0
  0
SPLINE
  5
2C6B4
330
18
100
AcDbEntity
  8
姿図
100
AcDbSpline
210
0.0
220
0.0
230
1.0
 70
     8
 71
     3
 72
     8
 73
     4
 74
     0
 42
0.000000001
 43
0.0000000001
 40
124.0
 40
124.0
 40
124.0
 40
124.0
 40
125.0
 40
125.0
 40
125.0
 40
125.0
 10
4456.705693121008
 20
2239.528789801263
 30
0.0
 10
4456.625115093664
 20
2239.44808912852
 30
0.0
 10
4456.544414420921
 20
2239.501930458815
 30
0.0
 10
4456.544414420921
 20
2239.501930458815
 30
0.0
  0
SPLINE
  5
2C6B5
330
18
100
AcDbEntity
  8
姿図
100
AcDbSpline
210
0.0
220
0.0
230
1.0
 70
     8
 71
     3
 72
     8
 73
     4
 74
     0
 42
0.000000001
 43
0.0000000001
 40
125.0
 40
125.0
 40
125.0
 40
125.0
 40
126.0
 40
126.0
 40
126.0
 40
126.0
 10
4456.544414420921
 20
2239.501930458815
 30
0.0
 10
4456.544414420921
 20
2239.501930458815
 30
0.0
 10
4456.625115093664
 20
2236.947594727478
 30
0.0
 10
4456.530923426997
 20
2235.32070350569
 30
0.0
  0
SPLINE
  5
2C6B6
330
18
100
AcDbEntity
  8
姿図
100
AcDbSpline
210
0.0
220
0.0
230
1.0
 70
     8
 71
     3
 72
     8
 73
     4
 74
     0
 42
0.000000001
 43
0.0000000001
 40
126.0
 40
126.0
 40
126.0
 40
126.0
 40
127.0
 40
127.0
 40
127.0
 40
127.0
 10
4456.530923426997
 20
2235.32070350569
 30
0.0
 10
4456.436854405731
 20
2233.693812283901
 30
0.0
 10
4456.087315017709
 20
2229.552935667148
 30
0.0
 10
4456.02010533889
 20
2229.364674979214
 30
0.0
  0
SPLINE
  5
2C6B7
330
18
100
AcDbEntity
  8
姿図
100
AcDbSpline
210
0.0
220
0.0
230
1.0
 70
     8
 71
     3
 72
     8
 73
     4
 74
     0
 42
0.000000001
 43
0.0000000001
 40
127.0
 40
127.0
 40
127.0
 40
127.0
 40
128.0
 40
128.0
 40
128.0
 40
128.0
 10
4456.02010533889
 20
2229.364674979214
 30
0.0
 10
4456.02010533889
 20
2228.974785254822
 30
0.0
 10
4456.033596332814
 20
2226.958126954041
 30
0.0
 10
4456.033596332814
 20
2226.958126954041
 30
0.0
  0
SPLINE
  5
2C6B8
330
18
100
AcDbEntity
  8
姿図
100
AcDbSpline
210
0.0
220
0.0
230
1.0
 70
     8
 71
     3
 72
     8
 73
     4
 74
     0
 42
0.000000001
 43
0.0000000001
 40
128.0
 40
128.0
 40
128.0
 40
128.0
 40
129.0
 40
129.0
 40
129.0
 40
129.0
 10
4456.033596332814
 20
2226.958126954041
 30
0.0
 10
4456.033596332814
 20
2226.958126954041
 30
0.0
 10
4456.127665354081
 20
2227.052318620707
 30
0.0
 10
4456.26208471172
 20
2226.984986296489
 30
0.0
  0
SPLINE
  5
2C6B9
330
18
100
AcDbEntity
  8
姿図
100
AcDbSpline
210
0.0
220
0.0
230
1.0
 70
     8
 71
     3
 72
     8
 73
     4
 74
     0
 42
0.000000001
 43
0.0000000001
 40
129.0
 40
129.0
 40
129.0
 40
129.0
 40
130.0
 40
130.0
 40
130.0
 40
130.0
 10
4456.26208471172
 20
2226.984986296489
 30
0.0
 10
4456.396626714758
 20
2226.917776617669
 30
0.0
 10
4457.431753884897
 20
2226.218697841628
 30
0.0
 10
4457.606523578907
 20
2226.084278483988
 30
0.0
  0
SPLINE
  5
2C6BA
330
18
100
AcDbEntity
  8
姿図
100
AcDbSpline
210
0.0
220
0.0
230
1.0
 70
     8
 71
     3
 72
     8
 73
     4
 74
     0
 42
0.000000001
 43
0.0000000001
 40
130.0
 40
130.0
 40
130.0
 40
130.0
 40
131.0
 40
131.0
 40
131.0
 40
131.0
 10
4457.606523578907
 20
2226.084278483988
 30
0.0
 10
4457.781293272918
 20
2225.94973648095
 30
0.0
 10
4457.888975933508
 20
2225.842299111159
 30
0.0
 10
4457.727574588022
 20
2225.452286741367
 30
0.0
  0
SPLINE
  5
2C6BB
330
18
100
AcDbEntity
  8
姿図
100
AcDbSpline
210
0.0
220
0.0
230
1.0
 70
     8
 71
     3
 72
    14
 73
    10
 74
     0
 42
0.000000001
 43
0.0000000001
 40
136.0
 40
136.0
 40
136.0
 40
136.0
 40
137.0
 40
137.0
 40
137.0
 40
138.0
 40
138.0
 40
138.0
 40
139.0
 40
139.0
 40
139.0
 40
139.0
 10
4458.278743012501
 20
2228.450476172791
 30
0.0
 10
4458.305602354949
 20
2229.015135591193
 30
0.0
 10
4458.372934679168
 20
2232.57798444102
 30
0.0
 10
4458.372934679168
 20
2232.752754135031
 30
0.0
 10
4458.372934679168
 20
2232.927523829041
 30
0.0
 10
4458.359443685244
 20
2233.209853538242
 30
0.0
 10
4458.601423058074
 20
2233.209853538242
 30
0.0
 10
4458.843402430904
 20
2233.209853538242
 30
0.0
 10
4458.991312782466
 20
2232.967874165412
 30
0.0
 10
4458.991312782466
 20
2232.967874165412
 30
0.0
  0
SPLINE
  5
2C6BC
330
18
100
AcDbEntity
  8
姿図
100
AcDbSpline
210
0.0
220
0.0
230
1.0
 70
     8
 71
     3
 72
    11
 73
     7
 74
     0
 42
0.000000001
 43
0.0000000001
 40
139.0
 40
139.0
 40
139.0
 40
139.0
 40
140.0
 40
140.0
 40
140.0
 40
141.0
 40
141.0
 40
141.0
 40
141.0
 10
4458.991312782466
 20
2232.967874165412
 30
0.0
 10
4458.991312782466
 20
2232.967874165412
 30
0.0
 10
4459.515621864497
 20
2232.981365159336
 30
0.0
 10
4459.636672873612
 20
2232.941014822964
 30
0.0
 10
4459.757723882727
 20
2232.900664486593
 30
0.0
 10
4459.905634234289
 20
2232.766245128954
 30
0.0
 10
4459.919002582814
 20
2232.537634104648
 30
0.0
  0
SPLINE
  5
2C6BD
330
18
100
AcDbEntity
  8
姿図
100
AcDbSpline
210
0.0
220
0.0
230
1.0
 70
     8
 71
     3
 72
     8
 73
     4
 74
     0
 42
0.000000001
 43
0.0000000001
 40
141.0
 40
141.0
 40
141.0
 40
141.0
 40
142.0
 40
142.0
 40
142.0
 40
142.0
 10
4459.919002582814
 20
2232.537634104648
 30
0.0
 10
4459.932493576737
 20
2232.309023080343
 30
0.0
 10
4460.013194249481
 20
2231.730995313416
 30
0.0
 10
4460.013194249481
 20
2231.730995313416
 30
0.0
  0
LINE
  5
2C6BE
330
18
100
AcDbEntity
  8
姿図
100
AcDbLine
 10
4460.013194249481
 20
2231.730995313416
 30
0.0
 11
4460.05759188403
 21
2228.018028494839
 31
0.0
  0
LINE
  5
2C6BF
330
18
100
AcDbEntity
  8
姿図
100
AcDbLine
 10
4459.674969961334
 20
2232.382967664471
 30
0.0
 11
4459.674969961334
 21
2232.382967664471
 31
0.0
  0
LINE
  5
2C6C0
330
18
100
AcDbEntity
  8
姿図
100
AcDbLine
 10
4459.475480235902
 20
2232.377104595383
 30
0.0
 11
4459.674969961334
 21
2232.382967664471
 31
0.0
  0
LINE
  5
2C6C1
330
18
100
AcDbEntity
  8
姿図
100
AcDbLine
 10
4459.674969961334
 20
2232.382967664471
 30
0.0
 11
4459.919002582814
 21
2232.537634104648
 31
0.0
  0
LINE
  5
2C6C2
330
18
100
AcDbEntity
  8
姿図
100
AcDbLine
 10
4458.372944161567
 20
2232.8385378693
 30
0.0
 11
4459.095591466014
 21
2232.817696111611
 31
0.0
  0
ARC
  5
2C6C3
330
18
100
AcDbEntity
  8
姿図
100
AcDbCircle
 10
4459.063578180558
 20
2232.449328004479
 30
0.0
 40
0.3697565588300821
100
AcDbArc
 50
26.41722648467141
 51
85.03314972789963
  0
ARC
  5
2C6C4
330
18
100
AcDbEntity
  8
姿図
100
AcDbCircle
 10
4459.498588719947
 20
2232.471143767448
 30
0.0
 40
0.0968368107570245
100
AcDbArc
 50
177.5198076457987
 51
256.1941115744406
  0
LINE
  5
2C6C5
330
18
100
AcDbEntity
  8
姿図
100
AcDbLine
 10
4459.394724033404
 20
2232.613834347643
 30
0.0
 11
4459.401842621897
 21
2232.475334284097
 31
0.0
  0
ARC
  5
2C6C6
330
18
100
AcDbEntity
  8
姿図
100
AcDbCircle
 10
4456.226454217898
 20
2226.61082448758
 30
0.0
 40
0.3972570541213215
100
AcDbArc
 50
119.0435180761531
 51
159.4188376883487
  0
LINE
  5
2C6C7
330
18
100
AcDbEntity
  8
姿図
100
AcDbLine
 10
4455.854552030292
 20
2226.750473798008
 30
0.0
 11
4455.248295275849
 21
2225.621042596078
 31
0.0
  0
LINE
  5
2C6C8
330
18
100
AcDbEntity
  8
姿図
100
AcDbLine
 10
4456.26208471172
 20
2226.984986296489
 30
0.0
 11
4455.453008371209
 21
2225.515400959748
 31
0.0
  0
ARC
  5
2C6C9
330
18
100
AcDbEntity
  8
姿図
100
AcDbCircle
 10
4444.331521238868
 20
2217.306358864316
 30
0.0
 40
15.00159103532738
100
AcDbArc
 50
59.8482743468719
 51
82.10167315234378
  0
ARC
  5
2C6CA
330
18
100
AcDbEntity
  8
姿図
100
AcDbCircle
 10
4447.233728648782
 20
2222.432134454388
 30
0.0
 40
9.111819754474226
100
AcDbArc
 50
35.7057908094358
 51
59.43891704340089
  0
ARC
  5
2C6CB
330
18
100
AcDbEntity
  8
姿図
100
AcDbCircle
 10
4452.833592746558
 20
2226.253949319454
 30
0.0
 40
2.339903435991967
100
AcDbArc
 50
354.6911406082257
 51
39.74457932270783
  0
LINE
  5
2C6CC
330
18
100
AcDbEntity
  8
姿図
100
AcDbLine
 10
4455.163458940791
 20
2226.037450805061
 30
0.0
 11
4455.168933267809
 21
2225.742953629967
 31
0.0
  0
ARC
  5
2C6CD
330
18
100
AcDbEntity
  8
姿図
100
AcDbCircle
 10
4444.92973332378
 20
2218.767884364368
 30
0.0
 40
13.96534159548996
100
AcDbArc
 50
43.82683793537269
 51
81.83462171419777
  0
ARC
  5
2C6CE
330
18
100
AcDbEntity
  8
姿図
100
AcDbCircle
 10
4452.242731209772
 20
2226.285424897159
 30
0.0
 40
3.502207327951977
100
AcDbArc
 50
4.00940975549993
 51
37.93819005738771
  0
ARC
  5
2C6CF
330
18
100
AcDbEntity
  8
姿図
100
AcDbCircle
 10
4443.276417372328
 20
2203.159816546062
 30
0.0
 40
25.74422963162313
100
AcDbArc
 50
67.1115793291878
 51
82.27270771511955
  0
ARC
  5
2C6D0
330
18
100
AcDbEntity
  8
姿図
100
AcDbCircle
 10
4449.63353097986
 20
2217.645906171801
 30
0.0
 40
9.92868574729668
100
AcDbArc
 50
56.13483083249591
 51
68.39505492549013
  0
ARC
  5
2C6D1
330
18
100
AcDbEntity
  8
姿図
100
AcDbCircle
 10
4446.391118375681
 20
2223.928209764413
 30
0.0
 40
11.98780277395828
100
AcDbArc
 50
44.34359490365342
 51
79.22366257854152
  0
ARC
  5
2C6D2
330
18
100
AcDbEntity
  8
姿図
100
AcDbCircle
 10
4452.834013060912
 20
2229.873322479086
 30
0.0
 40
3.234502311000505
100
AcDbArc
 50
355.3470820426405
 51
48.80510402841482
  0
LINE
  5
2C6D3
330
18
100
AcDbEntity
  8
姿図
100
AcDbLine
 10
4450.320833274202
 20
2233.60651993585
 30
0.0
 11
4450.345149932147
 21
2232.267003691591
 31
0.0
  0
LINE
  5
2C6D4
330
18
100
AcDbEntity
  8
姿図
100
AcDbLine
 10
4450.194777979234
 20
2233.653513681975
 30
0.0
 11
4450.188945035232
 21
2232.325736055835
 31
0.0
  0
LINE
  5
2C6D5
330
18
100
AcDbEntity
  8
姿図
100
AcDbLine
 10
4451.873687382466
 20
2232.996965208928
 30
0.0
 11
4451.87366871217
 21
2231.55266228874
 31
0.0
  0
ARC
  5
2C6D6
330
18
100
AcDbEntity
  8
姿図
100
AcDbCircle
 10
4449.363616787254
 20
2225.003850129209
 30
0.0
 40
7.013365908506066
100
AcDbArc
 50
24.05434525454066
 51
69.02899391903881
  0
ARC
  5
2C6D7
330
18
100
AcDbEntity
  8
姿図
100
AcDbCircle
 10
4449.826081116093
 20
2226.637486015401
 30
0.0
 40
6.374184913183638
100
AcDbArc
 50
30.95011755231132
 51
71.262458438545
  0
ARC
  5
2C6D8
330
18
100
AcDbEntity
  8
姿図
100
AcDbCircle
 10
4453.66088713395
 20
2228.777308860776
 30
0.0
 40
1.98963006087321
100
AcDbArc
 50
11.64621484541104
 51
34.9002950655021
  0
LINE
  5
2C6D9
330
18
100
AcDbEntity
  8
姿図
100
AcDbLine
 10
4455.609556165969
 20
2229.178951466562
 30
0.0
 11
4455.588982287411
 21
2228.23373027498
 31
0.0
  0
LINE
  5
2C6DA
330
18
100
AcDbEntity
  8
姿図
100
AcDbLine
 10
4455.767936779379
 20
2227.862518841226
 30
0.0
 11
4455.795626281822
 21
2229.169458004488
 31
0.0
  0
LINE
  5
2C6DB
330
18
100
AcDbEntity
  8
姿図
100
AcDbLine
 10
4455.609556165969
 20
2229.178951466562
 30
0.0
 11
4455.795626281822
 21
2229.169458004488
 31
0.0
  0
ARC
  5
2C6DC
330
18
100
AcDbEntity
  8
姿図
100
AcDbCircle
 10
4451.971538405405
 20
2232.958242057286
 30
0.0
 40
0.1052345245784256
100
AcDbArc
 50
98.89207980329887
 51
158.4095215871844
  0
ARC
  5
2C6DD
330
18
100
AcDbEntity
  8
姿図
100
AcDbCircle
 10
4448.666562120341
 20
2225.53549774452
 30
0.0
 40
8.213832017658387
100
AcDbArc
 50
39.85466092806681
 51
66.3976395828906
  0
ARC
  5
2C6DE
330
18
100
AcDbEntity
  8
姿図
100
AcDbCircle
 10
4452.773149231112
 20
2228.665191031585
 30
0.0
 40
3.064254020480502
100
AcDbArc
 50
9.471927650748693
 51
44.14231619185728
  0
ARC
  5
2C6DF
330
18
100
AcDbEntity
  8
姿図
100
AcDbCircle
 10
4443.805712236692
 20
2226.079534620183
 30
0.0
 40
17.92789672669692
100
AcDbArc
 50
65.97414726763859
 51
82.24955976118804
  0
ARC
  5
2C6E0
330
18
100
AcDbEntity
  8
姿図
100
AcDbCircle
 10
4444.090176966426
 20
2226.196522358723
 30
0.0
 40
17.70649654925609
100
AcDbArc
 50
54.5061144487472
 51
66.6607741770731
  0
ARC
  5
2C6E1
330
18
100
AcDbEntity
  8
姿図
100
AcDbCircle
 10
4451.315449932634
 20
2236.269770340208
 30
0.0
 40
5.310083859977168
100
AcDbArc
 50
23.51302691710407
 51
54.87259797793355
  0
ARC
  5
2C6E2
330
18
100
AcDbEntity
  8
姿図
100
AcDbCircle
 10
4447.551865635468
 20
2233.620613167472
 30
0.0
 40
10.54325918904183
100
AcDbArc
 50
52.63587060393828
 51
70.78208324591272
  0
ARC
  5
2C6E3
330
18
100
AcDbEntity
  8
姿図
100
AcDbCircle
 10
4392.075922078971
 20
2242.014962782986
 30
0.0
 40
60.78668995918346
100
AcDbArc
 50
0.8600872037600282
 51
6.115015456986673
  0
ARC
  5
2C6E4
330
18
100
AcDbEntity
  8
姿図
100
AcDbCircle
 10
4454.726566227109
 20
2242.761751735705
 30
0.0
 40
1.878123852957955
100
AcDbArc
 50
174.9394242146343
 51
180.7612721143542
  0
ARC
  5
2C6E5
330
18
100
AcDbEntity
  8
姿図
100
AcDbCircle
 10
4431.005188250387
 20
2244.556433836468
 30
0.0
 40
19.78325521799754
100
AcDbArc
 50
8.503354659739532
 51
23.34607013288064
  0
ARC
  5
2C6E6
330
18
100
AcDbEntity
  8
姿図
100
AcDbCircle
 10
4441.122346440432
 20
2248.068247826493
 30
0.0
 40
9.136516607620086
100
AcDbArc
 50
28.27476313283008
 51
42.95884801493992
  0
LINE
  5
2C6E7
330
18
100
AcDbEntity
  8
姿図
100
AcDbLine
 10
4456.826744130123
 20
2242.957219293451
 30
0.0
 11
4456.759534451303
 21
2240.416251910638
 31
0.0
  0
LINE
  5
2C6E8
330
18
100
AcDbEntity
  8
姿図
100
AcDbLine
 10
4455.858703993405
 20
2242.513488238763
 30
0.0
 11
4455.922489653824
 21
2240.89735413434
 31
0.0
  0
LINE
  5
2C6E9
330
18
100
AcDbEntity
  8
姿図
100
AcDbLine
 10
4455.204278711784
 20
2240.870768857907
 30
0.0
 11
4455.495327620894
 21
2240.836358720597
 31
0.0
  0
LINE
  5
2C6EA
330
18
100
AcDbEntity
  8
姿図
100
AcDbLine
 10
4455.495327620894
 20
2240.836358720597
 30
0.0
 11
4455.729249662876
 21
2240.92785192177
 31
0.0
  0
LINE
  5
2C6EB
330
18
100
AcDbEntity
  8
姿図
100
AcDbLine
 10
4455.729249662876
 20
2240.92785192177
 30
0.0
 11
4455.922489653824
 21
2240.89735413434
 31
0.0
  0
ARC
  5
2C6EC
330
18
100
AcDbEntity
  8
姿図
100
AcDbCircle
 10
4440.418006093008
 20
2227.750423955871
 30
0.0
 40
19.77154743901542
100
AcDbArc
 50
38.37310906748101
 51
42.37078970390812
  0
LINE
  5
2C6ED
330
18
100
AcDbEntity
  8
姿図
100
AcDbLine
 10
4455.922489653824
 20
2240.89735413434
 30
0.0
 11
4455.918600687139
 21
2240.024203135964
 31
0.0
  0
LINE
  5
2C6EE
330
18
100
AcDbEntity
  8
姿図
100
AcDbLine
 10
4457.606523578907
 20
2242.863027626784
 30
0.0
 11
4457.539313900088
 21
2240.469970595534
 31
0.0
  0
LINE
  5
2C6EF
330
18
100
AcDbEntity
  8
姿図
100
AcDbLine
 10
4457.597070763082
 20
2242.526452184477
 30
0.0
 11
4456.947286802962
 21
2242.536583342352
 31
0.0
  0
LINE
  5
2C6F0
330
18
100
AcDbEntity
  8
姿図
100
AcDbLine
 10
4456.947286802962
 20
2242.536583342352
 30
0.0
 11
4456.947286802962
 21
2241.900966395243
 31
0.0
  0
LINE
  5
2C6F1
330
18
100
AcDbEntity
  8
姿図
100
AcDbLine
 10
4456.947286802962
 20
2241.900966395243
 30
0.0
 11
4457.577273360703
 21
2241.821549054504
 31
0.0
  0
LINE
  5
2C6F2
330
18
100
AcDbEntity
  8
姿図
100
AcDbLine
 10
4457.012747596102
 20
2242.134649091647
 30
0.0
 11
4457.517730963968
 21
2242.115954456601
 31
0.0
  0
ARC
  5
2C6F3
330
18
100
AcDbEntity
  8
姿図
100
AcDbCircle
 10
4443.805712236692
 20
2226.079534620183
 30
0.0
 40
17.57189672669692
100
AcDbArc
 50
65.97414726763859
 51
82.24955976118804
  0
ARC
  5
2C6F4
330
18
100
AcDbEntity
  8
姿図
100
AcDbCircle
 10
4444.090176966426
 20
2226.196522358723
 30
0.0
 40
17.35049654925609
100
AcDbArc
 50
54.5061144487472
 51
66.6607741770731
  0
ARC
  5
2C6F5
330
18
100
AcDbEntity
  8
姿図
100
AcDbCircle
 10
4450.100929689552
 20
2234.892641980877
 30
0.0
 40
6.782061434828315
100
AcDbArc
 50
34.5821694168415
 51
53.25955639034068
  0
LINE
  5
2C6F6
330
18
100
AcDbEntity
  8
姿図
100
AcDbLine
 10
4455.684689327269
 20
2238.742055652332
 30
0.0
 11
4455.672150950031
 21
2238.505371407601
 31
0.0
  0
ARC
  5
2C6F7
330
18
100
AcDbEntity
  8
姿図
100
AcDbCircle
 10
4449.84667033623
 20
2234.387771012387
 30
0.0
 40
7.134884968317634
100
AcDbArc
 50
27.2018977531181
 51
35.00004946461912
  0
LINE
  5
2C6F8
330
18
100
AcDbEntity
  8
姿図
100
AcDbLine
 10
4455.918600687139
 20
2240.024203135964
 30
0.0
 11
4455.95539161514
 21
2239.352828502755
 31
0.0
  0
ARC
  5
2C6F9
330
18
100
AcDbEntity
  8
姿図
100
AcDbCircle
 10
4446.391118375681
 20
2223.928209764413
 30
0.0
 40
12.16580277395828
100
AcDbArc
 50
44.34359490365342
 51
79.22366257854152
  0
ARC
  5
2C6FA
330
18
100
AcDbEntity
  8
姿図
100
AcDbCircle
 10
4452.834013060912
 20
2229.873322479086
 30
0.0
 40
3.412502311000505
100
AcDbArc
 50
12.81913927440634
 51
48.80510402841482
  0
LINE
  5
2C6FB
330
18
100
AcDbEntity
  8
姿図
100
AcDbLine
 10
4456.127665354081
 20
2243.777349078607
 30
0.0
 11
4456.19244582285
 21
2237.649322328026
 31
0.0
  0
ARC
  5
2C6FC
330
18
100
AcDbEntity
  8
姿図
100
AcDbCircle
 10
4453.372666520585
 20
2240.467372790443
 30
0.0
 40
1.58999730752381
100
AcDbArc
 50
42.69636713775296
 51
56.12973347160472
  0
ARC
  5
2C6FD
330
18
100
AcDbEntity
  8
姿図
100
AcDbCircle
 10
4446.444074330167
 20
2245.494869700333
 30
0.0
 40
0.7927321882993051
100
AcDbArc
 50
306.54747850698
 51
13.23820378770298
  0
ARC
  5
2C6FE
330
18
100
AcDbEntity
  8
姿図
100
AcDbCircle
 10
4444.691204153343
 20
2244.545128241942
 30
0.0
 40
2.766418831449646
100
AcDbArc
 50
24.13776079254094
 51
72.32520093175565
  0
ARC
  5
2C6FF
330
18
100
AcDbEntity
  8
姿図
100
AcDbCircle
 10
4444.349150072469
 20
2244.157760775233
 30
0.0
 40
3.639806218338915
100
AcDbArc
 50
21.0049905160776
 51
66.66587520349637
  0
ARC
  5
2C700
330
18
100
AcDbEntity
  8
姿図
100
AcDbCircle
 10
4213.802232704959
 20
2251.320021521772
 30
0.0
 40
234.0007953530761
100
AcDbArc
 50
358.7525040264375
 51
0.6909588819908713
  0
ARC
  5
2C701
330
18
100
AcDbEntity
  8
姿図
100
AcDbCircle
 10
4445.393004860733
 20
2253.501589516794
 30
0.0
 40
7.291204331153296
100
AcDbArc
 50
288.8819773767499
 51
314.8835033409042
  0
SPLINE
  5
2C702
330
18
100
AcDbEntity
  8
姿図
100
AcDbSpline
210
0.0
220
0.0
230
1.0
 70
     8
 71
     3
 72
     8
 73
     4
 74
     0
 42
0.000000001
 43
0.0000000001
 40
3.0
 40
3.0
 40
3.0
 40
3.0
 40
4.0
 40
4.0
 40
4.0
 40
4.0
 10
4450.617826843707
 20
2247.904076288772
 30
0.0
 10
4449.42108979411
 20
2246.748581372558
 30
0.0
 10
4448.815569454275
 20
2246.612458493012
 30
0.0
 10
4447.74756507535
 20
2246.225545299486
 30
0.0
  0
SPLINE
  5
2C703
330
18
100
AcDbEntity
  8
姿図
100
AcDbSpline
210
0.0
220
0.0
230
1.0
 70
    24
 71
     3
 72
     8
 73
     4
 74
     0
 42
0.000000001
 43
0.0000000001
 40
0.0
 40
0.0
 40
0.0
 40
0.0
 40
1.0
 40
1.0
 40
1.0
 40
1.0
 10
4447.74756507535
 20
2246.225545299486
 30
0.0
 10
4447.74756507535
 20
2246.225545299486
 30
0.0
 10
4447.746909163241
 20
2245.175757992215
 30
0.0
 10
4447.746909163241
 20
2245.175757992215
 30
0.0
  0
ARC
  5
2C704
330
18
100
AcDbEntity
  8
姿図
100
AcDbCircle
 10
4446.923285302648
 20
2245.525125072156
 30
0.0
 40
0.8946583818900835
100
AcDbArc
 50
301.4877414270582
 51
337.0141781328922
  0
SPLINE
  5
2C705
330
18
100
AcDbEntity
  8
姿図
100
AcDbSpline
210
0.0
220
0.0
230
1.0
 70
     8
 71
     3
 72
     8
 73
     4
 74
     0
 42
0.000000001
 43
0.0000000001
 40
93.0
 40
93.0
 40
93.0
 40
93.0
 40
94.0
 40
94.0
 40
94.0
 40
94.0
 10
4449.726066091928
 20
2261.30699467865
 30
0.0
 10
4449.906845410505
 20
2260.738471930169
 30
0.0
 10
4451.147280979081
 20
2257.043411339891
 30
0.0
 10
4451.689864225609
 20
2253.787543924527
 30
0.0
  0
ARC
  5
2C706
330
18
100
AcDbEntity
  8
姿図
100
AcDbCircle
 10
4421.471733383436
 20
2252.238680222504
 30
0.0
 40
27.27532100677419
100
AcDbArc
 50
4.590443487697372
 51
18.65099996679333
  0
ENDSEC
  0
SECTION
  2
OBJECTS
  0
DICTIONARY
  5
C
330
0
100
AcDbDictionary
281
     1
  3
ACAD_GROUP
350
D
  3
ACAD_IMAGE_VARS
350
2CB88
  3
ACAD_LAYOUT
350
40CB
  3
ACAD_MLINESTYLE
350
E
  3
ACAD_PLOTSETTINGS
350
40CC
  3
ACAD_PLOTSTYLENAME
350
40C9
  3
ACAD_SCALELIST
350
28A88
  3
AcDbVariableDictionary
350
6377
  3
APPDATA
350
2CB87
  3
DWGPROPS
350
2CBAC
  0
DICTIONARY
  5
17708
330
2
100
AcDbDictionary
280
     1
281
     1
  3
ACAD_LAYERSTATES
360
17709
  0
DICTIONARY
  5
28AB0
330
F
100
AcDbDictionary
280
     1
281
     1
  3
ADSK_XREC_LAYER_RECONCILED
360
28AB1
  0
DICTIONARY
  5
28AB2
330
4C
100
AcDbDictionary
280
     1
281
     1
  3
ADSK_XREC_LAYER_RECONCILED
360
28AB3
  0
DICTIONARY
  5
28AB6
330
40D4
100
AcDbDictionary
280
     1
281
     1
  3
ADSK_XREC_LAYER_RECONCILED
360
28AB7
  0
DICTIONARY
  5
28AC0
330
176FE
100
AcDbDictionary
280
     1
281
     1
  3
ADSK_XREC_LAYER_RECONCILED
360
28AC1
  0
DICTIONARY
  5
9FD5
330
18
100
AcDbDictionary
280
     1
281
     1
  3
ACAD_SORTENTS
360
2AAEE
  0
DICTIONARY
  5
D
102
{ACAD_REACTORS
330
C
102
}
330
C
100
AcDbDictionary
281
     1
  0
RASTERVARIABLES
  5
2CB88
102
{ACAD_REACTORS
330
C
102
}
330
C
100
AcDbRasterVariables
 90
        0
 70
     1
 71
     1
 72
     0
  0
DICTIONARY
  5
40CB
102
{ACAD_REACTORS
330
C
102
}
330
C
100
AcDbDictionary
281
     1
  3
Model
350
40CD
  3
ﾚｲｱｳﾄ1
350
40CE
  0
DICTIONARY
  5
E
102
{ACAD_REACTORS
330
C
102
}
330
C
100
AcDbDictionary
281
     1
  3
STANDARD
350
1B
  0
DICTIONARY
  5
40CC
102
{ACAD_REACTORS
330
C
102
}
330
C
100
AcDbDictionary
281
     1
  0
ACDBDICTIONARYWDFLT
  5
40C9
102
{ACAD_REACTORS
330
C
102
}
330
C
100
AcDbDictionary
281
     1
  3
Normal
350
40CA
100
AcDbDictionaryWithDefault
340
40CA
  0
DICTIONARY
  5
28A88
102
{ACAD_REACTORS
330
C
102
}
330
C
100
AcDbDictionary
281
     1
  3
A0
350
28A89
  3
A1
350
28A8A
  3
A2
350
28A8B
  3
A3
350
28A8C
  3
A4
350
28A8D
  3
A5
350
28A8E
  3
A6
350
28A8F
  3
A7
350
28A90
  3
A8
350
28A91
  3
A9
350
28A92
  3
B0
350
28A93
  3
B1
350
28A94
  3
B2
350
28A95
  3
B3
350
28A96
  3
B4
350
28A97
  3
B5
350
28A98
  3
B6
350
28A99
  3
B7
350
28A9A
  3
B8
350
28A9B
  3
B9
350
28A9C
  3
C0
350
28A9D
  3
C1
350
28A9E
  3
C2
350
28A9F
  3
C3
350
28AA0
  3
C4
350
28AA1
  3
C5
350
28AA2
  3
C6
350
28AA3
  3
C7
350
28AA4
  3
C8
350
28AA5
  3
C9
350
28AA6
  3
D0
350
28AA7
  3
D1
350
28AA8
  3
D2
350
28AA9
  0
DICTIONARY
  5
6377
102
{ACAD_REACTORS
330
C
102
}
330
C
100
AcDbDictionary
281
     1
  3
DIMASSOC
350
73F2
  3
INDEXCTL
350
28AE4
  3
PROJECTNAME
350
FE7D
  3
SORTENTS
350
6378
  0
DICTIONARY
  5
2CB87
102
{ACAD_REACTORS
330
C
102
}
330
C
100
AcDbDictionary
281
     1
  0
XRECORD
  5
2CBAC
102
{ACAD_REACTORS
330
C
102
}
330
C
100
AcDbXrecord
280
     1
  1
DWGPROPS COOKIE
  2

  3

  4

  6

  7

  8
SPAX
  9

300
=
301
=
302
=
303
=
304
=
305
=
306
=
307
=
308
=
309
=
 40
0.0
 41
2453703.106561227
 42
2456821.202402708
  1

 90
        0
  0
DICTIONARY
  5
17709
102
{ACAD_REACTORS
330
17708
102
}
330
17708
100
AcDbDictionary
281
     1
  0
XRECORD
  5
28AB1
102
{ACAD_REACTORS
330
28AB0
102
}
330
28AB0
100
AcDbXrecord
280
     1
290
     1
  0
XRECORD
  5
28AB3
102
{ACAD_REACTORS
330
28AB2
102
}
330
28AB2
100
AcDbXrecord
280
     1
290
     1
  0
XRECORD
  5
28AB7
102
{ACAD_REACTORS
330
28AB6
102
}
330
28AB6
100
AcDbXrecord
280
     1
290
     1
  0
XRECORD
  5
28AC1
102
{ACAD_REACTORS
330
28AC0
102
}
330
28AC0
100
AcDbXrecord
280
     1
290
     1
  0
SORTENTSTABLE
  5
2AAEE
102
{ACAD_REACTORS
330
9FD5
102
}
330
9FD5
100
AcDbSortentsTable
330
18
331
0
  5
1EF90
331
25FFE
  5
25FFF
331
25FFF
  5
27F76
  0
LAYOUT
  5
40CD
102
{ACAD_REACTORS
330
40CB
102
}
330
40CB
100
AcDbPlotSettings
  1

  2
JUST PDF 2
  4
A4
  6
CUT1
 40
3.174999952316284
 41
3.174999952316284
 42
3.175003051757812
 43
3.17498779296875
 44
209.8886566162109
 45
297.0530090332031
 46
14.27171755861559
 47
9.855173074625782
 48
4398.497724702343
 49
1774.219283970272
140
4748.488161692154
141
2316.204634247606
142
1.0
143
2.0
 70
 11940
 72
     1
 73
     0
 74
     4
  7
spax form.ctb
 75
     0
147
0.5
148
-4398.497724702343
149
-1774.219283970272
100
AcDbLayout
  1
Model
 70
     1
 71
     0
 10
0.0
 20
0.0
 11
12.0
 21
9.0
 12
0.0
 22
0.0
 32
0.0
 14
4397.416512970432
 24
2181.795867978995
 34
0.0
 15
4481.416512970432
 25
2264.456798541335
 35
0.0
146
0.0
 13
0.0
 23
0.0
 33
0.0
 16
1.0
 26
0.0
 36
0.0
 17
0.0
 27
1.0
 37
0.0
 76
     0
330
18
331
2C0F7
1001
ACAD_PSEXT
1000
JUST PDF 2
1000
JUST PDF 2
1000
JUST PDF 2 Port:
1000

1070
     0
  0
LAYOUT
  5
40CE
102
{ACAD_REACTORS
330
40CB
102
}
330
40CB
100
AcDbPlotSettings
  1

  2
なし
  4

  6

 40
0.0
 41
0.0
 42
0.0
 43
0.0
 44
0.0
 45
0.0
 46
0.0
 47
0.0
 48
0.0
 49
0.0
140
0.0
141
0.0
142
1.0
143
1.0
 70
   688
 72
     0
 73
     0
 74
     5
  7
Aiba.ctb
 75
    16
147
1.0
148
0.0
149
0.0
100
AcDbLayout
  1
ﾚｲｱｳﾄ1
 70
     0
 71
     1
 10
0.0
 20
0.0
 11
12.0
 21
9.0
 12
0.0
 22
0.0
 32
0.0
 14
1.000000000000000E+20
 24
1.000000000000000E+20
 34
1.000000000000000E+20
 15
-1.000000000000000E+20
 25
-1.000000000000000E+20
 35
-1.000000000000000E+20
146
0.0
 13
0.0
 23
0.0
 33
0.0
 16
1.0
 26
0.0
 36
0.0
 17
0.0
 27
1.0
 37
0.0
 76
     0
330
15
  0
MLINESTYLE
  5
1B
102
{ACAD_REACTORS
330
E
102
}
330
E
100
AcDbMlineStyle
  2
STANDARD
 70
     0
  3

 62
     0
 51
90.0
 52
90.0
 71
     2
 49
0.5
 62
   256
  6
BYLAYER
 49
-0.5
 62
   256
  6
BYLAYER
  0
ACDBPLACEHOLDER
  5
40CA
102
{ACAD_REACTORS
330
40C9
102
}
330
40C9
  0
SCALE
  5
28A89
102
{ACAD_REACTORS
330
28A88
102
}
330
28A88
100
AcDbScale
 70
     0
300
1:1
140
1.0
141
1.0
290
     1
  0
SCALE
  5
28A8A
102
{ACAD_REACTORS
330
28A88
102
}
330
28A88
100
AcDbScale
 70
     0
300
1:2
140
1.0
141
2.0
290
     0
  0
SCALE
  5
28A8B
102
{ACAD_REACTORS
330
28A88
102
}
330
28A88
100
AcDbScale
 70
     0
300
1:4
140
1.0
141
4.0
290
     0
  0
SCALE
  5
28A8C
102
{ACAD_REACTORS
330
28A88
102
}
330
28A88
100
AcDbScale
 70
     0
300
1:5
140
1.0
141
5.0
290
     0
  0
SCALE
  5
28A8D
102
{ACAD_REACTORS
330
28A88
102
}
330
28A88
100
AcDbScale
 70
     0
300
1:8
140
1.0
141
8.0
290
     0
  0
SCALE
  5
28A8E
102
{ACAD_REACTORS
330
28A88
102
}
330
28A88
100
AcDbScale
 70
     0
300
1:10
140
1.0
141
10.0
290
     0
  0
SCALE
  5
28A8F
102
{ACAD_REACTORS
330
28A88
102
}
330
28A88
100
AcDbScale
 70
     0
300
1:16
140
1.0
141
16.0
290
     0
  0
SCALE
  5
28A90
102
{ACAD_REACTORS
330
28A88
102
}
330
28A88
100
AcDbScale
 70
     0
300
1:20
140
1.0
141
20.0
290
     0
  0
SCALE
  5
28A91
102
{ACAD_REACTORS
330
28A88
102
}
330
28A88
100
AcDbScale
 70
     0
300
1:30
140
1.0
141
30.0
290
     0
  0
SCALE
  5
28A92
102
{ACAD_REACTORS
330
28A88
102
}
330
28A88
100
AcDbScale
 70
     0
300
1:40
140
1.0
141
40.0
290
     0
  0
SCALE
  5
28A93
102
{ACAD_REACTORS
330
28A88
102
}
330
28A88
100
AcDbScale
 70
     0
300
1:50
140
1.0
141
50.0
290
     0
  0
SCALE
  5
28A94
102
{ACAD_REACTORS
330
28A88
102
}
330
28A88
100
AcDbScale
 70
     0
300
1:100
140
1.0
141
100.0
290
     0
  0
SCALE
  5
28A95
102
{ACAD_REACTORS
330
28A88
102
}
330
28A88
100
AcDbScale
 70
     0
300
2:1
140
2.0
141
1.0
290
     0
  0
SCALE
  5
28A96
102
{ACAD_REACTORS
330
28A88
102
}
330
28A88
100
AcDbScale
 70
     0
300
4:1
140
4.0
141
1.0
290
     0
  0
SCALE
  5
28A97
102
{ACAD_REACTORS
330
28A88
102
}
330
28A88
100
AcDbScale
 70
     0
300
8:1
140
8.0
141
1.0
290
     0
  0
SCALE
  5
28A98
102
{ACAD_REACTORS
330
28A88
102
}
330
28A88
100
AcDbScale
 70
     0
300
10:1
140
10.0
141
1.0
290
     0
  0
SCALE
  5
28A99
102
{ACAD_REACTORS
330
28A88
102
}
330
28A88
100
AcDbScale
 70
     0
300
100:1
140
100.0
141
1.0
290
     0
  0
SCALE
  5
28A9A
102
{ACAD_REACTORS
330
28A88
102
}
330
28A88
100
AcDbScale
 70
     0
300
1/128" = 1'-0"
140
0.0078125
141
12.0
290
     0
  0
SCALE
  5
28A9B
102
{ACAD_REACTORS
330
28A88
102
}
330
28A88
100
AcDbScale
 70
     0
300
1/64" = 1'-0"
140
0.015625
141
12.0
290
     0
  0
SCALE
  5
28A9C
102
{ACAD_REACTORS
330
28A88
102
}
330
28A88
100
AcDbScale
 70
     0
300
1/32" = 1'-0"
140
0.03125
141
12.0
290
     0
  0
SCALE
  5
28A9D
102
{ACAD_REACTORS
330
28A88
102
}
330
28A88
100
AcDbScale
 70
     0
300
1/16" = 1'-0"
140
0.0625
141
12.0
290
     0
  0
SCALE
  5
28A9E
102
{ACAD_REACTORS
330
28A88
102
}
330
28A88
100
AcDbScale
 70
     0
300
3/32" = 1'-0"
140
0.09375
141
12.0
290
     0
  0
SCALE
  5
28A9F
102
{ACAD_REACTORS
330
28A88
102
}
330
28A88
100
AcDbScale
 70
     0
300
1/8" = 1'-0"
140
0.125
141
12.0
290
     0
  0
SCALE
  5
28AA0
102
{ACAD_REACTORS
330
28A88
102
}
330
28A88
100
AcDbScale
 70
     0
300
3/16" = 1'-0"
140
0.1875
141
12.0
290
     0
  0
SCALE
  5
28AA1
102
{ACAD_REACTORS
330
28A88
102
}
330
28A88
100
AcDbScale
 70
     0
300
1/4" = 1'-0"
140
0.25
141
12.0
290
     0
  0
SCALE
  5
28AA2
102
{ACAD_REACTORS
330
28A88
102
}
330
28A88
100
AcDbScale
 70
     0
300
3/8" = 1'-0"
140
0.375
141
12.0
290
     0
  0
SCALE
  5
28AA3
102
{ACAD_REACTORS
330
28A88
102
}
330
28A88
100
AcDbScale
 70
     0
300
1/2" = 1'-0"
140
0.5
141
12.0
290
     0
  0
SCALE
  5
28AA4
102
{ACAD_REACTORS
330
28A88
102
}
330
28A88
100
AcDbScale
 70
     0
300
3/4" = 1'-0"
140
0.75
141
12.0
290
     0
  0
SCALE
  5
28AA5
102
{ACAD_REACTORS
330
28A88
102
}
330
28A88
100
AcDbScale
 70
     0
300
1" = 1'-0"
140
1.0
141
12.0
290
     0
  0
SCALE
  5
28AA6
102
{ACAD_REACTORS
330
28A88
102
}
330
28A88
100
AcDbScale
 70
     0
300
1-1/2" = 1'-0"
140
1.5
141
12.0
290
     0
  0
SCALE
  5
28AA7
102
{ACAD_REACTORS
330
28A88
102
}
330
28A88
100
AcDbScale
 70
     0
300
3" = 1'-0"
140
3.0
141
12.0
290
     0
  0
SCALE
  5
28AA8
102
{ACAD_REACTORS
330
28A88
102
}
330
28A88
100
AcDbScale
 70
     0
300
6" = 1'-0"
140
6.0
141
12.0
290
     0
  0
SCALE
  5
28AA9
102
{ACAD_REACTORS
330
28A88
102
}
330
28A88
100
AcDbScale
 70
     0
300
1'-0" = 1'-0"
140
12.0
141
12.0
290
     0
  0
DICTIONARYVAR
  5
73F2
102
{ACAD_REACTORS
330
6377
102
}
330
6377
100
DictionaryVariables
280
     0
  1
1
  0
DICTIONARYVAR
  5
28AE4
102
{ACAD_REACTORS
330
6377
102
}
330
6377
100
DictionaryVariables
280
     0
  1
0
  0
DICTIONARYVAR
  5
FE7D
102
{ACAD_REACTORS
330
6377
102
}
330
6377
100
DictionaryVariables
280
     0
  1

  0
DICTIONARYVAR
  5
6378
102
{ACAD_REACTORS
330
6377
102
}
330
6377
100
DictionaryVariables
280
     0
  1
96
  0
ENDSEC
  0
EOF
