  0
SECTION
  2
HEADER
  9
$ACADVER
  1
AC1015
  9
$ACADMAINTVER
 70
     6
  9
$DWGCODEPAGE
  3
ANSI_932
  9
$INSBASE
 10
0.0
 20
0.0
 30
0.0
  9
$EXTMIN
 10
4018.259466506535
 20
2184.108710057572
 30
0.0
  9
$EXTMAX
 10
4125.299466506535
 20
2264.456798170727
 30
0.0
  9
$LIMMIN
 10
0.0
 20
0.0
  9
$LIMMAX
 10
840.0
 20
594.0
  9
$ORTHOMODE
 70
     1
  9
$REGENMODE
 70
     1
  9
$FILLMODE
 70
     1
  9
$QTEXTMODE
 70
     0
  9
$MIRRTEXT
 70
     1
  9
$LTSCALE
 40
7.0
  9
$ATTMODE
 70
     0
  9
$TEXTSIZE
 40
6.0
  9
$TRACEWID
 40
1.0
  9
$TEXTSTYLE
  7
STANDARD
  9
$CLAYER
  8
寸法線
  9
$CELTYPE
  6
BYLAYER
  9
$CECOLOR
 62
   256
  9
$CELTSCALE
 40
1.0
  9
$DISPSILH
 70
     0
  9
$DIMSCALE
 40
1.0
  9
$DIMASZ
 40
4.0
  9
$DIMEXO
 40
3.0
  9
$DIMDLI
 40
7.149999999999999
  9
$DIMRND
 40
0.0
  9
$DIMDLE
 40
0.0
  9
$DIMEXE
 40
2.0
  9
$DIMTP
 40
0.0
  9
$DIMTM
 40
0.0
  9
$DIMTXT
 40
5.0
  9
$DIMCEN
 40
0.0
  9
$DIMTSZ
 40
0.0
  9
$DIMTOL
 70
     0
  9
$DIMLIM
 70
     0
  9
$DIMTIH
 70
     0
  9
$DIMTOH
 70
     0
  9
$DIMSE1
 70
     0
  9
$DIMSE2
 70
     0
  9
$DIMTAD
 70
     3
  9
$DIMZIN
 70
     8
  9
$DIMBLK
  1
OPEN
  9
$DIMASO
 70
     1
  9
$DIMSHO
 70
     0
  9
$DIMPOST
  1

  9
$DIMAPOST
  1

  9
$DIMALT
 70
     0
  9
$DIMALTD
 70
     2
  9
$DIMALTF
 40
25.4
  9
$DIMLFAC
 40
1.0
  9
$DIMTOFL
 70
     0
  9
$DIMTVP
 40
0.0
  9
$DIMTIX
 70
     0
  9
$DIMSOXD
 70
     0
  9
$DIMSAH
 70
     0
  9
$DIMBLK1
  1

  9
$DIMBLK2
  1

  9
$DIMSTYLE
  2
STANDARD
  9
$DIMCLRD
 70
     8
  9
$DIMCLRE
 70
     8
  9
$DIMCLRT
 70
     0
  9
$DIMTFAC
 40
1.0
  9
$DIMGAP
 40
2.0
  9
$DIMJUST
 70
     0
  9
$DIMSD1
 70
     0
  9
$DIMSD2
 70
     0
  9
$DIMTOLJ
 70
     1
  9
$DIMTZIN
 70
     0
  9
$DIMALTZ
 70
     0
  9
$DIMALTTZ
 70
     0
  9
$DIMUPT
 70
     1
  9
$DIMDEC
 70
     2
  9
$DIMTDEC
 70
     2
  9
$DIMALTU
 70
     2
  9
$DIMALTTD
 70
     2
  9
$DIMTXSTY
  7
STANDARD
  9
$DIMAUNIT
 70
     0
  9
$DIMADEC
 70
     2
  9
$DIMALTRND
 40
0.0
  9
$DIMAZIN
 70
     2
  9
$DIMDSEP
 70
    46
  9
$DIMATFIT
 70
     3
  9
$DIMFRAC
 70
     0
  9
$DIMLDRBLK
  1
OPEN
  9
$DIMLUNIT
 70
     2
  9
$DIMLWD
 70
    -2
  9
$DIMLWE
 70
    -2
  9
$DIMTMOVE
 70
     0
  9
$LUNITS
 70
     2
  9
$LUPREC
 70
     2
  9
$SKETCHINC
 40
0.1
  9
$FILLETRAD
 40
0.0
  9
$AUNITS
 70
     0
  9
$AUPREC
 70
     2
  9
$MENU
  1
ACAD
  9
$ELEVATION
 40
0.0
  9
$PELEVATION
 40
0.0
  9
$THICKNESS
 40
0.0
  9
$LIMCHECK
 70
     0
  9
$CHAMFERA
 40
0.0
  9
$CHAMFERB
 40
0.0
  9
$CHAMFERC
 40
0.0
  9
$CHAMFERD
 40
0.0
  9
$SKPOLY
 70
     0
  9
$TDCREATE
 40
2453703.481561227
  9
$TDUCREATE
 40
2453703.106561227
  9
$TDUPDATE
 40
2456821.577695567
  9
$TDUUPDATE
 40
2456821.202695567
  9
$TDINDWG
 40
0.3233178704
  9
$TDUSRTIMER
 40
2456821.202530058
  9
$USRTIMER
 70
     1
  9
$ANGBASE
 50
0.0
  9
$ANGDIR
 70
     0
  9
$PDMODE
 70
     3
  9
$PDSIZE
 40
0.0
  9
$PLINEWID
 40
0.0
  9
$SPLFRAME
 70
     0
  9
$SPLINETYPE
 70
     6
  9
$SPLINESEGS
 70
     8
  9
$HANDSEED
  5
32D04
  9
$SURFTAB1
 70
     6
  9
$SURFTAB2
 70
     6
  9
$SURFTYPE
 70
     6
  9
$SURFU
 70
     6
  9
$SURFV
 70
     6
  9
$UCSBASE
  2

  9
$UCSNAME
  2

  9
$UCSORG
 10
0.0
 20
0.0
 30
0.0
  9
$UCSXDIR
 10
1.0
 20
0.0
 30
0.0
  9
$UCSYDIR
 10
0.0
 20
1.0
 30
0.0
  9
$UCSORTHOREF
  2

  9
$UCSORTHOVIEW
 70
     0
  9
$UCSORGTOP
 10
0.0
 20
0.0
 30
0.0
  9
$UCSORGBOTTOM
 10
0.0
 20
0.0
 30
0.0
  9
$UCSORGLEFT
 10
0.0
 20
0.0
 30
0.0
  9
$UCSORGRIGHT
 10
0.0
 20
0.0
 30
0.0
  9
$UCSORGFRONT
 10
0.0
 20
0.0
 30
0.0
  9
$UCSORGBACK
 10
0.0
 20
0.0
 30
0.0
  9
$PUCSBASE
  2

  9
$PUCSNAME
  2

  9
$PUCSORG
 10
0.0
 20
0.0
 30
0.0
  9
$PUCSXDIR
 10
1.0
 20
0.0
 30
0.0
  9
$PUCSYDIR
 10
0.0
 20
1.0
 30
0.0
  9
$PUCSORTHOREF
  2

  9
$PUCSORTHOVIEW
 70
     0
  9
$PUCSORGTOP
 10
0.0
 20
0.0
 30
0.0
  9
$PUCSORGBOTTOM
 10
0.0
 20
0.0
 30
0.0
  9
$PUCSORGLEFT
 10
0.0
 20
0.0
 30
0.0
  9
$PUCSORGRIGHT
 10
0.0
 20
0.0
 30
0.0
  9
$PUCSORGFRONT
 10
0.0
 20
0.0
 30
0.0
  9
$PUCSORGBACK
 10
0.0
 20
0.0
 30
0.0
  9
$USERI1
 70
     0
  9
$USERI2
 70
     0
  9
$USERI3
 70
     0
  9
$USERI4
 70
     0
  9
$USERI5
 70
     0
  9
$USERR1
 40
0.0
  9
$USERR2
 40
0.0
  9
$USERR3
 40
0.0
  9
$USERR4
 40
0.0
  9
$USERR5
 40
0.0
  9
$WORLDVIEW
 70
     0
  9
$SHADEDGE
 70
     3
  9
$SHADEDIF
 70
    70
  9
$TILEMODE
 70
     1
  9
$MAXACTVP
 70
    16
  9
$PINSBASE
 10
0.0
 20
0.0
 30
0.0
  9
$PLIMCHECK
 70
     0
  9
$PEXTMIN
 10
1.000000000000000E+20
 20
1.000000000000000E+20
 30
1.000000000000000E+20
  9
$PEXTMAX
 10
-1.000000000000000E+20
 20
-1.000000000000000E+20
 30
-1.000000000000000E+20
  9
$PLIMMIN
 10
0.0
 20
0.0
  9
$PLIMMAX
 10
0.0
 20
0.0
  9
$UNITMODE
 70
     0
  9
$VISRETAIN
 70
     0
  9
$PLINEGEN
 70
     0
  9
$PSLTSCALE
 70
     0
  9
$TREEDEPTH
 70
  3020
  9
$CMLSTYLE
  2
STANDARD
  9
$CMLJUST
 70
     0
  9
$CMLSCALE
 40
1.0
  9
$PROXYGRAPHICS
 70
     1
  9
$MEASUREMENT
 70
     0
  9
$CELWEIGHT
370
    -1
  9
$ENDCAPS
280
     0
  9
$JOINSTYLE
280
     0
  9
$LWDISPLAY
290
     0
  9
$INSUNITS
 70
     0
  9
$HYPERLINKBASE
  1

  9
$STYLESHEET
  1
spax form.ctb
  9
$XEDIT
290
     1
  9
$CEPSNTYPE
380
     0
  9
$PSTYLEMODE
290
     1
  9
$FINGERPRINTGUID
  2
{C1CFCF3E-DF91-11D3-B30C-0060B0FA8DFC}
  9
$VERSIONGUID
  2
{08B5AD30-2B82-48DF-B93B-CDD56B1804E6}
  9
$EXTNAMES
290
     1
  9
$PSVPSCALE
 40
0.0
  9
$OLESTARTUP
290
     0
  0
ENDSEC
  0
SECTION
  2
CLASSES
  0
CLASS
  1
LWPOLYLINE
  2
AcDbPolyline
  3
ObjectDBX Classes
 90
        0
280
     0
281
     1
  0
CLASS
  1
ACDBDICTIONARYWDFLT
  2
AcDbDictionaryWithDefault
  3
ObjectDBX Classes
 90
        0
280
     0
281
     0
  0
CLASS
  1
ACDBPLACEHOLDER
  2
AcDbPlaceHolder
  3
ObjectDBX Classes
 90
        0
280
     0
281
     0
  0
CLASS
  1
LAYOUT
  2
AcDbLayout
  3
ObjectDBX Classes
 90
        0
280
     0
281
     0
  0
CLASS
  1
DICTIONARYVAR
  2
AcDbDictionaryVar
  3
ObjectDBX Classes
 90
        0
280
     0
281
     0
  0
CLASS
  1
LONG_TRANSACTION
  2
AcDbLongTransaction
  3
ObjectDBX Classes
 90
        0
280
     0
281
     0
  0
CLASS
  1
LWPOLYLINE
  2
AcDbPolyline
  3
ObjectDBX Classes
 90
        0
280
     0
281
     1
  0
CLASS
  1
HATCH
  2
AcDbHatch
  3
ObjectDBX Classes
 90
        0
280
     0
281
     1
  0
CLASS
  1
XRECORD
  2
AcDbXrecord
  3
ObjectDBX Classes
 90
        0
280
     0
281
     0
  0
CLASS
  1
MATERIAL
  2
AcDbMaterial
  3
ObjectDBX Classes
 90
     1153
280
     0
281
     0
  0
CLASS
  1
VISUALSTYLE
  2
AcDbVisualStyle
  3
ObjectDBX Classes
 90
     4095
280
     0
281
     0
  0
CLASS
  1
TABLESTYLE
  2
AcDbTableStyle
  3
ObjectDBX Classes
 90
     4095
280
     0
281
     0
  0
CLASS
  1
SCALE
  2
AcDbScale
  3
ObjectDBX Classes
 90
     1153
280
     0
281
     0
  0
CLASS
  1
MLEADERSTYLE
  2
AcDbMLeaderStyle
  3
ACDB_MLEADERSTYLE_CLASS
 90
     4095
280
     0
281
     0
  0
CLASS
  1
CELLSTYLEMAP
  2
AcDbCellStyleMap
  3
ObjectDBX Classes
 90
     1152
280
     0
281
     0
  0
CLASS
  1
SORTENTSTABLE
  2
AcDbSortentsTable
  3
ObjectDBX Classes
 90
        0
280
     0
281
     0
  0
CLASS
  1
RASTERVARIABLES
  2
AcDbRasterVariables
  3
ISM
 90
        0
280
     0
281
     0
  0
CLASS
  1
SUN
  2
AcDbSun
  3
SCENEOE
 90
     1153
280
     0
281
     0
  0
ENDSEC
  0
SECTION
  2
TABLES
  0
TABLE
  2
VPORT
  5
8
330
0
100
AcDbSymbolTable
 70
     1
  0
VPORT
  5
322D4
330
8
100
AcDbSymbolTableRecord
100
AcDbViewportTableRecord
  2
*Active
 70
     0
 10
0.0
 20
0.0
 11
1.0
 21
1.0
 12
4071.779466506535
 22
2224.28275411415
 13
0.0
 23
0.0
 14
1.0
 24
1.0
 15
20.0
 25
20.0
 16
0.0
 26
0.0
 36
1.0
 17
0.0
 27
0.0
 37
0.0
 40
81.95504987541807
 41
1.731829573934837
 42
50.0
 43
0.0
 44
0.0
 50
0.0
 51
0.0
 71
    16
 72
  2000
 73
     1
 74
     0
 75
     0
 76
     0
 77
     0
 78
     1
281
     0
 65
     1
110
0.0
120
0.0
130
0.0
111
1.0
121
0.0
131
0.0
112
0.0
122
1.0
132
0.0
 79
     0
146
0.0
  0
ENDTAB
  0
TABLE
  2
LTYPE
  5
5
330
0
100
AcDbSymbolTable
 70
     4
  0
LTYPE
  5
12
330
5
100
AcDbSymbolTableRecord
100
AcDbLinetypeTableRecord
  2
BYBLOCK
 70
     0
  3

 72
    65
 73
     0
 40
0.0
  0
LTYPE
  5
13
330
5
100
AcDbSymbolTableRecord
100
AcDbLinetypeTableRecord
  2
BYLAYER
 70
     0
  3

 72
    65
 73
     0
 40
0.0
  0
LTYPE
  5
14
330
5
100
AcDbSymbolTableRecord
100
AcDbLinetypeTableRecord
  2
CONTINUOUS
 70
     0
  3
Solid line
 72
    65
 73
     0
 40
0.0
  0
LTYPE
  5
176F7
330
5
100
AcDbSymbolTableRecord
100
AcDbLinetypeTableRecord
  2
PHANTOM
 70
     0
  3
_____ _ _ _____ _ _ _____ _ _ _____ _ _ ____
 72
    65
 73
     6
 40
2.5
 49
1.25
 74
     0
 49
-0.25
 74
     0
 49
0.25
 74
     0
 49
-0.25
 74
     0
 49
0.25
 74
     0
 49
-0.25
 74
     0
  0
LTYPE
  5
176F8
330
5
100
AcDbSymbolTableRecord
100
AcDbLinetypeTableRecord
  2
CENTER
 70
     0
  3
____ _ ____ _ ____ _ ____ _ ____ _ ____ _ ____ 
 72
    65
 73
     4
 40
2.0
 49
1.25
 74
     0
 49
-0.25
 74
     0
 49
0.25
 74
     0
 49
-0.25
 74
     0
  0
ENDTAB
  0
TABLE
  2
LAYER
  5
2
102
{ACAD_XDICTIONARY
360
17708
102
}
330
0
100
AcDbSymbolTable
 70
    10
  0
LAYER
  5
F
102
{ACAD_XDICTIONARY
360
28B30
102
}
330
2
100
AcDbSymbolTableRecord
100
AcDbLayerTableRecord
  2
0
 70
     0
 62
     7
  6
CONTINUOUS
370
    -3
390
40CA
  0
LAYER
  5
4C
102
{ACAD_XDICTIONARY
360
28B32
102
}
330
2
100
AcDbSymbolTableRecord
100
AcDbLayerTableRecord
  2
寸法線
 70
     0
 62
     7
  6
CONTINUOUS
370
    -3
390
40CA
  0
LAYER
  5
40D4
102
{ACAD_XDICTIONARY
360
28B36
102
}
330
2
100
AcDbSymbolTableRecord
100
AcDbLayerTableRecord
  2
文字
 70
     0
 62
     7
  6
CONTINUOUS
370
    -3
390
40CA
  0
LAYER
  5
176FE
102
{ACAD_XDICTIONARY
360
28B40
102
}
330
2
100
AcDbSymbolTableRecord
100
AcDbLayerTableRecord
  2
姿図
 70
     0
 62
     8
  6
CONTINUOUS
370
    -3
390
40CA
  0
ENDTAB
  0
TABLE
  2
STYLE
  5
3
330
0
100
AcDbSymbolTable
 70
     1
  0
STYLE
  5
10
330
3
100
AcDbSymbolTableRecord
100
AcDbTextStyleTableRecord
  2
STANDARD
 70
     0
 40
0.0
 41
1.0
 50
0.0
 71
     0
 42
6.0
  3
MONOTXT
  4
BIGFONT
  0
ENDTAB
  0
TABLE
  2
VIEW
  5
6
330
0
100
AcDbSymbolTable
 70
     1
  0
VIEW
  5
41
330
6
100
AcDbSymbolTableRecord
100
AcDbViewTableRecord
  2
CUT1
 70
     0
 40
612.7795527156796
 10
420.0000000000169
 20
306.3897763578398
 41
840.0000000000338
 11
0.0
 21
0.0
 31
1.0
 12
0.0
 22
0.0
 32
0.0
 42
50.0
 43
0.0
 44
0.0
 50
0.0
 71
     0
281
     0
 72
     0
  0
ENDTAB
  0
TABLE
  2
UCS
  5
7
330
0
100
AcDbSymbolTable
 70
     0
  0
ENDTAB
  0
TABLE
  2
APPID
  5
9
330
0
100
AcDbSymbolTable
 70
     6
  0
APPID
  5
11
330
9
100
AcDbSymbolTableRecord
100
AcDbRegAppTableRecord
  2
ACAD
 70
     0
  0
APPID
  5
28B2C
330
9
100
AcDbSymbolTableRecord
100
AcDbRegAppTableRecord
  2
ACAD_MLEADERVER
 70
     0
  0
APPID
  5
29EA3
330
9
100
AcDbSymbolTableRecord
100
AcDbRegAppTableRecord
  2
ACAD_PSEXT
 70
     0
  0
APPID
  5
29EA4
330
9
100
AcDbSymbolTableRecord
100
AcDbRegAppTableRecord
  2
ACAD_DSTYLE_DIMJAG
 70
     0
  0
APPID
  5
29EA5
330
9
100
AcDbSymbolTableRecord
100
AcDbRegAppTableRecord
  2
ACAD_DSTYLE_DIMTALN
 70
     0
  0
APPID
  5
2A860
330
9
100
AcDbSymbolTableRecord
100
AcDbRegAppTableRecord
  2
ACAD_EXEMPT_FROM_CAD_STANDARDS
 70
     0
  0
ENDTAB
  0
TABLE
  2
DIMSTYLE
  5
A
330
0
100
AcDbSymbolTable
 70
     1
100
AcDbDimStyleTable
  0
DIMSTYLE
105
1B3A
330
A
100
AcDbSymbolTableRecord
100
AcDbDimStyleTableRecord
  2
STANDARD
 70
     0
 41
4.0
 42
3.0
 43
7.149999999999999
 44
2.0
 73
     0
 74
     0
 77
     3
 78
     8
 79
     2
140
5.0
141
0.0
147
2.0
176
     8
177
     8
178
     0
179
     2
271
     2
272
     2
288
     1
340
10
341
49C3
342
49C3
  0
ENDTAB
  0
TABLE
  2
BLOCK_RECORD
  5
1
330
0
100
AcDbSymbolTable
 70
    40
  0
BLOCK_RECORD
  5
18
102
{ACAD_XDICTIONARY
360
9FD5
102
}
330
1
100
AcDbSymbolTableRecord
100
AcDbBlockTableRecord
  2
*MODEL_SPACE
340
40CD
  0
BLOCK_RECORD
  5
15
330
1
100
AcDbSymbolTableRecord
100
AcDbBlockTableRecord
  2
*PAPER_SPACE
340
40CE
  0
BLOCK_RECORD
  5
49C3
330
1
100
AcDbSymbolTableRecord
100
AcDbBlockTableRecord
  2
_OPEN
340
0
102
{BLKREFS
331
20665
331
20666
331
2066E
331
2066F
331
20678
331
20679
331
2068A
331
2068B
331
27F6F
331
27F70
331
28A1F
331
28A20
331
28A28
331
28A29
331
28A3C
331
28A3D
331
28A48
331
28A49
331
28AA4
331
28AA5
331
29E77
331
29E78
331
29E80
331
29E81
331
29E8A
331
29E8B
331
29E94
331
29E95
331
29E9D
331
29E9E
331
2A8D0
331
2A8D1
331
2A8D9
331
2A8DA
331
2A8E2
331
2A8E3
331
2A8EC
331
2A8ED
331
30DF3
331
30DF4
331
30DFC
331
30DFD
331
30E05
331
30E06
331
30E0E
331
30E0F
331
31846
331
31847
331
31858
331
31859
331
3186D
331
3186E
331
318B1
331
318B2
331
32292
331
32293
331
3229B
331
3229C
331
322A4
331
322A5
331
32C9C
331
32C9D
331
32CA5
331
32CA6
331
32CAE
331
32CAF
102
}
  0
ENDTAB
  0
ENDSEC
  0
SECTION
  2
BLOCKS
  0
BLOCK
  5
52
330
18
100
AcDbEntity
  8
0
100
AcDbBlockBegin
  2
*MODEL_SPACE
 70
     0
 10
0.0
 20
0.0
 30
0.0
  3
*MODEL_SPACE
  1
*MODEL_SPACE
  0
ENDBLK
  5
53
330
18
100
AcDbEntity
  8
0
100
AcDbBlockEnd
  0
BLOCK
  5
50
330
15
100
AcDbEntity
 67
     1
  8
0
100
AcDbBlockBegin
  2
*PAPER_SPACE
 70
     0
 10
0.0
 20
0.0
 30
0.0
  3
*PAPER_SPACE
  1
*PAPER_SPACE
  0
ENDBLK
  5
51
330
15
100
AcDbEntity
 67
     1
  8
0
100
AcDbBlockEnd
  0
BLOCK
  5
49C7
330
49C3
100
AcDbEntity
  8
0
100
AcDbBlockBegin
  2
_OPEN
 70
     0
 10
0.0
 20
0.0
 30
0.0
  3
_OPEN
  1
_OPEN
  0
LINE
  5
49C4
330
49C3
100
AcDbEntity
  8
0
  6
ByBlock
 62
     0
100
AcDbLine
 10
-1.0
 20
0.1666666666666667
 30
0.0
 11
0.0
 21
0.0
 31
0.0
  0
LINE
  5
49C5
330
49C3
100
AcDbEntity
  8
0
  6
ByBlock
 62
     0
100
AcDbLine
 10
0.0
 20
0.0
 30
0.0
 11
-1.0
 21
-0.1666666666666667
 31
0.0
  0
LINE
  5
49C6
330
49C3
100
AcDbEntity
  8
0
  6
ByBlock
 62
     0
100
AcDbLine
 10
0.0
 20
0.0
 30
0.0
 11
-1.0
 21
0.0
 31
0.0
  0
ENDBLK
  5
49C8
330
49C3
100
AcDbEntity
  8
0
100
AcDbBlockEnd
  0
ENDSEC
  0
SECTION
  2
ENTITIES
  0
TEXT
  5
25FFE
330
18
100
AcDbEntity
  8
文字
100
AcDbText
 10
3610.46400429503
 20
2256.126268841174
 30
0.0
 40
4.0
  1

100
AcDbText
  0
TEXT
  5
25FFF
330
18
100
AcDbEntity
  8
文字
100
AcDbText
 10
3610.46400429503
 20
2262.215500980381
 30
0.0
 40
4.0
  1

100
AcDbText
  0
TEXT
  5
322FB
330
18
100
AcDbEntity
  8
文字
100
AcDbText
 10
4018.259466506535
 20
2184.108710057572
 30
0.0
 40
7.199999999999999
  1
SX-B1342D/WC、NC
100
AcDbText
  0
LINE
  5
32325
330
18
100
AcDbEntity
  8
姿図
100
AcDbLine
 10
4084.840932876482
 20
2222.020438332226
 30
0.0
 11
4084.545471068163
 21
2225.084044347901
 31
0.0
  0
LINE
  5
32326
330
18
100
AcDbEntity
  8
姿図
100
AcDbLine
 10
4055.148984636173
 20
2222.026851617882
 30
0.0
 11
4055.567649530602
 21
2225.230353939864
 31
0.0
  0
LINE
  5
32329
330
18
100
AcDbEntity
  8
姿図
100
AcDbLine
 10
4067.630293415009
 20
2228.137195926536
 30
0.0
 11
4067.681389586472
 21
2222.545370950533
 31
0.0
  0
LINE
  5
3232A
330
18
100
AcDbEntity
  8
姿図
100
AcDbLine
 10
4067.426298792423
 20
2222.538010576785
 30
0.0
 11
4067.421147132794
 21
2228.328826609802
 31
0.0
  0
LINE
  5
3232B
330
18
100
AcDbEntity
  8
姿図
100
AcDbLine
 10
4053.949290853263
 20
2225.32277614733
 30
0.0
 11
4054.801340523094
 21
2223.851452289914
 31
0.0
  0
LINE
  5
3232C
330
18
100
AcDbEntity
  8
姿図
100
AcDbLine
 10
4053.741553775769
 20
2229.090071559562
 30
0.0
 11
4053.777238002408
 21
2222.90318517676
 31
0.0
  0
LINE
  5
3232D
330
18
100
AcDbEntity
  8
姿図
100
AcDbLine
 10
4052.777071844575
 20
2222.834714224339
 30
0.0
 11
4053.068070586449
 21
2232.820206275285
 31
0.0
  0
LINE
  5
3232E
330
18
100
AcDbEntity
  8
姿図
100
AcDbLine
 10
4052.108714252115
 20
2228.018763996627
 30
0.0
 11
4051.948772143331
 21
2221.666346016361
 31
0.0
  0
LINE
  5
3232F
330
18
100
AcDbEntity
  8
姿図
100
AcDbLine
 10
4052.77408578024
 20
2232.43672385542
 30
0.0
 11
4052.305409872944
 21
2219.871664113137
 31
0.0
  0
SPLINE
  5
32330
330
18
100
AcDbEntity
  8
姿図
100
AcDbSpline
210
0.0
220
0.0
230
1.0
 70
     8
 71
     3
 72
     8
 73
     4
 74
     0
 42
0.000000001
 43
0.0000000001
 40
131.0
 40
131.0
 40
131.0
 40
131.0
 40
132.0
 40
132.0
 40
132.0
 40
132.0
 10
4086.028874983452
 20
2225.452286370759
 30
0.0
 10
4085.867596283365
 20
2225.062396646367
 30
0.0
 10
4085.383514892305
 20
2224.188548176315
 30
0.0
 10
4085.383514892305
 20
2224.188548176315
 30
0.0
  0
LINE
  5
32331
330
18
100
AcDbEntity
  8
姿図
100
AcDbLine
 10
4072.341896095883
 20
2228.125581926203
 30
0.0
 11
4072.2209692935
 21
2222.519938801158
 31
0.0
  0
LINE
  5
32332
330
18
100
AcDbEntity
  8
姿図
100
AcDbLine
 10
4072.513200176263
 20
2222.509809720954
 30
0.0
 11
4072.527804012754
 21
2228.334633609969
 31
0.0
  0
LINE
  5
32333
330
18
100
AcDbEntity
  8
姿図
100
AcDbLine
 10
4088.358892279458
 20
2228.018028124231
 30
0.0
 11
4088.444163897806
 21
2219.15744933338
 31
0.0
  0
LINE
  5
32334
330
18
100
AcDbEntity
  8
姿図
100
AcDbLine
 10
4088.20640582561
 20
2219.704044945376
 30
0.0
 11
4087.976270356763
 21
2232.382967293863
 31
0.0
  0
LINE
  5
32335
330
18
100
AcDbEntity
  8
姿図
100
AcDbLine
 10
4087.951838311268
 20
2219.704022388913
 30
0.0
 11
4087.776780631331
 21
2232.377104224775
 31
0.0
  0
LINE
  5
32336
330
18
100
AcDbEntity
  8
姿図
100
AcDbLine
 10
4087.629646993302
 20
2222.683672805076
 30
0.0
 11
4087.451923305777
 21
2232.808692528948
 31
0.0
  0
LINE
  5
32337
330
18
100
AcDbEntity
  8
姿図
100
AcDbLine
 10
4086.580043407931
 20
2228.450475802183
 30
0.0
 11
4086.5149628167
 21
2222.764869643839
 31
0.0
  0
SPLINE
  5
3250E
330
18
100
AcDbEntity
  8
姿図
100
AcDbSpline
210
0.0
220
0.0
230
1.0
 70
     8
 71
     3
 72
     8
 73
     4
 74
     0
 42
0.000000001
 43
0.0000000001
 40
170.0
 40
170.0
 40
170.0
 40
170.0
 40
171.0
 40
171.0
 40
171.0
 40
171.0
 10
4083.642440803764
 20
2205.399763584301
 30
0.0
 10
4075.334932036403
 20
2202.618779155047
 30
0.0
 10
4063.417355940483
 20
2202.881240309561
 30
0.0
 10
4056.210650954589
 20
2205.709811153745
 30
0.0
  0
ELLIPSE
  5
3250F
330
18
100
AcDbEntity
  8
姿図
100
AcDbEllipse
 10
4070.084655133549
 20
2211.867088015015
 30
0.0
 11
-17.72885924764582
 21
0.4964857503197829
 31
0.0
210
0.0
220
0.0
230
1.0
 40
0.4417103177870492
 41
0.0
 42
6.283185307179586
  0
ARC
  5
32510
330
18
100
AcDbEntity
  8
姿図
100
AcDbCircle
 10
4071.152281773378
 20
2187.46697902568
 30
0.0
 40
35.06924695565792
100
AcDbArc
 50
64.67277808723567
 51
91.7711464803476
  0
SPLINE
  5
32511
330
18
100
AcDbEntity
  8
姿図
100
AcDbSpline
210
0.0
220
0.0
230
1.0
 70
    11
 71
     3
 72
    70
 73
    66
 74
     0
 42
0.000000001
 43
0.0000000001
 40
0.0
 40
0.0
 40
0.0
 40
0.0
 40
0.1325511003420694
 40
0.1325511003420694
 40
0.2651022006841388
 40
0.2651022006841388
 40
0.3976533010262082
 40
0.3976533010262082
 40
0.5302044013682776
 40
0.5302044013682776
 40
0.7397248520178367
 40
0.7397248520178367
 40
0.9492453026673957
 40
0.9492453026673957
 40
1.158765753316955
 40
1.158765753316955
 40
1.368286203966514
 40
1.368286203966514
 40
1.660455600340546
 40
1.660455600340546
 40
1.952624996714579
 40
1.952624996714579
 40
2.244794393088612
 40
2.244794393088612
 40
2.469780447170401
 40
2.469780447170401
 40
2.69476650125219
 40
2.69476650125219
 40
2.851074505126578
 40
2.851074505126578
 40
3.007382509000966
 40
3.007382509000966
 40
3.163690512875355
 40
3.163690512875355
 40
3.319998516749743
 40
3.319998516749743
 40
3.476306520624131
 40
3.476306520624131
 40
3.632614524498519
 40
3.632614524498519
 40
3.788922528372907
 40
3.788922528372907
 40
3.945230532247295
 40
3.945230532247295
 40
4.1996485318078
 40
4.1996485318078
 40
4.454066531368306
 40
4.454066531368306
 40
4.708484530928811
 40
4.708484530928811
 40
4.962902530489317
 40
4.962902530489317
 40
5.217320530049823
 40
5.217320530049823
 40
5.471738529610328
 40
5.471738529610328
 40
5.726156529170834
 40
5.726156529170834
 40
5.897880152543986
 40
5.897880152543986
 40
6.069603775917138
 40
6.069603775917138
 40
6.20406405414118
 40
6.20406405414118
 40
6.283185307179586
 40
6.283185307179586
 40
6.283185307179586
 40
6.283185307179586
 10
4053.601307588196
 20
2212.328693979591
 30
0.0
 10
4053.595106954509
 20
2212.107277429754
 30
0.0
 10
4053.621327770219
 20
2211.884450776447
 30
0.0
 10
4053.748238047443
 20
2211.417106071623
 30
0.0
 10
4053.849686681915
 20
2211.172444165694
 30
0.0
 10
4054.14441213025
 20
2210.66139598788
 30
0.0
 10
4054.337891987224
 20
2210.395468761305
 30
0.0
 10
4054.823766355355
 20
2209.854991572928
 30
0.0
 10
4055.116024738164
 20
2209.580669990466
 30
0.0
 10
4055.994435794089
 20
2208.879366607507
 30
0.0
 10
4056.652861269855
 20
2208.45672898818
 30
0.0
 10
4058.177859840633
 20
2207.665161615853
 30
0.0
 10
4059.044100331267
 20
2207.296041486726
 30
0.0
 10
4060.939620642134
 20
2206.637425432349
 30
0.0
 10
4061.968803996043
 20
2206.347821016483
 30
0.0
 10
4064.13949235177
 20
2205.865376145729
 30
0.0
 10
4065.280935881917
 20
2205.672496533825
 30
0.0
 10
4068.083300104271
 20
2205.339013412136
 30
0.0
 10
4069.771450923097
 20
2205.249483813611
 30
0.0
 10
4073.106735229844
 20
2205.28848164153
 30
0.0
 10
4074.753533211642
 20
2205.417044093321
 30
0.0
 10
4077.85460820449
 20
2205.87792413942
 30
0.0
 10
4079.308569994606
 20
2206.210443204543
 30
0.0
 10
4081.588499041532
 20
2206.943777618518
 30
0.0
 10
4082.481990455822
 20
2207.311209732999
 30
0.0
 10
4084.018294906366
 20
2208.109137804038
 30
0.0
 10
4084.660369341961
 20
2208.539882722075
 30
0.0
 10
4085.506479740878
 20
2209.27715698047
 30
0.0
 10
4085.784404641362
 20
2209.580921224501
 30
0.0
 10
4086.207355405189
 20
2210.169590766183
 30
0.0
 10
4086.3525638629
 20
2210.453498386545
 30
0.0
 10
4086.53509753368
 20
2210.995841314276
 30
0.0
 10
4086.57409393727
 20
2211.25450576924
 30
0.0
 10
4086.562572255506
 20
2211.778197657725
 30
0.0
 10
4086.511637184581
 20
2212.045350064689
 30
0.0
 10
4086.297822740215
 20
2212.614102202426
 30
0.0
 10
4086.133528428731
 20
2212.915282252109
 30
0.0
 10
4085.66953790367
 20
2213.53975924769
 30
0.0
 10
4085.369919970658
 20
2213.86222413541
 30
0.0
 10
4084.634376952868
 20
2214.50532313101
 30
0.0
 10
4084.198755128941
 20
2214.825785804504
 30
0.0
 10
4083.202677058263
 20
2215.44580692754
 30
0.0
 10
4082.642357282188
 20
2215.745398599776
 30
0.0
 10
4081.027704751631
 20
2216.487116634858
 30
0.0
 10
4079.883818892804
 20
2216.90027265626
 30
0.0
 10
4077.393260193416
 20
2217.594169056088
 30
0.0
 10
4076.046773205251
 20
2217.875086550329
 30
0.0
 10
4073.246523992352
 20
2218.281655601155
 30
0.0
 10
4071.792924637035
 20
2218.407349593549
 30
0.0
 10
4068.879374971036
 20
2218.493970772585
 30
0.0
 10
4067.41959450589
 20
2218.454893723969
 30
0.0
 10
4064.595066314404
 20
2218.215497554836
 30
0.0
 10
4063.230479245188
 20
2218.015129123099
 30
0.0
 10
4060.693163235166
 20
2217.470439873503
 30
0.0
 10
4059.520607410694
 20
2217.125938572148
 30
0.0
 10
4057.454817173386
 20
2216.327030443862
 30
0.0
 10
4056.562129745897
 20
2215.872140371886
 30
0.0
 10
4055.359090442608
 20
2215.068579929538
 30
0.0
 10
4054.953845176747
 20
2214.733847043493
 30
0.0
 10
4054.309906121822
 20
2214.070795032173
 30
0.0
 10
4054.071677393788
 20
2213.743392639933
 30
0.0
 10
4053.779387350276
 20
2213.187985933338
 30
0.0
 10
4053.695789235894
 20
2212.954063310341
 30
0.0
 10
4053.620434247043
 20
2212.592738965842
 30
0.0
 10
4053.60500881667
 20
2212.460860025903
 30
0.0
 10
4053.601307588196
 20
2212.328693979591
 30
0.0
  0
ARC
  5
32512
330
18
100
AcDbEntity
  8
姿図
100
AcDbCircle
 10
4070.925576489888
 20
2184.87751933718
 30
0.0
 40
37.11772922268197
100
AcDbArc
 50
66.16327990533367
 51
91.29781924381929
  0
SPLINE
  5
32516
330
18
100
AcDbEntity
  8
姿図
100
AcDbSpline
210
0.0
220
0.0
230
1.0
 70
     8
 71
     3
 72
    11
 73
     7
 74
     0
 42
0.000000001
 43
0.0000000001
 40
171.0
 40
171.0
 40
171.0
 40
171.0
 40
172.0
 40
172.0
 40
172.0
 40
173.0
 40
173.0
 40
173.0
 40
173.0
 10
4056.210650954589
 20
2205.709811153745
 30
0.0
 10
4049.004007291394
 20
2208.538136707131
 30
0.0
 10
4048.887739452853
 20
2211.986557399405
 30
0.0
 10
4048.887739452853
 20
2213.032600010082
 30
0.0
 10
4048.887739452853
 20
2214.078765266158
 30
0.0
 10
4049.120275129936
 20
2215.938560101228
 30
0.0
 10
4052.026173898382
 20
2218.185791752704
 30
0.0
  0
ARC
  5
32517
330
18
100
AcDbEntity
  8
姿図
100
AcDbCircle
 10
4060.398989413778
 20
2205.867151995843
 30
0.0
 40
14.49562056744876
100
AcDbArc
 50
124.0118240638609
 51
138.6946390210097
  0
ELLIPSE
  5
32518
330
18
100
AcDbEntity
  8
姿図
100
AcDbEllipse
 10
4069.846929369998
 20
2223.089499377608
 30
0.0
 11
-0.5103984147071211
 21
0.0
 31
0.0
210
0.0
220
0.0
230
1.0
 40
0.8782894644009032
 41
0.0
 42
6.283185307179586
  0
ELLIPSE
  5
32519
330
18
100
AcDbEntity
  8
姿図
100
AcDbEllipse
 10
4069.843243077926
 20
2222.911205283385
 30
0.0
 11
0.4287116222402616
 21
-0.00858895810224929
 31
0.0
210
0.0
220
0.0
230
1.0
 40
0.6207444020835625
 41
0.0
 42
6.283185307179586
  0
SPLINE
  5
3251A
330
18
100
AcDbEntity
  8
姿図
100
AcDbSpline
210
0.0
220
0.0
230
1.0
 70
     8
 71
     3
 72
     8
 73
     4
 74
     0
 42
0.000000001
 43
0.0000000001
 40
173.0
 40
173.0
 40
173.0
 40
173.0
 40
174.0
 40
174.0
 40
174.0
 40
174.0
 10
4052.026173898382
 20
2218.185791752704
 30
0.0
 10
4052.028442838269
 20
2218.539378438902
 30
0.0
 10
4052.081854909667
 20
2219.169653145933
 30
0.0
 10
4052.081854909667
 20
2219.169653145933
 30
0.0
  0
SPLINE
  5
3251B
330
18
100
AcDbEntity
  8
姿図
100
AcDbSpline
210
0.0
220
0.0
230
1.0
 70
    24
 71
     3
 72
     8
 73
     4
 74
     0
 42
0.000000001
 43
0.0000000001
 40
174.0
 40
174.0
 40
174.0
 40
174.0
 40
175.0
 40
175.0
 40
175.0
 40
175.0
 10
4052.081854909667
 20
2219.169653145933
 30
0.0
 10
4052.081854909667
 20
2219.169653145933
 30
0.0
 10
4051.88347597629
 20
2219.674584254874
 30
0.0
 10
4051.88347597629
 20
2219.674584254874
 30
0.0
  0
SPLINE
  5
3251C
330
18
100
AcDbEntity
  8
姿図
100
AcDbSpline
210
0.0
220
0.0
230
1.0
 70
    24
 71
     3
 72
     8
 73
     4
 74
     0
 42
0.000000001
 43
0.0000000001
 40
175.0
 40
175.0
 40
175.0
 40
175.0
 40
176.0
 40
176.0
 40
176.0
 40
176.0
 10
4051.88347597629
 20
2219.674584254874
 30
0.0
 10
4051.88347597629
 20
2219.674584254874
 30
0.0
 10
4051.901504849988
 20
2220.125428742721
 30
0.0
 10
4051.901504849988
 20
2220.125428742721
 30
0.0
  0
LINE
  5
3251D
330
18
100
AcDbEntity
  8
姿図
100
AcDbLine
 10
4054.868415573089
 20
2219.758167539365
 30
0.0
 11
4054.966777301738
 21
2221.6345829725
 31
0.0
  0
LINE
  5
3251E
330
18
100
AcDbEntity
  8
姿図
100
AcDbLine
 10
4054.966777301738
 20
2221.6345829725
 30
0.0
 11
4055.148984636173
 21
2222.026851617882
 31
0.0
  0
ARC
  5
3251F
330
18
100
AcDbEntity
  8
姿図
100
AcDbCircle
 10
4055.879448840401
 20
2221.87873908948
 30
0.0
 40
1.080993044326397
100
AcDbArc
 50
168.2703751251378
 51
210.7658796790905
  0
ARC
  5
32520
330
18
100
AcDbEntity
  8
姿図
100
AcDbCircle
 10
4056.082983606265
 20
2221.917385002018
 30
0.0
 40
1.274884565375872
100
AcDbArc
 50
130.0785474406335
 51
171.8327998775677
  0
ARC
  5
32521
330
18
100
AcDbEntity
  8
姿図
100
AcDbCircle
 10
4056.551124659123
 20
2221.984176172605
 30
0.0
 40
1.911263122043124
100
AcDbArc
 50
179.0322273053044
 51
212.0901701310446
  0
ARC
  5
32522
330
18
100
AcDbEntity
  8
姿図
100
AcDbCircle
 10
4056.281759023019
 20
2221.749360120273
 30
0.0
 40
1.663211690906267
100
AcDbArc
 50
126.7373714880123
 51
170.7587812735012
  0
ARC
  5
32523
330
18
100
AcDbEntity
  8
姿図
100
AcDbCircle
 10
4055.957402261488
 20
2220.768693566281
 30
0.0
 40
2.958938324957566
100
AcDbArc
 50
182.2432068658838
 51
215.2678058197613
  0
ARC
  5
32524
330
18
100
AcDbEntity
  8
姿図
100
AcDbCircle
 10
4053.797658873757
 20
2220.645377978589
 30
0.0
 40
0.7969627347131522
100
AcDbArc
 50
130.3162949966214
 51
179.4608858840927
  0
ARC
  5
32525
330
18
100
AcDbEntity
  8
姿図
100
AcDbCircle
 10
4050.612887078904
 20
2224.379700115291
 30
0.0
 40
4.110986133731973
100
AcDbArc
 50
310.48643226142
 51
328.4791224773516
  0
LINE
  5
32526
330
18
100
AcDbEntity
  8
姿図
100
AcDbLine
 10
4054.117296053163
 20
2222.23043867636
 30
0.0
 11
4054.79342551823
 21
2223.331489699729
 31
0.0
  0
ARC
  5
32527
330
18
100
AcDbEntity
  8
姿図
100
AcDbCircle
 10
4054.261348512621
 20
2223.599630650571
 30
0.0
 40
0.5958233877718433
100
AcDbArc
 50
333.2541164958345
 51
25.0016759041877
  0
LINE
  5
32528
330
18
100
AcDbEntity
  8
姿図
100
AcDbLine
 10
4053.777238002408
 20
2222.90318517676
 30
0.0
 11
4054.027281932849
 21
2222.825772681465
 31
0.0
  0
LINE
  5
32529
330
18
100
AcDbEntity
  8
姿図
100
AcDbLine
 10
4054.027281932849
 20
2222.825772681465
 30
0.0
 11
4054.023445902635
 21
2222.139193596276
 31
0.0
  0
LINE
  5
3252A
330
18
100
AcDbEntity
  8
姿図
100
AcDbLine
 10
4052.777071844575
 20
2222.834714224339
 30
0.0
 11
4052.967825809591
 21
2222.988715088951
 31
0.0
  0
LINE
  5
3252B
330
18
100
AcDbEntity
  8
姿図
100
AcDbLine
 10
4052.967825809591
 20
2222.988715088951
 30
0.0
 11
4053.151243227027
 21
2223.007048498362
 31
0.0
  0
LINE
  5
3252C
330
18
100
AcDbEntity
  8
姿図
100
AcDbLine
 10
4053.151243227027
 20
2223.007048498362
 30
0.0
 11
4053.777238002408
 21
2222.90318517676
 31
0.0
  0
LINE
  5
3252D
330
18
100
AcDbEntity
  8
姿図
100
AcDbLine
 10
4053.151243227027
 20
2223.007048498362
 30
0.0
 11
4053.150343296033
 21
2221.110278122014
 31
0.0
  0
LINE
  5
3252E
330
18
100
AcDbEntity
  8
姿図
100
AcDbLine
 10
4053.149738093955
 20
2219.834703238038
 30
0.0
 11
4053.149331052329
 21
2218.976788018971
 31
0.0
  0
LINE
  5
3252F
330
18
100
AcDbEntity
  8
姿図
100
AcDbLine
 10
4051.950064240582
 20
2221.057979531663
 30
0.0
 11
4051.895416902229
 21
2221.490199700167
 31
0.0
  0
LINE
  5
32530
330
18
100
AcDbEntity
  8
姿図
100
AcDbLine
 10
4051.895416902229
 20
2221.490199700167
 30
0.0
 11
4051.901659180873
 21
2221.596170605712
 31
0.0
  0
LINE
  5
32531
330
18
100
AcDbEntity
  8
姿図
100
AcDbLine
 10
4051.901659180873
 20
2221.596170605712
 30
0.0
 11
4051.948772143331
 21
2221.666346016361
 31
0.0
  0
LINE
  5
32532
330
18
100
AcDbEntity
  8
姿図
100
AcDbLine
 10
4051.762223272659
 20
2220.472669296281
 30
0.0
 11
4051.950064240582
 21
2221.057979531663
 31
0.0
  0
LINE
  5
32533
330
18
100
AcDbEntity
  8
姿図
100
AcDbLine
 10
4054.79342551823
 20
2223.331489699729
 30
0.0
 11
4055.370171364028
 21
2223.719308295535
 31
0.0
  0
LINE
  5
32534
330
18
100
AcDbEntity
  8
姿図
100
AcDbLine
 10
4054.84451575219
 20
2223.721784160998
 30
0.0
 11
4055.422722663209
 21
2224.121415592296
 31
0.0
  0
LINE
  5
32535
330
18
100
AcDbEntity
  8
姿図
100
AcDbLine
 10
4052.305409872944
 20
2219.871664113137
 30
0.0
 11
4052.081854909667
 21
2219.169653145933
 31
0.0
  0
LINE
  5
32536
330
18
100
AcDbEntity
  8
姿図
100
AcDbLine
 10
4051.762223272659
 20
2220.472669296281
 30
0.0
 11
4051.901504849988
 21
2220.125428742721
 31
0.0
  0
ARC
  5
32537
330
18
100
AcDbEntity
  8
姿図
100
AcDbCircle
 10
4068.513950573191
 20
2189.266981053587
 30
0.0
 40
33.28880280108795
100
AcDbArc
 50
87.32358175998458
 51
119.6892030509458
  0
ARC
  5
32538
330
18
100
AcDbEntity
  8
姿図
100
AcDbCircle
 10
4068.694163255613
 20
2187.367594641782
 30
0.0
 40
34.64474431425761
100
AcDbArc
 50
87.76797878116228
 51
118.2602568684251
  0
SPLINE
  5
32566
330
18
100
AcDbEntity
  8
姿図
100
AcDbSpline
210
0.0
220
0.0
230
1.0
 70
     8
 71
     3
 72
     8
 73
     4
 74
     0
 42
0.000000001
 43
0.0000000001
 40
132.0
 40
132.0
 40
132.0
 40
132.0
 40
133.0
 40
133.0
 40
133.0
 40
133.0
 10
4085.383514892305
 20
2224.188548176315
 30
0.0
 10
4085.383514892305
 20
2224.188548176315
 30
0.0
 10
4085.934683316785
 20
2223.704589430655
 30
0.0
 10
4086.284345350205
 20
2222.763408636384
 30
0.0
  0
SPLINE
  5
32567
330
18
100
AcDbEntity
  8
姿図
100
AcDbSpline
210
0.0
220
0.0
230
1.0
 70
     8
 71
     3
 72
     8
 73
     4
 74
     0
 42
0.000000001
 43
0.0000000001
 40
133.0
 40
133.0
 40
133.0
 40
133.0
 40
134.0
 40
134.0
 40
134.0
 40
134.0
 10
4086.284345350205
 20
2222.763408636384
 30
0.0
 10
4086.338064035101
 20
2222.696198957565
 30
0.0
 10
4086.378414371472
 20
2222.749917642461
 30
0.0
 10
4086.378414371472
 20
2222.749917642461
 30
0.0
  0
SPLINE
  5
32568
330
18
100
AcDbEntity
  8
姿図
100
AcDbSpline
210
0.0
220
0.0
230
1.0
 70
     8
 71
     3
 72
     8
 73
     4
 74
     0
 42
0.000000001
 43
0.0000000001
 40
168.0
 40
168.0
 40
168.0
 40
168.0
 40
169.0
 40
169.0
 40
169.0
 40
169.0
 10
4088.274144308538
 20
2217.842629925447
 30
0.0
 10
4088.274144308538
 20
2217.842629925447
 30
0.0
 10
4090.142892257757
 20
2216.457840721888
 30
0.0
 10
4090.909303358017
 20
2214.925141166766
 30
0.0
  0
SPLINE
  5
32569
330
18
100
AcDbEntity
  8
姿図
100
AcDbSpline
210
0.0
220
0.0
230
1.0
 70
     8
 71
     3
 72
     8
 73
     4
 74
     0
 42
0.000000001
 43
0.0000000001
 40
169.0
 40
169.0
 40
169.0
 40
169.0
 40
170.0
 40
170.0
 40
170.0
 40
170.0
 10
4090.909303358017
 20
2214.925141166766
 30
0.0
 10
4091.675591812878
 20
2213.392441611645
 30
0.0
 10
4092.786391194389
 20
2208.46062481477
 30
0.0
 10
4083.642440803764
 20
2205.399763584301
 30
0.0
  0
ARC
  5
3256A
330
18
100
AcDbEntity
  8
姿図
100
AcDbCircle
 10
4080.641346114799
 20
2207.970703177485
 30
0.0
 40
12.47856345832616
100
AcDbArc
 50
52.28944218343688
 51
63.78077132055433
  0
LINE
  5
3256B
330
18
100
AcDbEntity
  8
姿図
100
AcDbLine
 10
4085.145021341409
 20
2219.71437081058
 30
0.0
 11
4085.044298148085
 21
2221.58001308935
 31
0.0
  0
LINE
  5
3256C
330
18
100
AcDbEntity
  8
姿図
100
AcDbLine
 10
4085.044298148085
 20
2221.58001308935
 30
0.0
 11
4084.840932876482
 21
2222.020438332226
 31
0.0
  0
LINE
  5
3256D
330
18
100
AcDbEntity
  8
姿図
100
AcDbLine
 10
4088.444163897806
 20
2219.15744933338
 30
0.0
 11
4088.20640582561
 21
2219.704044945376
 31
0.0
  0
LINE
  5
3256E
330
18
100
AcDbEntity
  8
姿図
100
AcDbLine
 10
4088.20640582561
 20
2219.704044945376
 30
0.0
 11
4087.951838311268
 21
2219.704022388913
 31
0.0
  0
LINE
  5
3256F
330
18
100
AcDbEntity
  8
姿図
100
AcDbLine
 10
4086.378414371472
 20
2222.749917642461
 30
0.0
 11
4087.145281582185
 21
2222.83388930228
 31
0.0
  0
LINE
  5
32570
330
18
100
AcDbEntity
  8
姿図
100
AcDbLine
 10
4087.145281582185
 20
2222.83388930228
 30
0.0
 11
4087.489681542847
 21
2222.608304053697
 31
0.0
  0
ARC
  5
32571
330
18
100
AcDbEntity
  8
姿図
100
AcDbCircle
 10
4087.539371943555
 20
2222.683672805076
 30
0.0
 40
0.0902750497470179
100
AcDbArc
 50
236.6032503128546
 51
1.861606254991113
  0
LINE
  5
32572
330
18
100
AcDbEntity
  8
姿図
100
AcDbLine
 10
4087.145281582185
 20
2222.83388930228
 30
0.0
 11
4087.089913713095
 21
2218.653891929617
 31
0.0
  0
LINE
  5
32573
330
18
100
AcDbEntity
  8
姿図
100
AcDbLine
 10
4087.951838311268
 20
2219.704022388913
 30
0.0
 11
4088.268686702546
 21
2218.844343237798
 31
0.0
  0
LINE
  5
32574
330
18
100
AcDbEntity
  8
姿図
100
AcDbLine
 10
4088.444163897806
 20
2219.15744933338
 30
0.0
 11
4088.268686702546
 21
2218.844343237798
 31
0.0
  0
LINE
  5
32575
330
18
100
AcDbEntity
  8
姿図
100
AcDbLine
 10
4088.268686702546
 20
2218.844343237798
 30
0.0
 11
4088.274144308538
 21
2217.842629925447
 31
0.0
  0
LINE
  5
32576
330
18
100
AcDbEntity
  8
姿図
100
AcDbLine
 10
4085.383514892306
 20
2224.188548176315
 30
0.0
 11
4085.159898975142
 21
2223.708087403871
 31
0.0
  0
LINE
  5
32577
330
18
100
AcDbEntity
  8
姿図
100
AcDbLine
 10
4085.159898975142
 20
2223.708087403871
 30
0.0
 11
4084.639661591179
 21
2224.10739476137
 31
0.0
  0
ARC
  5
32578
330
18
100
AcDbEntity
  8
姿図
100
AcDbCircle
 10
4085.518996497436
 20
2223.565146829262
 30
0.0
 40
0.3865010199037808
100
AcDbArc
 50
158.2947226871589
 51
211.3256838175315
  0
LINE
  5
32579
330
18
100
AcDbEntity
  8
姿図
100
AcDbLine
 10
4085.18883733096
 20
2223.364204142958
 30
0.0
 11
4086.851955872323
 21
2221.24028601778
 31
0.0
  0
ARC
  5
3257A
330
18
100
AcDbEntity
  8
姿図
100
AcDbCircle
 10
4086.498965385172
 20
2220.819319935673
 30
0.0
 40
0.5493766706950322
100
AcDbArc
 50
2.983045740784426
 51
50.01933376895087
  0
ARC
  5
3257B
330
18
100
AcDbEntity
  8
姿図
100
AcDbCircle
 10
4085.614014338327
 20
2220.649783737681
 30
0.0
 40
1.447209381110728
100
AcDbArc
 50
339.9809974842785
 51
7.868623721152925
  0
LINE
  5
3257C
330
18
100
AcDbEntity
  8
姿図
100
AcDbLine
 10
4086.973782078119
 20
2220.154357974729
 30
0.0
 11
4086.679815822895
 21
2219.507653776684
 31
0.0
  0
LINE
  5
3257D
330
18
100
AcDbEntity
  8
姿図
100
AcDbLine
 10
4086.679815822895
 20
2219.507653776684
 30
0.0
 11
4086.701126395063
 21
2218.879122354359
 31
0.0
  0
ARC
  5
3257E
330
18
100
AcDbEntity
  8
姿図
100
AcDbCircle
 10
4083.865805771449
 20
2221.78591050564
 30
0.0
 40
1.461412398526377
100
AcDbArc
 50
8.373754848832117
 51
52.69836353275855
  0
ARC
  5
3257F
330
18
100
AcDbEntity
  8
姿図
100
AcDbCircle
 10
4084.356601304688
 20
2221.682690995553
 30
0.0
 40
1.005972120399329
100
AcDbArc
 50
315.7091229369838
 51
18.31062691736127
  0
ARC
  5
32580
330
18
100
AcDbEntity
  8
姿図
100
AcDbCircle
 10
4083.841486194134
 20
2221.84771784509
 30
0.0
 40
1.334716275422323
100
AcDbArc
 50
0.0
 51
46.24047802662292
  0
ARC
  5
32581
330
18
100
AcDbEntity
  8
姿図
100
AcDbCircle
 10
4083.891787847923
 20
2221.786416610741
 30
0.0
 40
1.285876651004052
100
AcDbArc
 50
335.5055713375621
 51
2.732481191940487
  0
LINE
  5
32582
330
18
100
AcDbEntity
  8
姿図
100
AcDbLine
 10
4085.157539736516
 20
2223.42828175566
 30
0.0
 11
4084.679653084753
 21
2223.692728036806
 31
0.0
  0
ARC
  5
32583
330
18
100
AcDbEntity
  8
姿図
100
AcDbCircle
 10
4082.051724815629
 20
2209.347995019774
 30
0.0
 40
10.24218057844424
100
AcDbArc
 50
30.10092971952713
 51
67.77350120352567
  0
ARC
  5
32584
330
18
100
AcDbEntity
  8
姿図
100
AcDbCircle
 10
4081.766880697496
 20
2210.658110750876
 30
0.0
 40
9.914051713579775
100
AcDbArc
 50
13.70046046630352
 51
22.7043797469085
  0
ARC
  5
32782
330
18
100
AcDbEntity
  8
姿図
100
AcDbCircle
 10
4070.15263556606
 20
2239.106671143632
 30
0.0
 40
8.801429624951863
100
AcDbArc
 50
67.29173057237249
 51
101.2188577830055
  0
ARC
  5
32783
330
18
100
AcDbEntity
  8
姿図
100
AcDbCircle
 10
4069.852894835872
 20
2238.220774348236
 30
0.0
 40
10.12894651037756
100
AcDbArc
 50
67.00328808230185
 51
91.1547726230548
  0
ARC
  5
32784
330
18
100
AcDbEntity
  8
姿図
100
AcDbCircle
 10
4069.924329628117
 20
2204.532608970483
 30
0.0
 40
28.04169377734166
100
AcDbArc
 50
80.20625711297683
 51
96.42590072155491
  0
ARC
  5
32785
330
18
100
AcDbEntity
  8
姿図
100
AcDbCircle
 10
4070.357149694792
 20
2209.493638696227
 30
0.0
 40
23.60322672269927
100
AcDbArc
 50
78.12404047177415
 51
94.74995000104923
  0
ARC
  5
32786
330
18
100
AcDbEntity
  8
姿図
100
AcDbCircle
 10
4070.009616198249
 20
2191.633807125104
 30
0.0
 40
37.37641840280175
100
AcDbArc
 50
82.26642964453976
 51
95.15078153006687
  0
ARC
  5
32787
330
18
100
AcDbEntity
  8
姿図
100
AcDbCircle
 10
4070.259871993539
 20
2210.974508825163
 30
0.0
 40
25.61482830047292
100
AcDbArc
 50
74.89723041579192
 51
103.6002725992934
  0
ARC
  5
32788
330
18
100
AcDbEntity
  8
姿図
100
AcDbCircle
 10
4070.134448886276
 20
2217.508096132297
 30
0.0
 40
26.69899724262588
100
AcDbArc
 50
80.53548983360687
 51
101.9272810341534
  0
ARC
  5
32789
330
18
100
AcDbEntity
  8
姿図
100
AcDbCircle
 10
4070.250802386353
 20
2219.042173111897
 30
0.0
 40
26.28926143976335
100
AcDbArc
 50
76.60595789985418
 51
100.9608874613417
  0
ARC
  5
3278A
330
18
100
AcDbEntity
  8
姿図
100
AcDbCircle
 10
4070.628964094444
 20
2238.051842581178
 30
0.0
 40
17.14259137306725
100
AcDbArc
 50
71.35276458398927
 51
109.4717975942664
  0
ARC
  5
3278B
330
18
100
AcDbEntity
  8
姿図
100
AcDbCircle
 10
4070.134448886276
 20
2217.508096132297
 30
0.0
 40
26.34299724262588
100
AcDbArc
 50
80.53548983360687
 51
101.9272810341534
  0
ARC
  5
3278C
330
18
100
AcDbEntity
  8
姿図
100
AcDbCircle
 10
4070.259871993539
 20
2210.974508825163
 30
0.0
 40
25.79282830047292
100
AcDbArc
 50
74.89723041579192
 51
103.6002725992934
  0
ARC
  5
3278D
330
18
100
AcDbEntity
  8
姿図
100
AcDbCircle
 10
4070.628964094444
 20
2238.051842581178
 30
0.0
 40
16.85779137306725
100
AcDbArc
 50
69.64678306273838
 51
110.8157935129273
  0
ARC
  5
3278E
330
18
100
AcDbEntity
  8
姿図
100
AcDbCircle
 10
4071.107728179812
 20
2213.642556206248
 30
0.0
 40
21.33134132830569
100
AcDbArc
 50
69.37373870165685
 51
86.60023055440318
  0
ARC
  5
3278F
330
18
100
AcDbEntity
  8
姿図
100
AcDbCircle
 10
4071.206966087588
 20
2212.718000767216
 30
0.0
 40
20.91672600107922
100
AcDbArc
 50
69.16539260965742
 51
86.95759899233144
  0
ARC
  5
32790
330
18
100
AcDbEntity
  8
姿図
100
AcDbCircle
 10
4070.001213281041
 20
2207.642088283334
 30
0.0
 40
27.01062348187041
100
AcDbArc
 50
71.67295501632334
 51
85.11625161579612
  0
SPLINE
  5
32791
330
18
100
AcDbEntity
  8
姿図
100
AcDbSpline
210
0.0
220
0.0
230
1.0
 70
     8
 71
     3
 72
     8
 73
     4
 74
     0
 42
0.000000001
 43
0.0000000001
 40
81.0
 40
81.0
 40
81.0
 40
81.0
 40
82.0
 40
82.0
 40
82.0
 40
82.0
 10
4071.903191118434
 20
2263.115768657
 30
0.0
 10
4071.903191118434
 20
2263.115768657
 30
0.0
 10
4072.885212830673
 20
2262.960683549579
 30
0.0
 10
4073.195260400118
 20
2262.857416123364
 30
0.0
  0
ARC
  5
32792
330
18
100
AcDbEntity
  8
姿図
100
AcDbCircle
 10
4071.705665801799
 20
2257.745742676303
 30
0.0
 40
4.789094399679947
100
AcDbArc
 50
70.7977179457682
 51
87.8500788721898
  0
ARC
  5
32793
330
18
100
AcDbEntity
  8
姿図
100
AcDbCircle
 10
4071.039689379949
 20
2255.483715835687
 30
0.0
 40
7.414887224566905
100
AcDbArc
 50
72.48901557824038
 51
83.37017240572861
  0
ARC
  5
32795
330
18
100
AcDbEntity
  8
姿図
100
AcDbCircle
 10
4072.253558705475
 20
2203.48033542477
 30
0.0
 40
24.8558111669565
100
AcDbArc
 50
60.3613219110082
 51
89.36781715225317
  0
ARC
  5
32797
330
18
100
AcDbEntity
  8
姿図
100
AcDbCircle
 10
4085.281203132714
 20
2255.642882962665
 30
0.0
 40
20.41666301661463
100
AcDbArc
 50
164.9003244817098
 51
183.4293730745962
  0
ARC
  5
32798
330
18
100
AcDbEntity
  8
姿図
100
AcDbCircle
 10
4069.373377139848
 20
1979.562258790834
 30
0.0
 40
248.5810485795132
100
AcDbArc
 50
89.31576581817518
 51
90.4017689997036
  0
ARC
  5
32799
330
18
100
AcDbEntity
  8
姿図
100
AcDbCircle
 10
4070.015743180903
 20
2192.041131018947
 30
0.0
 40
36.38033507195226
100
AcDbArc
 50
86.04057786561219
 51
94.08972909081169
  0
ARC
  5
3279A
330
18
100
AcDbEntity
  8
姿図
100
AcDbCircle
 10
4069.204556168988
 20
2242.873391884784
 30
0.0
 40
4.926176262210318
100
AcDbArc
 50
98.92556514658793
 51
135.3216510111875
  0
ARC
  5
3279B
330
18
100
AcDbEntity
  8
姿図
100
AcDbCircle
 10
4066.324686862708
 20
2245.714875419262
 30
0.0
 40
0.8804913944504884
100
AcDbArc
 50
135.0333121997359
 51
236.7780662264011
  0
ARC
  5
3279C
330
18
100
AcDbEntity
  8
姿図
100
AcDbCircle
 10
4065.52713794594
 20
2245.686316264821
 30
0.0
 40
0.8485761901155741
100
AcDbArc
 50
199.4612426901134
 51
246.4715084496298
  0
ARC
  5
3279D
330
18
100
AcDbEntity
  8
姿図
100
AcDbCircle
 10
4069.596366737476
 20
2241.324407927664
 30
0.0
 40
7.023451227494228
100
AcDbArc
 50
89.57255103718201
 51
121.1664846586868
  0
ARC
  5
3279E
330
18
100
AcDbEntity
  8
姿図
100
AcDbCircle
 10
4067.470127546941
 20
2244.836041277488
 30
0.0
 40
2.918277375674741
100
AcDbArc
 50
121.1274254391886
 51
160.8469930756532
  0
ARC
  5
3279F
330
18
100
AcDbEntity
  8
姿図
100
AcDbCircle
 10
3903.09860527978
 20
2250.379166011658
 30
0.0
 40
161.6484558516821
100
AcDbArc
 50
358.5598251122301
 51
1.310040796657912
  0
SPLINE
  5
327A0
330
18
100
AcDbEntity
  8
姿図
100
AcDbSpline
210
0.0
220
0.0
230
1.0
 70
    24
 71
     3
 72
     8
 73
     4
 74
     0
 42
0.000000001
 43
0.0000000001
 40
2.0
 40
2.0
 40
2.0
 40
2.0
 40
3.0
 40
3.0
 40
3.0
 40
3.0
 10
4064.727043394284
 20
2245.403596865346
 30
0.0
 10
4064.727043394284
 20
2245.403596865346
 30
0.0
 10
4064.695998416561
 20
2246.31643163321
 30
0.0
 10
4064.695998416561
 20
2246.31643163321
 30
0.0
  0
LINE
  5
327A1
330
18
100
AcDbEntity
  8
姿図
100
AcDbLine
 10
4067.421147132794
 20
2228.328826609802
 30
0.0
 11
4067.630293415009
 21
2228.137195926536
 31
0.0
  0
LINE
  5
327A2
330
18
100
AcDbEntity
  8
姿図
100
AcDbLine
 10
4068.266229186629
 20
2234.962168120448
 30
0.0
 11
4068.233648403937
 21
2233.681233013922
 31
0.0
  0
ARC
  5
327A3
330
18
100
AcDbEntity
  8
姿図
100
AcDbCircle
 10
4069.748191470371
 20
2208.118791454935
 30
0.0
 40
25.5895287026658
100
AcDbArc
 50
98.03653202735244
 51
104.0295974476451
  0
ARC
  5
327A4
330
18
100
AcDbEntity
  8
姿図
100
AcDbCircle
 10
4062.915072275456
 20
2273.01265011799
 30
0.0
 40
39.6893893055646
100
AcDbArc
 50
274.7050686475697
 51
277.7010870989286
  0
ARC
  5
327A5
330
18
100
AcDbEntity
  8
姿図
100
AcDbCircle
 10
4069.081618894675
 20
2211.826279618292
 30
0.0
 40
23.09610639820993
100
AcDbArc
 50
97.8834796779995
 51
103.259381772706
  0
ARC
  5
327A6
330
18
100
AcDbEntity
  8
姿図
100
AcDbCircle
 10
4069.241349733423
 20
2215.22187463982
 30
0.0
 40
19.7643630502498
100
AcDbArc
 50
92.82796783640627
 51
99.69259792309352
  0
ARC
  5
327A7
330
18
100
AcDbEntity
  8
姿図
100
AcDbCircle
 10
4073.491367814378
 20
2248.061462104488
 30
0.0
 40
10.55529681861884
100
AcDbArc
 50
144.3463591481286
 51
155.858166328275
  0
LINE
  5
327A8
330
18
100
AcDbEntity
  8
姿図
100
AcDbLine
 10
4072.341896095883
 20
2228.125581926203
 30
0.0
 11
4072.527804012754
 21
2228.334633609969
 31
0.0
  0
LINE
  5
327A9
330
18
100
AcDbEntity
  8
姿図
100
AcDbLine
 10
4072.295399980007
 20
2234.864469636426
 30
0.0
 11
4072.317120584645
 21
2233.605245286225
 31
0.0
  0
ARC
  5
327AA
330
18
100
AcDbEntity
  8
姿図
100
AcDbCircle
 10
4072.348493820745
 20
2234.884890190334
 30
0.0
 40
0.0568854546098731
100
AcDbArc
 50
64.78605873795277
 51
201.0373661889485
  0
SPLINE
  5
327AB
330
18
100
AcDbEntity
  8
姿図
100
AcDbSpline
210
0.0
220
0.0
230
1.0
 70
     8
 71
     3
 72
    14
 73
    10
 74
     0
 42
0.000000001
 43
0.0000000001
 40
78.0
 40
78.0
 40
78.0
 40
78.0
 40
79.0
 40
79.0
 40
79.0
 40
80.0
 40
80.0
 40
80.0
 40
81.0
 40
81.0
 40
81.0
 40
81.0
 10
4071.438119764267
 20
2264.201057795455
 30
0.0
 10
4071.438119764267
 20
2264.201057795455
 30
0.0
 10
4071.463997943521
 20
2264.433593472539
 30
0.0
 10
4071.644777262097
 20
2264.433593472539
 30
0.0
 10
4071.825679226073
 20
2264.433593472539
 30
0.0
 10
4071.903191118434
 20
2264.252752831263
 30
0.0
 10
4071.903191118434
 20
2264.097667723841
 30
0.0
 10
4071.903191118434
 20
2263.942643939119
 30
0.0
 10
4071.903191118434
 20
2263.115768657
 30
0.0
 10
4071.903191118434
 20
2263.115768657
 30
0.0
  0
ARC
  5
327AC
330
18
100
AcDbEntity
  8
姿図
100
AcDbCircle
 10
4071.141537459765
 20
2259.62075295665
 30
0.0
 40
3.004242223699468
100
AcDbArc
 50
75.66568337680162
 51
84.95818041632184
  0
SPLINE
  5
327AD
330
18
100
AcDbEntity
  8
姿図
100
AcDbSpline
210
0.0
220
0.0
230
1.0
 70
     8
 71
     3
 72
     8
 73
     4
 74
     0
 42
0.000000001
 43
0.0000000001
 40
62.0
 40
62.0
 40
62.0
 40
62.0
 40
63.0
 40
63.0
 40
63.0
 40
63.0
 10
4063.479414512531
 20
2261.617041877487
 30
0.0
 10
4063.6086214407
 20
2261.978784482739
 30
0.0
 10
4063.943075444606
 20
2262.016007361428
 30
0.0
 10
4064.306289794649
 20
2262.056296375099
 30
0.0
  0
SPLINE
  5
327AE
330
18
100
AcDbEntity
  8
姿図
100
AcDbSpline
210
0.0
220
0.0
230
1.0
 70
     8
 71
     3
 72
     8
 73
     4
 74
     0
 42
0.000000001
 43
0.0000000001
 40
63.0
 40
63.0
 40
63.0
 40
63.0
 40
64.0
 40
64.0
 40
64.0
 40
64.0
 10
4064.306289794649
 20
2262.056296375099
 30
0.0
 10
4064.771361148816
 20
2262.108052733607
 30
0.0
 10
4065.649931466741
 20
2261.823760698016
 30
0.0
 10
4065.805016574163
 20
2261.875455733823
 30
0.0
  0
SPLINE
  5
327AF
330
18
100
AcDbEntity
  8
姿図
100
AcDbSpline
210
0.0
220
0.0
230
1.0
 70
     8
 71
     3
 72
    14
 73
    10
 74
     0
 42
0.000000001
 43
0.0000000001
 40
64.0
 40
64.0
 40
64.0
 40
64.0
 40
65.0
 40
65.0
 40
65.0
 40
66.0
 40
66.0
 40
66.0
 40
67.0
 40
67.0
 40
67.0
 40
67.0
 10
4065.805016574163
 20
2261.875455733823
 30
0.0
 10
4065.830833430717
 20
2262.469734016158
 30
0.0
 10
4065.727504681802
 20
2263.580840011167
 30
0.0
 10
4066.037552251246
 20
2263.580840011167
 30
0.0
 10
4066.347599820691
 20
2263.580840011167
 30
0.0
 10
4066.27008792833
 20
2263.425877549144
 30
0.0
 10
4066.27008792833
 20
2263.270792441723
 30
0.0
 10
4066.27008792833
 20
2263.115768657
 30
0.0
 10
4066.347599820691
 20
2262.133808267461
 30
0.0
 10
4066.347599820691
 20
2262.133808267461
 30
0.0
  0
SPLINE
  5
327B0
330
18
100
AcDbEntity
  8
姿図
100
AcDbSpline
210
0.0
220
0.0
230
1.0
 70
     8
 71
     3
 72
     8
 73
     4
 74
     0
 42
0.000000001
 43
0.0000000001
 40
67.0
 40
67.0
 40
67.0
 40
67.0
 40
68.0
 40
68.0
 40
68.0
 40
68.0
 10
4066.347599820691
 20
2262.133808267461
 30
0.0
 10
4066.347599820691
 20
2262.133808267461
 30
0.0
 10
4066.76109878445
 20
2262.495612195412
 30
0.0
 10
4067.639669102375
 20
2262.857416123364
 30
0.0
  0
SPLINE
  5
327B1
330
18
100
AcDbEntity
  8
姿図
100
AcDbSpline
210
0.0
220
0.0
230
1.0
 70
     8
 71
     3
 72
    14
 73
    10
 74
     0
 42
0.000000001
 43
0.0000000001
 40
68.0
 40
68.0
 40
68.0
 40
68.0
 40
69.0
 40
69.0
 40
69.0
 40
70.0
 40
70.0
 40
70.0
 40
71.0
 40
71.0
 40
71.0
 40
71.0
 10
4067.639669102375
 20
2262.857416123364
 30
0.0
 10
4067.665547281628
 20
2263.270792441723
 30
0.0
 10
4067.613852245821
 20
2264.252752831263
 30
0.0
 10
4067.898021636012
 20
2264.252752831263
 30
0.0
 10
4068.182313671603
 20
2264.252752831263
 30
0.0
 10
4068.130618635795
 20
2264.097667723841
 30
0.0
 10
4068.130618635795
 20
2263.865132046757
 30
0.0
 10
4068.130618635795
 20
2263.632535046974
 30
0.0
 10
4068.156435492349
 20
2262.934866693025
 30
0.0
 10
4068.156435492349
 20
2262.934866693025
 30
0.0
  0
SPLINE
  5
327B2
330
18
100
AcDbEntity
  8
姿図
100
AcDbSpline
210
0.0
220
0.0
230
1.0
 70
     8
 71
     3
 72
     8
 73
     4
 74
     0
 42
0.000000001
 43
0.0000000001
 40
71.0
 40
71.0
 40
71.0
 40
71.0
 40
72.0
 40
72.0
 40
72.0
 40
72.0
 10
4068.156435492349
 20
2262.934866693025
 30
0.0
 10
4068.156435492349
 20
2262.934866693025
 30
0.0
 10
4069.009188953721
 20
2263.141585513555
 30
0.0
 10
4069.577650379502
 20
2263.193280549362
 30
0.0
  0
SPLINE
  5
327B3
330
18
100
AcDbEntity
  8
姿図
100
AcDbSpline
210
0.0
220
0.0
230
1.0
 70
     8
 71
     3
 72
     8
 73
     4
 74
     0
 42
0.000000001
 43
0.0000000001
 40
72.0
 40
72.0
 40
72.0
 40
72.0
 40
73.0
 40
73.0
 40
73.0
 40
73.0
 10
4069.577650379502
 20
2263.193280549362
 30
0.0
 10
4069.577650379502
 20
2263.735925118589
 30
0.0
 10
4069.603528558755
 20
2264.226874652009
 30
0.0
 10
4069.603528558755
 20
2264.226874652009
 30
0.0
  0
SPLINE
  5
327B4
330
18
100
AcDbEntity
  8
姿図
100
AcDbSpline
210
0.0
220
0.0
230
1.0
 70
     8
 71
     3
 72
    14
 73
    10
 74
     0
 42
0.000000001
 43
0.0000000001
 40
73.0
 40
73.0
 40
73.0
 40
73.0
 40
74.0
 40
74.0
 40
74.0
 40
75.0
 40
75.0
 40
75.0
 40
76.0
 40
76.0
 40
76.0
 40
76.0
 10
4069.603528558755
 20
2264.226874652009
 30
0.0
 10
4069.603528558755
 20
2264.22681332931
 30
0.0
 10
4069.551833522948
 20
2264.459410329093
 30
0.0
 10
4069.784369200032
 20
2264.459410329093
 30
0.0
 10
4070.016904877115
 20
2264.459410329093
 30
0.0
 10
4070.016904877115
 20
2264.330203400924
 30
0.0
 10
4070.016904877115
 20
2264.175240938902
 30
0.0
 10
4070.016904877115
 20
2264.02015583148
 30
0.0
 10
4070.042783056368
 20
2263.193280549362
 30
0.0
 10
4070.042783056368
 20
2263.193280549362
 30
0.0
  0
SPLINE
  5
327B5
330
18
100
AcDbEntity
  8
姿図
100
AcDbSpline
210
0.0
220
0.0
230
1.0
 70
     8
 71
     3
 72
     8
 73
     4
 74
     0
 42
0.000000001
 43
0.0000000001
 40
76.0
 40
76.0
 40
76.0
 40
76.0
 40
77.0
 40
77.0
 40
77.0
 40
77.0
 10
4070.042783056368
 20
2263.193280549362
 30
0.0
 10
4070.042783056368
 20
2263.193280549362
 30
0.0
 10
4070.818024625379
 20
2263.244975585169
 30
0.0
 10
4071.424186694505
 20
2263.146606319468
 30
0.0
  0
SPLINE
  5
327B6
330
18
100
AcDbEntity
  8
姿図
100
AcDbSpline
210
0.0
220
0.0
230
1.0
 70
     8
 71
     3
 72
     8
 73
     4
 74
     0
 42
0.000000001
 43
0.0000000001
 40
77.0
 40
77.0
 40
77.0
 40
77.0
 40
78.0
 40
78.0
 40
78.0
 40
78.0
 10
4071.424186694505
 20
2263.146606319468
 30
0.0
 10
4071.412241585014
 20
2263.580840011167
 30
0.0
 10
4071.438119764267
 20
2264.201057795455
 30
0.0
 10
4071.438119764267
 20
2264.201057795455
 30
0.0
  0
ARC
  5
327B7
330
18
100
AcDbEntity
  8
姿図
100
AcDbCircle
 10
4070.565276935984
 20
2247.457207772125
 30
0.0
 40
15.17943885981804
100
AcDbArc
 50
86.82667943648595
 51
91.93617680841405
  0
ARC
  5
327B8
330
18
100
AcDbEntity
  8
姿図
100
AcDbCircle
 10
4069.693374510344
 20
2257.19834290505
 30
0.0
 40
5.411081025692985
100
AcDbArc
 50
91.34825162537344
 51
106.1526956119196
  0
ARC
  5
327B9
330
18
100
AcDbEntity
  8
姿図
100
AcDbCircle
 10
4069.919202787396
 20
2251.655087623935
 30
0.0
 40
10.84101700673923
100
AcDbArc
 50
102.1351952757639
 51
109.2685643810361
  0
ARC
  5
327BA
330
18
100
AcDbEntity
  8
姿図
100
AcDbCircle
 10
4070.887034843325
 20
2262.558563582862
 30
0.0
 40
3.261088330060268
100
AcDbArc
 50
174.7419248562935
 51
185.3614170438439
  0
ARC
  5
327BB
330
18
100
AcDbEntity
  8
姿図
100
AcDbCircle
 10
4060.406326031457
 20
2262.210292024819
 30
0.0
 40
7.783906802217627
100
AcDbArc
 50
1.365722849775119
 51
5.341181684532476
  0
ARC
  5
327BC
330
18
100
AcDbEntity
  8
姿図
100
AcDbCircle
 10
4133.798047821754
 20
2261.628423112698
 30
0.0
 40
64.23946004161219
100
AcDbArc
 50
178.6041508399731
 51
179.1263384126918
  0
ARC
  5
327BD
330
18
100
AcDbEntity
  8
姿図
100
AcDbCircle
 10
4074.052982422611
 20
2262.978918784095
 30
0.0
 40
4.015924541549868
100
AcDbArc
 50
176.9402153515069
 51
185.0132830991897
  0
ARC
  5
327BE
330
18
100
AcDbEntity
  8
姿図
100
AcDbCircle
 10
4075.366390377016
 20
2262.741947291763
 30
0.0
 40
3.962917965729672
100
AcDbArc
 50
174.1392337818201
 51
181.8592762369217
  0
ARC
  5
327BF
330
18
100
AcDbEntity
  8
姿図
100
AcDbCircle
 10
4066.65377896034
 20
2262.003873139785
 30
0.0
 40
0.3326090843017449
100
AcDbArc
 50
157.0047897508196
 51
200.2384915194997
  0
LINE
  5
327C0
330
18
100
AcDbEntity
  8
姿図
100
AcDbLine
 10
4065.805016574163
 20
2261.875455733823
 30
0.0
 11
4066.341704882053
 21
2261.888814143521
 31
0.0
  0
ARC
  5
327C1
330
18
100
AcDbEntity
  8
姿図
100
AcDbCircle
 10
4068.420229866434
 20
2260.371802732495
 30
0.0
 40
2.037288430148934
100
AcDbArc
 50
96.54474250752902
 51
112.511565693126
  0
ARC
  5
327C2
330
18
100
AcDbEntity
  8
姿図
100
AcDbCircle
 10
4070.258567541735
 20
2251.72077639887
 30
0.0
 40
10.90915193982139
100
AcDbArc
 50
91.08276367019977
 51
93.63957692303383
  0
ARC
  5
327C3
330
18
100
AcDbEntity
  8
姿図
100
AcDbCircle
 10
4068.487872777578
 20
2258.917083287372
 30
0.0
 40
3.76369989236904
100
AcDbArc
 50
103.2376313139114
 51
125.1451841017905
  0
ARC
  5
327C4
330
18
100
AcDbEntity
  8
姿図
100
AcDbCircle
 10
4069.915515290704
 20
2256.872118897913
 30
0.0
 40
6.073095248581613
100
AcDbArc
 50
93.24365212843523
 51
106.6502285820057
  0
ARC
  5
327C5
330
18
100
AcDbEntity
  8
姿図
100
AcDbCircle
 10
4070.210740117023
 20
2250.558875722996
 30
0.0
 40
12.37925443046904
100
AcDbArc
 50
84.45978160155543
 51
90.80287533105246
  0
ARC
  5
327C6
330
18
100
AcDbEntity
  8
姿図
100
AcDbCircle
 10
4014.19449249812
 20
2264.587814390079
 30
0.0
 40
57.72747019479135
100
AcDbArc
 50
357.9585972418036
 51
358.5388039584643
  0
SPLINE
  5
327C7
330
18
100
AcDbEntity
  8
姿図
100
AcDbSpline
210
0.0
220
0.0
230
1.0
 70
     8
 71
     3
 72
     8
 73
     4
 74
     0
 42
0.000000001
 43
0.0000000001
 40
60.0
 40
60.0
 40
60.0
 40
60.0
 40
61.0
 40
61.0
 40
61.0
 40
61.0
 10
4060.429039463703
 20
2249.139282920239
 30
0.0
 10
4060.526113297254
 20
2250.146692230134
 30
0.0
 10
4061.024605522731
 20
2253.606641589943
 30
0.0
 10
4061.696457020127
 20
2256.164840651358
 30
0.0
  0
SPLINE
  5
327C8
330
18
100
AcDbEntity
  8
姿図
100
AcDbSpline
210
0.0
220
0.0
230
1.0
 70
     8
 71
     3
 72
     8
 73
     4
 74
     0
 42
0.000000001
 43
0.0000000001
 40
0.0
 40
0.0
 40
0.0
 40
0.0
 40
1.0
 40
1.0
 40
1.0
 40
1.0
 10
4062.308396239962
 20
2248.031304382912
 30
0.0
 10
4062.151348806151
 20
2247.579846668068
 30
0.0
 10
4061.582212830674
 20
2244.694858940204
 30
0.0
 10
4061.601836094563
 20
2243.792188801315
 30
0.0
  0
SPLINE
  5
327C9
330
18
100
AcDbEntity
  8
姿図
100
AcDbSpline
210
0.0
220
0.0
230
1.0
 70
    24
 71
     3
 72
     8
 73
     4
 74
     0
 42
0.000000001
 43
0.0000000001
 40
4.0
 40
4.0
 40
4.0
 40
4.0
 40
5.0
 40
5.0
 40
5.0
 40
5.0
 10
4052.108714252115
 20
2228.018763996627
 30
0.0
 10
4052.108714252115
 20
2228.018763996627
 30
0.0
 10
4052.119261756455
 20
2229.376203276141
 30
0.0
 10
4052.119261756455
 20
2229.376203276141
 30
0.0
  0
SPLINE
  5
327CA
330
18
100
AcDbEntity
  8
姿図
100
AcDbSpline
210
0.0
220
0.0
230
1.0
 70
     8
 71
     3
 72
    14
 73
    10
 74
     0
 42
0.000000001
 43
0.0000000001
 40
14.0
 40
14.0
 40
14.0
 40
14.0
 40
15.0
 40
15.0
 40
15.0
 40
16.0
 40
16.0
 40
16.0
 40
17.0
 40
17.0
 40
17.0
 40
17.0
 10
4052.184141172688
 20
2231.452099304787
 30
0.0
 10
4052.184141172688
 20
2231.815497622929
 30
0.0
 10
4052.2879605032
 20
2232.490415255308
 30
0.0
 10
4052.2879605032
 20
2232.67205309168
 30
0.0
 10
4052.2879605032
 20
2232.853690928051
 30
0.0
 10
4052.443720160318
 20
2233.061452234474
 30
0.0
 10
4052.651358821342
 20
2233.061452234474
 30
0.0
 10
4052.858997482367
 20
2233.061452234474
 30
0.0
 10
4053.118576469997
 20
2233.061452234474
 30
0.0
 10
4053.118576469997
 20
2233.061452234474
 30
0.0
  0
SPLINE
  5
327CB
330
18
100
AcDbEntity
  8
姿図
100
AcDbSpline
210
0.0
220
0.0
230
1.0
 70
     8
 71
     3
 72
     8
 73
     4
 74
     0
 42
0.000000001
 43
0.0000000001
 40
17.0
 40
17.0
 40
17.0
 40
17.0
 40
18.0
 40
18.0
 40
18.0
 40
18.0
 10
4053.118576469997
 20
2233.061452234474
 30
0.0
 10
4053.118515147297
 20
2233.061452234474
 30
0.0
 10
4053.274336127115
 20
2233.294969074752
 30
0.0
 10
4053.533853792045
 20
2233.320969899405
 30
0.0
  0
SPLINE
  5
327CC
330
18
100
AcDbEntity
  8
姿図
100
AcDbSpline
210
0.0
220
0.0
230
1.0
 70
     8
 71
     3
 72
    11
 73
     7
 74
     0
 42
0.000000001
 43
0.0000000001
 40
18.0
 40
18.0
 40
18.0
 40
18.0
 40
19.0
 40
19.0
 40
19.0
 40
20.0
 40
20.0
 40
20.0
 40
20.0
 10
4053.533853792045
 20
2233.320969899405
 30
0.0
 10
4053.793432779675
 20
2233.346970724058
 30
0.0
 10
4053.819372281629
 20
2233.087330413728
 30
0.0
 10
4053.819372281629
 20
2232.957571581263
 30
0.0
 10
4053.819372281629
 20
2232.827812748797
 30
0.0
 10
4053.741553775769
 20
2229.090071559562
 30
0.0
 10
4053.741553775769
 20
2229.090071559562
 30
0.0
  0
SPLINE
  5
327CD
330
18
100
AcDbEntity
  8
姿図
100
AcDbSpline
210
0.0
220
0.0
230
1.0
 70
     8
 71
     3
 72
     8
 73
     4
 74
     0
 42
0.000000001
 43
0.0000000001
 40
20.0
 40
20.0
 40
20.0
 40
20.0
 40
21.0
 40
21.0
 40
21.0
 40
21.0
 10
4053.741553775769
 20
2229.090071559562
 30
0.0
 10
4053.741553775769
 20
2229.090071559562
 30
0.0
 10
4054.208710101724
 20
2228.622915233606
 30
0.0
 10
4054.260589105631
 20
2228.363274923277
 30
0.0
  0
SPLINE
  5
327CE
330
18
100
AcDbEntity
  8
姿図
100
AcDbSpline
210
0.0
220
0.0
230
1.0
 70
     8
 71
     3
 72
     8
 73
     4
 74
     0
 42
0.000000001
 43
0.0000000001
 40
21.0
 40
21.0
 40
21.0
 40
21.0
 40
22.0
 40
22.0
 40
22.0
 40
22.0
 10
4054.260589105631
 20
2228.363274923277
 30
0.0
 10
4054.312590754936
 20
2228.103757258346
 30
0.0
 10
4054.286934869232
 20
2226.076765788749
 30
0.0
 10
4054.286934869232
 20
2226.076765788749
 30
0.0
  0
SPLINE
  5
327CF
330
18
100
AcDbEntity
  8
姿図
100
AcDbSpline
210
0.0
220
0.0
230
1.0
 70
     8
 71
     3
 72
     8
 73
     4
 74
     0
 42
0.000000001
 43
0.0000000001
 40
22.0
 40
22.0
 40
22.0
 40
22.0
 40
23.0
 40
23.0
 40
23.0
 40
23.0
 10
4054.286934869232
 20
2226.076765788749
 30
0.0
 10
4054.286934869232
 20
2226.076765788749
 30
0.0
 10
4054.805686582844
 20
2226.546283332565
 30
0.0
 10
4055.169146223686
 20
2226.779922818242
 30
0.0
  0
SPLINE
  5
327D0
330
18
100
AcDbEntity
  8
姿図
100
AcDbSpline
210
0.0
220
0.0
230
1.0
 70
     8
 71
     3
 72
     8
 73
     4
 74
     0
 42
0.000000001
 43
0.0000000001
 40
23.0
 40
23.0
 40
23.0
 40
23.0
 40
24.0
 40
24.0
 40
24.0
 40
24.0
 10
4055.169146223686
 20
2226.779922818242
 30
0.0
 10
4055.532483219129
 20
2227.013562303919
 30
0.0
 10
4055.584423545734
 20
2227.039563128572
 30
0.0
 10
4055.688242876247
 20
2226.8579252922
 30
0.0
  0
SPLINE
  5
327D1
330
18
100
AcDbEntity
  8
姿図
100
AcDbSpline
210
0.0
220
0.0
230
1.0
 70
     8
 71
     3
 72
     8
 73
     4
 74
     0
 42
0.000000001
 43
0.0000000001
 40
24.0
 40
24.0
 40
24.0
 40
24.0
 40
25.0
 40
25.0
 40
25.0
 40
25.0
 10
4055.688242876247
 20
2226.8579252922
 30
0.0
 10
4055.792062206759
 20
2226.676164810429
 30
0.0
 10
4056.259279855413
 20
2225.793608517027
 30
0.0
 10
4056.259279855413
 20
2225.793608517027
 30
0.0
  0
SPLINE
  5
327D2
330
18
100
AcDbEntity
  8
姿図
100
AcDbSpline
210
0.0
220
0.0
230
1.0
 70
     8
 71
     3
 72
     8
 73
     4
 74
     0
 42
0.000000001
 43
0.0000000001
 40
25.0
 40
25.0
 40
25.0
 40
25.0
 40
26.0
 40
26.0
 40
26.0
 40
26.0
 10
4056.259279855413
 20
2225.793608517027
 30
0.0
 10
4056.259279855413
 20
2225.793608517027
 30
0.0
 10
4056.077580696342
 20
2226.779922818242
 30
0.0
 10
4056.207339528808
 20
2228.155636262252
 30
0.0
  0
SPLINE
  5
327D3
330
18
100
AcDbEntity
  8
姿図
100
AcDbSpline
210
0.0
220
0.0
230
1.0
 70
     8
 71
     3
 72
     8
 73
     4
 74
     0
 42
0.000000001
 43
0.0000000001
 40
26.0
 40
26.0
 40
26.0
 40
26.0
 40
27.0
 40
27.0
 40
27.0
 40
27.0
 10
4056.207339528808
 20
2228.155636262252
 30
0.0
 10
4056.23334035346
 20
2229.375590049145
 30
0.0
 10
4056.23334035346
 20
2229.50534888161
 30
0.0
 10
4056.207339528808
 20
2229.816868195846
 30
0.0
  0
SPLINE
  5
327D4
330
18
100
AcDbEntity
  8
姿図
100
AcDbSpline
210
0.0
220
0.0
230
1.0
 70
     8
 71
     3
 72
     8
 73
     4
 74
     0
 42
0.000000001
 43
0.0000000001
 40
27.0
 40
27.0
 40
27.0
 40
27.0
 40
28.0
 40
28.0
 40
28.0
 40
28.0
 10
4056.207339528808
 20
2229.816868195846
 30
0.0
 10
4056.188084201116
 20
2230.048300064336
 30
0.0
 10
4055.792062206759
 20
2233.243090070846
 30
0.0
 10
4055.766122704806
 20
2235.734876648537
 30
0.0
  0
SPLINE
  5
327D5
330
18
100
AcDbEntity
  8
姿図
100
AcDbSpline
210
0.0
220
0.0
230
1.0
 70
     8
 71
     3
 72
     8
 73
     4
 74
     0
 42
0.000000001
 43
0.0000000001
 40
28.0
 40
28.0
 40
28.0
 40
28.0
 40
29.0
 40
29.0
 40
29.0
 40
29.0
 10
4055.766122704806
 20
2235.734876648537
 30
0.0
 10
4055.740183202853
 20
2238.226785871627
 30
0.0
 10
4055.792062206759
 20
2240.017653992287
 30
0.0
 10
4055.792062206759
 20
2240.017653992287
 30
0.0
  0
SPLINE
  5
327D6
330
18
100
AcDbEntity
  8
姿図
100
AcDbSpline
210
0.0
220
0.0
230
1.0
 70
    24
 71
     3
 72
     8
 73
     4
 74
     0
 42
0.000000001
 43
0.0000000001
 40
29.0
 40
29.0
 40
29.0
 40
29.0
 40
30.0
 40
30.0
 40
30.0
 40
30.0
 10
4055.792062206759
 20
2240.017653992287
 30
0.0
 10
4055.792062206759
 20
2240.017653992287
 30
0.0
 10
4055.636302549641
 20
2240.017653992287
 30
0.0
 10
4055.636302549641
 20
2240.017653992287
 30
0.0
  0
SPLINE
  5
327D7
330
18
100
AcDbEntity
  8
姿図
100
AcDbSpline
210
0.0
220
0.0
230
1.0
 70
    24
 71
     3
 72
     8
 73
     4
 74
     0
 42
0.000000001
 43
0.0000000001
 40
30.0
 40
30.0
 40
30.0
 40
30.0
 40
31.0
 40
31.0
 40
31.0
 40
31.0
 10
4055.636302549641
 20
2240.017653992287
 30
0.0
 10
4055.636302549641
 20
2240.017653992287
 30
0.0
 10
4055.636302549641
 20
2240.90021028569
 30
0.0
 10
4055.636302549641
 20
2240.90021028569
 30
0.0
  0
SPLINE
  5
327D8
330
18
100
AcDbEntity
  8
姿図
100
AcDbSpline
210
0.0
220
0.0
230
1.0
 70
    24
 71
     3
 72
     8
 73
     4
 74
     0
 42
0.000000001
 43
0.0000000001
 40
31.0
 40
31.0
 40
31.0
 40
31.0
 40
32.0
 40
32.0
 40
32.0
 40
32.0
 10
4055.636302549641
 20
2240.90021028569
 30
0.0
 10
4055.636302549641
 20
2240.90021028569
 30
0.0
 10
4054.831687407497
 20
2241.003968293502
 30
0.0
 10
4054.831687407497
 20
2241.003968293502
 30
0.0
  0
SPLINE
  5
327D9
330
18
100
AcDbEntity
  8
姿図
100
AcDbSpline
210
0.0
220
0.0
230
1.0
 70
     8
 71
     3
 72
    14
 73
    10
 74
     0
 42
0.000000001
 43
0.0000000001
 40
32.0
 40
32.0
 40
32.0
 40
32.0
 40
33.0
 40
33.0
 40
33.0
 40
34.0
 40
34.0
 40
34.0
 40
35.0
 40
35.0
 40
35.0
 40
35.0
 10
4054.831687407497
 20
2241.003968293502
 30
0.0
 10
4054.831687407497
 20
2241.003968293502
 30
0.0
 10
4054.909567236056
 20
2240.796452277878
 30
0.0
 10
4054.624048746472
 20
2240.822330457131
 30
0.0
 10
4054.338530256889
 20
2240.848208636384
 30
0.0
 10
4054.364469758842
 20
2241.860523762252
 30
0.0
 10
4054.364469758842
 20
2242.146042251836
 30
0.0
 10
4054.364469758842
 20
2242.431560741419
 30
0.0
 10
4054.364469758842
 20
2243.236359851662
 30
0.0
 10
4054.546107595214
 20
2243.46987669194
 30
0.0
  0
SPLINE
  5
327DA
330
18
100
AcDbEntity
  8
姿図
100
AcDbSpline
210
0.0
220
0.0
230
1.0
 70
     8
 71
     3
 72
     8
 73
     4
 74
     0
 42
0.000000001
 43
0.0000000001
 40
35.0
 40
35.0
 40
35.0
 40
35.0
 40
36.0
 40
36.0
 40
36.0
 40
36.0
 10
4054.546107595214
 20
2243.46987669194
 30
0.0
 10
4054.727868076985
 20
2243.703393532218
 30
0.0
 10
4054.883627734102
 20
2243.72939435687
 30
0.0
 10
4054.883627734102
 20
2243.443875867287
 30
0.0
  0
SPLINE
  5
327DB
330
18
100
AcDbEntity
  8
姿図
100
AcDbSpline
210
0.0
220
0.0
230
1.0
 70
     8
 71
     3
 72
     8
 73
     4
 74
     0
 42
0.000000001
 43
0.0000000001
 40
36.0
 40
36.0
 40
36.0
 40
36.0
 40
37.0
 40
37.0
 40
37.0
 40
37.0
 10
4054.883627734102
 20
2243.443875867287
 30
0.0
 10
4055.169146223686
 20
2243.46987669194
 30
0.0
 10
4055.662303374294
 20
2243.46987669194
 30
0.0
 10
4055.662303374294
 20
2243.46987669194
 30
0.0
  0
SPLINE
  5
327DC
330
18
100
AcDbEntity
  8
姿図
100
AcDbSpline
210
0.0
220
0.0
230
1.0
 70
    24
 71
     3
 72
     8
 73
     4
 74
     0
 42
0.000000001
 43
0.0000000001
 40
37.0
 40
37.0
 40
37.0
 40
37.0
 40
38.0
 40
38.0
 40
38.0
 40
38.0
 10
4055.662303374294
 20
2243.46987669194
 30
0.0
 10
4055.662303374294
 20
2243.46987669194
 30
0.0
 10
4055.766122704806
 20
2244.456190993155
 30
0.0
 10
4055.766122704806
 20
2244.456190993155
 30
0.0
  0
SPLINE
  5
327DD
330
18
100
AcDbEntity
  8
姿図
100
AcDbSpline
210
0.0
220
0.0
230
1.0
 70
     8
 71
     3
 72
     8
 73
     4
 74
     0
 42
0.000000001
 43
0.0000000001
 40
38.0
 40
38.0
 40
38.0
 40
38.0
 40
39.0
 40
39.0
 40
39.0
 40
39.0
 10
4055.766122704806
 20
2244.456190993155
 30
0.0
 10
4055.766122704806
 20
2244.456190993155
 30
0.0
 10
4056.259279855413
 20
2244.430190168502
 30
0.0
 10
4056.363099185925
 20
2244.274553156783
 30
0.0
  0
SPLINE
  5
327DE
330
18
100
AcDbEntity
  8
姿図
100
AcDbSpline
210
0.0
220
0.0
230
1.0
 70
     8
 71
     3
 72
     8
 73
     4
 74
     0
 42
0.000000001
 43
0.0000000001
 40
39.0
 40
39.0
 40
39.0
 40
39.0
 40
40.0
 40
40.0
 40
40.0
 40
40.0
 10
4056.363099185925
 20
2244.274553156783
 30
0.0
 10
4056.466918516438
 20
2244.118793499666
 30
0.0
 10
4056.466918516438
 20
2244.456190993155
 30
0.0
 10
4056.466918516438
 20
2244.456190993155
 30
0.0
  0
SPLINE
  5
327DF
330
18
100
AcDbEntity
  8
姿図
100
AcDbSpline
210
0.0
220
0.0
230
1.0
 70
     8
 71
     3
 72
    11
 73
     7
 74
     0
 42
0.000000001
 43
0.0000000001
 40
40.0
 40
40.0
 40
40.0
 40
40.0
 40
41.0
 40
41.0
 40
41.0
 40
42.0
 40
42.0
 40
42.0
 40
42.0
 10
4056.466918516438
 20
2244.456190993155
 30
0.0
 10
4056.466918516438
 20
2244.456190993155
 30
0.0
 10
4056.648617675509
 20
2244.508192642461
 30
0.0
 10
4056.648617675509
 20
2244.352432985343
 30
0.0
 10
4056.648617675509
 20
2244.196673328224
 30
0.0
 10
4056.648617675509
 20
2243.054599369891
 30
0.0
 10
4056.648617675509
 20
2243.054599369891
 30
0.0
  0
SPLINE
  5
327E0
330
18
100
AcDbEntity
  8
姿図
100
AcDbSpline
210
0.0
220
0.0
230
1.0
 70
     8
 71
     3
 72
     8
 73
     4
 74
     0
 42
0.000000001
 43
0.0000000001
 40
42.0
 40
42.0
 40
42.0
 40
42.0
 40
43.0
 40
43.0
 40
43.0
 40
43.0
 10
4056.648617675509
 20
2243.054599369891
 30
0.0
 10
4056.688477430283
 20
2243.064533647235
 30
0.0
 10
4056.787513590222
 20
2243.19956623187
 30
0.0
 10
4057.016676518825
 20
2243.099978167634
 30
0.0
  0
SPLINE
  5
327E1
330
18
100
AcDbEntity
  8
姿図
100
AcDbSpline
210
0.0
220
0.0
230
1.0
 70
     8
 71
     3
 72
     8
 73
     4
 74
     0
 42
0.000000001
 43
0.0000000001
 40
43.0
 40
43.0
 40
43.0
 40
43.0
 40
44.0
 40
44.0
 40
44.0
 40
44.0
 10
4057.016676518825
 20
2243.099978167634
 30
0.0
 10
4057.245962092826
 20
2243.0001448126
 30
0.0
 10
4057.335615879719
 20
2242.681266774405
 30
0.0
 10
4057.455256466742
 20
2242.521827755308
 30
0.0
  0
SPLINE
  5
327E2
330
18
100
AcDbEntity
  8
姿図
100
AcDbSpline
210
0.0
220
0.0
230
1.0
 70
     8
 71
     3
 72
     8
 73
     4
 74
     0
 42
0.000000001
 43
0.0000000001
 40
44.0
 40
44.0
 40
44.0
 40
44.0
 40
45.0
 40
45.0
 40
45.0
 40
45.0
 10
4057.455256466742
 20
2242.521827755308
 30
0.0
 10
4057.574835731064
 20
2242.362388736211
 30
0.0
 10
4057.584831331108
 20
2242.352331813468
 30
0.0
 10
4057.574835731064
 20
2242.262678026575
 30
0.0
  0
SPLINE
  5
327E3
330
18
100
AcDbEntity
  8
姿図
100
AcDbSpline
210
0.0
220
0.0
230
1.0
 70
     8
 71
     3
 72
     8
 73
     4
 74
     0
 42
0.000000001
 43
0.0000000001
 40
45.0
 40
45.0
 40
45.0
 40
45.0
 40
46.0
 40
46.0
 40
46.0
 40
46.0
 10
4057.574835731064
 20
2242.262678026575
 30
0.0
 10
4057.564901453721
 20
2242.173024239683
 30
0.0
 10
4057.42539231201
 20
2242.093304730134
 30
0.0
 10
4057.435326589354
 20
2242.02339685253
 30
0.0
  0
SPLINE
  5
327E4
330
18
100
AcDbEntity
  8
姿図
100
AcDbSpline
210
0.0
220
0.0
230
1.0
 70
     8
 71
     3
 72
     8
 73
     4
 74
     0
 42
0.000000001
 43
0.0000000001
 40
46.0
 40
46.0
 40
46.0
 40
46.0
 40
47.0
 40
47.0
 40
47.0
 40
47.0
 10
4057.435326589354
 20
2242.02339685253
 30
0.0
 10
4057.445322189398
 20
2241.953734265725
 30
0.0
 10
4057.39546683458
 20
2241.525211240551
 30
0.0
 10
4057.39546683458
 20
2241.525211240551
 30
0.0
  0
SPLINE
  5
327E5
330
18
100
AcDbEntity
  8
姿図
100
AcDbSpline
210
0.0
220
0.0
230
1.0
 70
     8
 71
     3
 72
     8
 73
     4
 74
     0
 42
0.000000001
 43
0.0000000001
 40
47.0
 40
47.0
 40
47.0
 40
47.0
 40
48.0
 40
48.0
 40
48.0
 40
48.0
 10
4057.39546683458
 20
2241.525211240551
 30
0.0
 10
4057.39546683458
 20
2241.525211240551
 30
0.0
 10
4057.285821847601
 20
2241.335724098624
 30
0.0
 10
4056.996746641438
 20
2241.375583853398
 30
0.0
  0
SPLINE
  5
327E6
330
18
100
AcDbEntity
  8
姿図
100
AcDbSpline
210
0.0
220
0.0
230
1.0
 70
    24
 71
     3
 72
     8
 73
     4
 74
     0
 42
0.000000001
 43
0.0000000001
 40
48.0
 40
48.0
 40
48.0
 40
48.0
 40
49.0
 40
49.0
 40
49.0
 40
49.0
 10
4056.996746641438
 20
2241.375583853398
 30
0.0
 10
4056.579671806705
 20
2241.408261507383
 30
0.0
 10
4056.579671806705
 20
2241.408261507383
 30
0.0
 10
4056.579671806705
 20
2241.408261507383
 30
0.0
  0
SPLINE
  5
327E7
330
18
100
AcDbEntity
  8
姿図
100
AcDbSpline
210
0.0
220
0.0
230
1.0
 70
    24
 71
     3
 72
     8
 73
     4
 74
     0
 42
0.000000001
 43
0.0000000001
 40
49.0
 40
49.0
 40
49.0
 40
49.0
 40
50.0
 40
50.0
 40
50.0
 40
50.0
 10
4056.579671806705
 20
2241.408261507383
 30
0.0
 10
4056.579671806705
 20
2241.408261507383
 30
0.0
 10
4056.634286587887
 20
2240.447477685282
 30
0.0
 10
4056.634286587887
 20
2240.447477685282
 30
0.0
  0
SPLINE
  5
327E8
330
18
100
AcDbEntity
  8
姿図
100
AcDbSpline
210
0.0
220
0.0
230
1.0
 70
     8
 71
     3
 72
     8
 73
     4
 74
     0
 42
0.000000001
 43
0.0000000001
 40
50.0
 40
50.0
 40
50.0
 40
50.0
 40
51.0
 40
51.0
 40
51.0
 40
51.0
 10
4056.634286587887
 20
2240.447477685282
 30
0.0
 10
4056.634286587887
 20
2240.447477685282
 30
0.0
 10
4057.544971576333
 20
2241.535022872496
 30
0.0
 10
4058.053214111056
 20
2241.883949033519
 30
0.0
  0
SPLINE
  5
327E9
330
18
100
AcDbEntity
  8
姿図
100
AcDbSpline
210
0.0
220
0.0
230
1.0
 70
     8
 71
     3
 72
     8
 73
     4
 74
     0
 42
0.000000001
 43
0.0000000001
 40
51.0
 40
51.0
 40
51.0
 40
51.0
 40
52.0
 40
52.0
 40
52.0
 40
52.0
 10
4058.053214111056
 20
2241.883949033519
 30
0.0
 10
4057.913704969346
 20
2242.043388052617
 30
0.0
 10
4057.903770692002
 20
2242.063379252704
 30
0.0
 10
4057.903770692002
 20
2242.063379252704
 30
0.0
  0
SPLINE
  5
327EA
330
18
100
AcDbEntity
  8
姿図
100
AcDbSpline
210
0.0
220
0.0
230
1.0
 70
    24
 71
     3
 72
     8
 73
     4
 74
     0
 42
0.000000001
 43
0.0000000001
 40
52.0
 40
52.0
 40
52.0
 40
52.0
 40
53.0
 40
53.0
 40
53.0
 40
53.0
 10
4057.903770692002
 20
2242.063379252704
 30
0.0
 10
4057.903770692002
 20
2242.063379252704
 30
0.0
 10
4057.893775091959
 20
2242.511770832565
 30
0.0
 10
4057.893775091959
 20
2242.511770832565
 30
0.0
  0
SPLINE
  5
327EB
330
18
100
AcDbEntity
  8
姿図
100
AcDbSpline
210
0.0
220
0.0
230
1.0
 70
     8
 71
     3
 72
     8
 73
     4
 74
     0
 42
0.000000001
 43
0.0000000001
 40
53.0
 40
53.0
 40
53.0
 40
53.0
 40
54.0
 40
54.0
 40
54.0
 40
54.0
 10
4057.893775091959
 20
2242.511770832565
 30
0.0
 10
4057.893775091959
 20
2242.511770832565
 30
0.0
 10
4057.95356472412
 20
2242.601547264856
 30
0.0
 10
4058.013354356281
 20
2242.541696309995
 30
0.0
  0
SPLINE
  5
327EC
330
18
100
AcDbEntity
  8
姿図
100
AcDbSpline
210
0.0
220
0.0
230
1.0
 70
     8
 71
     3
 72
     8
 73
     4
 74
     0
 42
0.000000001
 43
0.0000000001
 40
54.0
 40
54.0
 40
54.0
 40
54.0
 40
55.0
 40
55.0
 40
55.0
 40
55.0
 10
4058.013354356281
 20
2242.541696309995
 30
0.0
 10
4058.073205311142
 20
2242.481968000533
 30
0.0
 10
4058.37215347195
 20
2242.153033039596
 30
0.0
 10
4058.37215347195
 20
2242.153033039596
 30
0.0
  0
SPLINE
  5
327ED
330
18
100
AcDbEntity
  8
姿図
100
AcDbSpline
210
0.0
220
0.0
230
1.0
 70
    24
 71
     3
 72
     8
 73
     4
 74
     0
 42
0.000000001
 43
0.0000000001
 40
55.0
 40
55.0
 40
55.0
 40
55.0
 40
56.0
 40
56.0
 40
56.0
 40
56.0
 10
4058.37215347195
 20
2242.153033039596
 30
0.0
 10
4058.37215347195
 20
2242.153033039596
 30
0.0
 10
4058.481859781629
 20
2242.282669226662
 30
0.0
 10
4058.481859781629
 20
2242.282669226662
 30
0.0
  0
ARC
  5
327EE
330
18
100
AcDbEntity
  8
姿図
100
AcDbCircle
 10
4054.452654237934
 20
2225.585473740094
 30
0.0
 40
0.5677893291275214
100
AcDbArc
 50
156.7941273154356
 51
207.5593620771095
  0
LINE
  5
327EF
330
18
100
AcDbEntity
  8
姿図
100
AcDbLine
 10
4053.930801929295
 20
2225.809203242483
 30
0.0
 11
4054.286934869232
 21
2226.076765788749
 31
0.0
  0
LINE
  5
327F0
330
18
100
AcDbEntity
  8
姿図
100
AcDbLine
 10
4052.77408578024
 20
2232.43672385542
 30
0.0
 11
4053.068070586449
 21
2232.820206275285
 31
0.0
  0
LINE
  5
327F1
330
18
100
AcDbEntity
  8
姿図
100
AcDbLine
 10
4053.068070586449
 20
2232.820206275285
 30
0.0
 11
4053.819329027735
 21
2232.950243476162
 31
0.0
  0
LINE
  5
327F2
330
18
100
AcDbEntity
  8
姿図
100
AcDbLine
 10
4052.269658350017
 20
2232.435898557566
 30
0.0
 11
4052.77408578024
 21
2232.43672385542
 31
0.0
  0
LINE
  5
327F3
330
18
100
AcDbEntity
  8
姿図
100
AcDbLine
 10
4052.184141172688
 20
2231.452099304787
 30
0.0
 11
4052.119261756455
 21
2229.376203276141
 31
0.0
  0
ARC
  5
327F4
330
18
100
AcDbEntity
  8
姿図
100
AcDbCircle
 10
4059.096741678558
 20
2226.799302196338
 30
0.0
 40
2.146243904512017
100
AcDbArc
 50
143.5969539955274
 51
199.2391027668208
  0
ARC
  5
327F5
330
18
100
AcDbEntity
  8
姿図
100
AcDbCircle
 10
4062.223763483532
 20
2225.028027279318
 30
0.0
 40
5.730415653452248
100
AcDbArc
 50
119.015692092419
 51
147.9017269467096
  0
ARC
  5
327F6
330
18
100
AcDbEntity
  8
姿図
100
AcDbCircle
 10
4060.39266156108
 20
2226.251676230672
 30
0.0
 40
4.158686133267145
100
AcDbArc
 50
137.1536766610123
 51
186.3238021850829
  0
ARC
  5
327F7
330
18
100
AcDbEntity
  8
姿図
100
AcDbCircle
 10
4064.789453088416
 20
2221.629962693919
 30
0.0
 40
10.5327949949985
100
AcDbArc
 50
108.8291533387819
 51
134.9849815097704
  0
ARC
  5
327F8
330
18
100
AcDbEntity
  8
姿図
100
AcDbCircle
 10
4064.546327696883
 20
2213.661590576292
 30
0.0
 40
14.61774686859161
100
AcDbArc
 50
107.3347820979761
 51
120.919339271532
  0
ARC
  5
327F9
330
18
100
AcDbEntity
  8
姿図
100
AcDbCircle
 10
4060.913917961791
 20
2229.227810144041
 30
0.0
 40
4.785943161113557
100
AcDbArc
 50
133.9639200721579
 51
170.8405462653849
  0
LINE
  5
327FA
330
18
100
AcDbEntity
  8
姿図
100
AcDbLine
 10
4061.957240647201
 20
2233.803738612106
 30
0.0
 11
4061.932063017602
 21
2232.507673113852
 31
0.0
  0
LINE
  5
327FB
330
18
100
AcDbEntity
  8
姿図
100
AcDbLine
 10
4062.0920195654
 20
2233.849751553402
 30
0.0
 11
4062.066343957322
 21
2232.558005765511
 31
0.0
  0
LINE
  5
327FC
330
18
100
AcDbEntity
  8
姿図
100
AcDbLine
 10
4060.35012271793
 20
2233.136349846895
 30
0.0
 11
4060.331874508402
 21
2231.813966669848
 31
0.0
  0
LINE
  5
327FD
330
18
100
AcDbEntity
  8
姿図
100
AcDbLine
 10
4056.399050578187
 20
2229.441753771824
 30
0.0
 11
4056.399050578187
 21
2228.252480878822
 31
0.0
  0
LINE
  5
327FE
330
18
100
AcDbEntity
  8
姿図
100
AcDbLine
 10
4056.645497660189
 20
2229.419359633124
 30
0.0
 11
4056.656682617159
 21
2228.692195503693
 31
0.0
  0
ARC
  5
327FF
330
18
100
AcDbEntity
  8
姿図
100
AcDbCircle
 10
4062.412258327225
 20
2226.716220682471
 30
0.0
 40
6.36886872037799
100
AcDbArc
 50
108.9438959803165
 51
154.8854103977459
  0
ARC
  5
32800
330
18
100
AcDbEntity
  8
姿図
100
AcDbCircle
 10
4062.165376013195
 20
2227.235108714121
 30
0.0
 40
6.17412272579023
100
AcDbArc
 50
107.0981770184414
 51
159.0592581893319
  0
LINE
  5
32801
330
18
100
AcDbEntity
  8
姿図
100
AcDbLine
 10
4056.399050578187
 20
2229.441753771824
 30
0.0
 11
4056.645497660189
 21
2229.419359633124
 31
0.0
  0
ARC
  5
32802
330
18
100
AcDbEntity
  8
姿図
100
AcDbCircle
 10
4063.624524046151
 20
2224.314354296868
 30
0.0
 40
8.228991907381392
100
AcDbArc
 50
129.8401163891949
 51
151.4081270048952
  0
ARC
  5
32803
330
18
100
AcDbEntity
  8
姿図
100
AcDbCircle
 10
4062.164735983005
 20
2226.493648011096
 30
0.0
 40
5.627181516154526
100
AcDbArc
 50
109.0089422507595
 51
132.6441520738917
  0
ARC
  5
32804
330
18
100
AcDbEntity
  8
姿図
100
AcDbCircle
 10
4062.828914971711
 20
2234.996839688591
 30
0.0
 40
7.599200043631534
100
AcDbArc
 50
113.106063594084
 51
142.4422239073841
  0
LINE
  5
32805
330
18
100
AcDbEntity
  8
姿図
100
AcDbLine
 10
4055.662303374294
 20
2243.46987669194
 30
0.0
 11
4055.636302549641
 21
2240.90021028569
 31
0.0
  0
LINE
  5
32806
330
18
100
AcDbEntity
  8
姿図
100
AcDbLine
 10
4054.883627734103
 20
2243.443875867287
 30
0.0
 11
4054.831687407497
 21
2241.003968293502
 31
0.0
  0
LINE
  5
32807
330
18
100
AcDbEntity
  8
姿図
100
AcDbLine
 10
4054.860725977063
 20
2242.368061098588
 30
0.0
 11
4055.520982640963
 21
2242.345055564852
 31
0.0
  0
LINE
  5
32808
330
18
100
AcDbEntity
  8
姿図
100
AcDbLine
 10
4055.520982640963
 20
2242.345055564852
 30
0.0
 11
4055.543805414522
 21
2243.051174805782
 31
0.0
  0
LINE
  5
32809
330
18
100
AcDbEntity
  8
姿図
100
AcDbLine
 10
4055.543805414522
 20
2243.051174805782
 30
0.0
 11
4054.87590429186
 21
2243.081065572183
 31
0.0
  0
LINE
  5
3280A
330
18
100
AcDbEntity
  8
姿図
100
AcDbLine
 10
4056.648617675509
 20
2243.054599369892
 30
0.0
 11
4056.579671806705
 21
2241.408261507383
 31
0.0
  0
ARC
  5
3280B
330
18
100
AcDbEntity
  8
姿図
100
AcDbCircle
 10
4059.592496086844
 20
2240.383029835995
 30
0.0
 40
2.149918007386824
100
AcDbArc
 50
124.5846265695701
 51
135.7229484200001
  0
ARC
  5
3280C
330
18
100
AcDbEntity
  8
姿図
100
AcDbCircle
 10
4065.687084390036
 20
2232.647371123835
 30
0.0
 40
12.03138525640127
100
AcDbArc
 50
120.0620188068536
 51
126.7889442656496
  0
ARC
  5
3280D
330
18
100
AcDbEntity
  8
姿図
100
AcDbCircle
 10
4060.831594323532
 20
2240.943533315355
 30
0.0
 40
2.419343806759386
100
AcDbArc
 50
108.3841773672834
 51
118.9609150740286
  0
ARC
  5
3280E
330
18
100
AcDbEntity
  8
姿図
100
AcDbCircle
 10
4063.717197642913
 20
2235.521973560332
 30
0.0
 40
8.536463823646017
100
AcDbArc
 50
104.3475444510762
 51
115.303770921927
  0
ARC
  5
3280F
330
18
100
AcDbEntity
  8
姿図
100
AcDbCircle
 10
4061.825481492505
 20
2243.632863476199
 30
0.0
 40
1.800435711694352
100
AcDbArc
 50
178.617117758602
 51
192.6231261899865
  0
ARC
  5
32810
330
18
100
AcDbEntity
  8
姿図
100
AcDbCircle
 10
4118.691099717895
 20
2242.08993632278
 30
0.0
 40
58.68697430021523
100
AcDbArc
 50
173.1011023855655
 51
178.4510389818543
  0
LINE
  5
32811
330
18
100
AcDbEntity
  8
姿図
100
AcDbLine
 10
4054.934370997666
 20
2242.687318747847
 30
0.0
 11
4055.447719310179
 21
2242.669902299194
 31
0.0
  0
LINE
  5
32812
330
18
100
AcDbEntity
  8
姿図
100
AcDbLine
 10
4056.259279855413
 20
2225.793608517027
 30
0.0
 11
4056.329686905328
 21
2225.622142361567
 31
0.0
  0
ARC
  5
32813
330
18
100
AcDbEntity
  8
姿図
100
AcDbCircle
 10
4063.211293330906
 20
2234.414811546634
 30
0.0
 40
7.929554934305198
100
AcDbArc
 50
113.9969872917377
 51
151.6481519903326
  0
LINE
  5
32814
330
18
100
AcDbEntity
  8
姿図
100
AcDbLine
 10
4056.634286587887
 20
2240.447477685282
 30
0.0
 11
4056.563940727701
 21
2239.981463424581
 31
0.0
  0
ARC
  5
32815
330
18
100
AcDbEntity
  8
姿図
100
AcDbCircle
 10
4060.913917961791
 20
2229.227810144041
 30
0.0
 40
4.963943161113557
100
AcDbArc
 50
133.9639200721579
 51
164.6147139170571
  0
LINE
  5
32816
330
18
100
AcDbEntity
  8
姿図
100
AcDbLine
 10
4056.363099185925
 20
2244.274553156783
 30
0.0
 11
4056.232904513725
 21
2238.180436457908
 31
0.0
  0
LINE
  5
32817
330
18
100
AcDbEntity
  8
姿図
100
AcDbLine
 10
4056.248912058692
 20
2238.929713255826
 30
0.0
 11
4056.804732178623
 21
2239.629016604317
 31
0.0
  0
ARC
  5
32818
330
18
100
AcDbEntity
  8
姿図
100
AcDbCircle
 10
4065.924123340109
 20
2251.435480635399
 30
0.0
 40
4.765259900453005
100
AcDbArc
 50
223.2358012149326
 51
255.1214594254941
  0
SPLINE
  5
32819
330
18
100
AcDbEntity
  8
姿図
100
AcDbSpline
210
0.0
220
0.0
230
1.0
 70
     8
 71
     3
 72
     8
 73
     4
 74
     0
 42
0.000000001
 43
0.0000000001
 40
3.0
 40
3.0
 40
3.0
 40
3.0
 40
4.0
 40
4.0
 40
4.0
 40
4.0
 10
4064.695998416561
 20
2246.31643163321
 30
0.0
 10
4064.695998416561
 20
2246.31643163321
 30
0.0
 10
4063.629424400645
 20
2246.507385094709
 30
0.0
 10
4062.257706276465
 20
2247.699354267615
 30
0.0
  0
SPLINE
  5
3281A
330
18
100
AcDbEntity
  8
姿図
100
AcDbSpline
210
0.0
220
0.0
230
1.0
 70
     8
 71
     3
 72
     8
 73
     4
 74
     0
 42
0.000000001
 43
0.0000000001
 40
1.0
 40
1.0
 40
1.0
 40
1.0
 40
2.0
 40
2.0
 40
2.0
 40
2.0
 10
4061.601836094563
 20
2243.792188801315
 30
0.0
 10
4062.013985958929
 20
2243.929551648537
 30
0.0
 10
4063.38773707655
 20
2244.420133245759
 30
0.0
 10
4065.252192436793
 20
2244.851845051315
 30
0.0
  0
ARC
  5
3281B
330
18
100
AcDbEntity
  8
姿図
100
AcDbCircle
 10
4067.783484771037
 20
2216.689163097472
 30
0.0
 40
15.74060572484499
100
AcDbArc
 50
93.63344175986109
 51
121.9914343462321
  0
ARC
  5
3281C
330
18
100
AcDbEntity
  8
姿図
100
AcDbCircle
 10
4068.644121160632
 20
2213.75607827325
 30
0.0
 40
19.26123756502222
100
AcDbArc
 50
90.7183767634397
 51
112.1242565673988
  0
ARC
  5
3281D
330
18
100
AcDbEntity
  8
姿図
100
AcDbCircle
 10
4068.552119587816
 20
2201.584237528891
 30
0.0
 40
27.34101981673046
100
AcDbArc
 50
93.98074746305326
 51
107.8070272858408
  0
ARC
  5
3281E
330
18
100
AcDbEntity
  8
姿図
100
AcDbCircle
 10
4066.588106617377
 20
2222.48347237967
 30
0.0
 40
13.59256669942097
100
AcDbArc
 50
99.96213688778847
 51
131.4432276129823
  0
ARC
  5
3281F
330
18
100
AcDbEntity
  8
姿図
100
AcDbCircle
 10
4066.259209999777
 20
2219.743353064609
 30
0.0
 40
13.47783615143199
100
AcDbArc
 50
101.6191646447263
 51
108.7268299157164
  0
ARC
  5
32820
330
18
100
AcDbEntity
  8
姿図
100
AcDbCircle
 10
4066.718190680062
 20
2220.078590784829
 30
0.0
 40
14.52743363763967
100
AcDbArc
 50
101.6513119512677
 51
109.1305283859465
  0
ARC
  5
32821
330
18
100
AcDbEntity
  8
姿図
100
AcDbCircle
 10
4068.289262632887
 20
2225.235880589627
 30
0.0
 40
18.75786154390135
100
AcDbArc
 50
101.2911751080621
 51
116.7488075271169
  0
ARC
  5
32822
330
18
100
AcDbEntity
  8
姿図
100
AcDbCircle
 10
4089.522108364244
 20
2240.77302827614
 30
0.0
 40
28.16502617831935
100
AcDbArc
 50
155.6660590133416
 51
165.0660546530575
  0
ARC
  5
32823
330
18
100
AcDbEntity
  8
姿図
100
AcDbCircle
 10
4070.48870294894
 20
2205.006830808446
 30
0.0
 40
29.67365656335478
100
AcDbArc
 50
94.3133279251343
 51
106.4527785740842
  0
ARC
  5
32824
330
18
100
AcDbEntity
  8
姿図
100
AcDbCircle
 10
4068.289262632887
 20
2225.235880589627
 30
0.0
 40
18.40186154390135
100
AcDbArc
 50
101.2911751080621
 51
116.7488075271169
  0
ARC
  5
32825
330
18
100
AcDbEntity
  8
姿図
100
AcDbCircle
 10
4066.588106617377
 20
2222.48347237967
 30
0.0
 40
13.77056669942097
100
AcDbArc
 50
99.96213688778847
 51
131.4432276129823
  0
SPLINE
  5
32826
330
18
100
AcDbEntity
  8
姿図
100
AcDbSpline
210
0.0
220
0.0
230
1.0
 70
     8
 71
     3
 72
     8
 73
     4
 74
     0
 42
0.000000001
 43
0.0000000001
 40
61.0
 40
61.0
 40
61.0
 40
61.0
 40
62.0
 40
62.0
 40
62.0
 40
62.0
 10
4061.696457020127
 20
2256.164840651358
 30
0.0
 10
4062.368308517523
 20
2258.722917067374
 30
0.0
 10
4063.350268907062
 20
2261.255299272235
 30
0.0
 10
4063.479414512531
 20
2261.617041877487
 30
0.0
  0
ARC
  5
32827
330
18
100
AcDbEntity
  8
姿図
100
AcDbCircle
 10
4067.949838170037
 20
2202.083700139272
 30
0.0
 40
26.25045099930719
100
AcDbArc
 50
91.15403020508364
 51
118.1443348443473
  0
SPLINE
  5
3284E
330
18
100
AcDbEntity
  8
姿図
100
AcDbSpline
210
0.0
220
0.0
230
1.0
 70
    24
 71
     3
 72
     8
 73
     4
 74
     0
 42
0.000000001
 43
0.0000000001
 40
98.0
 40
98.0
 40
98.0
 40
98.0
 40
99.0
 40
99.0
 40
99.0
 40
99.0
 10
4082.251641975639
 20
2242.000339517461
 30
0.0
 10
4082.251641975639
 20
2242.000339517461
 30
0.0
 10
4082.560095154892
 20
2241.787549749665
 30
0.0
 10
4082.560095154892
 20
2241.787549749665
 30
0.0
  0
SPLINE
  5
3284F
330
18
100
AcDbEntity
  8
姿図
100
AcDbSpline
210
0.0
220
0.0
230
1.0
 70
    24
 71
     3
 72
     8
 73
     4
 74
     0
 42
0.000000001
 43
0.0000000001
 40
99.0
 40
99.0
 40
99.0
 40
99.0
 40
100.0
 40
100.0
 40
100.0
 40
100.0
 10
4082.560095154892
 20
2241.787549749665
 30
0.0
 10
4082.560095154892
 20
2241.787549749665
 30
0.0
 10
4082.882775200465
 20
2242.096738801315
 30
0.0
 10
4082.882775200465
 20
2242.096738801315
 30
0.0
  0
SPLINE
  5
32850
330
18
100
AcDbEntity
  8
姿図
100
AcDbSpline
210
0.0
220
0.0
230
1.0
 70
     8
 71
     3
 72
    11
 73
     7
 74
     0
 42
0.000000001
 43
0.0000000001
 40
100.0
 40
100.0
 40
100.0
 40
100.0
 40
101.0
 40
101.0
 40
101.0
 40
102.0
 40
102.0
 40
102.0
 40
102.0
 10
4082.882775200465
 20
2242.096738801315
 30
0.0
 10
4082.882775200465
 20
2242.096738801315
 30
0.0
 10
4083.00382620958
 20
2242.123720789162
 30
0.0
 10
4083.00382620958
 20
2242.029529122496
 30
0.0
 10
4083.00382620958
 20
2241.935337455829
 30
0.0
 10
4082.963475873208
 20
2241.612780055655
 30
0.0
 10
4082.963475873208
 20
2241.612780055655
 30
0.0
  0
SPLINE
  5
32851
330
18
100
AcDbEntity
  8
姿図
100
AcDbSpline
210
0.0
220
0.0
230
1.0
 70
    24
 71
     3
 72
     8
 73
     4
 74
     0
 42
0.000000001
 43
0.0000000001
 40
102.0
 40
102.0
 40
102.0
 40
102.0
 40
103.0
 40
103.0
 40
103.0
 40
103.0
 10
4082.963475873208
 20
2241.612780055655
 30
0.0
 10
4082.963475873208
 20
2241.612780055655
 30
0.0
 10
4082.842547509493
 20
2241.545570376836
 30
0.0
 10
4082.842547509493
 20
2241.545570376836
 30
0.0
  0
SPLINE
  5
32852
330
18
100
AcDbEntity
  8
姿図
100
AcDbSpline
210
0.0
220
0.0
230
1.0
 70
    24
 71
     3
 72
     8
 73
     4
 74
     0
 42
0.000000001
 43
0.0000000001
 40
103.0
 40
103.0
 40
103.0
 40
103.0
 40
104.0
 40
104.0
 40
104.0
 40
104.0
 10
4082.842547509493
 20
2241.545570376836
 30
0.0
 10
4082.842547509493
 20
2241.545570376836
 30
0.0
 10
4083.326506255153
 20
2241.0749799797
 30
0.0
 10
4083.326506255153
 20
2241.0749799797
 30
0.0
  0
SPLINE
  5
32853
330
18
100
AcDbEntity
  8
姿図
100
AcDbSpline
210
0.0
220
0.0
230
1.0
 70
     8
 71
     3
 72
     8
 73
     4
 74
     0
 42
0.000000001
 43
0.0000000001
 40
104.0
 40
104.0
 40
104.0
 40
104.0
 40
105.0
 40
105.0
 40
105.0
 40
105.0
 10
4083.326506255153
 20
2241.0749799797
 30
0.0
 10
4083.326506255153
 20
2241.0749799797
 30
0.0
 10
4083.272664924858
 20
2241.424519367721
 30
0.0
 10
4083.366856591525
 20
2241.532079382912
 30
0.0
  0
SPLINE
  5
32854
330
18
100
AcDbEntity
  8
姿図
100
AcDbSpline
210
0.0
220
0.0
230
1.0
 70
     8
 71
     3
 72
    11
 73
     7
 74
     0
 42
0.000000001
 43
0.0000000001
 40
105.0
 40
105.0
 40
105.0
 40
105.0
 40
106.0
 40
106.0
 40
106.0
 40
107.0
 40
107.0
 40
107.0
 40
107.0
 10
4083.366856591525
 20
2241.532079382912
 30
0.0
 10
4083.24580558241
 20
2241.585798067808
 30
0.0
 10
4083.218946239962
 20
2241.653007746627
 30
0.0
 10
4083.218946239962
 20
2241.747199413294
 30
0.0
 10
4083.218946239962
 20
2241.841268434561
 30
0.0
 10
4083.460925612791
 20
2242.110229795238
 30
0.0
 10
4083.460925612791
 20
2242.110229795238
 30
0.0
  0
SPLINE
  5
32855
330
18
100
AcDbEntity
  8
姿図
100
AcDbSpline
210
0.0
220
0.0
230
1.0
 70
     8
 71
     3
 72
     8
 73
     4
 74
     0
 42
0.000000001
 43
0.0000000001
 40
107.0
 40
107.0
 40
107.0
 40
107.0
 40
108.0
 40
108.0
 40
108.0
 40
108.0
 10
4083.460925612791
 20
2242.110229795238
 30
0.0
 10
4083.460925612791
 20
2242.110229795238
 30
0.0
 10
4083.433943624945
 20
2242.338840819544
 30
0.0
 10
4083.501275949163
 20
2242.446278189336
 30
0.0
  0
SPLINE
  5
32856
330
18
100
AcDbEntity
  8
姿図
100
AcDbSpline
210
0.0
220
0.0
230
1.0
 70
     8
 71
     3
 72
    11
 73
     7
 74
     0
 42
0.000000001
 43
0.0000000001
 40
108.0
 40
108.0
 40
108.0
 40
108.0
 40
109.0
 40
109.0
 40
109.0
 40
110.0
 40
110.0
 40
110.0
 40
110.0
 10
4083.501275949163
 20
2242.446278189336
 30
0.0
 10
4083.568485627983
 20
2242.553960849926
 30
0.0
 10
4083.676045643174
 20
2242.621170528746
 30
0.0
 10
4083.864306331108
 20
2242.621170528746
 30
0.0
 10
4084.052567019042
 20
2242.621170528746
 30
0.0
 10
4084.160004388833
 20
2242.513487868155
 30
0.0
 10
4084.160004388833
 20
2242.513487868155
 30
0.0
  0
SPLINE
  5
32857
330
18
100
AcDbEntity
  8
姿図
100
AcDbSpline
210
0.0
220
0.0
230
1.0
 70
    24
 71
     3
 72
     8
 73
     4
 74
     0
 42
0.000000001
 43
0.0000000001
 40
110.0
 40
110.0
 40
110.0
 40
110.0
 40
111.0
 40
111.0
 40
111.0
 40
111.0
 10
4084.160004388833
 20
2242.513487868155
 30
0.0
 10
4084.160004388833
 20
2242.513487868155
 30
0.0
 10
4084.160004388833
 20
2243.844558386818
 30
0.0
 10
4084.160004388833
 20
2243.844558386818
 30
0.0
  0
SPLINE
  5
32858
330
18
100
AcDbEntity
  8
姿図
100
AcDbSpline
210
0.0
220
0.0
230
1.0
 70
     8
 71
     3
 72
    11
 73
     7
 74
     0
 42
0.000000001
 43
0.0000000001
 40
111.0
 40
111.0
 40
111.0
 40
111.0
 40
112.0
 40
112.0
 40
112.0
 40
113.0
 40
113.0
 40
113.0
 40
113.0
 10
4084.160004388833
 20
2243.844558386818
 30
0.0
 10
4084.160004388833
 20
2243.844558386818
 30
0.0
 10
4084.200354725205
 20
2243.95211840201
 30
0.0
 10
4084.281055397948
 20
2243.95211840201
 30
0.0
 10
4084.361633425292
 20
2243.95211840201
 30
0.0
 10
4084.428965749511
 20
2243.777348707999
 30
0.0
 10
4084.428965749511
 20
2243.777348707999
 30
0.0
  0
SPLINE
  5
32859
330
18
100
AcDbEntity
  8
姿図
100
AcDbSpline
210
0.0
220
0.0
230
1.0
 70
     8
 71
     3
 72
    14
 73
    10
 74
     0
 42
0.000000001
 43
0.0000000001
 40
113.0
 40
113.0
 40
113.0
 40
113.0
 40
114.0
 40
114.0
 40
114.0
 40
115.0
 40
115.0
 40
115.0
 40
116.0
 40
116.0
 40
116.0
 40
116.0
 10
4084.428965749511
 20
2243.777348707999
 30
0.0
 10
4084.428965749511
 20
2243.777348707999
 30
0.0
 10
4084.455825091959
 20
2243.911890711037
 30
0.0
 10
4084.657576773816
 20
2243.911890711037
 30
0.0
 10
4084.859205810274
 20
2243.911890711037
 30
0.0
 10
4085.101185183104
 20
2243.911890711037
 30
0.0
 10
4085.101185183104
 20
2243.71001638378
 30
0.0
 10
4085.101185183104
 20
2243.508387347322
 30
0.0
 10
4085.128044525552
 20
2242.957218922843
 30
0.0
 10
4085.128044525552
 20
2242.957218922843
 30
0.0
  0
SPLINE
  5
3285A
330
18
100
AcDbEntity
  8
姿図
100
AcDbSpline
210
0.0
220
0.0
230
1.0
 70
     8
 71
     3
 72
     8
 73
     4
 74
     0
 42
0.000000001
 43
0.0000000001
 40
116.0
 40
116.0
 40
116.0
 40
116.0
 40
117.0
 40
117.0
 40
117.0
 40
117.0
 10
4085.128044525552
 20
2242.957218922843
 30
0.0
 10
4085.128044525552
 20
2242.957218922843
 30
0.0
 10
4085.813754953069
 20
2242.98420091069
 30
0.0
 10
4085.907823974337
 20
2242.863027256176
 30
0.0
  0
SPLINE
  5
3285B
330
18
100
AcDbEntity
  8
姿図
100
AcDbSpline
210
0.0
220
0.0
230
1.0
 70
     8
 71
     3
 72
    11
 73
     7
 74
     0
 42
0.000000001
 43
0.0000000001
 40
117.0
 40
117.0
 40
117.0
 40
117.0
 40
118.0
 40
118.0
 40
118.0
 40
119.0
 40
119.0
 40
119.0
 40
119.0
 10
4085.907823974337
 20
2242.863027256176
 30
0.0
 10
4085.921314968261
 20
2243.024428601662
 30
0.0
 10
4085.880964631889
 20
2243.091638280482
 30
0.0
 10
4086.015383989528
 20
2243.091638280482
 30
0.0
 10
4086.149925992566
 20
2243.091638280482
 30
0.0
 10
4086.351555029024
 20
2242.8765182501
 30
0.0
 10
4086.364923377549
 20
2242.580697546975
 30
0.0
  0
SPLINE
  5
3285C
330
18
100
AcDbEntity
  8
姿図
100
AcDbSpline
210
0.0
220
0.0
230
1.0
 70
     8
 71
     3
 72
     8
 73
     4
 74
     0
 42
0.000000001
 43
0.0000000001
 40
119.0
 40
119.0
 40
119.0
 40
119.0
 40
120.0
 40
120.0
 40
120.0
 40
120.0
 10
4086.364923377549
 20
2242.580697546975
 30
0.0
 10
4086.378414371472
 20
2242.284999489249
 30
0.0
 10
4086.378414371472
 20
2241.021138649405
 30
0.0
 10
4086.324573041177
 20
2240.83300060687
 30
0.0
  0
SPLINE
  5
3285D
330
18
100
AcDbEntity
  8
姿図
100
AcDbSpline
210
0.0
220
0.0
230
1.0
 70
     8
 71
     3
 72
     8
 73
     4
 74
     0
 42
0.000000001
 43
0.0000000001
 40
120.0
 40
120.0
 40
120.0
 40
120.0
 40
121.0
 40
121.0
 40
121.0
 40
121.0
 10
4086.324573041177
 20
2240.83300060687
 30
0.0
 10
4086.270854356281
 20
2240.644739918936
 30
0.0
 10
4086.16329434109
 20
2240.308691524839
 30
0.0
 10
4086.055734325899
 20
2240.281832182392
 30
0.0
  0
SPLINE
  5
3285E
330
18
100
AcDbEntity
  8
姿図
100
AcDbSpline
210
0.0
220
0.0
230
1.0
 70
     8
 71
     3
 72
     8
 73
     4
 74
     0
 42
0.000000001
 43
0.0000000001
 40
121.0
 40
121.0
 40
121.0
 40
121.0
 40
122.0
 40
122.0
 40
122.0
 40
122.0
 10
4086.055734325899
 20
2240.281832182392
 30
0.0
 10
4085.948174310709
 20
2240.254850194544
 30
0.0
 10
4085.854105289441
 20
2240.281832182392
 30
0.0
 10
4085.840614295517
 20
2240.469970224926
 30
0.0
  0
SPLINE
  5
3285F
330
18
100
AcDbEntity
  8
姿図
100
AcDbSpline
210
0.0
220
0.0
230
1.0
 70
     8
 71
     3
 72
     8
 73
     4
 74
     0
 42
0.000000001
 43
0.0000000001
 40
122.0
 40
122.0
 40
122.0
 40
122.0
 40
123.0
 40
123.0
 40
123.0
 40
123.0
 10
4085.840614295517
 20
2240.469970224926
 30
0.0
 10
4085.706194937879
 20
2240.469970224926
 30
0.0
 10
4085.060834846733
 20
2240.41625154003
 30
0.0
 10
4085.060834846733
 20
2240.41625154003
 30
0.0
  0
SPLINE
  5
32860
330
18
100
AcDbEntity
  8
姿図
100
AcDbSpline
210
0.0
220
0.0
230
1.0
 70
     8
 71
     3
 72
     8
 73
     4
 74
     0
 42
0.000000001
 43
0.0000000001
 40
123.0
 40
123.0
 40
123.0
 40
123.0
 40
124.0
 40
124.0
 40
124.0
 40
124.0
 10
4085.060834846733
 20
2240.41625154003
 30
0.0
 10
4085.060834846733
 20
2240.41625154003
 30
0.0
 10
4085.087694189181
 20
2239.609490103398
 30
0.0
 10
4085.006993516437
 20
2239.528789430655
 30
0.0
  0
SPLINE
  5
32861
330
18
100
AcDbEntity
  8
姿図
100
AcDbSpline
210
0.0
220
0.0
230
1.0
 70
     8
 71
     3
 72
     8
 73
     4
 74
     0
 42
0.000000001
 43
0.0000000001
 40
124.0
 40
124.0
 40
124.0
 40
124.0
 40
125.0
 40
125.0
 40
125.0
 40
125.0
 10
4085.006993516437
 20
2239.528789430655
 30
0.0
 10
4084.926415489094
 20
2239.448088757912
 30
0.0
 10
4084.845714816351
 20
2239.501930088207
 30
0.0
 10
4084.845714816351
 20
2239.501930088207
 30
0.0
  0
SPLINE
  5
32862
330
18
100
AcDbEntity
  8
姿図
100
AcDbSpline
210
0.0
220
0.0
230
1.0
 70
     8
 71
     3
 72
     8
 73
     4
 74
     0
 42
0.000000001
 43
0.0000000001
 40
125.0
 40
125.0
 40
125.0
 40
125.0
 40
126.0
 40
126.0
 40
126.0
 40
126.0
 10
4084.845714816351
 20
2239.501930088207
 30
0.0
 10
4084.845714816351
 20
2239.501930088207
 30
0.0
 10
4084.926415489094
 20
2236.94759435687
 30
0.0
 10
4084.832223822427
 20
2235.320703135082
 30
0.0
  0
SPLINE
  5
32863
330
18
100
AcDbEntity
  8
姿図
100
AcDbSpline
210
0.0
220
0.0
230
1.0
 70
     8
 71
     3
 72
     8
 73
     4
 74
     0
 42
0.000000001
 43
0.0000000001
 40
126.0
 40
126.0
 40
126.0
 40
126.0
 40
127.0
 40
127.0
 40
127.0
 40
127.0
 10
4084.832223822427
 20
2235.320703135082
 30
0.0
 10
4084.73815480116
 20
2233.693811913294
 30
0.0
 10
4084.388615413139
 20
2229.55293529654
 30
0.0
 10
4084.321405734319
 20
2229.364674608606
 30
0.0
  0
SPLINE
  5
32864
330
18
100
AcDbEntity
  8
姿図
100
AcDbSpline
210
0.0
220
0.0
230
1.0
 70
     8
 71
     3
 72
     8
 73
     4
 74
     0
 42
0.000000001
 43
0.0000000001
 40
127.0
 40
127.0
 40
127.0
 40
127.0
 40
128.0
 40
128.0
 40
128.0
 40
128.0
 10
4084.321405734319
 20
2229.364674608606
 30
0.0
 10
4084.321405734319
 20
2228.974784884214
 30
0.0
 10
4084.334896728243
 20
2226.958126583433
 30
0.0
 10
4084.334896728243
 20
2226.958126583433
 30
0.0
  0
SPLINE
  5
32865
330
18
100
AcDbEntity
  8
姿図
100
AcDbSpline
210
0.0
220
0.0
230
1.0
 70
     8
 71
     3
 72
     8
 73
     4
 74
     0
 42
0.000000001
 43
0.0000000001
 40
128.0
 40
128.0
 40
128.0
 40
128.0
 40
129.0
 40
129.0
 40
129.0
 40
129.0
 10
4084.334896728243
 20
2226.958126583433
 30
0.0
 10
4084.334896728243
 20
2226.958126583433
 30
0.0
 10
4084.428965749511
 20
2227.052318250099
 30
0.0
 10
4084.563385107149
 20
2226.984985925881
 30
0.0
  0
SPLINE
  5
32866
330
18
100
AcDbEntity
  8
姿図
100
AcDbSpline
210
0.0
220
0.0
230
1.0
 70
     8
 71
     3
 72
     8
 73
     4
 74
     0
 42
0.000000001
 43
0.0000000001
 40
129.0
 40
129.0
 40
129.0
 40
129.0
 40
130.0
 40
130.0
 40
130.0
 40
130.0
 10
4084.563385107149
 20
2226.984985925881
 30
0.0
 10
4084.697927110188
 20
2226.917776247061
 30
0.0
 10
4085.733054280327
 20
2226.21869747102
 30
0.0
 10
4085.907823974337
 20
2226.084278113381
 30
0.0
  0
SPLINE
  5
32867
330
18
100
AcDbEntity
  8
姿図
100
AcDbSpline
210
0.0
220
0.0
230
1.0
 70
     8
 71
     3
 72
     8
 73
     4
 74
     0
 42
0.000000001
 43
0.0000000001
 40
130.0
 40
130.0
 40
130.0
 40
130.0
 40
131.0
 40
131.0
 40
131.0
 40
131.0
 10
4085.907823974337
 20
2226.084278113381
 30
0.0
 10
4086.082593668347
 20
2225.949736110343
 30
0.0
 10
4086.190276328938
 20
2225.842298740551
 30
0.0
 10
4086.028874983452
 20
2225.452286370759
 30
0.0
  0
SPLINE
  5
32868
330
18
100
AcDbEntity
  8
姿図
100
AcDbSpline
210
0.0
220
0.0
230
1.0
 70
     8
 71
     3
 72
    14
 73
    10
 74
     0
 42
0.000000001
 43
0.0000000001
 40
136.0
 40
136.0
 40
136.0
 40
136.0
 40
137.0
 40
137.0
 40
137.0
 40
138.0
 40
138.0
 40
138.0
 40
139.0
 40
139.0
 40
139.0
 40
139.0
 10
4086.580043407931
 20
2228.450475802183
 30
0.0
 10
4086.606902750379
 20
2229.015135220586
 30
0.0
 10
4086.674235074597
 20
2232.577984070412
 30
0.0
 10
4086.674235074597
 20
2232.752753764423
 30
0.0
 10
4086.674235074597
 20
2232.927523458433
 30
0.0
 10
4086.660744080674
 20
2233.209853167634
 30
0.0
 10
4086.902723453503
 20
2233.209853167634
 30
0.0
 10
4087.144702826334
 20
2233.209853167634
 30
0.0
 10
4087.292613177896
 20
2232.967873794804
 30
0.0
 10
4087.292613177896
 20
2232.967873794804
 30
0.0
  0
SPLINE
  5
32869
330
18
100
AcDbEntity
  8
姿図
100
AcDbSpline
210
0.0
220
0.0
230
1.0
 70
     8
 71
     3
 72
    11
 73
     7
 74
     0
 42
0.000000001
 43
0.0000000001
 40
139.0
 40
139.0
 40
139.0
 40
139.0
 40
140.0
 40
140.0
 40
140.0
 40
141.0
 40
141.0
 40
141.0
 40
141.0
 10
4087.292613177896
 20
2232.967873794804
 30
0.0
 10
4087.292613177896
 20
2232.967873794804
 30
0.0
 10
4087.816922259927
 20
2232.981364788728
 30
0.0
 10
4087.937973269042
 20
2232.941014452356
 30
0.0
 10
4088.059024278156
 20
2232.900664115985
 30
0.0
 10
4088.206934629719
 20
2232.766244758346
 30
0.0
 10
4088.220302978243
 20
2232.53763373404
 30
0.0
  0
SPLINE
  5
3286A
330
18
100
AcDbEntity
  8
姿図
100
AcDbSpline
210
0.0
220
0.0
230
1.0
 70
     8
 71
     3
 72
     8
 73
     4
 74
     0
 42
0.000000001
 43
0.0000000001
 40
141.0
 40
141.0
 40
141.0
 40
141.0
 40
142.0
 40
142.0
 40
142.0
 40
142.0
 10
4088.220302978243
 20
2232.53763373404
 30
0.0
 10
4088.233793972166
 20
2232.309022709735
 30
0.0
 10
4088.31449464491
 20
2231.730994942808
 30
0.0
 10
4088.31449464491
 20
2231.730994942808
 30
0.0
  0
LINE
  5
3286B
330
18
100
AcDbEntity
  8
姿図
100
AcDbLine
 10
4088.31449464491
 20
2231.730994942808
 30
0.0
 11
4088.358892279458
 21
2228.018028124231
 31
0.0
  0
LINE
  5
3286C
330
18
100
AcDbEntity
  8
姿図
100
AcDbLine
 10
4087.976270356763
 20
2232.382967293863
 30
0.0
 11
4087.976270356763
 21
2232.382967293863
 31
0.0
  0
LINE
  5
3286D
330
18
100
AcDbEntity
  8
姿図
100
AcDbLine
 10
4087.776780631331
 20
2232.377104224775
 30
0.0
 11
4087.976270356763
 21
2232.382967293863
 31
0.0
  0
LINE
  5
3286E
330
18
100
AcDbEntity
  8
姿図
100
AcDbLine
 10
4087.976270356763
 20
2232.382967293863
 30
0.0
 11
4088.220302978243
 21
2232.53763373404
 31
0.0
  0
LINE
  5
3286F
330
18
100
AcDbEntity
  8
姿図
100
AcDbLine
 10
4086.674244556996
 20
2232.838537498692
 30
0.0
 11
4087.396891861444
 21
2232.817695741003
 31
0.0
  0
ARC
  5
32870
330
18
100
AcDbEntity
  8
姿図
100
AcDbCircle
 10
4087.364878575988
 20
2232.449327633871
 30
0.0
 40
0.3697565588300821
100
AcDbArc
 50
26.41722648467141
 51
85.03314972789963
  0
ARC
  5
32871
330
18
100
AcDbEntity
  8
姿図
100
AcDbCircle
 10
4087.799889115377
 20
2232.47114339684
 30
0.0
 40
0.0968368107570245
100
AcDbArc
 50
177.5198076457987
 51
256.1941115744406
  0
LINE
  5
32872
330
18
100
AcDbEntity
  8
姿図
100
AcDbLine
 10
4087.696024428833
 20
2232.613833977035
 30
0.0
 11
4087.703143017327
 21
2232.47533391349
 31
0.0
  0
ARC
  5
32873
330
18
100
AcDbEntity
  8
姿図
100
AcDbCircle
 10
4084.527754613327
 20
2226.610824116972
 30
0.0
 40
0.3972570541213215
100
AcDbArc
 50
119.0435180761531
 51
159.4188376883487
  0
LINE
  5
32874
330
18
100
AcDbEntity
  8
姿図
100
AcDbLine
 10
4084.155852425722
 20
2226.7504734274
 30
0.0
 11
4083.549595671279
 21
2225.62104222547
 31
0.0
  0
LINE
  5
32875
330
18
100
AcDbEntity
  8
姿図
100
AcDbLine
 10
4084.56338510715
 20
2226.984985925881
 30
0.0
 11
4083.754308766638
 21
2225.51540058914
 31
0.0
  0
ARC
  5
32876
330
18
100
AcDbEntity
  8
姿図
100
AcDbCircle
 10
4081.134893141987
 20
2226.253948948847
 30
0.0
 40
2.339903435991967
100
AcDbArc
 50
354.6911406082257
 51
39.74457932270783
  0
LINE
  5
32877
330
18
100
AcDbEntity
  8
姿図
100
AcDbLine
 10
4083.464759336221
 20
2226.037450434454
 30
0.0
 11
4083.470233663238
 21
2225.74295325936
 31
0.0
  0
ARC
  5
32878
330
18
100
AcDbEntity
  8
姿図
100
AcDbCircle
 10
4080.544031605201
 20
2226.285424526552
 30
0.0
 40
3.502207327951977
100
AcDbArc
 50
4.00940975549993
 51
37.93819005738771
  0
ARC
  5
32879
330
18
100
AcDbEntity
  8
姿図
100
AcDbCircle
 10
4081.135313456342
 20
2229.873322108478
 30
0.0
 40
3.234502311000505
100
AcDbArc
 50
355.3470820426405
 51
48.80510402841482
  0
ARC
  5
3287A
330
18
100
AcDbEntity
  8
姿図
100
AcDbCircle
 10
4081.96218752938
 20
2228.777308490168
 30
0.0
 40
1.98963006087321
100
AcDbArc
 50
11.64621484541104
 51
34.9002950655021
  0
LINE
  5
3287B
330
18
100
AcDbEntity
  8
姿図
100
AcDbLine
 10
4083.910856561399
 20
2229.178951095954
 30
0.0
 11
4083.89028268284
 21
2228.233729904372
 31
0.0
  0
LINE
  5
3287C
330
18
100
AcDbEntity
  8
姿図
100
AcDbLine
 10
4084.069237174808
 20
2227.862518470618
 30
0.0
 11
4084.096926677252
 21
2229.16945763388
 31
0.0
  0
LINE
  5
3287D
330
18
100
AcDbEntity
  8
姿図
100
AcDbLine
 10
4083.910856561399
 20
2229.178951095954
 30
0.0
 11
4084.096926677252
 21
2229.16945763388
 31
0.0
  0
ARC
  5
3287E
330
18
100
AcDbEntity
  8
姿図
100
AcDbCircle
 10
4081.074449626542
 20
2228.665190660977
 30
0.0
 40
3.064254020480502
100
AcDbArc
 50
9.471927650748693
 51
44.14231619185728
  0
ARC
  5
3287F
330
18
100
AcDbEntity
  8
姿図
100
AcDbCircle
 10
4079.616750328063
 20
2236.2697699696
 30
0.0
 40
5.310083859977168
100
AcDbArc
 50
23.51302691710407
 51
54.87259797793355
  0
LINE
  5
32880
330
18
100
AcDbEntity
  8
姿図
100
AcDbLine
 10
4085.128044525552
 20
2242.957218922843
 30
0.0
 11
4085.060834846733
 21
2240.41625154003
 31
0.0
  0
LINE
  5
32881
330
18
100
AcDbEntity
  8
姿図
100
AcDbLine
 10
4084.160004388833
 20
2242.513487868155
 30
0.0
 11
4084.223790049253
 21
2240.897353763733
 31
0.0
  0
LINE
  5
32882
330
18
100
AcDbEntity
  8
姿図
100
AcDbLine
 10
4083.505579107213
 20
2240.8707684873
 30
0.0
 11
4083.796628016325
 21
2240.836358349989
 31
0.0
  0
LINE
  5
32883
330
18
100
AcDbEntity
  8
姿図
100
AcDbLine
 10
4083.796628016325
 20
2240.836358349989
 30
0.0
 11
4084.030550058306
 21
2240.927851551162
 31
0.0
  0
LINE
  5
32884
330
18
100
AcDbEntity
  8
姿図
100
AcDbLine
 10
4084.030550058306
 20
2240.927851551162
 30
0.0
 11
4084.223790049253
 21
2240.897353763733
 31
0.0
  0
ARC
  5
32885
330
18
100
AcDbEntity
  8
姿図
100
AcDbCircle
 10
4068.719306488438
 20
2227.750423585263
 30
0.0
 40
19.77154743901542
100
AcDbArc
 50
38.37310906748101
 51
42.37078970390812
  0
LINE
  5
32886
330
18
100
AcDbEntity
  8
姿図
100
AcDbLine
 10
4084.223790049253
 20
2240.897353763733
 30
0.0
 11
4084.219901082568
 21
2240.024202765357
 31
0.0
  0
LINE
  5
32887
330
18
100
AcDbEntity
  8
姿図
100
AcDbLine
 10
4085.907823974337
 20
2242.863027256176
 30
0.0
 11
4085.840614295517
 21
2240.469970224926
 31
0.0
  0
LINE
  5
32888
330
18
100
AcDbEntity
  8
姿図
100
AcDbLine
 10
4085.898371158512
 20
2242.52645181387
 30
0.0
 11
4085.248587198392
 21
2242.536582971744
 31
0.0
  0
LINE
  5
32889
330
18
100
AcDbEntity
  8
姿図
100
AcDbLine
 10
4085.248587198392
 20
2242.536582971744
 30
0.0
 11
4085.248587198392
 21
2241.900966024636
 31
0.0
  0
LINE
  5
3288A
330
18
100
AcDbEntity
  8
姿図
100
AcDbLine
 10
4085.248587198392
 20
2241.900966024636
 30
0.0
 11
4085.878573756132
 21
2241.821548683897
 31
0.0
  0
LINE
  5
3288B
330
18
100
AcDbEntity
  8
姿図
100
AcDbLine
 10
4085.314047991531
 20
2242.134648721039
 30
0.0
 11
4085.819031359397
 21
2242.115954085993
 31
0.0
  0
ARC
  5
3288C
330
18
100
AcDbEntity
  8
姿図
100
AcDbCircle
 10
4078.402230084981
 20
2234.892641610269
 30
0.0
 40
6.782061434828315
100
AcDbArc
 50
34.5821694168415
 51
53.25955639034068
  0
LINE
  5
3288D
330
18
100
AcDbEntity
  8
姿図
100
AcDbLine
 10
4083.985989722699
 20
2238.742055281724
 30
0.0
 11
4083.973451345461
 21
2238.505371036993
 31
0.0
  0
ARC
  5
3288E
330
18
100
AcDbEntity
  8
姿図
100
AcDbCircle
 10
4078.14797073166
 20
2234.387770641779
 30
0.0
 40
7.134884968317634
100
AcDbArc
 50
27.2018977531181
 51
35.00004946461912
  0
LINE
  5
3288F
330
18
100
AcDbEntity
  8
姿図
100
AcDbLine
 10
4084.219901082568
 20
2240.024202765357
 30
0.0
 11
4084.25669201057
 21
2239.352828132147
 31
0.0
  0
ARC
  5
32890
330
18
100
AcDbEntity
  8
姿図
100
AcDbCircle
 10
4081.135313456342
 20
2229.873322108478
 30
0.0
 40
3.412502311000505
100
AcDbArc
 50
12.81913927440634
 51
48.80510402841482
  0
LINE
  5
32891
330
18
100
AcDbEntity
  8
姿図
100
AcDbLine
 10
4084.428965749511
 20
2243.777348707999
 30
0.0
 11
4084.493746218279
 21
2237.649321957419
 31
0.0
  0
ARC
  5
32892
330
18
100
AcDbEntity
  8
姿図
100
AcDbCircle
 10
4081.673966916015
 20
2240.467372419836
 30
0.0
 40
1.58999730752381
100
AcDbArc
 50
42.69636713775296
 51
56.12973347160472
  0
SPLINE
  5
32893
330
18
100
AcDbEntity
  8
姿図
100
AcDbSpline
210
0.0
220
0.0
230
1.0
 70
     8
 71
     3
 72
     8
 73
     4
 74
     0
 42
0.000000001
 43
0.0000000001
 40
93.0
 40
93.0
 40
93.0
 40
93.0
 40
94.0
 40
94.0
 40
94.0
 40
94.0
 10
4078.027366487358
 20
2261.306994308042
 30
0.0
 10
4078.208145805934
 20
2260.738471559561
 30
0.0
 10
4079.44858137451
 20
2257.043410969283
 30
0.0
 10
4079.991164621038
 20
2253.787543553919
 30
0.0
  0
ARC
  5
32894
330
18
100
AcDbEntity
  8
姿図
100
AcDbCircle
 10
4049.773033778866
 20
2252.238679851896
 30
0.0
 40
27.27532100677419
100
AcDbArc
 50
4.590443487697372
 51
18.65099996679333
  0
ARC
  5
32895
330
18
100
AcDbEntity
  8
姿図
100
AcDbCircle
 10
4074.463278955493
 20
2245.539746023983
 30
0.0
 40
0.7927321882993051
100
AcDbArc
 50
313.2347063593759
 51
13.23820378770298
  0
ARC
  5
32896
330
18
100
AcDbEntity
  8
姿図
100
AcDbCircle
 10
4072.710408778668
 20
2244.590004565592
 30
0.0
 40
2.766418831449646
100
AcDbArc
 50
24.13776079254094
 51
72.32520093175565
  0
ARC
  5
32897
330
18
100
AcDbEntity
  8
姿図
100
AcDbCircle
 10
4075.245713602242
 20
2245.24152625109
 30
0.0
 40
0.5208193802896979
100
AcDbArc
 50
307.0961325663666
 51
2.227358866405428
  0
ARC
  5
32898
330
18
100
AcDbEntity
  8
姿図
100
AcDbCircle
 10
4072.368354697794
 20
2244.202637098882
 30
0.0
 40
3.639806218338915
100
AcDbArc
 50
21.0049905160776
 51
66.66587520349637
  0
ARC
  5
32899
330
18
100
AcDbEntity
  8
姿図
100
AcDbCircle
 10
3841.821437330285
 20
2251.364897845422
 30
0.0
 40
234.0007953530761
100
AcDbArc
 50
358.7525040264375
 51
0.6909588819908713
  0
ARC
  5
3289A
330
18
100
AcDbEntity
  8
姿図
100
AcDbCircle
 10
4073.412209486059
 20
2253.546465840443
 30
0.0
 40
7.291204331153296
100
AcDbArc
 50
288.8819773767499
 51
314.8835033409042
  0
SPLINE
  5
3289B
330
18
100
AcDbEntity
  8
姿図
100
AcDbSpline
210
0.0
220
0.0
230
1.0
 70
     8
 71
     3
 72
     8
 73
     4
 74
     0
 42
0.000000001
 43
0.0000000001
 40
3.0
 40
3.0
 40
3.0
 40
3.0
 40
4.0
 40
4.0
 40
4.0
 40
4.0
 10
4078.637031469033
 20
2247.948952612422
 30
0.0
 10
4077.440294419436
 20
2246.793457696207
 30
0.0
 10
4076.8347740796
 20
2246.657334816661
 30
0.0
 10
4075.766769700676
 20
2246.270421623136
 30
0.0
  0
SPLINE
  5
3289C
330
18
100
AcDbEntity
  8
姿図
100
AcDbSpline
210
0.0
220
0.0
230
1.0
 70
    24
 71
     3
 72
     8
 73
     4
 74
     0
 42
0.000000001
 43
0.0000000001
 40
0.0
 40
0.0
 40
0.0
 40
0.0
 40
1.0
 40
1.0
 40
1.0
 40
1.0
 10
4075.766769700676
 20
2246.270421623136
 30
0.0
 10
4075.766769700676
 20
2246.270421623136
 30
0.0
 10
4075.766113788568
 20
2245.220634315864
 30
0.0
 10
4075.766113788568
 20
2245.220634315864
 30
0.0
  0
SPLINE
  5
3289D
330
18
100
AcDbEntity
  8
姿図
100
AcDbSpline
210
0.0
220
0.0
230
1.0
 70
     8
 71
     3
 72
     8
 73
     4
 74
     0
 42
0.000000001
 43
0.0000000001
 40
2.0
 40
2.0
 40
2.0
 40
2.0
 40
3.0
 40
3.0
 40
3.0
 40
3.0
 10
4076.340624310708
 20
2244.616365884648
 30
0.0
 10
4076.576103477375
 20
2244.596742620759
 30
0.0
 10
4079.068503282063
 20
2243.752942273537
 30
0.0
 10
4079.323605712618
 20
2243.576332898537
 30
0.0
  0
SPLINE
  5
3289E
330
18
100
AcDbEntity
  8
姿図
100
AcDbSpline
210
0.0
220
0.0
230
1.0
 70
     8
 71
     3
 72
    11
 73
     7
 74
     0
 42
0.000000001
 43
0.0000000001
 40
3.0
 40
3.0
 40
3.0
 40
3.0
 40
4.0
 40
4.0
 40
4.0
 40
5.0
 40
5.0
 40
5.0
 40
5.0
 10
4079.323605712618
 20
2243.576332898537
 30
0.0
 10
4079.402221413573
 20
2243.772565537426
 30
0.0
 10
4079.382475504285
 20
2244.459379773537
 30
0.0
 10
4079.166619601507
 20
2245.695768043936
 30
0.0
 10
4078.950763698729
 20
2246.932156314336
 30
0.0
 10
4078.970386962618
 20
2247.030395279179
 30
0.0
 10
4078.872270643174
 20
2247.481730348624
 30
0.0
  0
SPLINE
  5
3289F
330
18
100
AcDbEntity
  8
姿図
100
AcDbSpline
210
0.0
220
0.0
230
1.0
 70
     8
 71
     3
 72
     8
 73
     4
 74
     0
 42
0.000000001
 43
0.0000000001
 40
94.0
 40
94.0
 40
94.0
 40
94.0
 40
95.0
 40
95.0
 40
95.0
 40
95.0
 10
4079.991164621038
 20
2253.787543553919
 30
0.0
 10
4080.533747867566
 20
2250.531798783953
 30
0.0
 10
4080.818039903156
 20
2248.697023610343
 30
0.0
 10
4080.818039903156
 20
2248.490243467113
 30
0.0
  0
ARC
  5
328A0
330
18
100
AcDbEntity
  8
姿図
100
AcDbCircle
 10
4072.632821634297
 20
2217.306358493709
 30
0.0
 40
15.00159103532738
100
AcDbArc
 50
59.8482743468719
 51
82.10167315234378
  0
ARC
  5
328A1
330
18
100
AcDbEntity
  8
姿図
100
AcDbCircle
 10
4071.577717767758
 20
2203.159816175455
 30
0.0
 40
25.74422963162313
100
AcDbArc
 50
67.1115793291878
 51
82.27270771511955
  0
LINE
  5
328A2
330
18
100
AcDbEntity
  8
姿図
100
AcDbLine
 10
4078.622133669632
 20
2233.606519565242
 30
0.0
 11
4078.646450327577
 21
2232.267003320983
 31
0.0
  0
LINE
  5
328A3
330
18
100
AcDbEntity
  8
姿図
100
AcDbLine
 10
4078.496078374664
 20
2233.653513311368
 30
0.0
 11
4078.490245430661
 21
2232.325735685227
 31
0.0
  0
LINE
  5
328A4
330
18
100
AcDbEntity
  8
姿図
100
AcDbLine
 10
4080.174987777896
 20
2232.99696483832
 30
0.0
 11
4080.174969107599
 21
2231.552661918132
 31
0.0
  0
ARC
  5
328A5
330
18
100
AcDbEntity
  8
姿図
100
AcDbCircle
 10
4080.272838800835
 20
2232.958241686679
 30
0.0
 40
0.1052345245784256
100
AcDbArc
 50
98.89207980329887
 51
158.4095215871844
  0
ARC
  5
328A6
330
18
100
AcDbEntity
  8
姿図
100
AcDbCircle
 10
4072.107012632121
 20
2226.079534249575
 30
0.0
 40
17.92789672669692
100
AcDbArc
 50
65.97414726763859
 51
82.24955976118804
  0
ARC
  5
328A7
330
18
100
AcDbEntity
  8
姿図
100
AcDbCircle
 10
4020.377222474402
 20
2242.014962412379
 30
0.0
 40
60.78668995918346
100
AcDbArc
 50
0.8600872037600282
 51
6.115015456986673
  0
ARC
  5
328A8
330
18
100
AcDbEntity
  8
姿図
100
AcDbCircle
 10
4083.027866622539
 20
2242.761751365098
 30
0.0
 40
1.878123852957955
100
AcDbArc
 50
174.9394242146343
 51
180.7612721143542
  0
ARC
  5
328A9
330
18
100
AcDbEntity
  8
姿図
100
AcDbCircle
 10
4059.306488645816
 20
2244.55643346586
 30
0.0
 40
19.78325521799754
100
AcDbArc
 50
8.503354659739532
 51
23.34607013288064
  0
ARC
  5
328AA
330
18
100
AcDbEntity
  8
姿図
100
AcDbCircle
 10
4069.423646835862
 20
2248.068247455885
 30
0.0
 40
9.136516607620086
100
AcDbArc
 50
28.27476313283008
 51
42.95884801493992
  0
ARC
  5
328AB
330
18
100
AcDbEntity
  8
姿図
100
AcDbCircle
 10
4072.107012632121
 20
2226.079534249575
 30
0.0
 40
17.57189672669692
100
AcDbArc
 50
65.97414726763859
 51
82.24955976118804
  0
SPLINE
  5
328AC
330
18
100
AcDbEntity
  8
姿図
100
AcDbSpline
210
0.0
220
0.0
230
1.0
 70
     8
 71
     3
 72
    17
 73
    13
 74
     0
 42
0.000000001
 43
0.0000000001
 40
82.0
 40
82.0
 40
82.0
 40
82.0
 40
83.0
 40
83.0
 40
83.0
 40
84.0
 40
84.0
 40
84.0
 40
85.0
 40
85.0
 40
85.0
 40
86.0
 40
86.0
 40
86.0
 40
86.0
 10
4073.195260400118
 20
2262.857416123364
 30
0.0
 10
4073.272772292479
 20
2263.425877549144
 30
0.0
 10
4073.272772292479
 20
2263.606656867721
 30
0.0
 10
4073.272772292479
 20
2263.710046939335
 30
0.0
 10
4073.272772292479
 20
2263.81343701095
 30
0.0
 10
4073.195260400118
 20
2264.071850867287
 30
0.0
 10
4073.505307969563
 20
2264.071850867287
 30
0.0
 10
4073.815355539007
 20
2264.071850867287
 30
0.0
 10
4073.712088112792
 20
2263.839253867504
 30
0.0
 10
4073.712088112792
 20
2263.710046939335
 30
0.0
 10
4073.712088112792
 20
2263.580840011167
 30
0.0
 10
4073.737966292045
 20
2262.676514159388
 30
0.0
 10
4073.737966292045
 20
2262.676514159388
 30
0.0
  0
SPLINE
  5
328AD
330
18
100
AcDbEntity
  8
姿図
100
AcDbSpline
210
0.0
220
0.0
230
1.0
 70
     8
 71
     3
 72
     8
 73
     4
 74
     0
 42
0.000000001
 43
0.0000000001
 40
86.0
 40
86.0
 40
86.0
 40
86.0
 40
87.0
 40
87.0
 40
87.0
 40
87.0
 10
4073.737966292045
 20
2262.676514159388
 30
0.0
 10
4073.737966292045
 20
2262.676514159388
 30
0.0
 10
4074.771499071993
 20
2262.263015195629
 30
0.0
 10
4074.978156569823
 20
2262.004662661992
 30
0.0
  0
SPLINE
  5
328AE
330
18
100
AcDbEntity
  8
姿図
100
AcDbSpline
210
0.0
220
0.0
230
1.0
 70
     8
 71
     3
 72
     8
 73
     4
 74
     0
 42
0.000000001
 43
0.0000000001
 40
87.0
 40
87.0
 40
87.0
 40
87.0
 40
88.0
 40
88.0
 40
88.0
 40
88.0
 10
4074.978156569823
 20
2262.004662661992
 30
0.0
 10
4075.081546641438
 20
2262.521429051966
 30
0.0
 10
4075.107424820691
 20
2263.193280549362
 30
0.0
 10
4075.107424820691
 20
2263.193280549362
 30
0.0
  0
SPLINE
  5
328AF
330
18
100
AcDbEntity
  8
姿図
100
AcDbSpline
210
0.0
220
0.0
230
1.0
 70
     8
 71
     3
 72
    11
 73
     7
 74
     0
 42
0.000000001
 43
0.0000000001
 40
88.0
 40
88.0
 40
88.0
 40
88.0
 40
89.0
 40
89.0
 40
89.0
 40
90.0
 40
90.0
 40
90.0
 40
90.0
 10
4075.107424820691
 20
2263.193280549362
 30
0.0
 10
4075.107424820691
 20
2263.193280549362
 30
0.0
 10
4075.133302999945
 20
2263.399999369891
 30
0.0
 10
4075.288204139268
 20
2263.399999369891
 30
0.0
 10
4075.443350569389
 20
2263.399999369891
 30
0.0
 10
4075.469106103243
 20
2263.296670620976
 30
0.0
 10
4075.494984282497
 20
2263.141585513555
 30
0.0
  0
SPLINE
  5
328B0
330
18
100
AcDbEntity
  8
姿図
100
AcDbSpline
210
0.0
220
0.0
230
1.0
 70
     8
 71
     3
 72
     8
 73
     4
 74
     0
 42
0.000000001
 43
0.0000000001
 40
90.0
 40
90.0
 40
90.0
 40
90.0
 40
91.0
 40
91.0
 40
91.0
 40
91.0
 10
4075.494984282497
 20
2263.141585513555
 30
0.0
 10
4075.52086246175
 20
2262.986561728832
 30
0.0
 10
4075.572496174858
 20
2261.694553769848
 30
0.0
 10
4075.572496174858
 20
2261.694553769848
 30
0.0
  0
SPLINE
  5
328B1
330
18
100
AcDbEntity
  8
姿図
100
AcDbSpline
210
0.0
220
0.0
230
1.0
 70
     8
 71
     3
 72
     8
 73
     4
 74
     0
 42
0.000000001
 43
0.0000000001
 40
91.0
 40
91.0
 40
91.0
 40
91.0
 40
92.0
 40
92.0
 40
92.0
 40
92.0
 10
4075.572496174858
 20
2261.694553769848
 30
0.0
 10
4075.572496174858
 20
2261.694553769848
 30
0.0
 10
4076.632029779458
 20
2261.875455733823
 30
0.0
 10
4076.99371106201
 20
2261.901272590378
 30
0.0
  0
SPLINE
  5
328B2
330
18
100
AcDbEntity
  8
姿図
100
AcDbSpline
210
0.0
220
0.0
230
1.0
 70
     8
 71
     3
 72
     8
 73
     4
 74
     0
 42
0.000000001
 43
0.0000000001
 40
92.0
 40
92.0
 40
92.0
 40
92.0
 40
93.0
 40
93.0
 40
93.0
 40
93.0
 10
4076.99371106201
 20
2261.901272590378
 30
0.0
 10
4077.355392344562
 20
2261.927150769631
 30
0.0
 10
4077.846464523382
 20
2261.875455733823
 30
0.0
 10
4078.027366487358
 20
2261.306994308042
 30
0.0
  0
ARC
  5
328B3
330
18
100
AcDbEntity
  8
姿図
100
AcDbCircle
 10
4072.284764475381
 20
2255.386509240919
 30
0.0
 40
6.935470996468705
100
AcDbArc
 50
65.64773604258475
 51
77.78217439901705
  0
ARC
  5
328B4
330
18
100
AcDbEntity
  8
姿図
100
AcDbCircle
 10
4068.589451037735
 20
2262.274137331849
 30
0.0
 40
5.164214987315041
100
AcDbArc
 50
358.7878634453216
 51
4.468807970952554
  0
ARC
  5
328B5
330
18
100
AcDbEntity
  8
姿図
100
AcDbCircle
 10
4093.656620117341
 20
2263.128114099999
 30
0.0
 40
20.39393014002813
100
AcDbArc
 50
178.9519072955405
 51
182.4160770027777
  0
ARC
  5
328B6
330
18
100
AcDbEntity
  8
姿図
100
AcDbCircle
 10
4073.106902621744
 20
2262.556622468428
 30
0.0
 40
0.3135026632238292
100
AcDbArc
 50
59.73516729329931
 51
73.62991183402796
  0
ARC
  5
328B7
330
18
100
AcDbEntity
  8
姿図
100
AcDbCircle
 10
4073.032390951817
 20
2260.728314036705
 30
0.0
 40
2.327030221867914
100
AcDbArc
 50
24.81417256258006
 51
33.2633590941623
  0
LINE
  5
328B8
330
18
100
AcDbEntity
  8
姿図
100
AcDbLine
 10
4075.144575073967
 20
2261.704914204442
 30
0.0
 11
4075.572496174858
 21
2261.694553769848
 31
0.0
  0
ARC
  5
328B9
330
18
100
AcDbEntity
  8
姿図
100
AcDbCircle
 10
4073.031113094532
 20
2260.003678964512
 30
0.0
 40
2.278433254476653
100
AcDbArc
 50
71.54136661979263
 51
83.70799580805796
  0
ARC
  5
328BA
330
18
100
AcDbEntity
  8
姿図
100
AcDbCircle
 10
4070.44105747398
 20
2252.869111525081
 30
0.0
 40
10.10919947342625
100
AcDbArc
 50
62.76850285567655
 51
70.88433192246352
  0
ARC
  5
328BB
330
18
100
AcDbEntity
  8
姿図
100
AcDbCircle
 10
4075.535029044211
 20
2222.432134083781
 30
0.0
 40
9.111819754474226
100
AcDbArc
 50
35.7057908094358
 51
59.43891704340089
  0
ARC
  5
328BC
330
18
100
AcDbEntity
  8
姿図
100
AcDbCircle
 10
4073.231033719209
 20
2218.76788399376
 30
0.0
 40
13.96534159548996
100
AcDbArc
 50
43.82683793537269
 51
81.83462171419777
  0
ARC
  5
328BD
330
18
100
AcDbEntity
  8
姿図
100
AcDbCircle
 10
4077.934831375289
 20
2217.645905801193
 30
0.0
 40
9.92868574729668
100
AcDbArc
 50
56.13483083249591
 51
68.39505492549013
  0
ARC
  5
328BE
330
18
100
AcDbEntity
  8
姿図
100
AcDbCircle
 10
4074.69241877111
 20
2223.928209393805
 30
0.0
 40
11.98780277395828
100
AcDbArc
 50
44.34359490365342
 51
79.22366257854152
  0
ARC
  5
328BF
330
18
100
AcDbEntity
  8
姿図
100
AcDbCircle
 10
4077.664917182683
 20
2225.003849758601
 30
0.0
 40
7.013365908506066
100
AcDbArc
 50
24.05434525454066
 51
69.02899391903881
  0
ARC
  5
328C0
330
18
100
AcDbEntity
  8
姿図
100
AcDbCircle
 10
4078.127381511521
 20
2226.637485644794
 30
0.0
 40
6.374184913183638
100
AcDbArc
 50
30.95011755231132
 51
71.262458438545
  0
ARC
  5
328C1
330
18
100
AcDbEntity
  8
姿図
100
AcDbCircle
 10
4076.967862515771
 20
2225.535497373912
 30
0.0
 40
8.213832017658387
100
AcDbArc
 50
39.85466092806681
 51
66.39763958291408
  0
ARC
  5
328C2
330
18
100
AcDbEntity
  8
姿図
100
AcDbCircle
 10
4072.391477361855
 20
2226.196521988115
 30
0.0
 40
17.70649654925609
100
AcDbArc
 50
54.5061144487472
 51
66.6607741770731
  0
ARC
  5
328C3
330
18
100
AcDbEntity
  8
姿図
100
AcDbCircle
 10
4075.853166030897
 20
2233.620612796864
 30
0.0
 40
10.54325918904183
100
AcDbArc
 50
52.63587060393828
 51
70.78208324591272
  0
ARC
  5
328C4
330
18
100
AcDbEntity
  8
姿図
100
AcDbCircle
 10
4072.391477361855
 20
2226.196521988115
 30
0.0
 40
17.35049654925609
100
AcDbArc
 50
54.5061144487472
 51
66.6607741770731
  0
ARC
  5
328C5
330
18
100
AcDbEntity
  8
姿図
100
AcDbCircle
 10
4074.69241877111
 20
2223.928209393805
 30
0.0
 40
12.16580277395828
100
AcDbArc
 50
44.34359490365342
 51
79.22366257854152
  0
ENDSEC
  0
SECTION
  2
OBJECTS
  0
DICTIONARY
  5
C
330
0
100
AcDbDictionary
281
     1
  3
ACAD_GROUP
350
D
  3
ACAD_IMAGE_VARS
350
32CDF
  3
ACAD_LAYOUT
350
40CB
  3
ACAD_MLINESTYLE
350
E
  3
ACAD_PLOTSETTINGS
350
40CC
  3
ACAD_PLOTSTYLENAME
350
40C9
  3
ACAD_SCALELIST
350
28B08
  3
AcDbVariableDictionary
350
6377
  3
APPDATA
350
32CDE
  3
DWGPROPS
350
32D03
  0
DICTIONARY
  5
17708
330
2
100
AcDbDictionary
280
     1
281
     1
  3
ACAD_LAYERSTATES
360
17709
  0
DICTIONARY
  5
28B30
330
F
100
AcDbDictionary
280
     1
281
     1
  3
ADSK_XREC_LAYER_RECONCILED
360
28B31
  0
DICTIONARY
  5
28B32
330
4C
100
AcDbDictionary
280
     1
281
     1
  3
ADSK_XREC_LAYER_RECONCILED
360
28B33
  0
DICTIONARY
  5
28B36
330
40D4
100
AcDbDictionary
280
     1
281
     1
  3
ADSK_XREC_LAYER_RECONCILED
360
28B37
  0
DICTIONARY
  5
28B40
330
176FE
100
AcDbDictionary
280
     1
281
     1
  3
ADSK_XREC_LAYER_RECONCILED
360
28B41
  0
DICTIONARY
  5
9FD5
330
18
100
AcDbDictionary
280
     1
281
     1
  3
ACAD_SORTENTS
360
2A8CB
  0
DICTIONARY
  5
D
102
{ACAD_REACTORS
330
C
102
}
330
C
100
AcDbDictionary
281
     1
  0
RASTERVARIABLES
  5
32CDF
102
{ACAD_REACTORS
330
C
102
}
330
C
100
AcDbRasterVariables
 90
        0
 70
     1
 71
     1
 72
     0
  0
DICTIONARY
  5
40CB
102
{ACAD_REACTORS
330
C
102
}
330
C
100
AcDbDictionary
281
     1
  3
Model
350
40CD
  3
ﾚｲｱｳﾄ1
350
40CE
  0
DICTIONARY
  5
E
102
{ACAD_REACTORS
330
C
102
}
330
C
100
AcDbDictionary
281
     1
  3
STANDARD
350
1B
  0
DICTIONARY
  5
40CC
102
{ACAD_REACTORS
330
C
102
}
330
C
100
AcDbDictionary
281
     1
  0
ACDBDICTIONARYWDFLT
  5
40C9
102
{ACAD_REACTORS
330
C
102
}
330
C
100
AcDbDictionary
281
     1
  3
Normal
350
40CA
100
AcDbDictionaryWithDefault
340
40CA
  0
DICTIONARY
  5
28B08
102
{ACAD_REACTORS
330
C
102
}
330
C
100
AcDbDictionary
281
     1
  3
A0
350
28B09
  3
A1
350
28B0A
  3
A2
350
28B0B
  3
A3
350
28B0C
  3
A4
350
28B0D
  3
A5
350
28B0E
  3
A6
350
28B0F
  3
A7
350
28B10
  3
A8
350
28B11
  3
A9
350
28B12
  3
B0
350
28B13
  3
B1
350
28B14
  3
B2
350
28B15
  3
B3
350
28B16
  3
B4
350
28B17
  3
B5
350
28B18
  3
B6
350
28B19
  3
B7
350
28B1A
  3
B8
350
28B1B
  3
B9
350
28B1C
  3
C0
350
28B1D
  3
C1
350
28B1E
  3
C2
350
28B1F
  3
C3
350
28B20
  3
C4
350
28B21
  3
C5
350
28B22
  3
C6
350
28B23
  3
C7
350
28B24
  3
C8
350
28B25
  3
C9
350
28B26
  3
D0
350
28B27
  3
D1
350
28B28
  3
D2
350
28B29
  0
DICTIONARY
  5
6377
102
{ACAD_REACTORS
330
C
102
}
330
C
100
AcDbDictionary
281
     1
  3
DIMASSOC
350
73F2
  3
INDEXCTL
350
28B64
  3
PROJECTNAME
350
FE7D
  3
SORTENTS
350
6378
  0
DICTIONARY
  5
32CDE
102
{ACAD_REACTORS
330
C
102
}
330
C
100
AcDbDictionary
281
     1
  0
XRECORD
  5
32D03
102
{ACAD_REACTORS
330
C
102
}
330
C
100
AcDbXrecord
280
     1
  1
DWGPROPS COOKIE
  2

  3

  4

  6

  7

  8
SPAX
  9

300
=
301
=
302
=
303
=
304
=
305
=
306
=
307
=
308
=
309
=
 40
0.0
 41
2453703.106561227
 42
2456821.202695567
  1

 90
        0
  0
DICTIONARY
  5
17709
102
{ACAD_REACTORS
330
17708
102
}
330
17708
100
AcDbDictionary
281
     1
  0
XRECORD
  5
28B31
102
{ACAD_REACTORS
330
28B30
102
}
330
28B30
100
AcDbXrecord
280
     1
290
     1
  0
XRECORD
  5
28B33
102
{ACAD_REACTORS
330
28B32
102
}
330
28B32
100
AcDbXrecord
280
     1
290
     1
  0
XRECORD
  5
28B37
102
{ACAD_REACTORS
330
28B36
102
}
330
28B36
100
AcDbXrecord
280
     1
290
     1
  0
XRECORD
  5
28B41
102
{ACAD_REACTORS
330
28B40
102
}
330
28B40
100
AcDbXrecord
280
     1
290
     1
  0
SORTENTSTABLE
  5
2A8CB
102
{ACAD_REACTORS
330
9FD5
102
}
330
9FD5
100
AcDbSortentsTable
330
18
331
0
  5
1D6F9
331
25FFE
  5
25FFF
331
25FFF
  5
27F50
  0
LAYOUT
  5
40CD
102
{ACAD_REACTORS
330
40CB
102
}
330
40CB
100
AcDbPlotSettings
  1

  2
JUST PDF 2
  4
A4
  6
CUT1
 40
3.174999952316284
 41
3.174999952316284
 42
3.175003051757812
 43
3.17498779296875
 44
209.8886566162109
 45
297.0530090332031
 46
14.27171755861548
 47
9.855173074625782
 48
4026.739703839198
 49
1774.219283599665
140
4376.73014082901
141
2316.204633876998
142
1.0
143
2.0
 70
 11940
 72
     1
 73
     0
 74
     4
  7
spax form.ctb
 75
     0
147
0.5
148
-4026.739703839198
149
-1774.219283599665
100
AcDbLayout
  1
Model
 70
     1
 71
     0
 10
0.0
 20
0.0
 11
12.0
 21
9.0
 12
0.0
 22
0.0
 32
0.0
 14
4018.259466506535
 24
2184.108710057572
 34
0.0
 15
4125.299466506535
 25
2264.456798170727
 35
0.0
146
0.0
 13
0.0
 23
0.0
 33
0.0
 16
1.0
 26
0.0
 36
0.0
 17
0.0
 27
1.0
 37
0.0
 76
     0
330
18
331
322D4
1001
ACAD_PSEXT
1000
JUST PDF 2
1000
JUST PDF 2
1000
JUST PDF 2 Port:
1000

1070
     0
  0
LAYOUT
  5
40CE
102
{ACAD_REACTORS
330
40CB
102
}
330
40CB
100
AcDbPlotSettings
  1

  2
なし
  4

  6

 40
0.0
 41
0.0
 42
0.0
 43
0.0
 44
0.0
 45
0.0
 46
0.0
 47
0.0
 48
0.0
 49
0.0
140
0.0
141
0.0
142
1.0
143
1.0
 70
   688
 72
     0
 73
     0
 74
     5
  7
Aiba.ctb
 75
    16
147
1.0
148
0.0
149
0.0
100
AcDbLayout
  1
ﾚｲｱｳﾄ1
 70
     0
 71
     1
 10
0.0
 20
0.0
 11
12.0
 21
9.0
 12
0.0
 22
0.0
 32
0.0
 14
1.000000000000000E+20
 24
1.000000000000000E+20
 34
1.000000000000000E+20
 15
-1.000000000000000E+20
 25
-1.000000000000000E+20
 35
-1.000000000000000E+20
146
0.0
 13
0.0
 23
0.0
 33
0.0
 16
1.0
 26
0.0
 36
0.0
 17
0.0
 27
1.0
 37
0.0
 76
     0
330
15
  0
MLINESTYLE
  5
1B
102
{ACAD_REACTORS
330
E
102
}
330
E
100
AcDbMlineStyle
  2
STANDARD
 70
     0
  3

 62
     0
 51
90.0
 52
90.0
 71
     2
 49
0.5
 62
   256
  6
BYLAYER
 49
-0.5
 62
   256
  6
BYLAYER
  0
ACDBPLACEHOLDER
  5
40CA
102
{ACAD_REACTORS
330
40C9
102
}
330
40C9
  0
SCALE
  5
28B09
102
{ACAD_REACTORS
330
28B08
102
}
330
28B08
100
AcDbScale
 70
     0
300
1:1
140
1.0
141
1.0
290
     1
  0
SCALE
  5
28B0A
102
{ACAD_REACTORS
330
28B08
102
}
330
28B08
100
AcDbScale
 70
     0
300
1:2
140
1.0
141
2.0
290
     0
  0
SCALE
  5
28B0B
102
{ACAD_REACTORS
330
28B08
102
}
330
28B08
100
AcDbScale
 70
     0
300
1:4
140
1.0
141
4.0
290
     0
  0
SCALE
  5
28B0C
102
{ACAD_REACTORS
330
28B08
102
}
330
28B08
100
AcDbScale
 70
     0
300
1:5
140
1.0
141
5.0
290
     0
  0
SCALE
  5
28B0D
102
{ACAD_REACTORS
330
28B08
102
}
330
28B08
100
AcDbScale
 70
     0
300
1:8
140
1.0
141
8.0
290
     0
  0
SCALE
  5
28B0E
102
{ACAD_REACTORS
330
28B08
102
}
330
28B08
100
AcDbScale
 70
     0
300
1:10
140
1.0
141
10.0
290
     0
  0
SCALE
  5
28B0F
102
{ACAD_REACTORS
330
28B08
102
}
330
28B08
100
AcDbScale
 70
     0
300
1:16
140
1.0
141
16.0
290
     0
  0
SCALE
  5
28B10
102
{ACAD_REACTORS
330
28B08
102
}
330
28B08
100
AcDbScale
 70
     0
300
1:20
140
1.0
141
20.0
290
     0
  0
SCALE
  5
28B11
102
{ACAD_REACTORS
330
28B08
102
}
330
28B08
100
AcDbScale
 70
     0
300
1:30
140
1.0
141
30.0
290
     0
  0
SCALE
  5
28B12
102
{ACAD_REACTORS
330
28B08
102
}
330
28B08
100
AcDbScale
 70
     0
300
1:40
140
1.0
141
40.0
290
     0
  0
SCALE
  5
28B13
102
{ACAD_REACTORS
330
28B08
102
}
330
28B08
100
AcDbScale
 70
     0
300
1:50
140
1.0
141
50.0
290
     0
  0
SCALE
  5
28B14
102
{ACAD_REACTORS
330
28B08
102
}
330
28B08
100
AcDbScale
 70
     0
300
1:100
140
1.0
141
100.0
290
     0
  0
SCALE
  5
28B15
102
{ACAD_REACTORS
330
28B08
102
}
330
28B08
100
AcDbScale
 70
     0
300
2:1
140
2.0
141
1.0
290
     0
  0
SCALE
  5
28B16
102
{ACAD_REACTORS
330
28B08
102
}
330
28B08
100
AcDbScale
 70
     0
300
4:1
140
4.0
141
1.0
290
     0
  0
SCALE
  5
28B17
102
{ACAD_REACTORS
330
28B08
102
}
330
28B08
100
AcDbScale
 70
     0
300
8:1
140
8.0
141
1.0
290
     0
  0
SCALE
  5
28B18
102
{ACAD_REACTORS
330
28B08
102
}
330
28B08
100
AcDbScale
 70
     0
300
10:1
140
10.0
141
1.0
290
     0
  0
SCALE
  5
28B19
102
{ACAD_REACTORS
330
28B08
102
}
330
28B08
100
AcDbScale
 70
     0
300
100:1
140
100.0
141
1.0
290
     0
  0
SCALE
  5
28B1A
102
{ACAD_REACTORS
330
28B08
102
}
330
28B08
100
AcDbScale
 70
     0
300
1/128" = 1'-0"
140
0.0078125
141
12.0
290
     0
  0
SCALE
  5
28B1B
102
{ACAD_REACTORS
330
28B08
102
}
330
28B08
100
AcDbScale
 70
     0
300
1/64" = 1'-0"
140
0.015625
141
12.0
290
     0
  0
SCALE
  5
28B1C
102
{ACAD_REACTORS
330
28B08
102
}
330
28B08
100
AcDbScale
 70
     0
300
1/32" = 1'-0"
140
0.03125
141
12.0
290
     0
  0
SCALE
  5
28B1D
102
{ACAD_REACTORS
330
28B08
102
}
330
28B08
100
AcDbScale
 70
     0
300
1/16" = 1'-0"
140
0.0625
141
12.0
290
     0
  0
SCALE
  5
28B1E
102
{ACAD_REACTORS
330
28B08
102
}
330
28B08
100
AcDbScale
 70
     0
300
3/32" = 1'-0"
140
0.09375
141
12.0
290
     0
  0
SCALE
  5
28B1F
102
{ACAD_REACTORS
330
28B08
102
}
330
28B08
100
AcDbScale
 70
     0
300
1/8" = 1'-0"
140
0.125
141
12.0
290
     0
  0
SCALE
  5
28B20
102
{ACAD_REACTORS
330
28B08
102
}
330
28B08
100
AcDbScale
 70
     0
300
3/16" = 1'-0"
140
0.1875
141
12.0
290
     0
  0
SCALE
  5
28B21
102
{ACAD_REACTORS
330
28B08
102
}
330
28B08
100
AcDbScale
 70
     0
300
1/4" = 1'-0"
140
0.25
141
12.0
290
     0
  0
SCALE
  5
28B22
102
{ACAD_REACTORS
330
28B08
102
}
330
28B08
100
AcDbScale
 70
     0
300
3/8" = 1'-0"
140
0.375
141
12.0
290
     0
  0
SCALE
  5
28B23
102
{ACAD_REACTORS
330
28B08
102
}
330
28B08
100
AcDbScale
 70
     0
300
1/2" = 1'-0"
140
0.5
141
12.0
290
     0
  0
SCALE
  5
28B24
102
{ACAD_REACTORS
330
28B08
102
}
330
28B08
100
AcDbScale
 70
     0
300
3/4" = 1'-0"
140
0.75
141
12.0
290
     0
  0
SCALE
  5
28B25
102
{ACAD_REACTORS
330
28B08
102
}
330
28B08
100
AcDbScale
 70
     0
300
1" = 1'-0"
140
1.0
141
12.0
290
     0
  0
SCALE
  5
28B26
102
{ACAD_REACTORS
330
28B08
102
}
330
28B08
100
AcDbScale
 70
     0
300
1-1/2" = 1'-0"
140
1.5
141
12.0
290
     0
  0
SCALE
  5
28B27
102
{ACAD_REACTORS
330
28B08
102
}
330
28B08
100
AcDbScale
 70
     0
300
3" = 1'-0"
140
3.0
141
12.0
290
     0
  0
SCALE
  5
28B28
102
{ACAD_REACTORS
330
28B08
102
}
330
28B08
100
AcDbScale
 70
     0
300
6" = 1'-0"
140
6.0
141
12.0
290
     0
  0
SCALE
  5
28B29
102
{ACAD_REACTORS
330
28B08
102
}
330
28B08
100
AcDbScale
 70
     0
300
1'-0" = 1'-0"
140
12.0
141
12.0
290
     0
  0
DICTIONARYVAR
  5
73F2
102
{ACAD_REACTORS
330
6377
102
}
330
6377
100
DictionaryVariables
280
     0
  1
1
  0
DICTIONARYVAR
  5
28B64
102
{ACAD_REACTORS
330
6377
102
}
330
6377
100
DictionaryVariables
280
     0
  1
0
  0
DICTIONARYVAR
  5
FE7D
102
{ACAD_REACTORS
330
6377
102
}
330
6377
100
DictionaryVariables
280
     0
  1

  0
DICTIONARYVAR
  5
6378
102
{ACAD_REACTORS
330
6377
102
}
330
6377
100
DictionaryVariables
280
     0
  1
127
  0
ENDSEC
  0
EOF
