  0
SECTION
  2
HEADER
  9
$ACADVER
  1
AC1015
  9
$ACADMAINTVER
 70
     6
  9
$DWGCODEPAGE
  3
ANSI_932
  9
$INSBASE
 10
0.0
 20
0.0
 30
0.0
  9
$EXTMIN
 10
12856.93318299757
 20
-3374.883000102277
 30
0.0
  9
$EXTMAX
 10
12932.7665163309
 20
-3283.982029925432
 30
0.0
  9
$LIMMIN
 10
0.0
 20
0.0
  9
$LIMMAX
 10
420.0
 20
297.0
  9
$ORTHOMODE
 70
     1
  9
$REGENMODE
 70
     1
  9
$FILLMODE
 70
     1
  9
$QTEXTMODE
 70
     0
  9
$MIRRTEXT
 70
     1
  9
$LTSCALE
 40
5.0
  9
$ATTMODE
 70
     0
  9
$TEXTSIZE
 40
3.5
  9
$TRACEWID
 40
1.0
  9
$TEXTSTYLE
  7
STANDARD
  9
$CLAYER
  8
寸法線
  9
$CELTYPE
  6
BYLAYER
  9
$CECOLOR
 62
   256
  9
$CELTSCALE
 40
1.0
  9
$DISPSILH
 70
     0
  9
$DIMSCALE
 40
1.0
  9
$DIMASZ
 40
2.5
  9
$DIMEXO
 40
1.5
  9
$DIMDLI
 40
7.0
  9
$DIMRND
 40
0.0
  9
$DIMDLE
 40
0.0
  9
$DIMEXE
 40
1.0
  9
$DIMTP
 40
0.0
  9
$DIMTM
 40
0.0
  9
$DIMTXT
 40
3.0
  9
$DIMCEN
 40
0.0
  9
$DIMTSZ
 40
0.0
  9
$DIMTOL
 70
     0
  9
$DIMLIM
 70
     0
  9
$DIMTIH
 70
     0
  9
$DIMTOH
 70
     0
  9
$DIMSE1
 70
     0
  9
$DIMSE2
 70
     0
  9
$DIMTAD
 70
     3
  9
$DIMZIN
 70
     9
  9
$DIMBLK
  1
OPEN30
  9
$DIMASO
 70
     1
  9
$DIMSHO
 70
     0
  9
$DIMPOST
  1

  9
$DIMAPOST
  1

  9
$DIMALT
 70
     0
  9
$DIMALTD
 70
     0
  9
$DIMALTF
 40
25.4
  9
$DIMLFAC
 40
1.0
  9
$DIMTOFL
 70
     1
  9
$DIMTVP
 40
0.0
  9
$DIMTIX
 70
     0
  9
$DIMSOXD
 70
     0
  9
$DIMSAH
 70
     0
  9
$DIMBLK1
  1

  9
$DIMBLK2
  1

  9
$DIMSTYLE
  2
STANDARD
  9
$DIMCLRD
 70
     8
  9
$DIMCLRE
 70
     8
  9
$DIMCLRT
 70
   256
  9
$DIMTFAC
 40
0.6
  9
$DIMGAP
 40
1.0
  9
$DIMJUST
 70
     0
  9
$DIMSD1
 70
     0
  9
$DIMSD2
 70
     0
  9
$DIMTOLJ
 70
     1
  9
$DIMTZIN
 70
     9
  9
$DIMALTZ
 70
     9
  9
$DIMALTTZ
 70
     9
  9
$DIMUPT
 70
     0
  9
$DIMDEC
 70
     3
  9
$DIMTDEC
 70
     3
  9
$DIMALTU
 70
     2
  9
$DIMALTTD
 70
     0
  9
$DIMTXSTY
  7
STANDARD
  9
$DIMAUNIT
 70
     0
  9
$DIMADEC
 70
     3
  9
$DIMALTRND
 40
0.0
  9
$DIMAZIN
 70
     2
  9
$DIMDSEP
 70
    46
  9
$DIMATFIT
 70
     0
  9
$DIMFRAC
 70
     0
  9
$DIMLDRBLK
  1
OPEN30
  9
$DIMLUNIT
 70
     2
  9
$DIMLWD
 70
    -2
  9
$DIMLWE
 70
    -2
  9
$DIMTMOVE
 70
     0
  9
$LUNITS
 70
     2
  9
$LUPREC
 70
     2
  9
$SKETCHINC
 40
0.1
  9
$FILLETRAD
 40
1.0
  9
$AUNITS
 70
     0
  9
$AUPREC
 70
     1
  9
$MENU
  1
FM
  9
$ELEVATION
 40
0.0
  9
$PELEVATION
 40
0.0
  9
$THICKNESS
 40
0.0
  9
$LIMCHECK
 70
     0
  9
$CHAMFERA
 40
0.0
  9
$CHAMFERB
 40
0.0
  9
$CHAMFERC
 40
0.0
  9
$CHAMFERD
 40
0.0
  9
$SKPOLY
 70
     0
  9
$TDCREATE
 40
2448636.619629629
  9
$TDUCREATE
 40
2448636.244629629
  9
$TDUPDATE
 40
2456821.578034849
  9
$TDUUPDATE
 40
2456821.203034849
  9
$TDINDWG
 40
100.6406008681
  9
$TDUSRTIMER
 40
2456821.202829051
  9
$USRTIMER
 70
     1
  9
$ANGBASE
 50
0.0
  9
$ANGDIR
 70
     0
  9
$PDMODE
 70
     3
  9
$PDSIZE
 40
0.0
  9
$PLINEWID
 40
0.0
  9
$SPLFRAME
 70
     0
  9
$SPLINETYPE
 70
     6
  9
$SPLINESEGS
 70
     8
  9
$HANDSEED
  5
3534C5
  9
$SURFTAB1
 70
     6
  9
$SURFTAB2
 70
     6
  9
$SURFTYPE
 70
     6
  9
$SURFU
 70
     6
  9
$SURFV
 70
     6
  9
$UCSBASE
  2

  9
$UCSNAME
  2

  9
$UCSORG
 10
0.0
 20
0.0
 30
0.0
  9
$UCSXDIR
 10
1.0
 20
0.0
 30
0.0
  9
$UCSYDIR
 10
0.0
 20
1.0
 30
0.0
  9
$UCSORTHOREF
  2

  9
$UCSORTHOVIEW
 70
     0
  9
$UCSORGTOP
 10
0.0
 20
0.0
 30
0.0
  9
$UCSORGBOTTOM
 10
0.0
 20
0.0
 30
0.0
  9
$UCSORGLEFT
 10
0.0
 20
0.0
 30
0.0
  9
$UCSORGRIGHT
 10
0.0
 20
0.0
 30
0.0
  9
$UCSORGFRONT
 10
0.0
 20
0.0
 30
0.0
  9
$UCSORGBACK
 10
0.0
 20
0.0
 30
0.0
  9
$PUCSBASE
  2

  9
$PUCSNAME
  2

  9
$PUCSORG
 10
0.0
 20
0.0
 30
0.0
  9
$PUCSXDIR
 10
1.0
 20
0.0
 30
0.0
  9
$PUCSYDIR
 10
0.0
 20
1.0
 30
0.0
  9
$PUCSORTHOREF
  2

  9
$PUCSORTHOVIEW
 70
     0
  9
$PUCSORGTOP
 10
0.0
 20
0.0
 30
0.0
  9
$PUCSORGBOTTOM
 10
0.0
 20
0.0
 30
0.0
  9
$PUCSORGLEFT
 10
0.0
 20
0.0
 30
0.0
  9
$PUCSORGRIGHT
 10
0.0
 20
0.0
 30
0.0
  9
$PUCSORGFRONT
 10
0.0
 20
0.0
 30
0.0
  9
$PUCSORGBACK
 10
0.0
 20
0.0
 30
0.0
  9
$USERI1
 70
     0
  9
$USERI2
 70
     0
  9
$USERI3
 70
     0
  9
$USERI4
 70
     0
  9
$USERI5
 70
     0
  9
$USERR1
 40
0.0
  9
$USERR2
 40
0.0
  9
$USERR3
 40
0.0
  9
$USERR4
 40
0.0
  9
$USERR5
 40
0.0
  9
$WORLDVIEW
 70
     0
  9
$SHADEDGE
 70
     3
  9
$SHADEDIF
 70
    70
  9
$TILEMODE
 70
     1
  9
$MAXACTVP
 70
    16
  9
$PINSBASE
 10
0.0
 20
0.0
 30
0.0
  9
$PLIMCHECK
 70
     0
  9
$PEXTMIN
 10
1.000000000000000E+20
 20
1.000000000000000E+20
 30
1.000000000000000E+20
  9
$PEXTMAX
 10
-1.000000000000000E+20
 20
-1.000000000000000E+20
 30
-1.000000000000000E+20
  9
$PLIMMIN
 10
0.0
 20
0.0
  9
$PLIMMAX
 10
0.0
 20
0.0
  9
$UNITMODE
 70
     0
  9
$VISRETAIN
 70
     0
  9
$PLINEGEN
 70
     0
  9
$PSLTSCALE
 70
     0
  9
$TREEDEPTH
 70
  3020
  9
$CMLSTYLE
  2
STANDARD
  9
$CMLJUST
 70
     0
  9
$CMLSCALE
 40
1.0
  9
$PROXYGRAPHICS
 70
     1
  9
$MEASUREMENT
 70
     0
  9
$CELWEIGHT
370
    -1
  9
$ENDCAPS
280
     0
  9
$JOINSTYLE
280
     0
  9
$LWDISPLAY
290
     1
  9
$INSUNITS
 70
     0
  9
$HYPERLINKBASE
  1

  9
$STYLESHEET
  1
spax form.ctb
  9
$XEDIT
290
     1
  9
$CEPSNTYPE
380
     0
  9
$PSTYLEMODE
290
     1
  9
$FINGERPRINTGUID
  2
{E5B35D22-A717-11D3-9160-00E0294F7E09}
  9
$VERSIONGUID
  2
{6C6EB018-F175-4477-8A56-FF7044060CFD}
  9
$EXTNAMES
290
     1
  9
$PSVPSCALE
 40
0.0
  9
$OLESTARTUP
290
     0
  0
ENDSEC
  0
SECTION
  2
CLASSES
  0
CLASS
  1
LWPOLYLINE
  2
AcDbPolyline
  3
ObjectDBX Classes
 90
        0
280
     0
281
     1
  0
CLASS
  1
ACDBDICTIONARYWDFLT
  2
AcDbDictionaryWithDefault
  3
ObjectDBX Classes
 90
        0
280
     0
281
     0
  0
CLASS
  1
ACDBPLACEHOLDER
  2
AcDbPlaceHolder
  3
ObjectDBX Classes
 90
        0
280
     0
281
     0
  0
CLASS
  1
LAYOUT
  2
AcDbLayout
  3
ObjectDBX Classes
 90
        0
280
     0
281
     0
  0
CLASS
  1
DICTIONARYVAR
  2
AcDbDictionaryVar
  3
ObjectDBX Classes
 90
        0
280
     0
281
     0
  0
CLASS
  1
MATERIAL
  2
AcDbMaterial
  3
ObjectDBX Classes
 90
     1153
280
     0
281
     0
  0
CLASS
  1
SORTENTSTABLE
  2
AcDbSortentsTable
  3
ObjectDBX Classes
 90
        0
280
     0
281
     0
  0
CLASS
  1
VISUALSTYLE
  2
AcDbVisualStyle
  3
ObjectDBX Classes
 90
     4095
280
     0
281
     0
  0
CLASS
  1
TABLESTYLE
  2
AcDbTableStyle
  3
ObjectDBX Classes
 90
     4095
280
     0
281
     0
  0
CLASS
  1
SCALE
  2
AcDbScale
  3
ObjectDBX Classes
 90
     1153
280
     0
281
     0
  0
CLASS
  1
MLEADERSTYLE
  2
AcDbMLeaderStyle
  3
ACDB_MLEADERSTYLE_CLASS
 90
     4095
280
     0
281
     0
  0
CLASS
  1
CELLSTYLEMAP
  2
AcDbCellStyleMap
  3
ObjectDBX Classes
 90
     1152
280
     0
281
     0
  0
CLASS
  1
MULTILEADER
  2
AcDbMLeader
  3
ACDB_MLEADER_CLASS
 90
     1025
280
     0
281
     1
  0
CLASS
  1
DIMASSOC
  2
AcDbDimAssoc
  3
"AcDbDimAssoc|Product Desc:     AcDim ARX App For Dimension|Company:          Autodesk, Inc.|WEB Address:      www.autodesk.com"
 90
        0
280
     0
281
     0
  0
CLASS
  1
LARGE_RADIAL_DIMENSION
  2
AcDbRadialDimensionLarge
  3
ObjectDBX Classes
 90
     1025
280
     0
281
     1
  0
CLASS
  1
RASTERVARIABLES
  2
AcDbRasterVariables
  3
ISM
 90
        0
280
     0
281
     0
  0
CLASS
  1
SUN
  2
AcDbSun
  3
SCENEOE
 90
     1153
280
     0
281
     0
  0
ENDSEC
  0
SECTION
  2
TABLES
  0
TABLE
  2
VPORT
  5
8
330
0
100
AcDbSymbolTable
 70
     1
  0
VPORT
  5
3523F0
330
8
100
AcDbSymbolTableRecord
100
AcDbViewportTableRecord
  2
*Active
 70
     0
 10
0.0
 20
0.0
 11
1.0
 21
1.0
 12
12894.84984966424
 22
-3329.432515013855
 13
0.0
 23
0.0
 14
1.0
 24
1.0
 15
20.0
 25
20.0
 16
0.0
 26
0.0
 36
1.0
 17
0.0
 27
0.0
 37
0.0
 40
92.71898958038193
 41
1.731829573934837
 42
50.0
 43
0.0
 44
0.0
 50
0.0
 51
0.0
 71
    16
 72
   100
 73
     1
 74
     0
 75
     0
 76
     0
 77
     0
 78
     0
281
     0
 65
     1
110
0.0
120
0.0
130
0.0
111
1.0
121
0.0
131
0.0
112
0.0
122
1.0
132
0.0
 79
     0
146
0.0
  0
ENDTAB
  0
TABLE
  2
LTYPE
  5
5
330
0
100
AcDbSymbolTable
 70
     4
  0
LTYPE
  5
12
330
5
100
AcDbSymbolTableRecord
100
AcDbLinetypeTableRecord
  2
BYBLOCK
 70
     0
  3

 72
    65
 73
     0
 40
0.0
  0
LTYPE
  5
13
330
5
100
AcDbSymbolTableRecord
100
AcDbLinetypeTableRecord
  2
BYLAYER
 70
     0
  3

 72
    65
 73
     0
 40
0.0
  0
LTYPE
  5
14
330
5
100
AcDbSymbolTableRecord
100
AcDbLinetypeTableRecord
  2
CONTINUOUS
 70
     0
  3
Solid line
 72
    65
 73
     0
 40
0.0
  0
LTYPE
  5
25
330
5
100
AcDbSymbolTableRecord
100
AcDbLinetypeTableRecord
  2
CENTER
 70
     0
  3
____ _ ____ _ ____ _ ____ _ ____ _ ____ _ ____
 72
    65
 73
     4
 40
2.0
 49
1.25
 74
     0
 49
-0.25
 74
     0
 49
0.25
 74
     0
 49
-0.25
 74
     0
  0
LTYPE
  5
26
330
5
100
AcDbSymbolTableRecord
100
AcDbLinetypeTableRecord
  2
PHANTOM
 70
     0
  3
_____ _ _ _____ _ _ _____ _ _ _____ _ _ ____
 72
    65
 73
     6
 40
2.5
 49
1.25
 74
     0
 49
-0.25
 74
     0
 49
0.25
 74
     0
 49
-0.25
 74
     0
 49
0.25
 74
     0
 49
-0.25
 74
     0
  0
LTYPE
  5
27
330
5
100
AcDbSymbolTableRecord
100
AcDbLinetypeTableRecord
  2
HIDDEN
 70
     0
  3
_ _ _ _ _ _ _ _ _ _ _ _ _ _ _ _ _ _ _ _ _ _ _
 72
    65
 73
     2
 40
0.375
 49
0.25
 74
     0
 49
-0.125
 74
     0
  0
ENDTAB
  0
TABLE
  2
LAYER
  5
2
102
{ACAD_XDICTIONARY
360
559E
102
}
330
0
100
AcDbSymbolTable
 70
    17
  0
LAYER
  5
F
102
{ACAD_XDICTIONARY
360
CD7F
102
}
330
2
100
AcDbSymbolTableRecord
100
AcDbLayerTableRecord
  2
0
 70
     0
 62
     7
  6
CONTINUOUS
370
    -3
390
352
  0
LAYER
  5
34
102
{ACAD_XDICTIONARY
360
CD85
102
}
330
2
100
AcDbSymbolTableRecord
100
AcDbLayerTableRecord
  2
寸法線
 70
     0
 62
     7
  6
CONTINUOUS
370
    -3
390
352
  0
LAYER
  5
2F4
102
{ACAD_XDICTIONARY
360
CD8D
102
}
330
2
100
AcDbSymbolTableRecord
100
AcDbLayerTableRecord
  2
文字
 70
     0
 62
     7
  6
CONTINUOUS
370
    -3
390
352
  0
LAYER
  5
306B15
330
2
100
AcDbSymbolTableRecord
100
AcDbLayerTableRecord
  2
C-SUNPO
 70
     0
 62
     7
  6
CONTINUOUS
370
    -3
390
352
  0
LAYER
  5
31D3CB
330
2
100
AcDbSymbolTableRecord
100
AcDbLayerTableRecord
  2
姿図
 70
     0
 62
     8
  6
CONTINUOUS
370
    -3
390
352
  0
ENDTAB
  0
TABLE
  2
STYLE
  5
3
330
0
100
AcDbSymbolTable
 70
     1
  0
STYLE
  5
10
330
3
100
AcDbSymbolTableRecord
100
AcDbTextStyleTableRecord
  2
STANDARD
 70
     0
 40
0.0
 41
1.0
 50
0.0
 71
     0
 42
3.5
  3
MONOTXT
  4
BIGFONT
  0
ENDTAB
  0
TABLE
  2
VIEW
  5
6
330
0
100
AcDbSymbolTable
 70
     0
  0
ENDTAB
  0
TABLE
  2
UCS
  5
7
330
0
100
AcDbSymbolTable
 70
     0
  0
ENDTAB
  0
TABLE
  2
APPID
  5
9
330
0
100
AcDbSymbolTable
 70
    18
  0
APPID
  5
11
330
9
100
AcDbSymbolTableRecord
100
AcDbRegAppTableRecord
  2
ACAD
 70
     0
  0
APPID
  5
C058
330
9
100
AcDbSymbolTableRecord
100
AcDbRegAppTableRecord
  2
AcAecLayerStandard
 70
     0
  0
APPID
  5
CD77
330
9
100
AcDbSymbolTableRecord
100
AcDbRegAppTableRecord
  2
ACAD_MLEADERVER
 70
     0
  0
APPID
  5
D036
330
9
100
AcDbSymbolTableRecord
100
AcDbRegAppTableRecord
  2
ACAD_PSEXT
 70
     0
  0
APPID
  5
D28E
330
9
100
AcDbSymbolTableRecord
100
AcDbRegAppTableRecord
  2
ACAD_DSTYLE_DIMJAG
 70
     0
  0
APPID
  5
D28F
330
9
100
AcDbSymbolTableRecord
100
AcDbRegAppTableRecord
  2
ACAD_DSTYLE_DIMTALN
 70
     0
  0
APPID
  5
10E35
330
9
100
AcDbSymbolTableRecord
100
AcDbRegAppTableRecord
  2
ACAD_EXEMPT_FROM_CAD_STANDARDS
 70
     0
  0
APPID
  5
36B90
330
9
100
AcDbSymbolTableRecord
100
AcDbRegAppTableRecord
  2
ACAD_DSTYLE_DIMRADIAL_EXTENSION
 70
     0
  0
APPID
  5
4CBB9
330
9
100
AcDbSymbolTableRecord
100
AcDbRegAppTableRecord
  2
WACOM_STRING
 70
     0
  0
APPID
  5
4CBBA
330
9
100
AcDbSymbolTableRecord
100
AcDbRegAppTableRecord
  2
WACOM_DRSYM_ARROW
 70
     0
  0
APPID
  5
83B4C
330
9
100
AcDbSymbolTableRecord
100
AcDbRegAppTableRecord
  2
ACAD_DSTYLE_DIMRADIAL_EXTE
 70
     0
  0
APPID
  5
83B4D
330
9
100
AcDbSymbolTableRecord
100
AcDbRegAppTableRecord
  2
ACAD_DSTYLE_DIMBREAK
 70
     0
  0
APPID
  5
83B4E
330
9
100
AcDbSymbolTableRecord
100
AcDbRegAppTableRecord
  2
ACAD_DSTYLE_DIMARC_LENGTH_
 70
     0
  0
APPID
  5
8B472
330
9
100
AcDbSymbolTableRecord
100
AcDbRegAppTableRecord
  2
LAYER_SCALE
 70
     0
  0
APPID
  5
8B473
330
9
100
AcDbSymbolTableRecord
100
AcDbRegAppTableRecord
  2
KCAD_DIM_EXT
 70
     0
  0
APPID
  5
16ECBA
330
9
100
AcDbSymbolTableRecord
100
AcDbRegAppTableRecord
  2
GENIUS_GENDTOL_13
 70
     0
  0
APPID
  5
23CCFB
330
9
100
AcDbSymbolTableRecord
100
AcDbRegAppTableRecord
  2
AcadAnnotative
 70
     0
  0
APPID
  5
31A28D
330
9
100
AcDbSymbolTableRecord
100
AcDbRegAppTableRecord
  2
ACAD_DSTYLE_DIMFLIPARROW_WHICH_SYMBOL
 70
     0
  0
ENDTAB
  0
TABLE
  2
DIMSTYLE
  5
A
330
0
100
AcDbSymbolTable
 70
     3
100
AcDbDimStyleTable
  0
DIMSTYLE
105
1CC
330
A
100
AcDbSymbolTableRecord
100
AcDbDimStyleTableRecord
  2
STANDARD
 70
     0
 41
2.5
 42
1.5
 43
7.0
 44
1.0
 45
0.0
 73
     0
 74
     0
 77
     3
 78
     8
 79
     2
140
3.0
141
0.0
146
0.6
147
1.0
171
     0
172
     1
176
     8
177
     8
271
     3
178
   256
179
     3
271
     3
272
     3
274
     0
289
     0
340
10
341
265D
342
265D
1001
ACAD_DSTYLE_DIMJAG
1070
   388
1040
1.5
1001
ACAD_DSTYLE_DIMTALN
1070
   392
1070
     0
  0
ENDTAB
  0
TABLE
  2
BLOCK_RECORD
  5
1
330
0
100
AcDbSymbolTable
 70
    12
  0
BLOCK_RECORD
  5
18
102
{ACAD_XDICTIONARY
360
D25F
102
}
330
1
100
AcDbSymbolTableRecord
100
AcDbBlockTableRecord
  2
*MODEL_SPACE
340
355
  0
BLOCK_RECORD
  5
15
330
1
100
AcDbSymbolTableRecord
100
AcDbBlockTableRecord
  2
*PAPER_SPACE
340
356
  0
BLOCK_RECORD
  5
33F
330
1
100
AcDbSymbolTableRecord
100
AcDbBlockTableRecord
  2
_OPEN
340
0
102
{BLKREFS
331
3265D9
331
3265DA
331
3265E2
331
3265E3
331
3265EB
331
3265EC
331
3533A0
331
3533A1
331
353437
331
353438
331
353442
331
353443
331
35344B
331
35344C
102
}
  0
BLOCK_RECORD
  5
416
330
1
100
AcDbSymbolTableRecord
100
AcDbBlockTableRecord
  2
SUN
340
0
  0
BLOCK_RECORD
  5
265D
330
1
100
AcDbSymbolTableRecord
100
AcDbBlockTableRecord
  2
_OPEN30
340
0
102
{BLKREFS
331
34F0F4
331
34F0F5
102
}
  0
ENDTAB
  0
ENDSEC
  0
SECTION
  2
BLOCKS
  0
BLOCK
  5
39
330
18
100
AcDbEntity
  8
0
100
AcDbBlockBegin
  2
*MODEL_SPACE
 70
     0
 10
0.0
 20
0.0
 30
0.0
  3
*MODEL_SPACE
  1
*MODEL_SPACE
  0
ENDBLK
  5
3A
330
18
100
AcDbEntity
  8
0
100
AcDbBlockEnd
  0
BLOCK
  5
37
330
15
100
AcDbEntity
 67
     1
  8
0
100
AcDbBlockBegin
  2
*PAPER_SPACE
 70
     0
 10
0.0
 20
0.0
 30
0.0
  3
*PAPER_SPACE
  1
*PAPER_SPACE
  0
ENDBLK
  5
38
330
15
100
AcDbEntity
 67
     1
  8
0
100
AcDbBlockEnd
  0
BLOCK
  5
340
330
33F
100
AcDbEntity
  8
0
100
AcDbBlockBegin
  2
_OPEN
 70
     0
 10
0.0
 20
0.0
 30
0.0
  3
_OPEN
  1
_OPEN
  0
LINE
  5
341
330
33F
100
AcDbEntity
  8
0
  6
ByBlock
 62
     0
100
AcDbLine
 10
-1.0
 20
0.1666666666666667
 30
0.0
 11
0.0
 21
0.0
 31
0.0
  0
LINE
  5
342
330
33F
100
AcDbEntity
  8
0
  6
ByBlock
 62
     0
100
AcDbLine
 10
0.0
 20
0.0
 30
0.0
 11
-1.0
 21
-0.1666666666666667
 31
0.0
  0
LINE
  5
343
330
33F
100
AcDbEntity
  8
0
  6
ByBlock
 62
     0
100
AcDbLine
 10
0.0
 20
0.0
 30
0.0
 11
-1.0
 21
0.0
 31
0.0
  0
ENDBLK
  5
344
330
33F
100
AcDbEntity
  8
0
100
AcDbBlockEnd
  0
BLOCK
  5
41A
330
416
100
AcDbEntity
  8
0
100
AcDbBlockBegin
  2
SUN
 70
     0
 10
0.0
 20
0.0
 30
0.0
  3
SUN
  1
SUN
  0
LINE
  5
417
330
416
100
AcDbEntity
  8
0
100
AcDbLine
 10
-0.0000000000000568
 20
0.0
 30
0.0
 11
-1.500000000000057
 21
0.0
 31
0.0
  0
LINE
  5
418
330
416
100
AcDbEntity
  8
0
100
AcDbLine
 10
-0.0000000000000568
 20
0.0000000000000284
 30
0.0
 11
-1.500000000000057
 21
0.401923788646684
 31
0.0
  0
LINE
  5
419
330
416
100
AcDbEntity
  8
0
100
AcDbLine
 10
-0.0000000000000568
 20
0.0000000000000284
 30
0.0
 11
-1.500000000000057
 21
-0.4019237886466556
 31
0.0
  0
ENDBLK
  5
41B
330
416
100
AcDbEntity
  8
0
100
AcDbBlockEnd
  0
BLOCK
  5
265E
330
265D
100
AcDbEntity
  8
0
100
AcDbBlockBegin
  2
_OPEN30
 70
     0
 10
0.0
 20
0.0
 30
0.0
  3
_OPEN30
  1
_OPEN30
  0
LINE
  5
265F
330
265D
100
AcDbEntity
  8
0
  6
ByBlock
 62
     0
100
AcDbLine
 10
-1.0
 20
0.26794919
 30
0.0
 11
0.0
 21
0.0
 31
0.0
  0
LINE
  5
2660
330
265D
100
AcDbEntity
  8
0
  6
ByBlock
 62
     0
100
AcDbLine
 10
0.0
 20
0.0
 30
0.0
 11
-1.0
 21
-0.26794919
 31
0.0
  0
LINE
  5
2661
330
265D
100
AcDbEntity
  8
0
  6
ByBlock
 62
     0
100
AcDbLine
 10
0.0
 20
0.0
 30
0.0
 11
-1.0
 21
0.0
 31
0.0
  0
ENDBLK
  5
2662
330
265D
100
AcDbEntity
  8
0
100
AcDbBlockEnd
  0
ENDSEC
  0
SECTION
  2
ENTITIES
  0
MTEXT
  5
8182F
330
18
100
AcDbEntity
  8
0
100
AcDbMText
 10
5598.734167156057
 20
-2635.335630549191
 30
0.0
 40
3.0
 41
0.0
 71
     7
 72
     1
  1
\A1;
 73
     1
 44
1.0
  0
MTEXT
  5
3073B9
330
18
100
AcDbEntity
  8
C-SUNPO
 62
     7
100
AcDbMText
 10
8897.245354628265
 20
-2466.345110988794
 30
0.0
 40
2.0
 41
0.0
 71
     5
 72
     1
  1
\A1;\P\P 
 11
0.999998667560571
 21
0.001632445123950444
 31
0.0
 73
     1
 44
1.0
  0
TEXT
  5
352926
330
18
100
AcDbEntity
  8
文字
100
AcDbText
 10
12856.93318299757
 20
-3374.883000102277
 30
0.0
 40
6.5
  1
SX-B1351D/BF
100
AcDbText
  0
SPLINE
  5
35329F
330
18
100
AcDbEntity
  8
姿図
100
AcDbSpline
210
0.0
220
0.0
230
1.0
 70
    11
 71
     3
 72
    17
 73
    13
 74
     0
 42
0.000000001
 43
0.0000000001
 40
0.0
 40
0.0
 40
0.0
 40
0.0
 40
1.0
 40
1.0
 40
1.0
 40
2.0
 40
2.0
 40
2.0
 40
3.0
 40
3.0
 40
3.0
 40
4.0
 40
4.0
 40
4.0
 40
4.0
 10
12921.36467645177
 20
-3347.856784045679
 30
0.0
 10
12921.36467645177
 20
-3350.794295982805
 30
0.0
 10
12912.49874107392
 20
-3353.175577318753
 30
0.0
 10
12901.56200979926
 20
-3353.175577318753
 30
0.0
 10
12890.62532317306
 20
-3353.175577318753
 30
0.0
 10
12881.75934314675
 20
-3350.794295982805
 30
0.0
 10
12881.75934314675
 20
-3347.856784045679
 30
0.0
 10
12881.75934314675
 20
-3344.919361405488
 30
0.0
 10
12890.62532317306
 20
-3342.537990772606
 30
0.0
 10
12901.56200979926
 20
-3342.537990772606
 30
0.0
 10
12912.49874107392
 20
-3342.537990772606
 30
0.0
 10
12921.36467645177
 20
-3344.919361405488
 30
0.0
 10
12921.36467645177
 20
-3347.856784045679
 30
0.0
  0
SPLINE
  5
3532A0
330
18
100
AcDbEntity
  8
姿図
100
AcDbSpline
210
0.0
220
0.0
230
1.0
 70
     8
 71
     3
 72
    11
 73
     7
 74
     0
 42
0.000000001
 43
0.0000000001
 40
0.0
 40
0.0
 40
0.0
 40
0.0
 40
1.0
 40
1.0
 40
1.0
 40
2.0
 40
2.0
 40
2.0
 40
2.0
 10
12881.75934314675
 20
-3347.342880191163
 30
0.0
 10
12881.75934314675
 20
-3344.405457550971
 30
0.0
 10
12890.62532317306
 20
-3342.024176215024
 30
0.0
 10
12901.56200979926
 20
-3342.024176215024
 30
0.0
 10
12912.49874107392
 20
-3342.024176215024
 30
0.0
 10
12921.36467645177
 20
-3344.405457550971
 30
0.0
 10
12921.36467645177
 20
-3347.342880191163
 30
0.0
  0
POLYLINE
  5
3532A1
330
18
100
AcDbEntity
  8
姿図
100
AcDb2dPolyline
 66
     1
 10
0.0
 20
0.0
 30
0.0
  0
VERTEX
  5
3532A2
330
3532A1
100
AcDbEntity
  8
姿図
100
AcDbVertex
100
AcDb2dVertex
 10
12881.75934314675
 20
-3347.856784045679
 30
0.0
  0
VERTEX
  5
3532A3
330
3532A1
100
AcDbEntity
  8
姿図
100
AcDbVertex
100
AcDb2dVertex
 10
12881.75934314675
 20
-3347.342880191163
 30
0.0
  0
SEQEND
  5
3532A4
330
3532A1
100
AcDbEntity
  8
姿図
  0
POLYLINE
  5
3532A5
330
18
100
AcDbEntity
  8
姿図
100
AcDb2dPolyline
 66
     1
 10
0.0
 20
0.0
 30
0.0
  0
VERTEX
  5
3532A6
330
3532A5
100
AcDbEntity
  8
姿図
100
AcDbVertex
100
AcDb2dVertex
 10
12921.36467645177
 20
-3347.856784045679
 30
0.0
  0
VERTEX
  5
3532A7
330
3532A5
100
AcDbEntity
  8
姿図
100
AcDbVertex
100
AcDb2dVertex
 10
12921.36467645177
 20
-3347.342880191163
 30
0.0
  0
SEQEND
  5
3532A8
330
3532A5
100
AcDbEntity
  8
姿図
  0
SPLINE
  5
3532A9
330
18
100
AcDbEntity
  8
姿図
100
AcDbSpline
210
0.0
220
0.0
230
1.0
 70
     8
 71
     3
 72
    23
 73
    19
 74
     0
 42
0.000000001
 43
0.0000000001
 40
0.0
 40
0.0
 40
0.0
 40
0.0
 40
1.0
 40
1.0
 40
1.0
 40
2.0
 40
2.0
 40
2.0
 40
3.0
 40
3.0
 40
3.0
 40
4.0
 40
4.0
 40
4.0
 40
5.0
 40
5.0
 40
5.0
 40
6.0
 40
6.0
 40
6.0
 40
6.0
 10
12903.70727933895
 20
-3338.577493160878
 30
0.0
 10
12903.70727933895
 20
-3338.577493160878
 30
0.0
 10
12903.93837980384
 20
-3338.577493160878
 30
0.0
 10
12903.93837980384
 20
-3338.577493160878
 30
0.0
 10
12903.93837980384
 20
-3338.577493160878
 30
0.0
 10
12904.30396145117
 20
-3338.379521858451
 30
0.0
 10
12904.30396145117
 20
-3338.379521858451
 30
0.0
 10
12904.30396145117
 20
-3338.379521858451
 30
0.0
 10
12904.46808921566
 20
-3335.341818761505
 30
0.0
 10
12904.46808921566
 20
-3335.341818761505
 30
0.0
 10
12911.39681690977
 20
-3335.680968516405
 30
0.0
 10
12916.84419776764
 20
-3337.218483124061
 30
0.0
 10
12917.95531951599
 20
-3339.158905497412
 30
0.0
 10
12917.95531951599
 20
-3339.158905497412
 30
0.0
 10
12918.32831280883
 20
-3344.511542308428
 30
0.0
 10
12918.32831280883
 20
-3344.511542308428
 30
0.0
 10
12918.32831280883
 20
-3344.511542308428
 30
0.0
 10
12917.95531951599
 20
-3328.214851874166
 30
0.0
 10
12917.95531951599
 20
-3328.214851874166
 30
0.0
  0
SPLINE
  5
3532AA
330
18
100
AcDbEntity
  8
姿図
100
AcDbSpline
210
0.0
220
0.0
230
1.0
 70
     8
 71
     3
 72
    26
 73
    22
 74
     0
 42
0.000000001
 43
0.0000000001
 40
0.0
 40
0.0
 40
0.0
 40
0.0
 40
1.0
 40
1.0
 40
1.0
 40
2.0
 40
2.0
 40
2.0
 40
3.0
 40
3.0
 40
3.0
 40
4.0
 40
4.0
 40
4.0
 40
5.0
 40
5.0
 40
5.0
 40
6.0
 40
6.0
 40
6.0
 40
7.0
 40
7.0
 40
7.0
 40
7.0
 10
12885.22201035206
 20
-3327.837215140761
 30
0.0
 10
12885.22201035206
 20
-3327.837215140761
 30
0.0
 10
12885.22201035206
 20
-3328.115107199016
 30
0.0
 10
12885.22201035206
 20
-3328.115107199016
 30
0.0
 10
12885.22201035206
 20
-3328.115107199016
 30
0.0
 10
12884.99381203752
 20
-3344.428674753782
 30
0.0
 10
12884.99381203752
 20
-3344.428674753782
 30
0.0
 10
12884.99381203752
 20
-3344.428674753782
 30
0.0
 10
12885.22201035206
 20
-3339.124258287064
 30
0.0
 10
12885.22201035206
 20
-3339.124258287064
 30
0.0
 10
12886.41470484952
 20
-3337.1387409621
 30
0.0
 10
12892.15225609405
 20
-3335.582295404461
 30
0.0
 10
12899.35325013958
 20
-3335.313154445728
 30
0.0
 10
12899.35325013958
 20
-3335.313154445728
 30
0.0
 10
12899.58176099339
 20
-3338.412472427056
 30
0.0
 10
12899.58176099339
 20
-3338.412472427056
 30
0.0
 10
12899.58176099339
 20
-3338.412472427056
 30
0.0
 10
12899.8458120269
 20
-3338.577493160878
 30
0.0
 10
12899.8458120269
 20
-3338.577493160878
 30
0.0
 10
12899.8458120269
 20
-3338.577493160878
 30
0.0
 10
12900.142813629
 20
-3338.577493160878
 30
0.0
 10
12900.142813629
 20
-3338.577493160878
 30
0.0
  0
POLYLINE
  5
3532AB
330
18
100
AcDbEntity
  8
姿図
100
AcDb2dPolyline
 66
     1
 10
0.0
 20
0.0
 30
0.0
  0
VERTEX
  5
3532AC
330
3532AB
100
AcDbEntity
  8
姿図
100
AcDbVertex
100
AcDb2dVertex
 10
12884.33886367593
 20
-3344.716389474765
 30
0.0
  0
VERTEX
  5
3532AD
330
3532AB
100
AcDbEntity
  8
姿図
100
AcDbVertex
100
AcDb2dVertex
 10
12884.33886367593
 20
-3344.716389474765
 30
0.0
  0
VERTEX
  5
3532AE
330
3532AB
100
AcDbEntity
  8
姿図
100
AcDbVertex
100
AcDb2dVertex
 10
12884.82879130369
 20
-3328.323169054971
 30
0.0
  0
VERTEX
  5
3532AF
330
3532AB
100
AcDbEntity
  8
姿図
100
AcDbVertex
100
AcDb2dVertex
 10
12885.22201035206
 20
-3327.837215140761
 30
0.0
  0
VERTEX
  5
3532B0
330
3532AB
100
AcDbEntity
  8
姿図
100
AcDbVertex
100
AcDb2dVertex
 10
12885.76533754629
 20
-3327.882845873977
 30
0.0
  0
VERTEX
  5
3532B1
330
3532AB
100
AcDbEntity
  8
姿図
100
AcDbVertex
100
AcDb2dVertex
 10
12885.98393644045
 20
-3328.046348559923
 30
0.0
  0
VERTEX
  5
3532B2
330
3532AB
100
AcDbEntity
  8
姿図
100
AcDbVertex
100
AcDb2dVertex
 10
12886.23035132951
 20
-3338.13868802776
 30
0.0
  0
SEQEND
  5
3532B3
330
3532AB
100
AcDbEntity
  8
姿図
  0
POLYLINE
  5
3532B4
330
18
100
AcDbEntity
  8
姿図
100
AcDb2dPolyline
 66
     1
 10
0.0
 20
0.0
 30
0.0
  0
VERTEX
  5
3532B5
330
3532B4
100
AcDbEntity
  8
姿図
100
AcDbVertex
100
AcDb2dVertex
 10
12885.22201035206
 20
-3328.115107199016
 30
0.0
  0
VERTEX
  5
3532B6
330
3532B4
100
AcDbEntity
  8
姿図
100
AcDbVertex
100
AcDb2dVertex
 10
12885.98393644045
 20
-3328.046348559923
 30
0.0
  0
SEQEND
  5
3532B7
330
3532B4
100
AcDbEntity
  8
姿図
  0
POLYLINE
  5
3532B8
330
18
100
AcDbEntity
  8
姿図
100
AcDb2dPolyline
 66
     1
 10
0.0
 20
0.0
 30
0.0
  0
VERTEX
  5
3532B9
330
3532B8
100
AcDbEntity
  8
姿図
100
AcDbVertex
100
AcDb2dVertex
 10
12917.01752311631
 20
-3338.20164236615
 30
0.0
  0
VERTEX
  5
3532BA
330
3532B8
100
AcDbEntity
  8
姿図
100
AcDbVertex
100
AcDb2dVertex
 10
12917.17316767208
 20
-3328.323169054971
 30
0.0
  0
VERTEX
  5
3532BB
330
3532B8
100
AcDbEntity
  8
姿図
100
AcDbVertex
100
AcDb2dVertex
 10
12917.50687031401
 20
-3328.214851874166
 30
0.0
  0
VERTEX
  5
3532BC
330
3532B8
100
AcDbEntity
  8
姿図
100
AcDbVertex
100
AcDb2dVertex
 10
12917.95531951599
 20
-3328.214851874166
 30
0.0
  0
VERTEX
  5
3532BD
330
3532B8
100
AcDbEntity
  8
姿図
100
AcDbVertex
100
AcDb2dVertex
 10
12918.49333354265
 20
-3328.851271121975
 30
0.0
  0
VERTEX
  5
3532BE
330
3532B8
100
AcDbEntity
  8
姿図
100
AcDbVertex
100
AcDb2dVertex
 10
12918.71523642336
 20
-3344.683617500028
 30
0.0
  0
SEQEND
  5
3532BF
330
3532B8
100
AcDbEntity
  8
姿図
  0
POLYLINE
  5
3532C0
330
18
100
AcDbEntity
  8
姿図
100
AcDb2dPolyline
 66
     1
 10
0.0
 20
0.0
 30
0.0
  0
VERTEX
  5
3532C1
330
3532C0
100
AcDbEntity
  8
姿図
100
AcDbVertex
100
AcDb2dVertex
 10
12908.69808497386
 20
-3335.71829463477
 30
0.0
  0
VERTEX
  5
3532C2
330
3532C0
100
AcDbEntity
  8
姿図
100
AcDbVertex
100
AcDb2dVertex
 10
12909.3841533169
 20
-3342.537990772606
 30
0.0
  0
SEQEND
  5
3532C3
330
3532C0
100
AcDbEntity
  8
姿図
  0
SPLINE
  5
3532C4
330
18
100
AcDbEntity
  8
姿図
100
AcDbSpline
210
0.0
220
0.0
230
1.0
 70
     8
 71
     3
 72
     8
 73
     4
 74
     0
 42
0.000000001
 43
0.0000000001
 40
0.0
 40
0.0
 40
0.0
 40
0.0
 40
1.0
 40
1.0
 40
1.0
 40
1.0
 10
12912.84137340925
 20
-3336.501071557218
 30
0.0
 10
12912.83074707411
 20
-3336.4981247584
 30
0.0
 10
12912.37827951011
 20
-3342.887141784102
 30
0.0
 10
12912.37827951011
 20
-3342.887141784102
 30
0.0
  0
POLYLINE
  5
3532C5
330
18
100
AcDbEntity
  8
姿図
100
AcDb2dPolyline
 66
     1
 10
0.0
 20
0.0
 30
0.0
  0
VERTEX
  5
3532C6
330
3532C5
100
AcDbEntity
  8
姿図
100
AcDbVertex
100
AcDb2dVertex
 10
12904.46808921566
 20
-3335.341818761505
 30
0.0
  0
VERTEX
  5
3532C7
330
3532C5
100
AcDbEntity
  8
姿図
100
AcDbVertex
100
AcDb2dVertex
 10
12904.30396145117
 20
-3335.574080086543
 30
0.0
  0
VERTEX
  5
3532C8
330
3532C5
100
AcDbEntity
  8
姿図
100
AcDbVertex
100
AcDb2dVertex
 10
12904.20207364961
 20
-3338.434796660528
 30
0.0
  0
SEQEND
  5
3532C9
330
3532C5
100
AcDbEntity
  8
姿図
  0
POLYLINE
  5
3532CA
330
18
100
AcDbEntity
  8
姿図
100
AcDb2dPolyline
 66
     1
 10
0.0
 20
0.0
 30
0.0
  0
VERTEX
  5
3532CB
330
3532CA
100
AcDbEntity
  8
姿図
100
AcDbVertex
100
AcDb2dVertex
 10
12899.35325013958
 20
-3335.313154445728
 30
0.0
  0
VERTEX
  5
3532CC
330
3532CA
100
AcDbEntity
  8
姿図
100
AcDbVertex
100
AcDb2dVertex
 10
12899.51577055925
 20
-3335.71829463477
 30
0.0
  0
VERTEX
  5
3532CD
330
3532CA
100
AcDbEntity
  8
姿図
100
AcDbVertex
100
AcDb2dVertex
 10
12899.73003855211
 20
-3338.505162644429
 30
0.0
  0
SEQEND
  5
3532CE
330
3532CA
100
AcDbEntity
  8
姿図
  0
POLYLINE
  5
3532CF
330
18
100
AcDbEntity
  8
姿図
100
AcDb2dPolyline
 66
     1
 10
0.0
 20
0.0
 30
0.0
  0
VERTEX
  5
3532D0
330
3532CF
100
AcDbEntity
  8
姿図
100
AcDbVertex
100
AcDb2dVertex
 10
12903.70727933895
 20
-3342.024176215024
 30
0.0
  0
VERTEX
  5
3532D1
330
3532CF
100
AcDbEntity
  8
姿図
100
AcDbVertex
100
AcDb2dVertex
 10
12900.142813629
 20
-3342.024176215024
 30
0.0
  0
VERTEX
  5
3532D2
330
3532CF
100
AcDbEntity
  8
姿図
100
AcDbVertex
100
AcDb2dVertex
 10
12900.142813629
 20
-3339.128098055221
 30
0.0
  0
VERTEX
  5
3532D3
330
3532CF
100
AcDbEntity
  8
姿図
100
AcDbVertex
100
AcDb2dVertex
 10
12900.142813629
 20
-3337.950360794193
 30
0.0
  0
VERTEX
  5
3532D4
330
3532CF
100
AcDbEntity
  8
姿図
100
AcDbVertex
100
AcDb2dVertex
 10
12900.142813629
 20
-3336.174334076128
 30
0.0
  0
VERTEX
  5
3532D5
330
3532CF
100
AcDbEntity
  8
姿図
100
AcDbVertex
100
AcDb2dVertex
 10
12900.30783436283
 20
-3333.527840846538
 30
0.0
  0
VERTEX
  5
3532D6
330
3532CF
100
AcDbEntity
  8
姿図
100
AcDbVertex
100
AcDb2dVertex
 10
12900.57188539633
 20
-3333.296740381639
 30
0.0
  0
VERTEX
  5
3532D7
330
3532CF
100
AcDbEntity
  8
姿図
100
AcDbVertex
100
AcDb2dVertex
 10
12903.44331760238
 20
-3333.296740381639
 30
0.0
  0
VERTEX
  5
3532D8
330
3532CF
100
AcDbEntity
  8
姿図
100
AcDbVertex
100
AcDb2dVertex
 10
12903.70727933895
 20
-3333.494800981
 30
0.0
  0
VERTEX
  5
3532D9
330
3532CF
100
AcDbEntity
  8
姿図
100
AcDbVertex
100
AcDb2dVertex
 10
12903.70727933895
 20
-3335.71829463477
 30
0.0
  0
VERTEX
  5
3532DA
330
3532CF
100
AcDbEntity
  8
姿図
100
AcDbVertex
100
AcDb2dVertex
 10
12903.70727933895
 20
-3338.11547082495
 30
0.0
  0
VERTEX
  5
3532DB
330
3532CF
100
AcDbEntity
  8
姿図
100
AcDbVertex
100
AcDb2dVertex
 10
12903.70727933895
 20
-3339.402686126922
 30
0.0
  0
VERTEX
  5
3532DC
330
3532CF
100
AcDbEntity
  8
姿図
100
AcDbVertex
100
AcDb2dVertex
 10
12903.70727933895
 20
-3342.024176215024
 30
0.0
  0
SEQEND
  5
3532DD
330
3532CF
100
AcDbEntity
  8
姿図
  0
POLYLINE
  5
3532DE
330
18
100
AcDbEntity
  8
姿図
100
AcDb2dPolyline
 66
     1
 10
0.0
 20
0.0
 30
0.0
  0
VERTEX
  5
3532DF
330
3532DE
100
AcDbEntity
  8
姿図
100
AcDbVertex
100
AcDb2dVertex
 10
12900.142813629
 20
-3336.174334076128
 30
0.0
  0
VERTEX
  5
3532E0
330
3532DE
100
AcDbEntity
  8
姿図
100
AcDbVertex
100
AcDb2dVertex
 10
12903.70727933895
 20
-3336.174334076128
 30
0.0
  0
SEQEND
  5
3532E1
330
3532DE
100
AcDbEntity
  8
姿図
  0
POLYLINE
  5
3532E2
330
18
100
AcDbEntity
  8
姿図
100
AcDb2dPolyline
 66
     1
 10
0.0
 20
0.0
 30
0.0
  0
VERTEX
  5
3532E3
330
3532E2
100
AcDbEntity
  8
姿図
100
AcDbVertex
100
AcDb2dVertex
 10
12900.142813629
 20
-3338.841544194379
 30
0.0
  0
VERTEX
  5
3532E4
330
3532E2
100
AcDbEntity
  8
姿図
100
AcDbVertex
100
AcDb2dVertex
 10
12903.70727933895
 20
-3338.841544194379
 30
0.0
  0
SEQEND
  5
3532E5
330
3532E2
100
AcDbEntity
  8
姿図
  0
SPLINE
  5
3532E6
330
18
100
AcDbEntity
  8
姿図
100
AcDbSpline
210
0.0
220
0.0
230
1.0
 70
    11
 71
     3
 72
    17
 73
    13
 74
     0
 42
0.000000001
 43
0.0000000001
 40
0.0
 40
0.0
 40
0.0
 40
0.0
 40
1.0
 40
1.0
 40
1.0
 40
2.0
 40
2.0
 40
2.0
 40
3.0
 40
3.0
 40
3.0
 40
4.0
 40
4.0
 40
4.0
 40
4.0
 10
12902.68411507047
 20
-3340.590692535347
 30
0.0
 10
12902.68411507047
 20
-3340.991814362364
 30
0.0
 10
12902.3589849342
 20
-3341.316944498643
 30
0.0
 10
12901.95813099798
 20
-3341.316944498643
 30
0.0
 10
12901.55709846789
 20
-3341.316944498643
 30
0.0
 10
12901.23196833162
 20
-3340.991814362364
 30
0.0
 10
12901.23196833162
 20
-3340.590692535347
 30
0.0
 10
12901.23196833162
 20
-3340.189749302196
 30
0.0
 10
12901.55709846789
 20
-3339.86470846285
 30
0.0
 10
12901.95813099798
 20
-3339.86470846285
 30
0.0
 10
12902.3589849342
 20
-3339.86470846285
 30
0.0
 10
12902.68411507047
 20
-3340.189749302196
 30
0.0
 10
12902.68411507047
 20
-3340.590692535347
 30
0.0
  0
SPLINE
  5
3532E7
330
18
100
AcDbEntity
  8
姿図
100
AcDbSpline
210
0.0
220
0.0
230
1.0
 70
    11
 71
     3
 72
    17
 73
    13
 74
     0
 42
0.000000001
 43
0.0000000001
 40
0.0
 40
0.0
 40
0.0
 40
0.0
 40
1.0
 40
1.0
 40
1.0
 40
2.0
 40
2.0
 40
2.0
 40
3.0
 40
3.0
 40
3.0
 40
4.0
 40
4.0
 40
4.0
 40
4.0
 10
12910.81085042961
 20
-3341.411242060828
 30
0.0
 10
12910.8482658449
 20
-3341.63716330356
 30
0.0
 10
12910.78557939732
 20
-3341.835581090656
 30
0.0
 10
12910.67101143114
 20
-3341.854601337574
 30
0.0
 10
12910.55635416803
 20
-3341.873621584491
 30
0.0
 10
12910.43303510233
 20
-3341.705921942652
 30
0.0
 10
12910.39561968703
 20
-3341.48000069992
 30
0.0
 10
12910.35820427174
 20
-3341.254168754122
 30
0.0
 10
12910.42089071932
 20
-3341.055750967026
 30
0.0
 10
12910.5354586855
 20
-3341.036730720109
 30
0.0
 10
12910.65011594861
 20
-3341.017799770125
 30
0.0
 10
12910.77343501431
 20
-3341.185410115029
 30
0.0
 10
12910.81085042961
 20
-3341.411242060828
 30
0.0
  0
SPLINE
  5
3532E8
330
18
100
AcDbEntity
  8
姿図
100
AcDbSpline
210
0.0
220
0.0
230
1.0
 70
    11
 71
     3
 72
    17
 73
    13
 74
     0
 42
0.000000001
 43
0.0000000001
 40
0.0
 40
0.0
 40
0.0
 40
0.0
 40
1.0
 40
1.0
 40
1.0
 40
2.0
 40
2.0
 40
2.0
 40
3.0
 40
3.0
 40
3.0
 40
4.0
 40
4.0
 40
4.0
 40
4.0
 10
12885.98393644045
 20
-3348.544906218208
 30
0.0
 10
12885.98393644045
 20
-3350.65927901877
 30
0.0
 10
12893.00280938932
 20
-3352.373422961652
 30
0.0
 10
12901.66104009894
 20
-3352.373422961652
 30
0.0
 10
12910.31927080856
 20
-3352.373422961652
 30
0.0
 10
12917.3381884059
 20
-3350.65927901877
 30
0.0
 10
12917.3381884059
 20
-3348.544906218208
 30
0.0
 10
12917.3381884059
 20
-3346.430444120713
 30
0.0
 10
12910.31927080856
 20
-3344.716389474765
 30
0.0
 10
12901.66104009894
 20
-3344.716389474765
 30
0.0
 10
12893.00280938932
 20
-3344.716389474765
 30
0.0
 10
12885.98393644045
 20
-3346.430444120713
 30
0.0
 10
12885.98393644045
 20
-3348.544906218208
 30
0.0
  0
SPLINE
  5
3532E9
330
18
100
AcDbEntity
  8
姿図
100
AcDbSpline
210
0.0
220
0.0
230
1.0
 70
    11
 71
     3
 72
    17
 73
    13
 74
     0
 42
0.000000001
 43
0.0000000001
 40
0.0
 40
0.0
 40
0.0
 40
0.0
 40
1.0
 40
1.0
 40
1.0
 40
2.0
 40
2.0
 40
2.0
 40
3.0
 40
3.0
 40
3.0
 40
4.0
 40
4.0
 40
4.0
 40
4.0
 10
12884.99381203752
 20
-3348.51186635267
 30
0.0
 10
12884.99381203752
 20
-3350.863233215766
 30
0.0
 10
12892.45599961466
 20
-3352.769454863439
 30
0.0
 10
12901.66104009894
 20
-3352.769454863439
 30
0.0
 10
12910.86612523168
 20
-3352.769454863439
 30
0.0
 10
12918.32831280883
 20
-3350.863233215766
 30
0.0
 10
12918.32831280883
 20
-3348.51186635267
 30
0.0
 10
12918.32831280883
 20
-3346.160499489574
 30
0.0
 10
12910.86612523168
 20
-3344.254277841902
 30
0.0
 10
12901.66104009894
 20
-3344.254277841902
 30
0.0
 10
12892.45599961466
 20
-3344.254277841902
 30
0.0
 10
12884.99381203752
 20
-3346.160499489574
 30
0.0
 10
12884.99381203752
 20
-3348.51186635267
 30
0.0
  0
SPLINE
  5
3532EA
330
18
100
AcDbEntity
  8
姿図
100
AcDbSpline
210
0.0
220
0.0
230
1.0
 70
     8
 71
     3
 72
     8
 73
     4
 74
     0
 42
0.000000001
 43
0.0000000001
 40
0.0
 40
0.0
 40
0.0
 40
0.0
 40
1.0
 40
1.0
 40
1.0
 40
1.0
 10
12903.70727933895
 20
-3334.19399597333
 30
0.0
 10
12910.31552033734
 20
-3334.452599893865
 30
0.0
 10
12915.55903629515
 20
-3335.966272220172
 30
0.0
 10
12916.52013919456
 20
-3337.884995438589
 30
0.0
  0
SPLINE
  5
3532EB
330
18
100
AcDbEntity
  8
姿図
100
AcDbSpline
210
0.0
220
0.0
230
1.0
 70
     8
 71
     3
 72
     8
 73
     4
 74
     0
 42
0.000000001
 43
0.0000000001
 40
0.0
 40
0.0
 40
0.0
 40
0.0
 40
1.0
 40
1.0
 40
1.0
 40
1.0
 10
12886.97361435871
 20
-3337.701490239452
 30
0.0
 10
12888.20336708373
 20
-3335.814735323367
 30
0.0
 10
12893.59944685308
 20
-3334.357855847011
 30
0.0
 10
12900.26751679718
 20
-3334.174350647875
 30
0.0
  0
SPLINE
  5
3532EC
330
18
100
AcDbEntity
  8
姿図
100
AcDbSpline
210
0.0
220
0.0
230
1.0
 70
     8
 71
     3
 72
     8
 73
     4
 74
     0
 42
0.000000001
 43
0.0000000001
 40
0.0
 40
0.0
 40
0.0
 40
0.0
 40
1.0
 40
1.0
 40
1.0
 40
1.0
 10
12888.02973646799
 20
-3336.727154182021
 30
0.0
 10
12886.35612606089
 20
-3335.702935562142
 30
0.0
 10
12886.16619148251
 20
-3335.252521827619
 30
0.0
 10
12886.16619148251
 20
-3334.787552692873
 30
0.0
  0
SPLINE
  5
3532ED
330
18
100
AcDbEntity
  8
姿図
100
AcDbSpline
210
0.0
220
0.0
230
1.0
 70
     8
 71
     3
 72
     8
 73
     4
 74
     0
 42
0.000000001
 43
0.0000000001
 40
0.0
 40
0.0
 40
0.0
 40
0.0
 40
1.0
 40
1.0
 40
1.0
 40
1.0
 10
12917.01752311631
 20
-3334.787552692873
 30
0.0
 10
12917.01752311631
 20
-3335.313243742662
 30
0.0
 10
12916.85393113343
 20
-3335.799912032342
 30
0.0
 10
12915.24324587941
 20
-3336.628256457941
 30
0.0
  0
SPLINE
  5
3532EE
330
18
100
AcDbEntity
  8
姿図
100
AcDbSpline
210
0.0
220
0.0
230
1.0
 70
     8
 71
     3
 72
    11
 73
     7
 74
     0
 42
0.000000001
 43
0.0000000001
 40
0.0
 40
0.0
 40
0.0
 40
0.0
 40
1.0
 40
1.0
 40
1.0
 40
2.0
 40
2.0
 40
2.0
 40
2.0
 10
12886.16619148251
 20
-3334.787552692873
 30
0.0
 10
12886.16619148251
 20
-3331.983539671907
 30
0.0
 10
12893.07250564622
 20
-3329.710307625961
 30
0.0
 10
12901.59174567824
 20
-3329.710307625961
 30
0.0
 10
12910.11120895261
 20
-3329.710307625961
 30
0.0
 10
12917.01752311631
 20
-3331.983539671907
 30
0.0
 10
12917.01752311631
 20
-3334.787552692873
 30
0.0
  0
SPLINE
  5
3532EF
330
18
100
AcDbEntity
  8
姿図
100
AcDbSpline
210
0.0
220
0.0
230
1.0
 70
     8
 71
     3
 72
    11
 73
     7
 74
     0
 42
0.000000001
 43
0.0000000001
 40
0.0
 40
0.0
 40
0.0
 40
0.0
 40
1.0
 40
1.0
 40
1.0
 40
2.0
 40
2.0
 40
2.0
 40
2.0
 10
12886.23539660627
 20
-3334.36839288521
 30
0.0
 10
12886.23539660627
 20
-3331.564379864245
 30
0.0
 10
12893.14175541844
 20
-3329.291237115232
 30
0.0
 10
12901.66104009894
 20
-3329.291237115232
 30
0.0
 10
12910.1805033733
 20
-3329.291237115232
 30
0.0
 10
12917.08672824007
 20
-3331.564379864245
 30
0.0
 10
12917.08672824007
 20
-3334.36839288521
 30
0.0
  0
SPLINE
  5
3532F0
330
18
100
AcDbEntity
  8
姿図
100
AcDbSpline
210
0.0
220
0.0
230
1.0
 70
     8
 71
     3
 72
     8
 73
     4
 74
     0
 42
0.000000001
 43
0.0000000001
 40
0.0
 40
0.0
 40
0.0
 40
0.0
 40
1.0
 40
1.0
 40
1.0
 40
1.0
 10
12890.51932771254
 20
-3336.449190038631
 30
0.0
 10
12890.51932771254
 20
-3336.449190038631
 30
0.0
 10
12894.41289727232
 20
-3335.013206044803
 30
0.0
 10
12900.22076985229
 20
-3334.925069971057
 30
0.0
  0
SPLINE
  5
3532F1
330
18
100
AcDbEntity
  8
姿図
100
AcDbSpline
210
0.0
220
0.0
230
1.0
 70
     8
 71
     3
 72
     8
 73
     4
 74
     0
 42
0.000000001
 43
0.0000000001
 40
0.0
 40
0.0
 40
0.0
 40
0.0
 40
1.0
 40
1.0
 40
1.0
 40
1.0
 10
12903.70727933895
 20
-3334.925069971057
 30
0.0
 10
12903.70727933895
 20
-3334.925069971057
 30
0.0
 10
12909.58980415564
 20
-3335.045085050201
 30
0.0
 10
12914.17904147887
 20
-3336.888352359483
 30
0.0
  0
SPLINE
  5
3532F2
330
18
100
AcDbEntity
  8
姿図
100
AcDbSpline
210
0.0
220
0.0
230
1.0
 70
     8
 71
     3
 72
     8
 73
     4
 74
     0
 42
0.000000001
 43
0.0000000001
 40
0.0
 40
0.0
 40
0.0
 40
0.0
 40
1.0
 40
1.0
 40
1.0
 40
1.0
 10
12903.70727933895
 20
-3335.889566153965
 30
0.0
 10
12903.90650079845
 20
-3335.894120297593
 30
0.0
 10
12904.10241827139
 20
-3335.899835301361
 30
0.0
 10
12904.29208495897
 20
-3335.906711165271
 30
0.0
  0
SPLINE
  5
3532F3
330
18
100
AcDbEntity
  8
姿図
100
AcDbSpline
210
0.0
220
0.0
230
1.0
 70
     8
 71
     3
 72
     8
 73
     4
 74
     0
 42
0.000000001
 43
0.0000000001
 40
0.0
 40
0.0
 40
0.0
 40
0.0
 40
1.0
 40
1.0
 40
1.0
 40
1.0
 10
12899.54166667008
 20
-3335.906711165271
 30
0.0
 10
12899.54166667008
 20
-3335.906711165271
 30
0.0
 10
12899.77687479394
 20
-3335.900281786031
 30
0.0
 10
12900.16044977345
 20
-3335.893138031319
 30
0.0
  0
SPLINE
  5
3532F4
330
18
100
AcDbEntity
  8
姿図
100
AcDbSpline
210
0.0
220
0.0
230
1.0
 70
     8
 71
     3
 72
    23
 73
    19
 74
     0
 42
0.000000001
 43
0.0000000001
 40
0.0
 40
0.0
 40
0.0
 40
0.0
 40
1.0
 40
1.0
 40
1.0
 40
2.0
 40
2.0
 40
2.0
 40
3.0
 40
3.0
 40
3.0
 40
4.0
 40
4.0
 40
4.0
 40
5.0
 40
5.0
 40
5.0
 40
6.0
 40
6.0
 40
6.0
 40
6.0
 10
12886.13399993785
 20
-3334.19399597333
 30
0.0
 10
12886.13399993785
 20
-3334.19399597333
 30
0.0
 10
12887.56810869606
 20
-3316.012515155528
 30
0.0
 10
12887.56810869606
 20
-3316.012515155528
 30
0.0
 10
12887.56810869606
 20
-3316.012515155528
 30
0.0
 10
12887.17203214581
 20
-3316.012515155528
 30
0.0
 10
12887.17203214581
 20
-3316.012515155528
 30
0.0
 10
12887.17203214581
 20
-3316.012515155528
 30
0.0
 10
12887.17203214581
 20
-3312.810996833367
 30
0.0
 10
12887.17203214581
 20
-3312.810996833367
 30
0.0
 10
12887.17203214581
 20
-3312.810996833367
 30
0.0
 10
12887.93114538077
 20
-3312.810996833367
 30
0.0
 10
12887.93114538077
 20
-3312.810996833367
 30
0.0
 10
12887.93114538077
 20
-3312.810996833367
 30
0.0
 10
12888.42625223071
 20
-3314.186660748354
 30
0.0
 10
12887.93114538077
 20
-3315.936434167857
 30
0.0
 10
12887.93114538077
 20
-3315.936434167857
 30
0.0
 10
12887.93114538077
 20
-3319.698960477159
 30
0.0
 10
12887.93114538077
 20
-3319.698960477159
 30
0.0
  0
SPLINE
  5
3532F5
330
18
100
AcDbEntity
  8
姿図
100
AcDbSpline
210
0.0
220
0.0
230
1.0
 70
     8
 71
     3
 72
    29
 73
    25
 74
     0
 42
0.000000001
 43
0.0000000001
 40
0.0
 40
0.0
 40
0.0
 40
0.0
 40
1.0
 40
1.0
 40
1.0
 40
2.0
 40
2.0
 40
2.0
 40
3.0
 40
3.0
 40
3.0
 40
4.0
 40
4.0
 40
4.0
 40
5.0
 40
5.0
 40
5.0
 40
6.0
 40
6.0
 40
6.0
 40
7.0
 40
7.0
 40
7.0
 40
8.0
 40
8.0
 40
8.0
 40
8.0
 10
12886.63696491796
 20
-3327.664068385956
 30
0.0
 10
12889.55036668294
 20
-3323.076438407543
 30
0.0
 10
12900.22076985229
 20
-3322.867394285315
 30
0.0
 10
12900.22076985229
 20
-3322.867394285315
 30
0.0
 10
12900.22076985229
 20
-3322.867394285315
 30
0.0
 10
12899.48268604525
 20
-3315.606392700214
 30
0.0
 10
12899.48268604525
 20
-3315.606392700214
 30
0.0
 10
12899.48268604525
 20
-3315.606392700214
 30
0.0
 10
12899.51577055925
 20
-3315.21031614996
 30
0.0
 10
12898.85568762397
 20
-3315.309391098107
 30
0.0
 10
12898.85568762397
 20
-3315.309391098107
 30
0.0
 10
12890.3735058195
 20
-3316.563521886074
 30
0.0
 10
12888.95435429771
 20
-3319.203898275694
 30
0.0
 10
12888.95435429771
 20
-3319.203898275694
 30
0.0
 10
12889.1523702486
 20
-3319.467860012261
 30
0.0
 10
12889.1523702486
 20
-3319.467860012261
 30
0.0
 10
12889.1523702486
 20
-3319.467860012261
 30
0.0
 10
12889.05333994892
 20
-3319.797901479905
 30
0.0
 10
12889.05333994892
 20
-3319.797901479905
 30
0.0
 10
12889.05333994892
 20
-3319.797901479905
 30
0.0
 10
12888.75629369835
 20
-3320.061952513408
 30
0.0
 10
12888.75629369835
 20
-3320.061952513408
 30
0.0
 10
12888.75629369835
 20
-3320.061952513408
 30
0.0
 10
12887.85591271397
 20
-3326.248444093055
 30
0.0
 10
12887.85591271397
 20
-3326.248444093055
 30
0.0
  0
SPLINE
  5
3532F6
330
18
100
AcDbEntity
  8
姿図
100
AcDbSpline
210
0.0
220
0.0
230
1.0
 70
     8
 71
     3
 72
     8
 73
     4
 74
     0
 42
0.000000001
 43
0.0000000001
 40
0.0
 40
0.0
 40
0.0
 40
0.0
 40
1.0
 40
1.0
 40
1.0
 40
1.0
 10
12888.31677418976
 20
-3325.867324779228
 30
0.0
 10
12888.31677418976
 20
-3325.867324779228
 30
0.0
 10
12889.32332922853
 20
-3318.600876081159
 30
0.0
 10
12889.79762989287
 20
-3318.270566722713
 30
0.0
  0
SPLINE
  5
3532F7
330
18
100
AcDbEntity
  8
姿図
100
AcDbSpline
210
0.0
220
0.0
230
1.0
 70
     8
 71
     3
 72
     8
 73
     4
 74
     0
 42
0.000000001
 43
0.0000000001
 40
0.0
 40
0.0
 40
0.0
 40
0.0
 40
1.0
 40
1.0
 40
1.0
 40
1.0
 10
12892.56829050903
 20
-3316.86315774773
 30
0.0
 10
12892.56829050903
 20
-3316.86315774773
 30
0.0
 10
12890.84883339858
 20
-3322.686032212592
 30
0.0
 10
12890.43900512051
 20
-3324.776830622608
 30
0.0
  0
SPLINE
  5
3532F8
330
18
100
AcDbEntity
  8
姿図
100
AcDbSpline
210
0.0
220
0.0
230
1.0
 70
     8
 71
     3
 72
     8
 73
     4
 74
     0
 42
0.000000001
 43
0.0000000001
 40
0.0
 40
0.0
 40
0.0
 40
0.0
 40
1.0
 40
1.0
 40
1.0
 40
1.0
 10
12888.90015105884
 20
-3322.068901102503
 30
0.0
 10
12888.90015105884
 20
-3322.068901102503
 30
0.0
 10
12889.07204765657
 20
-3322.352865352262
 30
0.0
 10
12890.76243861504
 20
-3323.484703989272
 30
0.0
  0
SPLINE
  5
3532F9
330
18
100
AcDbEntity
  8
姿図
100
AcDbSpline
210
0.0
220
0.0
230
1.0
 70
     8
 71
     3
 72
    14
 73
    10
 74
     0
 42
0.000000001
 43
0.0000000001
 40
0.0
 40
0.0
 40
0.0
 40
0.0
 40
1.0
 40
1.0
 40
1.0
 40
2.0
 40
2.0
 40
2.0
 40
3.0
 40
3.0
 40
3.0
 40
3.0
 10
12889.05717971708
 20
-3321.16628769478
 30
0.0
 10
12889.05717971708
 20
-3321.16628769478
 30
0.0
 10
12889.64743245007
 20
-3321.646258714419
 30
0.0
 10
12889.64743245007
 20
-3321.646258714419
 30
0.0
 10
12889.64743245007
 20
-3321.646258714419
 30
0.0
 10
12889.51540693332
 20
-3322.068901102503
 30
0.0
 10
12889.51540693332
 20
-3322.068901102503
 30
0.0
 10
12889.51540693332
 20
-3322.068901102503
 30
0.0
 10
12890.43927301131
 20
-3322.67745970694
 30
0.0
 10
12890.88495400833
 20
-3322.986962879789
 30
0.0
  0
SPLINE
  5
3532FA
330
18
100
AcDbEntity
  8
姿図
100
AcDbSpline
210
0.0
220
0.0
230
1.0
 70
     8
 71
     3
 72
    26
 73
    22
 74
     0
 42
0.000000001
 43
0.0000000001
 40
0.0
 40
0.0
 40
0.0
 40
0.0
 40
1.0
 40
1.0
 40
1.0
 40
2.0
 40
2.0
 40
2.0
 40
3.0
 40
3.0
 40
3.0
 40
4.0
 40
4.0
 40
4.0
 40
5.0
 40
5.0
 40
5.0
 40
6.0
 40
6.0
 40
6.0
 40
7.0
 40
7.0
 40
7.0
 40
7.0
 10
12916.34806400297
 20
-3327.058903065008
 30
0.0
 10
12916.11696353807
 20
-3324.64958249182
 30
0.0
 10
12915.06084870099
 20
-3319.897021076519
 30
0.0
 10
12915.06084870099
 20
-3319.897021076519
 30
0.0
 10
12915.06084870099
 20
-3319.897021076519
 30
0.0
 10
12914.49979606539
 20
-3319.764950911302
 30
0.0
 10
12914.49979606539
 20
-3319.764950911302
 30
0.0
 10
12914.49979606539
 20
-3319.764950911302
 30
0.0
 10
12914.30182476296
 20
-3319.335879143977
 30
0.0
 10
12914.30182476296
 20
-3319.335879143977
 30
0.0
 10
12914.30182476296
 20
-3319.335879143977
 30
0.0
 10
12914.49979606539
 20
-3319.170947707089
 30
0.0
 10
12914.49979606539
 20
-3319.170947707089
 30
0.0
 10
12911.03436065512
 20
-3315.243356015499
 30
0.0
 10
12903.50930803652
 20
-3315.293496243876
 30
0.0
 10
12903.50930803652
 20
-3315.293496243876
 30
0.0
 10
12903.50930803652
 20
-3315.293496243876
 30
0.0
 10
12902.68411507047
 20
-3322.776936491288
 30
0.0
 10
12902.68411507047
 20
-3322.776936491288
 30
0.0
 10
12902.68411507047
 20
-3322.776936491288
 30
0.0
 10
12914.2816436559
 20
-3322.608790364781
 30
0.0
 10
12916.73409464816
 20
-3327.837215140761
 30
0.0
  0
SPLINE
  5
3532FB
330
18
100
AcDbEntity
  8
姿図
100
AcDbSpline
210
0.0
220
0.0
230
1.0
 70
     8
 71
     3
 72
     8
 73
     4
 74
     0
 42
0.000000001
 43
0.0000000001
 40
0.0
 40
0.0
 40
0.0
 40
0.0
 40
1.0
 40
1.0
 40
1.0
 40
1.0
 10
12915.36294022833
 20
-3326.063063658306
 30
0.0
 10
12915.36294022833
 20
-3326.063063658306
 30
0.0
 10
12914.30896851767
 20
-3318.916897930183
 30
0.0
 10
12913.91820513498
 20
-3318.581766537307
 30
0.0
  0
SPLINE
  5
3532FC
330
18
100
AcDbEntity
  8
姿図
100
AcDbSpline
210
0.0
220
0.0
230
1.0
 70
     8
 71
     3
 72
     8
 73
     4
 74
     0
 42
0.000000001
 43
0.0000000001
 40
0.0
 40
0.0
 40
0.0
 40
0.0
 40
1.0
 40
1.0
 40
1.0
 40
1.0
 10
12912.63974093253
 20
-3324.447682124302
 30
0.0
 10
12912.63974093253
 20
-3324.447682124302
 30
0.0
 10
12911.04230808224
 20
-3317.104973844695
 30
0.0
 10
12910.80727855225
 20
-3316.685769388564
 30
0.0
  0
SPLINE
  5
3532FD
330
18
100
AcDbEntity
  8
姿図
100
AcDbSpline
210
0.0
220
0.0
230
1.0
 70
     8
 71
     3
 72
     8
 73
     4
 74
     0
 42
0.000000001
 43
0.0000000001
 40
0.0
 40
0.0
 40
0.0
 40
0.0
 40
1.0
 40
1.0
 40
1.0
 40
1.0
 10
12914.72169894609
 20
-3322.068901102503
 30
0.0
 10
12914.72169894609
 20
-3322.068901102503
 30
0.0
 10
12913.72362711605
 20
-3323.276999321053
 30
0.0
 10
12912.42855368389
 20
-3323.484703989272
 30
0.0
  0
SPLINE
  5
3532FE
330
18
100
AcDbEntity
  8
姿図
100
AcDbSpline
210
0.0
220
0.0
230
1.0
 70
     8
 71
     3
 72
    17
 73
    13
 74
     0
 42
0.000000001
 43
0.0000000001
 40
0.0
 40
0.0
 40
0.0
 40
0.0
 40
1.0
 40
1.0
 40
1.0
 40
2.0
 40
2.0
 40
2.0
 40
3.0
 40
3.0
 40
3.0
 40
4.0
 40
4.0
 40
4.0
 40
4.0
 10
12912.34765066179
 20
-3323.118318669536
 30
0.0
 10
12912.34765066179
 20
-3323.118318669536
 30
0.0
 10
12913.80667326456
 20
-3322.207311350027
 30
0.0
 10
12914.1037641636
 20
-3321.712249148562
 30
0.0
 10
12914.1037641636
 20
-3321.712249148562
 30
0.0
 10
12914.1037641636
 20
-3321.565444989252
 30
0.0
 10
12914.1037641636
 20
-3321.565444989252
 30
0.0
 10
12914.1037641636
 20
-3321.565444989252
 30
0.0
 10
12914.30182476296
 20
-3321.16628769478
 30
0.0
 10
12914.30182476296
 20
-3321.16628769478
 30
0.0
 10
12914.30182476296
 20
-3321.16628769478
 30
0.0
 10
12914.55998219882
 20
-3321.16628769478
 30
0.0
 10
12914.55998219882
 20
-3321.16628769478
 30
0.0
  0
SPLINE
  5
3532FF
330
18
100
AcDbEntity
  8
姿図
100
AcDbSpline
210
0.0
220
0.0
230
1.0
 70
     8
 71
     3
 72
    14
 73
    10
 74
     0
 42
0.000000001
 43
0.0000000001
 40
0.0
 40
0.0
 40
0.0
 40
0.0
 40
1.0
 40
1.0
 40
1.0
 40
2.0
 40
2.0
 40
2.0
 40
3.0
 40
3.0
 40
3.0
 40
3.0
 10
12888.75629369835
 20
-3320.061952513408
 30
0.0
 10
12888.75629369835
 20
-3320.061952513408
 30
0.0
 10
12887.93114538077
 20
-3319.698960477159
 30
0.0
 10
12887.93114538077
 20
-3319.698960477159
 30
0.0
 10
12887.93114538077
 20
-3319.698960477159
 30
0.0
 10
12888.22354819078
 20
-3316.465205961866
 30
0.0
 10
12898.85568762397
 20
-3314.946309764926
 30
0.0
 10
12899.31770995989
 20
-3314.880274682316
 30
0.0
 10
12899.43924308691
 20
-3315.178392496096
 30
0.0
 10
12899.48268604525
 20
-3315.606392700214
 30
0.0
  0
SPLINE
  5
353300
330
18
100
AcDbEntity
  8
姿図
100
AcDbSpline
210
0.0
220
0.0
230
1.0
 70
     8
 71
     3
 72
    14
 73
    10
 74
     0
 42
0.000000001
 43
0.0000000001
 40
0.0
 40
0.0
 40
0.0
 40
0.0
 40
1.0
 40
1.0
 40
1.0
 40
2.0
 40
2.0
 40
2.0
 40
3.0
 40
3.0
 40
3.0
 40
3.0
 10
12915.06084870099
 20
-3319.897021076519
 30
0.0
 10
12915.06084870099
 20
-3319.897021076519
 30
0.0
 10
12915.52287103692
 20
-3319.566979608875
 30
0.0
 10
12915.52287103692
 20
-3319.566979608875
 30
0.0
 10
12915.52287103692
 20
-3319.566979608875
 30
0.0
 10
12913.21258076341
 20
-3315.357075660802
 30
0.0
 10
12904.13635110627
 20
-3314.937156829202
 30
0.0
 10
12904.13635110627
 20
-3314.937156829202
 30
0.0
 10
12903.55895713176
 20
-3314.843082509352
 30
0.0
 10
12903.50930803652
 20
-3315.293496243876
 30
0.0
  0
SPLINE
  5
353301
330
18
100
AcDbEntity
  8
姿図
100
AcDbSpline
210
0.0
220
0.0
230
1.0
 70
     8
 71
     3
 72
    17
 73
    13
 74
     0
 42
0.000000001
 43
0.0000000001
 40
0.0
 40
0.0
 40
0.0
 40
0.0
 40
1.0
 40
1.0
 40
1.0
 40
2.0
 40
2.0
 40
2.0
 40
3.0
 40
3.0
 40
3.0
 40
4.0
 40
4.0
 40
4.0
 40
4.0
 10
12916.24894440635
 20
-3312.612980882475
 30
0.0
 10
12916.24894440635
 20
-3312.612980882475
 30
0.0
 10
12915.36294022833
 20
-3312.612980882475
 30
0.0
 10
12915.36294022833
 20
-3312.612980882475
 30
0.0
 10
12915.36294022833
 20
-3312.612980882475
 30
0.0
 10
12915.39089016864
 20
-3312.503993974667
 30
0.0
 10
12915.09388856653
 20
-3312.669059356956
 30
0.0
 10
12914.79679766749
 20
-3312.834035442311
 30
0.0
 10
12915.36294022833
 20
-3315.573397483142
 30
0.0
 10
12915.36294022833
 20
-3315.573397483142
 30
0.0
 10
12915.36294022833
 20
-3315.573397483142
 30
0.0
 10
12915.52287103692
 20
-3319.566979608875
 30
0.0
 10
12915.52287103692
 20
-3319.566979608875
 30
0.0
  0
POLYLINE
  5
353302
330
18
100
AcDbEntity
  8
姿図
100
AcDb2dPolyline
 66
     1
 10
0.0
 20
0.0
 30
0.0
  0
VERTEX
  5
353303
330
353302
100
AcDbEntity
  8
姿図
100
AcDbVertex
100
AcDb2dVertex
 10
12915.36294022833
 20
-3315.573397483142
 30
0.0
  0
VERTEX
  5
353304
330
353302
100
AcDbEntity
  8
姿図
100
AcDbVertex
100
AcDb2dVertex
 10
12915.36294022833
 20
-3315.573397483142
 30
0.0
  0
SEQEND
  5
353305
330
353302
100
AcDbEntity
  8
姿図
  0
SPLINE
  5
353306
330
18
100
AcDbEntity
  8
姿図
100
AcDbSpline
210
0.0
220
0.0
230
1.0
 70
     8
 71
     3
 72
    14
 73
    10
 74
     0
 42
0.000000001
 43
0.0000000001
 40
0.0
 40
0.0
 40
0.0
 40
0.0
 40
1.0
 40
1.0
 40
1.0
 40
2.0
 40
2.0
 40
2.0
 40
3.0
 40
3.0
 40
3.0
 40
3.0
 10
12887.93114538077
 20
-3312.810996833367
 30
0.0
 10
12887.93114538077
 20
-3312.810996833367
 30
0.0
 10
12888.90015105884
 20
-3304.582909454276
 30
0.0
 10
12888.90015105884
 20
-3304.582909454276
 30
0.0
 10
12888.90015105884
 20
-3304.582909454276
 30
0.0
 10
12889.64743245007
 20
-3300.49034167733
 30
0.0
 10
12898.92167805811
 20
-3299.764223659433
 30
0.0
 10
12898.92167805811
 20
-3299.764223659433
 30
0.0
 10
12899.119694009
 20
-3314.928986159751
 30
0.0
 10
12899.119694009
 20
-3314.928986159751
 30
0.0
  0
SPLINE
  5
353307
330
18
100
AcDbEntity
  8
姿図
100
AcDbSpline
210
0.0
220
0.0
230
1.0
 70
     8
 71
     3
 72
    14
 73
    10
 74
     0
 42
0.000000001
 43
0.0000000001
 40
0.0
 40
0.0
 40
0.0
 40
0.0
 40
1.0
 40
1.0
 40
1.0
 40
2.0
 40
2.0
 40
2.0
 40
3.0
 40
3.0
 40
3.0
 40
3.0
 10
12887.77438461334
 20
-3312.696250273324
 30
0.0
 10
12887.77438461334
 20
-3312.696250273324
 30
0.0
 10
12887.83675852166
 20
-3312.075368692011
 30
0.0
 10
12887.83675852166
 20
-3312.075368692011
 30
0.0
 10
12887.83675852166
 20
-3312.075368692011
 30
0.0
 10
12888.39982033828
 20
-3305.68956635593
 30
0.0
 10
12888.39982033828
 20
-3305.68956635593
 30
0.0
 10
12888.39982033828
 20
-3305.68956635593
 30
0.0
 10
12888.68440966657
 20
-3304.916210260007
 30
0.0
 10
12888.86889713198
 20
-3304.848523184121
 30
0.0
  0
SPLINE
  5
353308
330
18
100
AcDbEntity
  8
姿図
100
AcDbSpline
210
0.0
220
0.0
230
1.0
 70
     8
 71
     3
 72
    14
 73
    10
 74
     0
 42
0.000000001
 43
0.0000000001
 40
0.0
 40
0.0
 40
0.0
 40
0.0
 40
1.0
 40
1.0
 40
1.0
 40
2.0
 40
2.0
 40
2.0
 40
3.0
 40
3.0
 40
3.0
 40
3.0
 10
12898.9264107956
 20
-3300.127260344148
 30
0.0
 10
12898.9264107956
 20
-3300.127260344148
 30
0.0
 10
12901.13302732887
 20
-3299.170175806754
 30
0.0
 10
12901.13302732887
 20
-3299.170175806754
 30
0.0
 10
12901.13302732887
 20
-3299.170175806754
 30
0.0
 10
12901.29795876576
 20
-3298.906124773252
 30
0.0
 10
12902.0902011632
 20
-3299.170175806754
 30
0.0
 10
12902.0902011632
 20
-3299.170175806754
 30
0.0
 10
12903.90533993831
 20
-3300.127260344148
 30
0.0
 10
12903.90533993831
 20
-3300.127260344148
 30
0.0
  0
SPLINE
  5
353309
330
18
100
AcDbEntity
  8
姿図
100
AcDbSpline
210
0.0
220
0.0
230
1.0
 70
     8
 71
     3
 72
    14
 73
    10
 74
     0
 42
0.000000001
 43
0.0000000001
 40
0.0
 40
0.0
 40
0.0
 40
0.0
 40
1.0
 40
1.0
 40
1.0
 40
2.0
 40
2.0
 40
2.0
 40
3.0
 40
3.0
 40
3.0
 40
3.0
 10
12903.90533993831
 20
-3314.928986159751
 30
0.0
 10
12903.90533993831
 20
-3314.928986159751
 30
0.0
 10
12903.90533993831
 20
-3299.764223659433
 30
0.0
 10
12903.90533993831
 20
-3299.764223659433
 30
0.0
 10
12903.90533993831
 20
-3299.764223659433
 30
0.0
 10
12912.11190675633
 20
-3299.434182191789
 30
0.0
 10
12914.55998219882
 20
-3304.615904671346
 30
0.0
 10
12914.55998219882
 20
-3304.615904671346
 30
0.0
 10
12915.17684541811
 20
-3312.13863556967
 30
0.0
 10
12915.09388856653
 20
-3312.669059356956
 30
0.0
  0
SPLINE
  5
35330A
330
18
100
AcDbEntity
  8
姿図
100
AcDbSpline
210
0.0
220
0.0
230
1.0
 70
     8
 71
     3
 72
    11
 73
     7
 74
     0
 42
0.000000001
 43
0.0000000001
 40
0.0
 40
0.0
 40
0.0
 40
0.0
 40
1.0
 40
1.0
 40
1.0
 40
2.0
 40
2.0
 40
2.0
 40
2.0
 10
12915.62833071584
 20
-3312.57770859359
 30
0.0
 10
12915.62833071584
 20
-3312.57770859359
 30
0.0
 10
12914.86278810163
 20
-3305.286033511697
 30
0.0
 10
12914.86278810163
 20
-3305.286033511697
 30
0.0
 10
12914.86278810163
 20
-3305.286033511697
 30
0.0
 10
12914.75223849748
 20
-3304.784184743256
 30
0.0
 10
12914.55998219882
 20
-3304.848523184121
 30
0.0
  0
POLYLINE
  5
35330B
330
18
100
AcDbEntity
  8
姿図
100
AcDb2dPolyline
 66
     1
 10
0.0
 20
0.0
 30
0.0
  0
VERTEX
  5
35330C
330
35330B
100
AcDbEntity
  8
姿図
100
AcDbVertex
100
AcDb2dVertex
 10
12887.56810869606
 20
-3316.012515155528
 30
0.0
  0
VERTEX
  5
35330D
330
35330B
100
AcDbEntity
  8
姿図
100
AcDbVertex
100
AcDb2dVertex
 10
12887.93114538077
 20
-3315.936434167857
 30
0.0
  0
SEQEND
  5
35330E
330
35330B
100
AcDbEntity
  8
姿図
  0
POLYLINE
  5
35330F
330
18
100
AcDbEntity
  8
姿図
100
AcDb2dPolyline
 66
     1
 10
0.0
 20
0.0
 30
0.0
  0
VERTEX
  5
353310
330
35330F
100
AcDbEntity
  8
姿図
100
AcDbVertex
100
AcDb2dVertex
 10
12915.8859523701
 20
-3315.84744977324
 30
0.0
  0
VERTEX
  5
353311
330
35330F
100
AcDbEntity
  8
姿図
100
AcDbVertex
100
AcDb2dVertex
 10
12915.36294022833
 20
-3315.573397483142
 30
0.0
  0
SEQEND
  5
353312
330
35330F
100
AcDbEntity
  8
姿図
  0
SPLINE
  5
353313
330
18
100
AcDbEntity
  8
姿図
100
AcDbSpline
210
0.0
220
0.0
230
1.0
 70
     8
 71
     3
 72
    14
 73
    10
 74
     0
 42
0.000000001
 43
0.0000000001
 40
0.0
 40
0.0
 40
0.0
 40
0.0
 40
1.0
 40
1.0
 40
1.0
 40
2.0
 40
2.0
 40
2.0
 40
3.0
 40
3.0
 40
3.0
 40
3.0
 10
12917.08672824007
 20
-3333.296740381639
 30
0.0
 10
12917.08672824007
 20
-3333.296740381639
 30
0.0
 10
12916.11696353807
 20
-3318.035894380459
 30
0.0
 10
12915.8859523701
 20
-3315.84744977324
 30
0.0
 10
12915.8859523701
 20
-3315.84744977324
 30
0.0
 10
12916.21599383775
 20
-3315.84744977324
 30
0.0
 10
12916.21599383775
 20
-3315.84744977324
 30
0.0
 10
12916.21599383775
 20
-3315.84744977324
 30
0.0
 10
12916.24894440635
 20
-3312.612980882475
 30
0.0
 10
12916.24894440635
 20
-3312.612980882475
 30
0.0
  0
POLYLINE
  5
353314
330
18
100
AcDbEntity
  8
姿図
100
AcDb2dPolyline
 66
     1
 10
0.0
 20
0.0
 30
0.0
  0
VERTEX
  5
353315
330
353314
100
AcDbEntity
  8
姿図
100
AcDbVertex
100
AcDb2dVertex
 10
12900.43985987958
 20
-3323.263426187101
 30
0.0
  0
VERTEX
  5
353316
330
353314
100
AcDbEntity
  8
姿図
100
AcDbVertex
100
AcDb2dVertex
 10
12900.43985987958
 20
-3323.263426187101
 30
0.0
  0
SEQEND
  5
353317
330
353314
100
AcDbEntity
  8
姿図
  0
POLYLINE
  5
353318
330
18
100
AcDbEntity
  8
姿図
100
AcDb2dPolyline
 66
     1
 10
0.0
 20
0.0
 30
0.0
  0
VERTEX
  5
353319
330
353318
100
AcDbEntity
  8
姿図
100
AcDbVertex
100
AcDb2dVertex
 10
12901.41592001542
 20
-3299.055875731379
 30
0.0
  0
VERTEX
  5
35331A
330
353318
100
AcDbEntity
  8
姿図
100
AcDbVertex
100
AcDb2dVertex
 10
12901.45208527364
 20
-3323.285482529771
 30
0.0
  0
SEQEND
  5
35331B
330
353318
100
AcDbEntity
  8
姿図
  0
SPLINE
  5
35331C
330
18
100
AcDbEntity
  8
姿図
100
AcDbSpline
210
0.0
220
0.0
230
1.0
 70
     8
 71
     3
 72
     8
 73
     4
 74
     0
 42
0.000000001
 43
0.0000000001
 40
0.0
 40
0.0
 40
0.0
 40
0.0
 40
1.0
 40
1.0
 40
1.0
 40
1.0
 10
12890.27518989529
 20
-3301.466089273906
 30
0.0
 10
12889.76552764514
 20
-3302.182518574476
 30
0.0
 10
12889.43562012289
 20
-3302.914664135411
 30
0.0
 10
12889.18340093313
 20
-3303.89358177314
 30
0.0
  0
SPLINE
  5
35331D
330
18
100
AcDbEntity
  8
姿図
100
AcDbSpline
210
0.0
220
0.0
230
1.0
 70
     8
 71
     3
 72
     8
 73
     4
 74
     0
 42
0.000000001
 43
0.0000000001
 40
0.0
 40
0.0
 40
0.0
 40
0.0
 40
1.0
 40
1.0
 40
1.0
 40
1.0
 10
12893.18073353009
 20
-3298.901838520425
 30
0.0
 10
12892.188108813
 20
-3299.432887386247
 30
0.0
 10
12891.76301075924
 20
-3299.787842698445
 30
0.0
 10
12890.89915222082
 20
-3300.673802227999
 30
0.0
  0
SPLINE
  5
35331E
330
18
100
AcDbEntity
  8
姿図
100
AcDbSpline
210
0.0
220
0.0
230
1.0
 70
     8
 71
     3
 72
     8
 73
     4
 74
     0
 42
0.000000001
 43
0.0000000001
 40
0.0
 40
0.0
 40
0.0
 40
0.0
 40
1.0
 40
1.0
 40
1.0
 40
1.0
 10
12898.07411621012
 20
-3297.360975277749
 30
0.0
 10
12896.96031555376
 20
-3297.51563756724
 30
0.0
 10
12895.93858003623
 20
-3297.723074344658
 30
0.0
 10
12894.7006119933
 20
-3298.20550102998
 30
0.0
  0
SPLINE
  5
35331F
330
18
100
AcDbEntity
  8
姿図
100
AcDbSpline
210
0.0
220
0.0
230
1.0
 70
     8
 71
     3
 72
     8
 73
     4
 74
     0
 42
0.000000001
 43
0.0000000001
 40
0.0
 40
0.0
 40
0.0
 40
0.0
 40
1.0
 40
1.0
 40
1.0
 40
1.0
 10
12901.56200979926
 20
-3297.167915306687
 30
0.0
 10
12901.56200979926
 20
-3297.167915306687
 30
0.0
 10
12900.72699417049
 20
-3297.110943862868
 30
0.0
 10
12899.34548130633
 20
-3297.230065972672
 30
0.0
  0
SPLINE
  5
353320
330
18
100
AcDbEntity
  8
姿図
100
AcDbSpline
210
0.0
220
0.0
230
1.0
 70
     8
 71
     3
 72
    11
 73
     7
 74
     0
 42
0.000000001
 43
0.0000000001
 40
0.0
 40
0.0
 40
0.0
 40
0.0
 40
1.0
 40
1.0
 40
1.0
 40
2.0
 40
2.0
 40
2.0
 40
2.0
 10
12901.56200979926
 20
-3289.507711778646
 30
0.0
 10
12901.56200979926
 20
-3289.507711778646
 30
0.0
 10
12900.39574719424
 20
-3289.532938162469
 30
0.0
 10
12900.1317408092
 20
-3289.708942419158
 30
0.0
 10
12900.1317408092
 20
-3289.708942419158
 30
0.0
 10
12900.1317408092
 20
-3297.170013784633
 30
0.0
 10
12900.1317408092
 20
-3297.170013784633
 30
0.0
  0
POLYLINE
  5
353321
330
18
100
AcDbEntity
  8
姿図
100
AcDb2dPolyline
 66
     1
 10
0.0
 20
0.0
 30
0.0
  0
VERTEX
  5
353322
330
353321
100
AcDbEntity
  8
姿図
100
AcDbVertex
100
AcDb2dVertex
 10
12899.119694009
 20
-3298.378067354715
 30
0.0
  0
VERTEX
  5
353323
330
353321
100
AcDbEntity
  8
姿図
100
AcDbVertex
100
AcDb2dVertex
 10
12899.38365574557
 20
-3297.035889789935
 30
0.0
  0
VERTEX
  5
353324
330
353321
100
AcDbEntity
  8
姿図
100
AcDbVertex
100
AcDb2dVertex
 10
12899.85367015708
 20
-3297.192159424237
 30
0.0
  0
SEQEND
  5
353325
330
353321
100
AcDbEntity
  8
姿図
  0
SPLINE
  5
353326
330
18
100
AcDbEntity
  8
姿図
100
AcDbSpline
210
0.0
220
0.0
230
1.0
 70
     8
 71
     3
 72
    26
 73
    22
 74
     0
 42
0.000000001
 43
0.0000000001
 40
0.0
 40
0.0
 40
0.0
 40
0.0
 40
1.0
 40
1.0
 40
1.0
 40
2.0
 40
2.0
 40
2.0
 40
3.0
 40
3.0
 40
3.0
 40
4.0
 40
4.0
 40
4.0
 40
5.0
 40
5.0
 40
5.0
 40
6.0
 40
6.0
 40
6.0
 40
7.0
 40
7.0
 40
7.0
 40
7.0
 10
12901.15383351447
 20
-3289.526598080162
 30
0.0
 10
12901.15383351447
 20
-3289.526598080162
 30
0.0
 10
12898.74964751498
 20
-3284.1826677202
 30
0.0
 10
12898.74964751498
 20
-3284.1826677202
 30
0.0
 10
12898.33155927052
 20
-3283.720600735805
 30
0.0
 10
12898.21466958406
 20
-3284.200393161576
 30
0.0
 10
12898.21466958406
 20
-3284.200393161576
 30
0.0
 10
12898.21466958406
 20
-3284.200393161576
 30
0.0
 10
12898.04147818079
 20
-3297.299940823438
 30
0.0
 10
12898.04147818079
 20
-3297.299940823438
 30
0.0
 10
12898.04147818079
 20
-3297.299940823438
 30
0.0
 10
12898.66807476587
 20
-3298.472230971498
 30
0.0
 10
12898.66807476587
 20
-3298.472230971498
 30
0.0
 10
12898.66807476587
 20
-3298.472230971498
 30
0.0
 10
12899.16380669434
 20
-3298.554071611405
 30
0.0
 10
12899.119694009
 20
-3298.378067354715
 30
0.0
 10
12899.07558132366
 20
-3298.202063098024
 30
0.0
 10
12898.61351433927
 20
-3297.233905740828
 30
0.0
 10
12898.61351433927
 20
-3297.233905740828
 30
0.0
 10
12898.61351433927
 20
-3297.233905740828
 30
0.0
 10
12898.74964751498
 20
-3284.1826677202
 30
0.0
 10
12898.74964751498
 20
-3284.1826677202
 30
0.0
  0
SPLINE
  5
353327
330
18
100
AcDbEntity
  8
姿図
100
AcDbSpline
210
0.0
220
0.0
230
1.0
 70
     8
 71
     3
 72
     8
 73
     4
 74
     0
 42
0.000000001
 43
0.0000000001
 40
0.0
 40
0.0
 40
0.0
 40
0.0
 40
1.0
 40
1.0
 40
1.0
 40
1.0
 10
12898.04147818079
 20
-3297.299940823438
 30
0.0
 10
12898.04147818079
 20
-3297.299940823438
 30
0.0
 10
12898.12943566067
 20
-3297.035845141469
 30
0.0
 10
12898.61351433927
 20
-3297.233905740828
 30
0.0
  0
SPLINE
  5
353328
330
18
100
AcDbEntity
  8
姿図
100
AcDbSpline
210
0.0
220
0.0
230
1.0
 70
     8
 71
     3
 72
    11
 73
     7
 74
     0
 42
0.000000001
 43
0.0000000001
 40
0.0
 40
0.0
 40
0.0
 40
0.0
 40
1.0
 40
1.0
 40
1.0
 40
2.0
 40
2.0
 40
2.0
 40
2.0
 10
12898.13778492399
 20
-3290.016748950265
 30
0.0
 10
12898.13778492399
 20
-3290.016748950265
 30
0.0
 10
12897.3593835513
 20
-3290.170964755086
 30
0.0
 10
12897.22735803455
 20
-3290.390992400182
 30
0.0
 10
12897.22735803455
 20
-3290.390992400182
 30
0.0
 10
12897.22735803455
 20
-3297.503582481165
 30
0.0
 10
12897.22735803455
 20
-3297.503582481165
 30
0.0
  0
SPLINE
  5
353329
330
18
100
AcDbEntity
  8
姿図
100
AcDbSpline
210
0.0
220
0.0
230
1.0
 70
     8
 71
     3
 72
    17
 73
    13
 74
     0
 42
0.000000001
 43
0.0000000001
 40
0.0
 40
0.0
 40
0.0
 40
0.0
 40
1.0
 40
1.0
 40
1.0
 40
2.0
 40
2.0
 40
2.0
 40
3.0
 40
3.0
 40
3.0
 40
4.0
 40
4.0
 40
4.0
 40
4.0
 10
12898.13778492399
 20
-3288.5207127684
 30
0.0
 10
12898.13778492399
 20
-3288.5207127684
 30
0.0
 10
12893.89618056438
 20
-3285.431172801333
 30
0.0
 10
12893.89618056438
 20
-3285.431172801333
 30
0.0
 10
12893.89618056438
 20
-3285.431172801333
 30
0.0
 10
12893.31601838492
 20
-3285.002234979409
 30
0.0
 10
12893.2637796786
 20
-3285.751213012381
 30
0.0
 10
12893.2637796786
 20
-3285.751213012381
 30
0.0
 10
12892.95878600091
 20
-3297.299940823438
 30
0.0
 10
12892.95878600091
 20
-3297.299940823438
 30
0.0
 10
12892.95878600091
 20
-3297.299940823438
 30
0.0
 10
12893.18073353009
 20
-3298.901838520425
 30
0.0
 10
12893.18073353009
 20
-3298.901838520425
 30
0.0
  0
SPLINE
  5
35332A
330
18
100
AcDbEntity
  8
姿図
100
AcDbSpline
210
0.0
220
0.0
230
1.0
 70
     8
 71
     3
 72
    17
 73
    13
 74
     0
 42
0.000000001
 43
0.0000000001
 40
0.0
 40
0.0
 40
0.0
 40
0.0
 40
1.0
 40
1.0
 40
1.0
 40
2.0
 40
2.0
 40
2.0
 40
3.0
 40
3.0
 40
3.0
 40
4.0
 40
4.0
 40
4.0
 40
4.0
 10
12895.67394857266
 20
-3297.879701166696
 30
0.0
 10
12895.67394857266
 20
-3297.879701166696
 30
0.0
 10
12894.87304437263
 20
-3297.706956248092
 30
0.0
 10
12894.87304437263
 20
-3297.706956248092
 30
0.0
 10
12894.87304437263
 20
-3297.706956248092
 30
0.0
 10
12894.3669986483
 20
-3299.170175806754
 30
0.0
 10
12894.3669986483
 20
-3299.170175806754
 30
0.0
 10
12894.3669986483
 20
-3299.170175806754
 30
0.0
 10
12894.1029476148
 20
-3299.412215146053
 30
0.0
 10
12893.8829199697
 20
-3299.324213017708
 30
0.0
 10
12893.66284767614
 20
-3299.236166240895
 30
0.0
 10
12893.20363819363
 20
-3299.0646268309
 30
0.0
 10
12893.18091212395
 20
-3298.901838520425
 30
0.0
  0
SPLINE
  5
35332B
330
18
100
AcDbEntity
  8
姿図
100
AcDbSpline
210
0.0
220
0.0
230
1.0
 70
     8
 71
     3
 72
    11
 73
     7
 74
     0
 42
0.000000001
 43
0.0000000001
 40
0.0
 40
0.0
 40
0.0
 40
0.0
 40
1.0
 40
1.0
 40
1.0
 40
2.0
 40
2.0
 40
2.0
 40
2.0
 10
12893.18073353009
 20
-3298.901838520425
 30
0.0
 10
12893.18073353009
 20
-3298.901838520425
 30
0.0
 10
12893.22895387438
 20
-3298.576083305607
 30
0.0
 10
12893.68798476303
 20
-3298.796155599171
 30
0.0
 10
12894.14692635474
 20
-3299.016183244267
 30
0.0
 10
12894.45620628525
 20
-3299.135662541807
 30
0.0
 10
12894.30074032336
 20
-3299.222414513077
 30
0.0
  0
SPLINE
  5
35332C
330
18
100
AcDbEntity
  8
姿図
100
AcDbSpline
210
0.0
220
0.0
230
1.0
 70
     8
 71
     3
 72
    14
 73
    10
 74
     0
 42
0.000000001
 43
0.0000000001
 40
0.0
 40
0.0
 40
0.0
 40
0.0
 40
1.0
 40
1.0
 40
1.0
 40
2.0
 40
2.0
 40
2.0
 40
3.0
 40
3.0
 40
3.0
 40
3.0
 10
12893.7962126469
 20
-3285.37161174643
 30
0.0
 10
12893.7962126469
 20
-3285.37161174643
 30
0.0
 10
12893.66900916458
 20
-3285.572351253806
 30
0.0
 10
12893.68798476303
 20
-3286.276457577501
 30
0.0
 10
12893.70691571301
 20
-3286.980519252728
 30
0.0
 10
12893.52541969489
 20
-3297.153136664129
 30
0.0
 10
12893.52541969489
 20
-3297.153136664129
 30
0.0
 10
12893.52541969489
 20
-3297.153136664129
 30
0.0
 10
12893.52541969489
 20
-3298.735389035661
 30
0.0
 10
12893.52541969489
 20
-3298.735389035661
 30
0.0
  0
SPLINE
  5
35332D
330
18
100
AcDbEntity
  8
姿図
100
AcDbSpline
210
0.0
220
0.0
230
1.0
 70
     8
 71
     3
 72
    32
 73
    28
 74
     0
 42
0.000000001
 43
0.0000000001
 40
0.0
 40
0.0
 40
0.0
 40
0.0
 40
1.0
 40
1.0
 40
1.0
 40
2.0
 40
2.0
 40
2.0
 40
3.0
 40
3.0
 40
3.0
 40
4.0
 40
4.0
 40
4.0
 40
5.0
 40
5.0
 40
5.0
 40
6.0
 40
6.0
 40
6.0
 40
7.0
 40
7.0
 40
7.0
 40
8.0
 40
8.0
 40
8.0
 40
9.0
 40
9.0
 40
9.0
 40
9.0
 10
12893.19292256156
 20
-3288.432844585455
 30
0.0
 10
12893.19292256156
 20
-3288.432844585455
 30
0.0
 10
12890.24143565428
 20
-3287.430620447982
 30
0.0
 10
12890.24143565428
 20
-3287.430620447982
 30
0.0
 10
12890.24143565428
 20
-3287.430620447982
 30
0.0
 10
12889.8081222826
 20
-3287.236578210647
 30
0.0
 10
12889.76267014325
 20
-3287.909207365145
 30
0.0
 10
12889.76267014325
 20
-3287.909207365145
 30
0.0
 10
12889.18340093313
 20
-3298.735389035661
 30
0.0
 10
12889.18340093313
 20
-3298.735389035661
 30
0.0
 10
12889.18340093313
 20
-3298.735389035661
 30
0.0
 10
12889.50428946505
 20
-3301.062422484273
 30
0.0
 10
12889.50428946505
 20
-3301.062422484273
 30
0.0
 10
12889.50428946505
 20
-3301.062422484273
 30
0.0
 10
12889.52634580772
 20
-3301.260438435166
 30
0.0
 10
12889.81236388696
 20
-3301.34844056351
 30
0.0
 10
12889.81236388696
 20
-3301.34844056351
 30
0.0
 10
12890.27518989529
 20
-3301.466089273906
 30
0.0
 10
12890.27518989529
 20
-3301.466089273906
 30
0.0
 10
12890.27518989529
 20
-3301.466089273906
 30
0.0
 10
12890.51642556219
 20
-3301.458499034526
 30
0.0
 10
12890.6264840332
 20
-3301.282450129369
 30
0.0
 10
12890.6264840332
 20
-3301.282450129369
 30
0.0
 10
12891.30857866269
 20
-3299.76002670354
 30
0.0
 10
12891.30857866269
 20
-3299.76002670354
 30
0.0
 10
12891.30857866269
 20
-3299.76002670354
 30
0.0
 10
12891.7453746148
 20
-3299.87030841689
 30
0.0
 10
12891.7453746148
 20
-3299.87030841689
 30
0.0
  0
SPLINE
  5
35332E
330
18
100
AcDbEntity
  8
姿図
100
AcDbSpline
210
0.0
220
0.0
230
1.0
 70
     8
 71
     3
 72
    14
 73
    10
 74
     0
 42
0.000000001
 43
0.0000000001
 40
0.0
 40
0.0
 40
0.0
 40
0.0
 40
1.0
 40
1.0
 40
1.0
 40
2.0
 40
2.0
 40
2.0
 40
3.0
 40
3.0
 40
3.0
 40
3.0
 10
12890.43958555058
 20
-3287.497459202995
 30
0.0
 10
12890.43958555058
 20
-3287.497459202995
 30
0.0
 10
12890.03239153206
 20
-3287.332572414574
 30
0.0
 10
12890.01037983785
 20
-3287.926664915721
 30
0.0
 10
12889.98836814365
 20
-3288.5207127684
 30
0.0
 10
12889.72431711015
 20
-3298.491251218416
 30
0.0
 10
12889.72431711015
 20
-3298.491251218416
 30
0.0
 10
12889.72431711015
 20
-3298.491251218416
 30
0.0
 10
12889.83495601123
 20
-3300.911957150674
 30
0.0
 10
12889.83495601123
 20
-3300.911957150674
 30
0.0
  0
SPLINE
  5
35332F
330
18
100
AcDbEntity
  8
姿図
100
AcDbSpline
210
0.0
220
0.0
230
1.0
 70
     8
 71
     3
 72
    26
 73
    22
 74
     0
 42
0.000000001
 43
0.0000000001
 40
0.0
 40
0.0
 40
0.0
 40
0.0
 40
1.0
 40
1.0
 40
1.0
 40
2.0
 40
2.0
 40
2.0
 40
3.0
 40
3.0
 40
3.0
 40
4.0
 40
4.0
 40
4.0
 40
5.0
 40
5.0
 40
5.0
 40
6.0
 40
6.0
 40
6.0
 40
7.0
 40
7.0
 40
7.0
 40
7.0
 10
12889.63926178062
 20
-3290.214988143493
 30
0.0
 10
12889.63926178062
 20
-3290.214988143493
 30
0.0
 10
12888.42620758224
 20
-3290.214988143493
 30
0.0
 10
12888.42620758224
 20
-3290.214988143493
 30
0.0
 10
12888.42620758224
 20
-3290.214988143493
 30
0.0
 10
12888.12081206835
 20
-3290.216774082171
 30
0.0
 10
12888.10380100244
 20
-3290.654463003615
 30
0.0
 10
12888.08678993654
 20
-3291.092151925059
 30
0.0
 10
12887.73397775075
 20
-3301.466089273906
 30
0.0
 10
12887.73397775075
 20
-3301.466089273906
 30
0.0
 10
12887.73397775075
 20
-3301.466089273906
 30
0.0
 10
12887.97713330173
 20
-3303.410931845484
 30
0.0
 10
12888.00360984262
 20
-3303.435934986972
 30
0.0
 10
12888.02999708659
 20
-3303.460938128461
 30
0.0
 10
12888.73950587478
 20
-3303.63680843975
 30
0.0
 10
12888.86889713198
 20
-3303.63680843975
 30
0.0
 10
12888.99824374072
 20
-3303.63680843975
 30
0.0
 10
12889.58358514234
 20
-3302.030579841469
 30
0.0
 10
12889.58358514234
 20
-3302.030579841469
 30
0.0
 10
12889.58358514234
 20
-3302.030579841469
 30
0.0
 10
12889.88991827404
 20
-3302.093176992123
 30
0.0
 10
12889.88991827404
 20
-3302.093176992123
 30
0.0
  0
SPLINE
  5
353330
330
18
100
AcDbEntity
  8
姿図
100
AcDbSpline
210
0.0
220
0.0
230
1.0
 70
     8
 71
     3
 72
    14
 73
    10
 74
     0
 42
0.000000001
 43
0.0000000001
 40
0.0
 40
0.0
 40
0.0
 40
0.0
 40
1.0
 40
1.0
 40
1.0
 40
2.0
 40
2.0
 40
2.0
 40
3.0
 40
3.0
 40
3.0
 40
3.0
 10
12888.00360984262
 20
-3303.435934986972
 30
0.0
 10
12888.00360984262
 20
-3303.435934986972
 30
0.0
 10
12887.84300930703
 20
-3302.954669161792
 30
0.0
 10
12888.32164087266
 20
-3303.064727632807
 30
0.0
 10
12888.80022778982
 20
-3303.174741455355
 30
0.0
 10
12888.80022778982
 20
-3303.174741455355
 30
0.0
 10
12888.80022778982
 20
-3303.174741455355
 30
0.0
 10
12888.80022778982
 20
-3303.174741455355
 30
0.0
 10
12889.20157285918
 20
-3303.350790360511
 30
0.0
 10
12888.86889713198
 20
-3303.63680843975
 30
0.0
  0
POLYLINE
  5
353331
330
18
100
AcDbEntity
  8
姿図
100
AcDb2dPolyline
 66
     1
 10
0.0
 20
0.0
 30
0.0
  0
VERTEX
  5
353332
330
353331
100
AcDbEntity
  8
姿図
100
AcDbVertex
100
AcDb2dVertex
 10
12888.42620758224
 20
-3290.214988143493
 30
0.0
  0
VERTEX
  5
353333
330
353331
100
AcDbEntity
  8
姿図
100
AcDbVertex
100
AcDb2dVertex
 10
12887.93114538077
 20
-3301.466089273906
 30
0.0
  0
VERTEX
  5
353334
330
353331
100
AcDbEntity
  8
姿図
100
AcDbVertex
100
AcDb2dVertex
 10
12888.05799167536
 20
-3303.084149715927
 30
0.0
  0
SEQEND
  5
353335
330
353331
100
AcDbEntity
  8
姿図
  0
SPLINE
  5
353336
330
18
100
AcDbEntity
  8
姿図
100
AcDbSpline
210
0.0
220
0.0
230
1.0
 70
     8
 71
     3
 72
    11
 73
     7
 74
     0
 42
0.000000001
 43
0.0000000001
 40
0.0
 40
0.0
 40
0.0
 40
0.0
 40
1.0
 40
1.0
 40
1.0
 40
2.0
 40
2.0
 40
2.0
 40
2.0
 10
12889.58657658963
 20
-3301.216325749826
 30
0.0
 10
12889.58657658963
 20
-3301.216325749826
 30
0.0
 10
12889.52634580772
 20
-3300.82042779344
 30
0.0
 10
12889.94438940371
 20
-3300.930441615988
 30
0.0
 10
12890.36238835123
 20
-3301.04041079007
 30
0.0
 10
12890.78020870489
 20
-3301.149933479482
 30
0.0
 10
12890.6264840332
 20
-3301.282450129369
 30
0.0
  0
POLYLINE
  5
353337
330
18
100
AcDbEntity
  8
姿図
100
AcDb2dPolyline
 66
     1
 10
0.0
 20
0.0
 30
0.0
  0
VERTEX
  5
353338
330
353337
100
AcDbEntity
  8
姿図
100
AcDbVertex
100
AcDb2dVertex
 10
12890.08195133036
 20
-3301.762644391343
 30
0.0
  0
VERTEX
  5
353339
330
353337
100
AcDbEntity
  8
姿図
100
AcDbVertex
100
AcDb2dVertex
 10
12889.72431711015
 20
-3301.678526679622
 30
0.0
  0
VERTEX
  5
35333A
330
353337
100
AcDbEntity
  8
姿図
100
AcDbVertex
100
AcDb2dVertex
 10
12889.58358514234
 20
-3302.030579841469
 30
0.0
  0
SEQEND
  5
35333B
330
353337
100
AcDbEntity
  8
姿図
  0
SPLINE
  5
35333C
330
18
100
AcDbEntity
  8
姿図
100
AcDbSpline
210
0.0
220
0.0
230
1.0
 70
     8
 71
     3
 72
     8
 73
     4
 74
     0
 42
0.000000001
 43
0.0000000001
 40
0.0
 40
0.0
 40
0.0
 40
0.0
 40
1.0
 40
1.0
 40
1.0
 40
1.0
 10
12912.84878505476
 20
-3301.466089273906
 30
0.0
 10
12913.28946542349
 20
-3302.029865465998
 30
0.0
 10
12913.57459053339
 20
-3302.606009283433
 30
0.0
 10
12913.79265364594
 20
-3303.376284635136
 30
0.0
  0
SPLINE
  5
35333D
330
18
100
AcDbEntity
  8
姿図
100
AcDbSpline
210
0.0
220
0.0
230
1.0
 70
     8
 71
     3
 72
     8
 73
     4
 74
     0
 42
0.000000001
 43
0.0000000001
 40
0.0
 40
0.0
 40
0.0
 40
0.0
 40
1.0
 40
1.0
 40
1.0
 40
1.0
 10
12909.94324141997
 20
-3298.901838520425
 30
0.0
 10
12910.93595543398
 20
-3299.432887386247
 30
0.0
 10
12911.36100883928
 20
-3299.787842698445
 30
0.0
 10
12912.22477808076
 20
-3300.673802227999
 30
0.0
  0
SPLINE
  5
35333E
330
18
100
AcDbEntity
  8
姿図
100
AcDbSpline
210
0.0
220
0.0
230
1.0
 70
     8
 71
     3
 72
     8
 73
     4
 74
     0
 42
0.000000001
 43
0.0000000001
 40
0.0
 40
0.0
 40
0.0
 40
0.0
 40
1.0
 40
1.0
 40
1.0
 40
1.0
 10
12905.04994803686
 20
-3297.360975277749
 30
0.0
 10
12906.16374869322
 20
-3297.51563756724
 30
0.0
 10
12907.18539491382
 20
-3297.723074344658
 30
0.0
 10
12908.42331830829
 20
-3298.20550102998
 30
0.0
  0
SPLINE
  5
35333F
330
18
100
AcDbEntity
  8
姿図
100
AcDbSpline
210
0.0
220
0.0
230
1.0
 70
     8
 71
     3
 72
     8
 73
     4
 74
     0
 42
0.000000001
 43
0.0000000001
 40
0.0
 40
0.0
 40
0.0
 40
0.0
 40
1.0
 40
1.0
 40
1.0
 40
1.0
 10
12901.56200979926
 20
-3297.167915306687
 30
0.0
 10
12901.56200979926
 20
-3297.167915306687
 30
0.0
 10
12902.39702542803
 20
-3297.110943862868
 30
0.0
 10
12903.77862758912
 20
-3297.230065972672
 30
0.0
  0
SPLINE
  5
353340
330
18
100
AcDbEntity
  8
姿図
100
AcDbSpline
210
0.0
220
0.0
230
1.0
 70
     8
 71
     3
 72
    11
 73
     7
 74
     0
 42
0.000000001
 43
0.0000000001
 40
0.0
 40
0.0
 40
0.0
 40
0.0
 40
1.0
 40
1.0
 40
1.0
 40
2.0
 40
2.0
 40
2.0
 40
2.0
 10
12901.56200979926
 20
-3289.507711778646
 30
0.0
 10
12901.56200979926
 20
-3289.507711778646
 30
0.0
 10
12902.72822775582
 20
-3289.532938162469
 30
0.0
 10
12902.99227878932
 20
-3289.708942419158
 30
0.0
 10
12902.99227878932
 20
-3289.708942419158
 30
0.0
 10
12902.99227878932
 20
-3297.170013784633
 30
0.0
 10
12902.99227878932
 20
-3297.170013784633
 30
0.0
  0
POLYLINE
  5
353341
330
18
100
AcDbEntity
  8
姿図
100
AcDb2dPolyline
 66
     1
 10
0.0
 20
0.0
 30
0.0
  0
VERTEX
  5
353342
330
353341
100
AcDbEntity
  8
姿図
100
AcDbVertex
100
AcDb2dVertex
 10
12904.00428094105
 20
-3298.378067354715
 30
0.0
  0
VERTEX
  5
353343
330
353341
100
AcDbEntity
  8
姿図
100
AcDbVertex
100
AcDb2dVertex
 10
12903.74031920448
 20
-3297.035889789935
 30
0.0
  0
VERTEX
  5
353344
330
353341
100
AcDbEntity
  8
姿図
100
AcDbVertex
100
AcDb2dVertex
 10
12903.27043873837
 20
-3297.192159424237
 30
0.0
  0
SEQEND
  5
353345
330
353341
100
AcDbEntity
  8
姿図
  0
SPLINE
  5
353346
330
18
100
AcDbEntity
  8
姿図
100
AcDbSpline
210
0.0
220
0.0
230
1.0
 70
     8
 71
     3
 72
    26
 73
    22
 74
     0
 42
0.000000001
 43
0.0000000001
 40
0.0
 40
0.0
 40
0.0
 40
0.0
 40
1.0
 40
1.0
 40
1.0
 40
2.0
 40
2.0
 40
2.0
 40
3.0
 40
3.0
 40
3.0
 40
4.0
 40
4.0
 40
4.0
 40
5.0
 40
5.0
 40
5.0
 40
6.0
 40
6.0
 40
6.0
 40
7.0
 40
7.0
 40
7.0
 40
7.0
 10
12901.97018608405
 20
-3289.526598080162
 30
0.0
 10
12901.97018608405
 20
-3289.526598080162
 30
0.0
 10
12904.37441673201
 20
-3284.1826677202
 30
0.0
 10
12904.37441673201
 20
-3284.1826677202
 30
0.0
 10
12904.79250497647
 20
-3283.720600735805
 30
0.0
 10
12904.90939466292
 20
-3284.200393161576
 30
0.0
 10
12904.90939466292
 20
-3284.200393161576
 30
0.0
 10
12904.90939466292
 20
-3284.200393161576
 30
0.0
 10
12905.08263071466
 20
-3297.299940823438
 30
0.0
 10
12905.08263071466
 20
-3297.299940823438
 30
0.0
 10
12905.08263071466
 20
-3297.299940823438
 30
0.0
 10
12904.45603412958
 20
-3298.472230971498
 30
0.0
 10
12904.45603412958
 20
-3298.472230971498
 30
0.0
 10
12904.45603412958
 20
-3298.472230971498
 30
0.0
 10
12903.96025755265
 20
-3298.554071611405
 30
0.0
 10
12904.00428094105
 20
-3298.378067354715
 30
0.0
 10
12904.04839362639
 20
-3298.202063098024
 30
0.0
 10
12904.51059455619
 20
-3297.233905740828
 30
0.0
 10
12904.51059455619
 20
-3297.233905740828
 30
0.0
 10
12904.51059455619
 20
-3297.233905740828
 30
0.0
 10
12904.37441673201
 20
-3284.1826677202
 30
0.0
 10
12904.37441673201
 20
-3284.1826677202
 30
0.0
  0
SPLINE
  5
353347
330
18
100
AcDbEntity
  8
姿図
100
AcDbSpline
210
0.0
220
0.0
230
1.0
 70
     8
 71
     3
 72
     8
 73
     4
 74
     0
 42
0.000000001
 43
0.0000000001
 40
0.0
 40
0.0
 40
0.0
 40
0.0
 40
1.0
 40
1.0
 40
1.0
 40
1.0
 10
12905.08263071466
 20
-3297.299940823438
 30
0.0
 10
12905.08263071466
 20
-3297.299940823438
 30
0.0
 10
12904.99458393785
 20
-3297.035845141469
 30
0.0
 10
12904.51059455619
 20
-3297.233905740828
 30
0.0
  0
SPLINE
  5
353348
330
18
100
AcDbEntity
  8
姿図
100
AcDbSpline
210
0.0
220
0.0
230
1.0
 70
     8
 71
     3
 72
    11
 73
     7
 74
     0
 42
0.000000001
 43
0.0000000001
 40
0.0
 40
0.0
 40
0.0
 40
0.0
 40
1.0
 40
1.0
 40
1.0
 40
2.0
 40
2.0
 40
2.0
 40
2.0
 10
12904.986279323
 20
-3290.016748950265
 30
0.0
 10
12904.986279323
 20
-3290.016748950265
 30
0.0
 10
12905.76468069569
 20
-3290.170964755086
 30
0.0
 10
12905.89666156397
 20
-3290.390992400182
 30
0.0
 10
12905.89666156397
 20
-3290.390992400182
 30
0.0
 10
12905.89666156397
 20
-3297.503582481165
 30
0.0
 10
12905.89666156397
 20
-3297.503582481165
 30
0.0
  0
SPLINE
  5
353349
330
18
100
AcDbEntity
  8
姿図
100
AcDbSpline
210
0.0
220
0.0
230
1.0
 70
     8
 71
     3
 72
    17
 73
    13
 74
     0
 42
0.000000001
 43
0.0000000001
 40
0.0
 40
0.0
 40
0.0
 40
0.0
 40
1.0
 40
1.0
 40
1.0
 40
2.0
 40
2.0
 40
2.0
 40
3.0
 40
3.0
 40
3.0
 40
4.0
 40
4.0
 40
4.0
 40
4.0
 10
12904.986279323
 20
-3288.5207127684
 30
0.0
 10
12904.986279323
 20
-3288.5207127684
 30
0.0
 10
12909.22779438567
 20
-3285.431172801333
 30
0.0
 10
12909.22779438567
 20
-3285.431172801333
 30
0.0
 10
12909.22779438567
 20
-3285.431172801333
 30
0.0
 10
12909.80795656513
 20
-3285.002234979409
 30
0.0
 10
12909.86019527145
 20
-3285.751213012381
 30
0.0
 10
12909.86019527145
 20
-3285.751213012381
 30
0.0
 10
12910.16523359761
 20
-3297.299940823438
 30
0.0
 10
12910.16523359761
 20
-3297.299940823438
 30
0.0
 10
12910.16523359761
 20
-3297.299940823438
 30
0.0
 10
12909.94324141997
 20
-3298.901838520425
 30
0.0
 10
12909.94324141997
 20
-3298.901838520425
 30
0.0
  0
SPLINE
  5
35334A
330
18
100
AcDbEntity
  8
姿図
100
AcDbSpline
210
0.0
220
0.0
230
1.0
 70
     8
 71
     3
 72
    17
 73
    13
 74
     0
 42
0.000000001
 43
0.0000000001
 40
0.0
 40
0.0
 40
0.0
 40
0.0
 40
1.0
 40
1.0
 40
1.0
 40
2.0
 40
2.0
 40
2.0
 40
3.0
 40
3.0
 40
3.0
 40
4.0
 40
4.0
 40
4.0
 40
4.0
 10
12907.45016032279
 20
-3297.879701166696
 30
0.0
 10
12907.45016032279
 20
-3297.879701166696
 30
0.0
 10
12908.25097522589
 20
-3297.706956248092
 30
0.0
 10
12908.25097522589
 20
-3297.706956248092
 30
0.0
 10
12908.25097522589
 20
-3297.706956248092
 30
0.0
 10
12908.75702095022
 20
-3299.170175806754
 30
0.0
 10
12908.75702095022
 20
-3299.170175806754
 30
0.0
 10
12908.75702095022
 20
-3299.170175806754
 30
0.0
 10
12909.02107198372
 20
-3299.412215146053
 30
0.0
 10
12909.24109962882
 20
-3299.324213017708
 30
0.0
 10
12909.46121657085
 20
-3299.236166240895
 30
0.0
 10
12909.92047070183
 20
-3299.0646268309
 30
0.0
 10
12909.9430628261
 20
-3298.901838520425
 30
0.0
  0
SPLINE
  5
35334B
330
18
100
AcDbEntity
  8
姿図
100
AcDbSpline
210
0.0
220
0.0
230
1.0
 70
     8
 71
     3
 72
    11
 73
     7
 74
     0
 42
0.000000001
 43
0.0000000001
 40
0.0
 40
0.0
 40
0.0
 40
0.0
 40
1.0
 40
1.0
 40
1.0
 40
2.0
 40
2.0
 40
2.0
 40
2.0
 10
12909.94324141997
 20
-3298.901838520425
 30
0.0
 10
12909.94324141997
 20
-3298.901838520425
 30
0.0
 10
12909.89502107567
 20
-3298.576083305607
 30
0.0
 10
12909.43603483549
 20
-3298.796155599171
 30
0.0
 10
12908.97704859531
 20
-3299.016183244267
 30
0.0
 10
12908.66781331327
 20
-3299.135662541807
 30
0.0
 10
12908.82327927516
 20
-3299.222414513077
 30
0.0
  0
SPLINE
  5
35334C
330
18
100
AcDbEntity
  8
姿図
100
AcDbSpline
210
0.0
220
0.0
230
1.0
 70
     8
 71
     3
 72
    14
 73
    10
 74
     0
 42
0.000000001
 43
0.0000000001
 40
0.0
 40
0.0
 40
0.0
 40
0.0
 40
1.0
 40
1.0
 40
1.0
 40
2.0
 40
2.0
 40
2.0
 40
3.0
 40
3.0
 40
3.0
 40
3.0
 10
12909.32780695162
 20
-3285.37161174643
 30
0.0
 10
12909.32780695162
 20
-3285.37161174643
 30
0.0
 10
12909.45505508241
 20
-3285.572351253806
 30
0.0
 10
12909.43603483549
 20
-3286.276457577501
 30
0.0
 10
12909.41710388551
 20
-3286.980519252728
 30
0.0
 10
12909.59855525517
 20
-3297.153136664129
 30
0.0
 10
12909.59855525517
 20
-3297.153136664129
 30
0.0
 10
12909.59855525517
 20
-3297.153136664129
 30
0.0
 10
12909.59855525517
 20
-3298.735389035661
 30
0.0
 10
12909.59855525517
 20
-3298.735389035661
 30
0.0
  0
SPLINE
  5
35334D
330
18
100
AcDbEntity
  8
姿図
100
AcDbSpline
210
0.0
220
0.0
230
1.0
 70
     8
 71
     3
 72
    32
 73
    28
 74
     0
 42
0.000000001
 43
0.0000000001
 40
0.0
 40
0.0
 40
0.0
 40
0.0
 40
1.0
 40
1.0
 40
1.0
 40
2.0
 40
2.0
 40
2.0
 40
3.0
 40
3.0
 40
3.0
 40
4.0
 40
4.0
 40
4.0
 40
5.0
 40
5.0
 40
5.0
 40
6.0
 40
6.0
 40
6.0
 40
7.0
 40
7.0
 40
7.0
 40
8.0
 40
8.0
 40
8.0
 40
9.0
 40
9.0
 40
9.0
 40
9.0
 10
12909.93109703696
 20
-3288.432844585455
 30
0.0
 10
12909.93109703696
 20
-3288.432844585455
 30
0.0
 10
12912.88253929577
 20
-3287.430620447982
 30
0.0
 10
12912.88253929577
 20
-3287.430620447982
 30
0.0
 10
12912.88253929577
 20
-3287.430620447982
 30
0.0
 10
12913.31589731592
 20
-3287.236578210647
 30
0.0
 10
12913.36134945527
 20
-3287.909207365145
 30
0.0
 10
12913.36134945527
 20
-3287.909207365145
 30
0.0
 10
12913.94061866539
 20
-3298.735389035661
 30
0.0
 10
12913.94061866539
 20
-3298.735389035661
 30
0.0
 10
12913.94061866539
 20
-3298.735389035661
 30
0.0
 10
12913.619685485
 20
-3301.062422484273
 30
0.0
 10
12913.619685485
 20
-3301.062422484273
 30
0.0
 10
12913.619685485
 20
-3301.062422484273
 30
0.0
 10
12913.59762914233
 20
-3301.260438435166
 30
0.0
 10
12913.31161106309
 20
-3301.34844056351
 30
0.0
 10
12913.31161106309
 20
-3301.34844056351
 30
0.0
 10
12912.84878505476
 20
-3301.466089273906
 30
0.0
 10
12912.84878505476
 20
-3301.466089273906
 30
0.0
 10
12912.84878505476
 20
-3301.466089273906
 30
0.0
 10
12912.6075047394
 20
-3301.458499034526
 30
0.0
 10
12912.49758021379
 20
-3301.282450129369
 30
0.0
 10
12912.49758021379
 20
-3301.282450129369
 30
0.0
 10
12911.81544093583
 20
-3299.76002670354
 30
0.0
 10
12911.81544093583
 20
-3299.76002670354
 30
0.0
 10
12911.81544093583
 20
-3299.76002670354
 30
0.0
 10
12911.37868963219
 20
-3299.87030841689
 30
0.0
 10
12911.37868963219
 20
-3299.87030841689
 30
0.0
  0
SPLINE
  5
35334E
330
18
100
AcDbEntity
  8
姿図
100
AcDbSpline
210
0.0
220
0.0
230
1.0
 70
     8
 71
     3
 72
    14
 73
    10
 74
     0
 42
0.000000001
 43
0.0000000001
 40
0.0
 40
0.0
 40
0.0
 40
0.0
 40
1.0
 40
1.0
 40
1.0
 40
2.0
 40
2.0
 40
2.0
 40
3.0
 40
3.0
 40
3.0
 40
3.0
 10
12912.68438939948
 20
-3287.497459202995
 30
0.0
 10
12912.68438939948
 20
-3287.497459202995
 30
0.0
 10
12913.091583418
 20
-3287.332572414574
 30
0.0
 10
12913.11363976067
 20
-3287.926664915721
 30
0.0
 10
12913.13560680641
 20
-3288.5207127684
 30
0.0
 10
12913.39965783991
 20
-3298.491251218416
 30
0.0
 10
12913.39965783991
 20
-3298.491251218416
 30
0.0
 10
12913.39965783991
 20
-3298.491251218416
 30
0.0
 10
12913.28901893882
 20
-3300.911957150674
 30
0.0
 10
12913.28901893882
 20
-3300.911957150674
 30
0.0
  0
SPLINE
  5
35334F
330
18
100
AcDbEntity
  8
姿図
100
AcDbSpline
210
0.0
220
0.0
230
1.0
 70
     8
 71
     3
 72
    26
 73
    22
 74
     0
 42
0.000000001
 43
0.0000000001
 40
0.0
 40
0.0
 40
0.0
 40
0.0
 40
1.0
 40
1.0
 40
1.0
 40
2.0
 40
2.0
 40
2.0
 40
3.0
 40
3.0
 40
3.0
 40
4.0
 40
4.0
 40
4.0
 40
5.0
 40
5.0
 40
5.0
 40
6.0
 40
6.0
 40
6.0
 40
7.0
 40
7.0
 40
7.0
 40
7.0
 10
12913.4847578179
 20
-3290.214988143493
 30
0.0
 10
12913.4847578179
 20
-3290.214988143493
 30
0.0
 10
12914.69785666474
 20
-3290.214988143493
 30
0.0
 10
12914.69785666474
 20
-3290.214988143493
 30
0.0
 10
12914.69785666474
 20
-3290.214988143493
 30
0.0
 10
12915.00325217864
 20
-3290.216774082171
 30
0.0
 10
12915.02021859608
 20
-3290.654463003615
 30
0.0
 10
12915.03727431045
 20
-3291.092151925059
 30
0.0
 10
12915.3899971993
 20
-3301.466089273906
 30
0.0
 10
12915.3899971993
 20
-3301.466089273906
 30
0.0
 10
12915.3899971993
 20
-3301.466089273906
 30
0.0
 10
12915.14684164833
 20
-3303.410931845484
 30
0.0
 10
12915.1204097559
 20
-3303.435934986972
 30
0.0
 10
12915.09397786347
 20
-3303.460938128461
 30
0.0
 10
12914.38451372374
 20
-3303.63680843975
 30
0.0
 10
12914.25512246654
 20
-3303.63680843975
 30
0.0
 10
12914.12582050627
 20
-3303.63680843975
 30
0.0
 10
12913.54047910465
 20
-3302.030579841469
 30
0.0
 10
12913.54047910465
 20
-3302.030579841469
 30
0.0
 10
12913.54047910465
 20
-3302.030579841469
 30
0.0
 10
12913.23419062142
 20
-3302.093176992123
 30
0.0
 10
12913.23419062142
 20
-3302.093176992123
 30
0.0
  0
SPLINE
  5
353350
330
18
100
AcDbEntity
  8
姿図
100
AcDbSpline
210
0.0
220
0.0
230
1.0
 70
     8
 71
     3
 72
    14
 73
    10
 74
     0
 42
0.000000001
 43
0.0000000001
 40
0.0
 40
0.0
 40
0.0
 40
0.0
 40
1.0
 40
1.0
 40
1.0
 40
2.0
 40
2.0
 40
2.0
 40
3.0
 40
3.0
 40
3.0
 40
3.0
 10
12915.1204097559
 20
-3303.435934986972
 30
0.0
 10
12915.1204097559
 20
-3303.435934986972
 30
0.0
 10
12915.28096564302
 20
-3302.954669161792
 30
0.0
 10
12914.80233407739
 20
-3303.064727632807
 30
0.0
 10
12914.32388110563
 20
-3303.174741455355
 30
0.0
 10
12914.32388110563
 20
-3303.174741455355
 30
0.0
 10
12914.32388110563
 20
-3303.174741455355
 30
0.0
 10
12914.32388110563
 20
-3303.174741455355
 30
0.0
 10
12913.92249138781
 20
-3303.350790360511
 30
0.0
 10
12914.25512246654
 20
-3303.63680843975
 30
0.0
  0
POLYLINE
  5
353351
330
18
100
AcDbEntity
  8
姿図
100
AcDb2dPolyline
 66
     1
 10
0.0
 20
0.0
 30
0.0
  0
VERTEX
  5
353352
330
353351
100
AcDbEntity
  8
姿図
100
AcDbVertex
100
AcDb2dVertex
 10
12914.69785666474
 20
-3290.214988143493
 30
0.0
  0
VERTEX
  5
353353
330
353351
100
AcDbEntity
  8
姿図
100
AcDbVertex
100
AcDb2dVertex
 10
12915.19282956928
 20
-3301.466089273906
 30
0.0
  0
VERTEX
  5
353354
330
353351
100
AcDbEntity
  8
姿図
100
AcDbVertex
100
AcDb2dVertex
 10
12915.06602792316
 20
-3303.084149715927
 30
0.0
  0
SEQEND
  5
353355
330
353351
100
AcDbEntity
  8
姿図
  0
SPLINE
  5
353356
330
18
100
AcDbEntity
  8
姿図
100
AcDbSpline
210
0.0
220
0.0
230
1.0
 70
     8
 71
     3
 72
    11
 73
     7
 74
     0
 42
0.000000001
 43
0.0000000001
 40
0.0
 40
0.0
 40
0.0
 40
0.0
 40
1.0
 40
1.0
 40
1.0
 40
2.0
 40
2.0
 40
2.0
 40
2.0
 10
12913.53735371196
 20
-3301.216325749826
 30
0.0
 10
12913.53735371196
 20
-3301.216325749826
 30
0.0
 10
12913.59762914233
 20
-3300.82042779344
 30
0.0
 10
12913.17963019481
 20
-3300.930441615988
 30
0.0
 10
12912.76163124729
 20
-3301.04041079007
 30
0.0
 10
12912.34381089363
 20
-3301.149933479482
 30
0.0
 10
12912.49758021379
 20
-3301.282450129369
 30
0.0
  0
POLYLINE
  5
353357
330
18
100
AcDbEntity
  8
姿図
100
AcDb2dPolyline
 66
     1
 10
0.0
 20
0.0
 30
0.0
  0
VERTEX
  5
353358
330
353357
100
AcDbEntity
  8
姿図
100
AcDbVertex
100
AcDb2dVertex
 10
12913.04202361969
 20
-3301.762644391343
 30
0.0
  0
VERTEX
  5
353359
330
353357
100
AcDbEntity
  8
姿図
100
AcDbVertex
100
AcDb2dVertex
 10
12913.39965783991
 20
-3301.678526679622
 30
0.0
  0
VERTEX
  5
35335A
330
353357
100
AcDbEntity
  8
姿図
100
AcDbVertex
100
AcDb2dVertex
 10
12913.54047910465
 20
-3302.030579841469
 30
0.0
  0
SEQEND
  5
35335B
330
353357
100
AcDbEntity
  8
姿図
  0
SPLINE
  5
35335C
330
18
100
AcDbEntity
  8
姿図
100
AcDbSpline
210
0.0
220
0.0
230
1.0
 70
     8
 71
     3
 72
    11
 73
     7
 74
     0
 42
0.000000001
 43
0.0000000001
 40
0.0
 40
0.0
 40
0.0
 40
0.0
 40
1.0
 40
1.0
 40
1.0
 40
2.0
 40
2.0
 40
2.0
 40
2.0
 10
12916.77704647335
 20
-3328.092157887007
 30
0.0
 10
12916.77704647335
 20
-3328.092157887007
 30
0.0
 10
12913.10971069558
 20
-3323.064204727601
 30
0.0
 10
12901.45208527364
 20
-3323.285482529771
 30
0.0
 10
12901.45208527364
 20
-3323.285482529771
 30
0.0
 10
12902.68411507047
 20
-3322.776936491288
 30
0.0
 10
12902.68411507047
 20
-3322.776936491288
 30
0.0
  0
SPLINE
  5
35335D
330
18
100
AcDbEntity
  8
姿図
100
AcDbSpline
210
0.0
220
0.0
230
1.0
 70
     8
 71
     3
 72
    11
 73
     7
 74
     0
 42
0.000000001
 43
0.0000000001
 40
0.0
 40
0.0
 40
0.0
 40
0.0
 40
1.0
 40
1.0
 40
1.0
 40
2.0
 40
2.0
 40
2.0
 40
2.0
 10
12900.22076985229
 20
-3322.867394285315
 30
0.0
 10
12900.22076985229
 20
-3322.867394285315
 30
0.0
 10
12901.45208527364
 20
-3323.285482529771
 30
0.0
 10
12901.45208527364
 20
-3323.285482529771
 30
0.0
 10
12901.45208527364
 20
-3323.285482529771
 30
0.0
 10
12890.06235065337
 20
-3323.323880211342
 30
0.0
 10
12886.63696491796
 20
-3328.046348559923
 30
0.0
  0
SPLINE
  5
35335E
330
18
100
AcDbEntity
  8
姿図
100
AcDbSpline
210
0.0
220
0.0
230
1.0
 70
     8
 71
     3
 72
    11
 73
     7
 74
     0
 42
0.000000001
 43
0.0000000001
 40
1.001401759486589
 40
1.001401759486589
 40
1.001401759486589
 40
1.001401759486589
 40
2.0
 40
2.0
 40
2.0
 40
2.325448533580545
 40
2.325448533580545
 40
2.325448533580545
 40
2.325448533580545
 10
12901.49120929629
 20
-3331.482234433133
 30
0.0
 10
12894.54630996155
 20
-3331.698205032802
 30
0.0
 10
12889.75567909388
 20
-3333.228925174639
 30
0.0
 10
12888.98962912323
 20
-3334.840374058689
 30
0.0
 10
12888.98962912323
 20
-3334.840374058689
 30
0.0
 10
12888.74735612527
 20
-3335.229432625667
 30
0.0
 10
12888.57532069989
 20
-3336.531948753175
 30
0.0
  0
SPLINE
  5
35335F
330
18
100
AcDbEntity
  8
姿図
100
AcDbSpline
210
0.0
220
0.0
230
1.0
 70
     8
 71
     3
 72
    11
 73
     7
 74
     0
 42
0.000000001
 43
0.0000000001
 40
1.001401759486589
 40
1.001401759486589
 40
1.001401759486589
 40
1.001401759486589
 40
2.0
 40
2.0
 40
2.0
 40
2.325448533580545
 40
2.325448533580545
 40
2.325448533580545
 40
2.325448533580545
 10
12901.49120929629
 20
-3331.482234433133
 30
0.0
 10
12908.43827179679
 20
-3331.611047024654
 30
0.0
 10
12913.24773221773
 20
-3333.081536304595
 30
0.0
 10
12914.03394151028
 20
-3334.683246331951
 30
0.0
 10
12914.03394151028
 20
-3334.683246331951
 30
0.0
 10
12914.2810771416
 20
-3335.069234354841
 30
0.0
 10
12914.69198283486
 20
-3336.482646744028
 30
0.0
  0
SPLINE
  5
353360
330
18
100
AcDbEntity
  8
姿図
100
AcDbSpline
210
0.0
220
0.0
230
1.0
 70
     8
 71
     3
 72
    11
 73
     7
 74
     0
 42
0.000000001
 43
0.0000000001
 40
0.0765989762338607
 40
0.0765989762338607
 40
0.0765989762338607
 40
0.0765989762338607
 40
1.0
 40
1.0
 40
1.0
 40
1.923401023766401
 40
1.923401023766401
 40
1.923401023766401
 40
1.923401023766401
 10
12886.10506635883
 20
-3348.066647779942
 30
0.0
 10
12887.06883217775
 20
-3349.955325407847
 30
0.0
 10
12893.66602099767
 20
-3351.416923582032
 30
0.0
 10
12901.66104009894
 20
-3351.416923582033
 30
0.0
 10
12909.65605920021
 20
-3351.416923582033
 30
0.0
 10
12916.25328609051
 20
-3349.955325407847
 30
0.0
 10
12917.21705774173
 20
-3348.06664777994
 30
0.0
  0
SPLINE
  5
353361
330
18
100
AcDbEntity
  8
姿図
100
AcDbSpline
210
0.0
220
0.0
230
1.0
 70
     8
 71
     3
 72
    11
 73
     7
 74
     0
 42
0.000000001
 43
0.0000000001
 40
0.1480751007928849
 40
0.1480751007928849
 40
0.1480751007928849
 40
0.1480751007928849
 40
1.0
 40
1.0
 40
1.0
 40
1.851924899207129
 40
1.851924899207129
 40
1.851924899207129
 40
1.851924899207129
 10
12886.42816299277
 20
-3347.636211994921
 30
0.0
 10
12888.09852202345
 20
-3349.31197871275
 30
0.0
 10
12894.28487777433
 20
-3350.55606330513
 30
0.0
 10
12901.66104009894
 20
-3350.556063305131
 30
0.0
 10
12909.03720242355
 20
-3350.556063305131
 30
0.0
 10
12915.22359057921
 20
-3349.311978712751
 30
0.0
 10
12916.89395920657
 20
-3347.636211994922
 30
0.0
  0
SPLINE
  5
353362
330
18
100
AcDbEntity
  8
姿図
100
AcDbSpline
210
0.0
220
0.0
230
1.0
 70
     8
 71
     3
 72
    11
 73
     7
 74
     0
 42
0.000000001
 43
0.0000000001
 40
0.222796192497939
 40
0.222796192497939
 40
0.222796192497939
 40
0.222796192497939
 40
1.0
 40
1.0
 40
1.0
 40
1.777203807502102
 40
1.777203807502102
 40
1.777203807502102
 40
1.777203807502102
 10
12886.96965482902
 20
-3347.205778225246
 30
0.0
 10
12889.19286745331
 20
-3348.659781650252
 30
0.0
 10
12894.93183022519
 20
-3349.695203028229
 30
0.0
 10
12901.66104009894
 20
-3349.695203028229
 30
0.0
 10
12908.39024997269
 20
-3349.695203028229
 30
0.0
 10
12914.12923971428
 20
-3348.659781650252
 30
0.0
 10
12916.35246435608
 20
-3347.205778225246
 30
0.0
  0
SPLINE
  5
353363
330
18
100
AcDbEntity
  8
姿図
100
AcDbSpline
210
0.0
220
0.0
230
1.0
 70
     8
 71
     3
 72
    11
 73
     7
 74
     0
 42
0.000000001
 43
0.0000000001
 40
0.3019231771645287
 40
0.3019231771645287
 40
0.3019231771645287
 40
0.3019231771645287
 40
1.0
 40
1.0
 40
1.0
 40
1.698076822835423
 40
1.698076822835423
 40
1.698076822835423
 40
1.698076822835423
 10
12887.75534917118
 20
-3346.775346405564
 30
0.0
 10
12890.37169720918
 20
-3347.999021122847
 30
0.0
 10
12895.61692991379
 20
-3348.834342751327
 30
0.0
 10
12901.66104009894
 20
-3348.834342751327
 30
0.0
 10
12907.70515028409
 20
-3348.834342751327
 30
0.0
 10
12912.9504047464
 20
-3347.999021122847
 30
0.0
 10
12915.56676592271
 20
-3346.775346405564
 30
0.0
  0
SPLINE
  5
353364
330
18
100
AcDbEntity
  8
姿図
100
AcDbSpline
210
0.0
220
0.0
230
1.0
 70
     8
 71
     3
 72
    11
 73
     7
 74
     0
 42
0.000000001
 43
0.0000000001
 40
0.3872373905885233
 40
0.3872373905885233
 40
0.3872373905885233
 40
0.3872373905885233
 40
1.0
 40
1.0
 40
1.0
 40
1.612762609411591
 40
1.612762609411591
 40
1.612762609411591
 40
1.612762609411591
 10
12888.82906124288
 20
-3346.344916499051
 30
0.0
 10
12891.6657028126
 20
-3347.329859108483
 30
0.0
 10
12896.35560005642
 20
-3347.973482474426
 30
0.0
 10
12901.66104009894
 20
-3347.973482474426
 30
0.0
 10
12906.96648014145
 20
-3347.973482474426
 30
0.0
 10
12911.6563941498
 20
-3347.329859108483
 30
0.0
 10
12914.49304870321
 20
-3346.344916499051
 30
0.0
  0
SPLINE
  5
353365
330
18
100
AcDbEntity
  8
姿図
100
AcDbSpline
210
0.0
220
0.0
230
1.0
 70
     8
 71
     3
 72
    11
 73
     7
 74
     0
 42
0.000000001
 43
0.0000000001
 40
0.4817847406725863
 40
0.4817847406725863
 40
0.4817847406725863
 40
0.4817847406725863
 40
1.0
 40
1.0
 40
1.0
 40
1.518215259327484
 40
1.518215259327484
 40
1.518215259327484
 40
1.518215259327484
 10
12890.26993358652
 20
-3345.914488506037
 30
0.0
 10
12893.12763025267
 20
-3346.652293889817
 30
0.0
 10
12897.17421282643
 20
-3347.112622197524
 30
0.0
 10
12901.66104009894
 20
-3347.112622197524
 30
0.0
 10
12906.14786737144
 20
-3347.112622197524
 30
0.0
 10
12910.19446193542
 20
-3346.652293889817
 30
0.0
 10
12913.05217015497
 20
-3345.914488506038
 30
0.0
  0
SPLINE
  5
353366
330
18
100
AcDbEntity
  8
姿図
100
AcDbSpline
210
0.0
220
0.0
230
1.0
 70
     8
 71
     3
 72
    11
 73
     7
 74
     0
 42
0.000000001
 43
0.0000000001
 40
0.5917437870859801
 40
0.5917437870859801
 40
0.5917437870859801
 40
0.5917437870859801
 40
1.0
 40
1.0
 40
1.0
 40
1.408256212914105
 40
1.408256212914105
 40
1.408256212914105
 40
1.408256212914105
 10
12892.24247230919
 20
-3345.484062486954
 30
0.0
 10
12894.86472403684
 20
-3345.966060175164
 30
0.0
 10
12898.12626361889
 20
-3346.251761920622
 30
0.0
 10
12901.66104009894
 20
-3346.251761920622
 30
0.0
 10
12905.19581657899
 20
-3346.251761920622
 30
0.0
 10
12908.45736360273
 20
-3345.966060175164
 30
0.0
 10
12911.07962413755
 20
-3345.484062486954
 30
0.0
  0
SPLINE
  5
353367
330
18
100
AcDbEntity
  8
姿図
100
AcDbSpline
210
0.0
220
0.0
230
1.0
 70
     8
 71
     3
 72
    11
 73
     7
 74
     0
 42
0.000000001
 43
0.0000000001
 40
0.7347602933710025
 40
0.7347602933710025
 40
0.7347602933710025
 40
0.7347602933710025
 40
1.0
 40
1.0
 40
1.0
 40
1.265239706629019
 40
1.265239706629019
 40
1.265239706629019
 40
1.265239706629019
 10
12895.21789984467
 20
-3345.053638635346
 30
0.0
 10
12897.1833592166
 20
-3345.270308014255
 30
0.0
 10
12899.36453352559
 20
-3345.39090164372
 30
0.0
 10
12901.66104009894
 20
-3345.39090164372
 30
0.0
 10
12903.95754667229
 20
-3345.39090164372
 30
0.0
 10
12906.13872412239
 20
-3345.270308014255
 30
0.0
 10
12908.10418811026
 20
-3345.053638635346
 30
0.0
  0
ENDSEC
  0
SECTION
  2
OBJECTS
  0
DICTIONARY
  5
C
330
0
100
AcDbDictionary
281
     1
  3
ACAD_GROUP
350
D
  3
ACAD_IMAGE_VARS
350
2F1759
  3
ACAD_LAYOUT
350
353
  3
ACAD_MLINESTYLE
350
E
  3
ACAD_PLOTSETTINGS
350
354
  3
ACAD_PLOTSTYLENAME
350
351
  3
ACAD_SCALELIST
350
CD53
  3
AcadDim
350
5182D
  3
AcDbVariableDictionary
350
E0D
  3
APPDATA
350
2F1758
  3
DWGPROPS
350
3534C4
  0
DICTIONARY
  5
559E
330
2
100
AcDbDictionary
280
     1
281
     1
  3
ACAD_LAYERFILTERS
360
29A509
  3
ACAD_LAYERSTATES
360
559F
  3
ACLYDICTIONARY
360
29A508
  0
DICTIONARY
  5
CD7F
330
F
100
AcDbDictionary
280
     1
281
     1
  3
ADSK_XREC_LAYER_RECONCILED
360
CD80
  0
DICTIONARY
  5
CD85
330
34
100
AcDbDictionary
280
     1
281
     1
  3
ADSK_XREC_LAYER_RECONCILED
360
CD86
  0
DICTIONARY
  5
CD8D
330
2F4
100
AcDbDictionary
280
     1
281
     1
  3
ADSK_XREC_LAYER_RECONCILED
360
CD8E
  0
DICTIONARY
  5
D25F
330
18
100
AcDbDictionary
280
     1
281
     1
  3
ACAD_SORTENTS
360
D260
  0
DICTIONARY
  5
D
102
{ACAD_REACTORS
330
C
102
}
330
C
100
AcDbDictionary
281
     1
  0
RASTERVARIABLES
  5
2F1759
102
{ACAD_REACTORS
330
C
102
}
330
C
100
AcDbRasterVariables
 90
        0
 70
     1
 71
     1
 72
     0
  0
DICTIONARY
  5
353
102
{ACAD_REACTORS
330
C
102
}
330
C
100
AcDbDictionary
281
     1
  3
Model
350
355
  3
ﾚｲｱｳﾄ1
350
356
  0
DICTIONARY
  5
E
102
{ACAD_REACTORS
330
C
102
}
330
C
100
AcDbDictionary
281
     1
  3
STANDARD
350
1B
  0
DICTIONARY
  5
354
102
{ACAD_REACTORS
330
C
102
}
330
C
100
AcDbDictionary
281
     1
  0
ACDBDICTIONARYWDFLT
  5
351
102
{ACAD_REACTORS
330
C
102
}
330
C
100
AcDbDictionary
281
     1
  3
Normal
350
352
100
AcDbDictionaryWithDefault
340
352
  0
DICTIONARY
  5
CD53
102
{ACAD_REACTORS
330
C
102
}
330
C
100
AcDbDictionary
281
     1
  3
A0
350
CD54
  3
A1
350
35DF8
  3
A2
350
35DF9
  3
A3
350
35DFA
  3
A4
350
35DFB
  3
A5
350
35DFC
  3
A6
350
35DFD
  3
A7
350
35DFE
  3
A8
350
35DFF
  3
A9
350
35E00
  3
B0
350
35E01
  3
B1
350
35E02
  3
B2
350
35E03
  3
B3
350
35E04
  3
B4
350
35E05
  3
B5
350
35E06
  3
B6
350
35E07
  3
B7
350
35E08
  3
B8
350
35E09
  3
B9
350
35E0A
  3
C0
350
35E0B
  3
C1
350
35E0C
  3
C2
350
35E0D
  3
C3
350
35E0E
  3
C4
350
35E0F
  3
C5
350
35E10
  3
C6
350
35E11
  3
C7
350
35E12
  3
C8
350
35E13
  3
C9
350
35E14
  3
D0
350
35E15
  3
D1
350
35E16
  3
D2
350
35E17
  0
XRECORD
  5
5182D
102
{ACAD_REACTORS
330
C
102
}
330
C
100
AcDbXrecord
280
     1
 90
   990106
  3
OPEN30
 60
     0
 61
     0
 62
     4
 63
     4
 64
     1
 65
     0
 66
     0
 67
     3
 68
     1
 69
     0
 70
     0
 71
     0
 72
     0
 40
0.0
170
     0
340
0
  0
DICTIONARY
  5
E0D
102
{ACAD_REACTORS
330
C
102
}
330
C
100
AcDbDictionary
281
     1
  3
DIMASSOC
350
E0E
  3
INDEXCTL
350
D04A
  3
PROJECTNAME
350
E0F
  3
SORTENTS
350
D049
  0
DICTIONARY
  5
2F1758
102
{ACAD_REACTORS
330
C
102
}
330
C
100
AcDbDictionary
281
     1
  0
XRECORD
  5
3534C4
102
{ACAD_REACTORS
330
C
102
}
330
C
100
AcDbXrecord
280
     1
  1
DWGPROPS COOKIE
  2

  3

  4

  6

  7

  8
SPAX
  9

300
=
301
=
302
=
303
=
304
=
305
=
306
=
307
=
308
=
309
=
 40
0.0
 41
2448636.244629629
 42
2456821.203034849
  1

 90
        0
  0
DICTIONARY
  5
29A509
102
{ACAD_REACTORS
330
559E
102
}
330
559E
100
AcDbDictionary
281
     1
  0
DICTIONARY
  5
559F
102
{ACAD_REACTORS
330
559E
102
}
330
559E
100
AcDbDictionary
281
     1
  0
DICTIONARY
  5
29A508
102
{ACAD_REACTORS
330
559E
102
}
330
559E
100
AcDbDictionary
281
     1
1001
ACAD
1000
<All
  0
XRECORD
  5
CD80
102
{ACAD_REACTORS
330
CD7F
102
}
330
CD7F
100
AcDbXrecord
280
     1
290
     1
  0
XRECORD
  5
CD86
102
{ACAD_REACTORS
330
CD85
102
}
330
CD85
100
AcDbXrecord
280
     1
290
     1
  0
XRECORD
  5
CD8E
102
{ACAD_REACTORS
330
CD8D
102
}
330
CD8D
100
AcDbXrecord
280
     1
290
     1
  0
SORTENTSTABLE
  5
D260
102
{ACAD_REACTORS
330
D25F
102
}
330
D25F
100
AcDbSortentsTable
330
18
331
0
  5
325BEA
331
8182F
  5
2FEC53
331
3073B9
  5
307455
  0
LAYOUT
  5
355
102
{ACAD_REACTORS
330
353
102
}
330
353
100
AcDbPlotSettings
  1

  2
JUST PDF 2
  4
A4
  6

 40
3.174999952316284
 41
3.174999952316284
 42
3.175003051757812
 43
3.17498779296875
 44
209.8886566162109
 45
297.0530090332031
 46
14.27171755861491
 47
9.855173074625782
 48
12851.0941486619
 49
-3775.814013617565
140
13201.08458565172
141
-3233.828663340232
142
1.0
143
2.0
 70
  3748
 72
     1
 73
     0
 74
     4
  7
spax form.ctb
 75
     0
147
0.547045008312821
148
-12851.0941486619
149
3775.814013617565
100
AcDbLayout
  1
Model
 70
     1
 71
     0
 10
0.0
 20
0.0
 11
12.0
 21
9.0
 12
0.0
 22
0.0
 32
0.0
 14
12856.93318299757
 24
-3374.883000102277
 34
0.0
 15
12932.7665163309
 25
-3283.982029925432
 35
0.0
146
0.0
 13
0.0
 23
0.0
 33
0.0
 16
1.0
 26
0.0
 36
0.0
 17
0.0
 27
1.0
 37
0.0
 76
     0
330
18
331
3523F0
1001
ACAD_PSEXT
1000
JUST PDF 2
1000
JUST PDF 2
1000
JUST PDF 2 Port:
1000

1070
     0
  0
LAYOUT
  5
356
102
{ACAD_REACTORS
330
353
102
}
330
353
100
AcDbPlotSettings
  1

  2
Canon LASER SHOT LBP-750
  4

  6

 40
0.0
 41
0.0
 42
0.0
 43
0.0
 44
0.0
 45
0.0
 46
0.0
 47
0.0
 48
0.0
 49
0.0
140
0.0
141
0.0
142
1.0
143
1.0
 70
   688
 72
     0
 73
     0
 74
     5
  7
spax form.ctb
 75
    16
147
1.0
148
0.0
149
0.0
100
AcDbLayout
  1
ﾚｲｱｳﾄ1
 70
     0
 71
     1
 10
0.0
 20
0.0
 11
12.0
 21
9.0
 12
0.0
 22
0.0
 32
0.0
 14
1.000000000000000E+20
 24
1.000000000000000E+20
 34
1.000000000000000E+20
 15
-1.000000000000000E+20
 25
-1.000000000000000E+20
 35
-1.000000000000000E+20
146
0.0
 13
0.0
 23
0.0
 33
0.0
 16
1.0
 26
0.0
 36
0.0
 17
0.0
 27
1.0
 37
0.0
 76
     0
330
15
  0
MLINESTYLE
  5
1B
102
{ACAD_REACTORS
330
E
102
}
330
E
100
AcDbMlineStyle
  2
STANDARD
 70
     0
  3

 62
     0
 51
90.0
 52
90.0
 71
     2
 49
0.5
 62
   256
  6
BYLAYER
 49
-0.5
 62
   256
  6
BYLAYER
  0
ACDBPLACEHOLDER
  5
352
102
{ACAD_REACTORS
330
351
102
}
330
351
  0
SCALE
  5
CD54
102
{ACAD_REACTORS
330
CD53
102
}
330
CD53
100
AcDbScale
 70
     0
300
1:1
140
1.0
141
1.0
290
     1
1001
ACAD
1000
AcRTDxfName
1000
SCALE
1000
AcRTDxfName
1000
SCALE
  0
SCALE
  5
35DF8
102
{ACAD_REACTORS
330
CD53
102
}
330
CD53
100
AcDbScale
 70
     0
300
1:2
140
1.0
141
2.0
290
     0
1001
ACAD
1000
AcRTDxfName
1000
SCALE
1000
AcRTDxfName
1000
SCALE
  0
SCALE
  5
35DF9
102
{ACAD_REACTORS
330
CD53
102
}
330
CD53
100
AcDbScale
 70
     0
300
1:4
140
1.0
141
4.0
290
     0
1001
ACAD
1000
AcRTDxfName
1000
SCALE
1000
AcRTDxfName
1000
SCALE
  0
SCALE
  5
35DFA
102
{ACAD_REACTORS
330
CD53
102
}
330
CD53
100
AcDbScale
 70
     0
300
1:5
140
1.0
141
5.0
290
     0
1001
ACAD
1000
AcRTDxfName
1000
SCALE
1000
AcRTDxfName
1000
SCALE
  0
SCALE
  5
35DFB
102
{ACAD_REACTORS
330
CD53
102
}
330
CD53
100
AcDbScale
 70
     0
300
1:8
140
1.0
141
8.0
290
     0
1001
ACAD
1000
AcRTDxfName
1000
SCALE
1000
AcRTDxfName
1000
SCALE
  0
SCALE
  5
35DFC
102
{ACAD_REACTORS
330
CD53
102
}
330
CD53
100
AcDbScale
 70
     0
300
1:10
140
1.0
141
10.0
290
     0
1001
ACAD
1000
AcRTDxfName
1000
SCALE
1000
AcRTDxfName
1000
SCALE
  0
SCALE
  5
35DFD
102
{ACAD_REACTORS
330
CD53
102
}
330
CD53
100
AcDbScale
 70
     0
300
1:16
140
1.0
141
16.0
290
     0
1001
ACAD
1000
AcRTDxfName
1000
SCALE
1000
AcRTDxfName
1000
SCALE
  0
SCALE
  5
35DFE
102
{ACAD_REACTORS
330
CD53
102
}
330
CD53
100
AcDbScale
 70
     0
300
1:20
140
1.0
141
20.0
290
     0
1001
ACAD
1000
AcRTDxfName
1000
SCALE
1000
AcRTDxfName
1000
SCALE
  0
SCALE
  5
35DFF
102
{ACAD_REACTORS
330
CD53
102
}
330
CD53
100
AcDbScale
 70
     0
300
1:30
140
1.0
141
30.0
290
     0
1001
ACAD
1000
AcRTDxfName
1000
SCALE
1000
AcRTDxfName
1000
SCALE
  0
SCALE
  5
35E00
102
{ACAD_REACTORS
330
CD53
102
}
330
CD53
100
AcDbScale
 70
     0
300
1:40
140
1.0
141
40.0
290
     0
1001
ACAD
1000
AcRTDxfName
1000
SCALE
1000
AcRTDxfName
1000
SCALE
  0
SCALE
  5
35E01
102
{ACAD_REACTORS
330
CD53
102
}
330
CD53
100
AcDbScale
 70
     0
300
1:50
140
1.0
141
50.0
290
     0
1001
ACAD
1000
AcRTDxfName
1000
SCALE
1000
AcRTDxfName
1000
SCALE
  0
SCALE
  5
35E02
102
{ACAD_REACTORS
330
CD53
102
}
330
CD53
100
AcDbScale
 70
     0
300
1:100
140
1.0
141
100.0
290
     0
1001
ACAD
1000
AcRTDxfName
1000
SCALE
1000
AcRTDxfName
1000
SCALE
  0
SCALE
  5
35E03
102
{ACAD_REACTORS
330
CD53
102
}
330
CD53
100
AcDbScale
 70
     0
300
2:1
140
2.0
141
1.0
290
     0
1001
ACAD
1000
AcRTDxfName
1000
SCALE
1000
AcRTDxfName
1000
SCALE
  0
SCALE
  5
35E04
102
{ACAD_REACTORS
330
CD53
102
}
330
CD53
100
AcDbScale
 70
     0
300
4:1
140
4.0
141
1.0
290
     0
1001
ACAD
1000
AcRTDxfName
1000
SCALE
1000
AcRTDxfName
1000
SCALE
  0
SCALE
  5
35E05
102
{ACAD_REACTORS
330
CD53
102
}
330
CD53
100
AcDbScale
 70
     0
300
8:1
140
8.0
141
1.0
290
     0
1001
ACAD
1000
AcRTDxfName
1000
SCALE
1000
AcRTDxfName
1000
SCALE
  0
SCALE
  5
35E06
102
{ACAD_REACTORS
330
CD53
102
}
330
CD53
100
AcDbScale
 70
     0
300
10:1
140
10.0
141
1.0
290
     0
1001
ACAD
1000
AcRTDxfName
1000
SCALE
1000
AcRTDxfName
1000
SCALE
  0
SCALE
  5
35E07
102
{ACAD_REACTORS
330
CD53
102
}
330
CD53
100
AcDbScale
 70
     0
300
100:1
140
100.0
141
1.0
290
     0
1001
ACAD
1000
AcRTDxfName
1000
SCALE
1000
AcRTDxfName
1000
SCALE
  0
SCALE
  5
35E08
102
{ACAD_REACTORS
330
CD53
102
}
330
CD53
100
AcDbScale
 70
     0
300
1/128" = 1'-0"
140
0.0078125
141
12.0
290
     0
1001
ACAD
1000
AcRTDxfName
1000
SCALE
1000
AcRTDxfName
1000
SCALE
  0
SCALE
  5
35E09
102
{ACAD_REACTORS
330
CD53
102
}
330
CD53
100
AcDbScale
 70
     0
300
1/64" = 1'-0"
140
0.015625
141
12.0
290
     0
1001
ACAD
1000
AcRTDxfName
1000
SCALE
1000
AcRTDxfName
1000
SCALE
  0
SCALE
  5
35E0A
102
{ACAD_REACTORS
330
CD53
102
}
330
CD53
100
AcDbScale
 70
     0
300
1/32" = 1'-0"
140
0.03125
141
12.0
290
     0
1001
ACAD
1000
AcRTDxfName
1000
SCALE
1000
AcRTDxfName
1000
SCALE
  0
SCALE
  5
35E0B
102
{ACAD_REACTORS
330
CD53
102
}
330
CD53
100
AcDbScale
 70
     0
300
1/16" = 1'-0"
140
0.0625
141
12.0
290
     0
1001
ACAD
1000
AcRTDxfName
1000
SCALE
1000
AcRTDxfName
1000
SCALE
  0
SCALE
  5
35E0C
102
{ACAD_REACTORS
330
CD53
102
}
330
CD53
100
AcDbScale
 70
     0
300
3/32" = 1'-0"
140
0.09375
141
12.0
290
     0
1001
ACAD
1000
AcRTDxfName
1000
SCALE
1000
AcRTDxfName
1000
SCALE
  0
SCALE
  5
35E0D
102
{ACAD_REACTORS
330
CD53
102
}
330
CD53
100
AcDbScale
 70
     0
300
1/8" = 1'-0"
140
0.125
141
12.0
290
     0
1001
ACAD
1000
AcRTDxfName
1000
SCALE
1000
AcRTDxfName
1000
SCALE
  0
SCALE
  5
35E0E
102
{ACAD_REACTORS
330
CD53
102
}
330
CD53
100
AcDbScale
 70
     0
300
3/16" = 1'-0"
140
0.1875
141
12.0
290
     0
1001
ACAD
1000
AcRTDxfName
1000
SCALE
1000
AcRTDxfName
1000
SCALE
  0
SCALE
  5
35E0F
102
{ACAD_REACTORS
330
CD53
102
}
330
CD53
100
AcDbScale
 70
     0
300
1/4" = 1'-0"
140
0.25
141
12.0
290
     0
1001
ACAD
1000
AcRTDxfName
1000
SCALE
1000
AcRTDxfName
1000
SCALE
  0
SCALE
  5
35E10
102
{ACAD_REACTORS
330
CD53
102
}
330
CD53
100
AcDbScale
 70
     0
300
3/8" = 1'-0"
140
0.375
141
12.0
290
     0
1001
ACAD
1000
AcRTDxfName
1000
SCALE
1000
AcRTDxfName
1000
SCALE
  0
SCALE
  5
35E11
102
{ACAD_REACTORS
330
CD53
102
}
330
CD53
100
AcDbScale
 70
     0
300
1/2" = 1'-0"
140
0.5
141
12.0
290
     0
1001
ACAD
1000
AcRTDxfName
1000
SCALE
1000
AcRTDxfName
1000
SCALE
  0
SCALE
  5
35E12
102
{ACAD_REACTORS
330
CD53
102
}
330
CD53
100
AcDbScale
 70
     0
300
3/4" = 1'-0"
140
0.75
141
12.0
290
     0
1001
ACAD
1000
AcRTDxfName
1000
SCALE
1000
AcRTDxfName
1000
SCALE
  0
SCALE
  5
35E13
102
{ACAD_REACTORS
330
CD53
102
}
330
CD53
100
AcDbScale
 70
     0
300
1" = 1'-0"
140
1.0
141
12.0
290
     0
1001
ACAD
1000
AcRTDxfName
1000
SCALE
1000
AcRTDxfName
1000
SCALE
  0
SCALE
  5
35E14
102
{ACAD_REACTORS
330
CD53
102
}
330
CD53
100
AcDbScale
 70
     0
300
1-1/2" = 1'-0"
140
1.5
141
12.0
290
     0
1001
ACAD
1000
AcRTDxfName
1000
SCALE
1000
AcRTDxfName
1000
SCALE
  0
SCALE
  5
35E15
102
{ACAD_REACTORS
330
CD53
102
}
330
CD53
100
AcDbScale
 70
     0
300
3" = 1'-0"
140
3.0
141
12.0
290
     0
1001
ACAD
1000
AcRTDxfName
1000
SCALE
1000
AcRTDxfName
1000
SCALE
  0
SCALE
  5
35E16
102
{ACAD_REACTORS
330
CD53
102
}
330
CD53
100
AcDbScale
 70
     0
300
6" = 1'-0"
140
6.0
141
12.0
290
     0
1001
ACAD
1000
AcRTDxfName
1000
SCALE
1000
AcRTDxfName
1000
SCALE
  0
SCALE
  5
35E17
102
{ACAD_REACTORS
330
CD53
102
}
330
CD53
100
AcDbScale
 70
     0
300
1'-0" = 1'-0"
140
12.0
141
12.0
290
     0
1001
ACAD
1000
AcRTDxfName
1000
SCALE
1000
AcRTDxfName
1000
SCALE
  0
DICTIONARYVAR
  5
E0E
102
{ACAD_REACTORS
330
E0D
102
}
330
E0D
100
DictionaryVariables
280
     0
  1
1
  0
DICTIONARYVAR
  5
D04A
102
{ACAD_REACTORS
330
E0D
102
}
330
E0D
100
DictionaryVariables
280
     0
  1
0
  0
DICTIONARYVAR
  5
E0F
102
{ACAD_REACTORS
330
E0D
102
}
330
E0D
100
DictionaryVariables
280
     0
  1

  0
DICTIONARYVAR
  5
D049
102
{ACAD_REACTORS
330
E0D
102
}
330
E0D
100
DictionaryVariables
280
     0
  1
127
  0
ENDSEC
  0
EOF
