  0
SECTION
  2
HEADER
  9
$ACADVER
  1
AC1015
  9
$ACADMAINTVER
 70
     6
  9
$DWGCODEPAGE
  3
ANSI_932
  9
$INSBASE
 10
0.0
 20
0.0
 30
0.0
  9
$EXTMIN
 10
12481.03195189028
 20
-3373.690920144389
 30
0.0
  9
$EXTMAX
 10
12556.86528522361
 20
-3283.982029925432
 30
0.0
  9
$LIMMIN
 10
0.0
 20
0.0
  9
$LIMMAX
 10
420.0
 20
297.0
  9
$ORTHOMODE
 70
     1
  9
$REGENMODE
 70
     1
  9
$FILLMODE
 70
     1
  9
$QTEXTMODE
 70
     0
  9
$MIRRTEXT
 70
     1
  9
$LTSCALE
 40
5.0
  9
$ATTMODE
 70
     0
  9
$TEXTSIZE
 40
3.5
  9
$TRACEWID
 40
1.0
  9
$TEXTSTYLE
  7
STANDARD
  9
$CLAYER
  8
寸法線
  9
$CELTYPE
  6
BYLAYER
  9
$CECOLOR
 62
   256
  9
$CELTSCALE
 40
1.0
  9
$DISPSILH
 70
     0
  9
$DIMSCALE
 40
1.0
  9
$DIMASZ
 40
2.5
  9
$DIMEXO
 40
1.5
  9
$DIMDLI
 40
7.0
  9
$DIMRND
 40
0.0
  9
$DIMDLE
 40
0.0
  9
$DIMEXE
 40
1.0
  9
$DIMTP
 40
0.0
  9
$DIMTM
 40
0.0
  9
$DIMTXT
 40
3.0
  9
$DIMCEN
 40
0.0
  9
$DIMTSZ
 40
0.0
  9
$DIMTOL
 70
     0
  9
$DIMLIM
 70
     0
  9
$DIMTIH
 70
     0
  9
$DIMTOH
 70
     0
  9
$DIMSE1
 70
     0
  9
$DIMSE2
 70
     0
  9
$DIMTAD
 70
     3
  9
$DIMZIN
 70
     9
  9
$DIMBLK
  1
OPEN30
  9
$DIMASO
 70
     1
  9
$DIMSHO
 70
     0
  9
$DIMPOST
  1

  9
$DIMAPOST
  1

  9
$DIMALT
 70
     0
  9
$DIMALTD
 70
     0
  9
$DIMALTF
 40
25.4
  9
$DIMLFAC
 40
1.0
  9
$DIMTOFL
 70
     1
  9
$DIMTVP
 40
0.0
  9
$DIMTIX
 70
     0
  9
$DIMSOXD
 70
     0
  9
$DIMSAH
 70
     0
  9
$DIMBLK1
  1

  9
$DIMBLK2
  1

  9
$DIMSTYLE
  2
STANDARD
  9
$DIMCLRD
 70
     8
  9
$DIMCLRE
 70
     8
  9
$DIMCLRT
 70
   256
  9
$DIMTFAC
 40
0.6
  9
$DIMGAP
 40
1.0
  9
$DIMJUST
 70
     0
  9
$DIMSD1
 70
     0
  9
$DIMSD2
 70
     0
  9
$DIMTOLJ
 70
     1
  9
$DIMTZIN
 70
     9
  9
$DIMALTZ
 70
     9
  9
$DIMALTTZ
 70
     9
  9
$DIMUPT
 70
     0
  9
$DIMDEC
 70
     3
  9
$DIMTDEC
 70
     3
  9
$DIMALTU
 70
     2
  9
$DIMALTTD
 70
     0
  9
$DIMTXSTY
  7
STANDARD
  9
$DIMAUNIT
 70
     0
  9
$DIMADEC
 70
     3
  9
$DIMALTRND
 40
0.0
  9
$DIMAZIN
 70
     2
  9
$DIMDSEP
 70
    46
  9
$DIMATFIT
 70
     0
  9
$DIMFRAC
 70
     0
  9
$DIMLDRBLK
  1
OPEN30
  9
$DIMLUNIT
 70
     2
  9
$DIMLWD
 70
    -2
  9
$DIMLWE
 70
    -2
  9
$DIMTMOVE
 70
     0
  9
$LUNITS
 70
     2
  9
$LUPREC
 70
     2
  9
$SKETCHINC
 40
0.1
  9
$FILLETRAD
 40
1.0
  9
$AUNITS
 70
     0
  9
$AUPREC
 70
     1
  9
$MENU
  1
FM
  9
$ELEVATION
 40
0.0
  9
$PELEVATION
 40
0.0
  9
$THICKNESS
 40
0.0
  9
$LIMCHECK
 70
     0
  9
$CHAMFERA
 40
0.0
  9
$CHAMFERB
 40
0.0
  9
$CHAMFERC
 40
0.0
  9
$CHAMFERD
 40
0.0
  9
$SKPOLY
 70
     0
  9
$TDCREATE
 40
2448636.619629629
  9
$TDUCREATE
 40
2448636.244629629
  9
$TDUPDATE
 40
2456821.578399398
  9
$TDUUPDATE
 40
2456821.203399398
  9
$TDINDWG
 40
100.6340589352
  9
$TDUSRTIMER
 40
2456821.203222546
  9
$USRTIMER
 70
     1
  9
$ANGBASE
 50
0.0
  9
$ANGDIR
 70
     0
  9
$PDMODE
 70
     3
  9
$PDSIZE
 40
0.0
  9
$PLINEWID
 40
0.0
  9
$SPLFRAME
 70
     0
  9
$SPLINETYPE
 70
     6
  9
$SPLINESEGS
 70
     8
  9
$HANDSEED
  5
353568
  9
$SURFTAB1
 70
     6
  9
$SURFTAB2
 70
     6
  9
$SURFTYPE
 70
     6
  9
$SURFU
 70
     6
  9
$SURFV
 70
     6
  9
$UCSBASE
  2

  9
$UCSNAME
  2

  9
$UCSORG
 10
0.0
 20
0.0
 30
0.0
  9
$UCSXDIR
 10
1.0
 20
0.0
 30
0.0
  9
$UCSYDIR
 10
0.0
 20
1.0
 30
0.0
  9
$UCSORTHOREF
  2

  9
$UCSORTHOVIEW
 70
     0
  9
$UCSORGTOP
 10
0.0
 20
0.0
 30
0.0
  9
$UCSORGBOTTOM
 10
0.0
 20
0.0
 30
0.0
  9
$UCSORGLEFT
 10
0.0
 20
0.0
 30
0.0
  9
$UCSORGRIGHT
 10
0.0
 20
0.0
 30
0.0
  9
$UCSORGFRONT
 10
0.0
 20
0.0
 30
0.0
  9
$UCSORGBACK
 10
0.0
 20
0.0
 30
0.0
  9
$PUCSBASE
  2

  9
$PUCSNAME
  2

  9
$PUCSORG
 10
0.0
 20
0.0
 30
0.0
  9
$PUCSXDIR
 10
1.0
 20
0.0
 30
0.0
  9
$PUCSYDIR
 10
0.0
 20
1.0
 30
0.0
  9
$PUCSORTHOREF
  2

  9
$PUCSORTHOVIEW
 70
     0
  9
$PUCSORGTOP
 10
0.0
 20
0.0
 30
0.0
  9
$PUCSORGBOTTOM
 10
0.0
 20
0.0
 30
0.0
  9
$PUCSORGLEFT
 10
0.0
 20
0.0
 30
0.0
  9
$PUCSORGRIGHT
 10
0.0
 20
0.0
 30
0.0
  9
$PUCSORGFRONT
 10
0.0
 20
0.0
 30
0.0
  9
$PUCSORGBACK
 10
0.0
 20
0.0
 30
0.0
  9
$USERI1
 70
     0
  9
$USERI2
 70
     0
  9
$USERI3
 70
     0
  9
$USERI4
 70
     0
  9
$USERI5
 70
     0
  9
$USERR1
 40
0.0
  9
$USERR2
 40
0.0
  9
$USERR3
 40
0.0
  9
$USERR4
 40
0.0
  9
$USERR5
 40
0.0
  9
$WORLDVIEW
 70
     0
  9
$SHADEDGE
 70
     3
  9
$SHADEDIF
 70
    70
  9
$TILEMODE
 70
     1
  9
$MAXACTVP
 70
    16
  9
$PINSBASE
 10
0.0
 20
0.0
 30
0.0
  9
$PLIMCHECK
 70
     0
  9
$PEXTMIN
 10
1.000000000000000E+20
 20
1.000000000000000E+20
 30
1.000000000000000E+20
  9
$PEXTMAX
 10
-1.000000000000000E+20
 20
-1.000000000000000E+20
 30
-1.000000000000000E+20
  9
$PLIMMIN
 10
0.0
 20
0.0
  9
$PLIMMAX
 10
0.0
 20
0.0
  9
$UNITMODE
 70
     0
  9
$VISRETAIN
 70
     0
  9
$PLINEGEN
 70
     0
  9
$PSLTSCALE
 70
     0
  9
$TREEDEPTH
 70
  3020
  9
$CMLSTYLE
  2
STANDARD
  9
$CMLJUST
 70
     0
  9
$CMLSCALE
 40
1.0
  9
$PROXYGRAPHICS
 70
     1
  9
$MEASUREMENT
 70
     0
  9
$CELWEIGHT
370
    -1
  9
$ENDCAPS
280
     0
  9
$JOINSTYLE
280
     0
  9
$LWDISPLAY
290
     1
  9
$INSUNITS
 70
     0
  9
$HYPERLINKBASE
  1

  9
$STYLESHEET
  1
spax form.ctb
  9
$XEDIT
290
     1
  9
$CEPSNTYPE
380
     0
  9
$PSTYLEMODE
290
     1
  9
$FINGERPRINTGUID
  2
{E5B35D22-A717-11D3-9160-00E0294F7E09}
  9
$VERSIONGUID
  2
{8F616CE5-AFEF-42E1-B7A7-3BC02A71E2AE}
  9
$EXTNAMES
290
     1
  9
$PSVPSCALE
 40
0.0
  9
$OLESTARTUP
290
     0
  0
ENDSEC
  0
SECTION
  2
CLASSES
  0
CLASS
  1
LWPOLYLINE
  2
AcDbPolyline
  3
ObjectDBX Classes
 90
        0
280
     0
281
     1
  0
CLASS
  1
ACDBDICTIONARYWDFLT
  2
AcDbDictionaryWithDefault
  3
ObjectDBX Classes
 90
        0
280
     0
281
     0
  0
CLASS
  1
ACDBPLACEHOLDER
  2
AcDbPlaceHolder
  3
ObjectDBX Classes
 90
        0
280
     0
281
     0
  0
CLASS
  1
LAYOUT
  2
AcDbLayout
  3
ObjectDBX Classes
 90
        0
280
     0
281
     0
  0
CLASS
  1
DICTIONARYVAR
  2
AcDbDictionaryVar
  3
ObjectDBX Classes
 90
        0
280
     0
281
     0
  0
CLASS
  1
MATERIAL
  2
AcDbMaterial
  3
ObjectDBX Classes
 90
     1153
280
     0
281
     0
  0
CLASS
  1
SORTENTSTABLE
  2
AcDbSortentsTable
  3
ObjectDBX Classes
 90
        0
280
     0
281
     0
  0
CLASS
  1
VISUALSTYLE
  2
AcDbVisualStyle
  3
ObjectDBX Classes
 90
     4095
280
     0
281
     0
  0
CLASS
  1
TABLESTYLE
  2
AcDbTableStyle
  3
ObjectDBX Classes
 90
     4095
280
     0
281
     0
  0
CLASS
  1
SCALE
  2
AcDbScale
  3
ObjectDBX Classes
 90
     1153
280
     0
281
     0
  0
CLASS
  1
MLEADERSTYLE
  2
AcDbMLeaderStyle
  3
ACDB_MLEADERSTYLE_CLASS
 90
     4095
280
     0
281
     0
  0
CLASS
  1
CELLSTYLEMAP
  2
AcDbCellStyleMap
  3
ObjectDBX Classes
 90
     1152
280
     0
281
     0
  0
CLASS
  1
MULTILEADER
  2
AcDbMLeader
  3
ACDB_MLEADER_CLASS
 90
     1025
280
     0
281
     1
  0
CLASS
  1
DIMASSOC
  2
AcDbDimAssoc
  3
"AcDbDimAssoc|Product Desc:     AcDim ARX App For Dimension|Company:          Autodesk, Inc.|WEB Address:      www.autodesk.com"
 90
        0
280
     0
281
     0
  0
CLASS
  1
LARGE_RADIAL_DIMENSION
  2
AcDbRadialDimensionLarge
  3
ObjectDBX Classes
 90
     1025
280
     0
281
     1
  0
CLASS
  1
RASTERVARIABLES
  2
AcDbRasterVariables
  3
ISM
 90
        0
280
     0
281
     0
  0
CLASS
  1
SUN
  2
AcDbSun
  3
SCENEOE
 90
     1153
280
     0
281
     0
  0
ENDSEC
  0
SECTION
  2
TABLES
  0
TABLE
  2
VPORT
  5
8
330
0
100
AcDbSymbolTable
 70
     1
  0
VPORT
  5
3523F0
330
8
100
AcDbSymbolTableRecord
100
AcDbViewportTableRecord
  2
*Active
 70
     0
 10
0.0
 20
0.0
 11
1.0
 21
1.0
 12
12518.94861855694
 22
-3328.83647503491
 13
0.0
 23
0.0
 14
1.0
 24
1.0
 15
20.0
 25
20.0
 16
0.0
 26
0.0
 36
1.0
 17
0.0
 27
0.0
 37
0.0
 40
91.50306802333577
 41
1.731829573934837
 42
50.0
 43
0.0
 44
0.0
 50
0.0
 51
0.0
 71
    16
 72
   100
 73
     1
 74
     0
 75
     0
 76
     0
 77
     0
 78
     0
281
     0
 65
     1
110
0.0
120
0.0
130
0.0
111
1.0
121
0.0
131
0.0
112
0.0
122
1.0
132
0.0
 79
     0
146
0.0
  0
ENDTAB
  0
TABLE
  2
LTYPE
  5
5
330
0
100
AcDbSymbolTable
 70
     4
  0
LTYPE
  5
12
330
5
100
AcDbSymbolTableRecord
100
AcDbLinetypeTableRecord
  2
BYBLOCK
 70
     0
  3

 72
    65
 73
     0
 40
0.0
  0
LTYPE
  5
13
330
5
100
AcDbSymbolTableRecord
100
AcDbLinetypeTableRecord
  2
BYLAYER
 70
     0
  3

 72
    65
 73
     0
 40
0.0
  0
LTYPE
  5
14
330
5
100
AcDbSymbolTableRecord
100
AcDbLinetypeTableRecord
  2
CONTINUOUS
 70
     0
  3
Solid line
 72
    65
 73
     0
 40
0.0
  0
LTYPE
  5
25
330
5
100
AcDbSymbolTableRecord
100
AcDbLinetypeTableRecord
  2
CENTER
 70
     0
  3
____ _ ____ _ ____ _ ____ _ ____ _ ____ _ ____
 72
    65
 73
     4
 40
2.0
 49
1.25
 74
     0
 49
-0.25
 74
     0
 49
0.25
 74
     0
 49
-0.25
 74
     0
  0
LTYPE
  5
26
330
5
100
AcDbSymbolTableRecord
100
AcDbLinetypeTableRecord
  2
PHANTOM
 70
     0
  3
_____ _ _ _____ _ _ _____ _ _ _____ _ _ ____
 72
    65
 73
     6
 40
2.5
 49
1.25
 74
     0
 49
-0.25
 74
     0
 49
0.25
 74
     0
 49
-0.25
 74
     0
 49
0.25
 74
     0
 49
-0.25
 74
     0
  0
LTYPE
  5
27
330
5
100
AcDbSymbolTableRecord
100
AcDbLinetypeTableRecord
  2
HIDDEN
 70
     0
  3
_ _ _ _ _ _ _ _ _ _ _ _ _ _ _ _ _ _ _ _ _ _ _
 72
    65
 73
     2
 40
0.375
 49
0.25
 74
     0
 49
-0.125
 74
     0
  0
ENDTAB
  0
TABLE
  2
LAYER
  5
2
102
{ACAD_XDICTIONARY
360
559E
102
}
330
0
100
AcDbSymbolTable
 70
    18
  0
LAYER
  5
F
102
{ACAD_XDICTIONARY
360
CD7F
102
}
330
2
100
AcDbSymbolTableRecord
100
AcDbLayerTableRecord
  2
0
 70
     0
 62
     7
  6
CONTINUOUS
370
    -3
390
352
  0
LAYER
  5
34
102
{ACAD_XDICTIONARY
360
CD85
102
}
330
2
100
AcDbSymbolTableRecord
100
AcDbLayerTableRecord
  2
寸法線
 70
     0
 62
     7
  6
CONTINUOUS
370
    -3
390
352
  0
LAYER
  5
2F4
102
{ACAD_XDICTIONARY
360
CD8D
102
}
330
2
100
AcDbSymbolTableRecord
100
AcDbLayerTableRecord
  2
文字
 70
     0
 62
     7
  6
CONTINUOUS
370
    -3
390
352
  0
LAYER
  5
306B15
330
2
100
AcDbSymbolTableRecord
100
AcDbLayerTableRecord
  2
C-SUNPO
 70
     0
 62
     7
  6
CONTINUOUS
370
    -3
390
352
  0
LAYER
  5
31D3CB
330
2
100
AcDbSymbolTableRecord
100
AcDbLayerTableRecord
  2
姿図
 70
     0
 62
     8
  6
CONTINUOUS
370
    -3
390
352
  0
ENDTAB
  0
TABLE
  2
STYLE
  5
3
330
0
100
AcDbSymbolTable
 70
     1
  0
STYLE
  5
10
330
3
100
AcDbSymbolTableRecord
100
AcDbTextStyleTableRecord
  2
STANDARD
 70
     0
 40
0.0
 41
1.0
 50
0.0
 71
     0
 42
3.5
  3
MONOTXT
  4
BIGFONT
  0
ENDTAB
  0
TABLE
  2
VIEW
  5
6
330
0
100
AcDbSymbolTable
 70
     0
  0
ENDTAB
  0
TABLE
  2
UCS
  5
7
330
0
100
AcDbSymbolTable
 70
     0
  0
ENDTAB
  0
TABLE
  2
APPID
  5
9
330
0
100
AcDbSymbolTable
 70
    18
  0
APPID
  5
11
330
9
100
AcDbSymbolTableRecord
100
AcDbRegAppTableRecord
  2
ACAD
 70
     0
  0
APPID
  5
C058
330
9
100
AcDbSymbolTableRecord
100
AcDbRegAppTableRecord
  2
AcAecLayerStandard
 70
     0
  0
APPID
  5
CD77
330
9
100
AcDbSymbolTableRecord
100
AcDbRegAppTableRecord
  2
ACAD_MLEADERVER
 70
     0
  0
APPID
  5
D036
330
9
100
AcDbSymbolTableRecord
100
AcDbRegAppTableRecord
  2
ACAD_PSEXT
 70
     0
  0
APPID
  5
D28E
330
9
100
AcDbSymbolTableRecord
100
AcDbRegAppTableRecord
  2
ACAD_DSTYLE_DIMJAG
 70
     0
  0
APPID
  5
D28F
330
9
100
AcDbSymbolTableRecord
100
AcDbRegAppTableRecord
  2
ACAD_DSTYLE_DIMTALN
 70
     0
  0
APPID
  5
10E35
330
9
100
AcDbSymbolTableRecord
100
AcDbRegAppTableRecord
  2
ACAD_EXEMPT_FROM_CAD_STANDARDS
 70
     0
  0
APPID
  5
36B90
330
9
100
AcDbSymbolTableRecord
100
AcDbRegAppTableRecord
  2
ACAD_DSTYLE_DIMRADIAL_EXTENSION
 70
     0
  0
APPID
  5
4CBB9
330
9
100
AcDbSymbolTableRecord
100
AcDbRegAppTableRecord
  2
WACOM_STRING
 70
     0
  0
APPID
  5
4CBBA
330
9
100
AcDbSymbolTableRecord
100
AcDbRegAppTableRecord
  2
WACOM_DRSYM_ARROW
 70
     0
  0
APPID
  5
83B4C
330
9
100
AcDbSymbolTableRecord
100
AcDbRegAppTableRecord
  2
ACAD_DSTYLE_DIMRADIAL_EXTE
 70
     0
  0
APPID
  5
83B4D
330
9
100
AcDbSymbolTableRecord
100
AcDbRegAppTableRecord
  2
ACAD_DSTYLE_DIMBREAK
 70
     0
  0
APPID
  5
83B4E
330
9
100
AcDbSymbolTableRecord
100
AcDbRegAppTableRecord
  2
ACAD_DSTYLE_DIMARC_LENGTH_
 70
     0
  0
APPID
  5
8B472
330
9
100
AcDbSymbolTableRecord
100
AcDbRegAppTableRecord
  2
LAYER_SCALE
 70
     0
  0
APPID
  5
8B473
330
9
100
AcDbSymbolTableRecord
100
AcDbRegAppTableRecord
  2
KCAD_DIM_EXT
 70
     0
  0
APPID
  5
16ECBA
330
9
100
AcDbSymbolTableRecord
100
AcDbRegAppTableRecord
  2
GENIUS_GENDTOL_13
 70
     0
  0
APPID
  5
23CCFB
330
9
100
AcDbSymbolTableRecord
100
AcDbRegAppTableRecord
  2
AcadAnnotative
 70
     0
  0
APPID
  5
31A28D
330
9
100
AcDbSymbolTableRecord
100
AcDbRegAppTableRecord
  2
ACAD_DSTYLE_DIMFLIPARROW_WHICH_SYMBOL
 70
     0
  0
ENDTAB
  0
TABLE
  2
DIMSTYLE
  5
A
330
0
100
AcDbSymbolTable
 70
     3
100
AcDbDimStyleTable
  0
DIMSTYLE
105
1CC
330
A
100
AcDbSymbolTableRecord
100
AcDbDimStyleTableRecord
  2
STANDARD
 70
     0
 41
2.5
 42
1.5
 43
7.0
 44
1.0
 45
0.0
 73
     0
 74
     0
 77
     3
 78
     8
 79
     2
140
3.0
141
0.0
146
0.6
147
1.0
171
     0
172
     1
176
     8
177
     8
271
     3
178
   256
179
     3
271
     3
272
     3
274
     0
289
     0
340
10
341
265D
342
265D
1001
ACAD_DSTYLE_DIMJAG
1070
   388
1040
1.5
1001
ACAD_DSTYLE_DIMTALN
1070
   392
1070
     0
  0
ENDTAB
  0
TABLE
  2
BLOCK_RECORD
  5
1
330
0
100
AcDbSymbolTable
 70
    12
  0
BLOCK_RECORD
  5
18
102
{ACAD_XDICTIONARY
360
D25F
102
}
330
1
100
AcDbSymbolTableRecord
100
AcDbBlockTableRecord
  2
*MODEL_SPACE
340
355
  0
BLOCK_RECORD
  5
15
330
1
100
AcDbSymbolTableRecord
100
AcDbBlockTableRecord
  2
*PAPER_SPACE
340
356
  0
BLOCK_RECORD
  5
33F
330
1
100
AcDbSymbolTableRecord
100
AcDbBlockTableRecord
  2
_OPEN
340
0
102
{BLKREFS
331
325042
331
325043
331
32504B
331
32504C
331
325054
331
325055
331
35334B
331
35334C
331
353354
331
353355
331
35335D
331
35335E
331
35352B
331
35352C
102
}
  0
BLOCK_RECORD
  5
416
330
1
100
AcDbSymbolTableRecord
100
AcDbBlockTableRecord
  2
SUN
340
0
  0
BLOCK_RECORD
  5
265D
330
1
100
AcDbSymbolTableRecord
100
AcDbBlockTableRecord
  2
_OPEN30
340
0
102
{BLKREFS
331
34F0AA
331
34F0AB
102
}
  0
ENDTAB
  0
ENDSEC
  0
SECTION
  2
BLOCKS
  0
BLOCK
  5
39
330
18
100
AcDbEntity
  8
0
100
AcDbBlockBegin
  2
*MODEL_SPACE
 70
     0
 10
0.0
 20
0.0
 30
0.0
  3
*MODEL_SPACE
  1
*MODEL_SPACE
  0
ENDBLK
  5
3A
330
18
100
AcDbEntity
  8
0
100
AcDbBlockEnd
  0
BLOCK
  5
37
330
15
100
AcDbEntity
 67
     1
  8
0
100
AcDbBlockBegin
  2
*PAPER_SPACE
 70
     0
 10
0.0
 20
0.0
 30
0.0
  3
*PAPER_SPACE
  1
*PAPER_SPACE
  0
ENDBLK
  5
38
330
15
100
AcDbEntity
 67
     1
  8
0
100
AcDbBlockEnd
  0
BLOCK
  5
340
330
33F
100
AcDbEntity
  8
0
100
AcDbBlockBegin
  2
_OPEN
 70
     0
 10
0.0
 20
0.0
 30
0.0
  3
_OPEN
  1
_OPEN
  0
LINE
  5
341
330
33F
100
AcDbEntity
  8
0
  6
ByBlock
 62
     0
100
AcDbLine
 10
-1.0
 20
0.1666666666666667
 30
0.0
 11
0.0
 21
0.0
 31
0.0
  0
LINE
  5
342
330
33F
100
AcDbEntity
  8
0
  6
ByBlock
 62
     0
100
AcDbLine
 10
0.0
 20
0.0
 30
0.0
 11
-1.0
 21
-0.1666666666666667
 31
0.0
  0
LINE
  5
343
330
33F
100
AcDbEntity
  8
0
  6
ByBlock
 62
     0
100
AcDbLine
 10
0.0
 20
0.0
 30
0.0
 11
-1.0
 21
0.0
 31
0.0
  0
ENDBLK
  5
344
330
33F
100
AcDbEntity
  8
0
100
AcDbBlockEnd
  0
BLOCK
  5
41A
330
416
100
AcDbEntity
  8
0
100
AcDbBlockBegin
  2
SUN
 70
     0
 10
0.0
 20
0.0
 30
0.0
  3
SUN
  1
SUN
  0
LINE
  5
417
330
416
100
AcDbEntity
  8
0
100
AcDbLine
 10
-0.0000000000000568
 20
0.0
 30
0.0
 11
-1.500000000000057
 21
0.0
 31
0.0
  0
LINE
  5
418
330
416
100
AcDbEntity
  8
0
100
AcDbLine
 10
-0.0000000000000568
 20
0.0000000000000284
 30
0.0
 11
-1.500000000000057
 21
0.401923788646684
 31
0.0
  0
LINE
  5
419
330
416
100
AcDbEntity
  8
0
100
AcDbLine
 10
-0.0000000000000568
 20
0.0000000000000284
 30
0.0
 11
-1.500000000000057
 21
-0.4019237886466556
 31
0.0
  0
ENDBLK
  5
41B
330
416
100
AcDbEntity
  8
0
100
AcDbBlockEnd
  0
BLOCK
  5
265E
330
265D
100
AcDbEntity
  8
0
100
AcDbBlockBegin
  2
_OPEN30
 70
     0
 10
0.0
 20
0.0
 30
0.0
  3
_OPEN30
  1
_OPEN30
  0
LINE
  5
265F
330
265D
100
AcDbEntity
  8
0
  6
ByBlock
 62
     0
100
AcDbLine
 10
-1.0
 20
0.26794919
 30
0.0
 11
0.0
 21
0.0
 31
0.0
  0
LINE
  5
2660
330
265D
100
AcDbEntity
  8
0
  6
ByBlock
 62
     0
100
AcDbLine
 10
0.0
 20
0.0
 30
0.0
 11
-1.0
 21
-0.26794919
 31
0.0
  0
LINE
  5
2661
330
265D
100
AcDbEntity
  8
0
  6
ByBlock
 62
     0
100
AcDbLine
 10
0.0
 20
0.0
 30
0.0
 11
-1.0
 21
0.0
 31
0.0
  0
ENDBLK
  5
2662
330
265D
100
AcDbEntity
  8
0
100
AcDbBlockEnd
  0
ENDSEC
  0
SECTION
  2
ENTITIES
  0
MTEXT
  5
8182F
330
18
100
AcDbEntity
  8
0
100
AcDbMText
 10
5598.734167156057
 20
-2635.335630549191
 30
0.0
 40
3.0
 41
0.0
 71
     7
 72
     1
  1
\A1;
 73
     1
 44
1.0
  0
MTEXT
  5
3073B9
330
18
100
AcDbEntity
  8
C-SUNPO
 62
     7
100
AcDbMText
 10
8897.245354628265
 20
-2466.345110988794
 30
0.0
 40
2.0
 41
0.0
 71
     5
 72
     1
  1
\A1;\P\P 
 11
0.999998667560571
 21
0.001632445123950444
 31
0.0
 73
     1
 44
1.0
  0
TEXT
  5
352900
330
18
100
AcDbEntity
  8
文字
100
AcDbText
 10
12481.03195189028
 20
-3373.690920144389
 30
0.0
 40
6.5
  1
SX-B1351D/NC
100
AcDbText
  0
SPLINE
  5
353245
330
18
100
AcDbEntity
  8
姿図
100
AcDbSpline
210
0.0
220
0.0
230
1.0
 70
    11
 71
     3
 72
    17
 73
    13
 74
     0
 42
0.000000001
 43
0.0000000001
 40
0.0
 40
0.0
 40
0.0
 40
0.0
 40
1.0
 40
1.0
 40
1.0
 40
2.0
 40
2.0
 40
2.0
 40
3.0
 40
3.0
 40
3.0
 40
4.0
 40
4.0
 40
4.0
 40
4.0
 10
12545.25444763077
 20
-3347.856784045679
 30
0.0
 10
12545.25444763077
 20
-3350.794295982805
 30
0.0
 10
12536.38851225293
 20
-3353.175577318753
 30
0.0
 10
12525.45178097826
 20
-3353.175577318753
 30
0.0
 10
12514.51509435207
 20
-3353.175577318753
 30
0.0
 10
12505.64911432576
 20
-3350.794295982805
 30
0.0
 10
12505.64911432576
 20
-3347.856784045679
 30
0.0
 10
12505.64911432576
 20
-3344.919361405488
 30
0.0
 10
12514.51509435207
 20
-3342.537990772606
 30
0.0
 10
12525.45178097826
 20
-3342.537990772606
 30
0.0
 10
12536.38851225293
 20
-3342.537990772606
 30
0.0
 10
12545.25444763077
 20
-3344.919361405488
 30
0.0
 10
12545.25444763077
 20
-3347.856784045679
 30
0.0
  0
SPLINE
  5
353246
330
18
100
AcDbEntity
  8
姿図
100
AcDbSpline
210
0.0
220
0.0
230
1.0
 70
     8
 71
     3
 72
    11
 73
     7
 74
     0
 42
0.000000001
 43
0.0000000001
 40
0.0
 40
0.0
 40
0.0
 40
0.0
 40
1.0
 40
1.0
 40
1.0
 40
2.0
 40
2.0
 40
2.0
 40
2.0
 10
12505.64911432576
 20
-3347.342880191163
 30
0.0
 10
12505.64911432576
 20
-3344.405457550971
 30
0.0
 10
12514.51509435207
 20
-3342.024176215024
 30
0.0
 10
12525.45178097826
 20
-3342.024176215024
 30
0.0
 10
12536.38851225293
 20
-3342.024176215024
 30
0.0
 10
12545.25444763077
 20
-3344.405457550971
 30
0.0
 10
12545.25444763077
 20
-3347.342880191163
 30
0.0
  0
POLYLINE
  5
353247
330
18
100
AcDbEntity
  8
姿図
100
AcDb2dPolyline
 66
     1
 10
0.0
 20
0.0
 30
0.0
  0
VERTEX
  5
353248
330
353247
100
AcDbEntity
  8
姿図
100
AcDbVertex
100
AcDb2dVertex
 10
12505.64911432576
 20
-3347.856784045679
 30
0.0
  0
VERTEX
  5
353249
330
353247
100
AcDbEntity
  8
姿図
100
AcDbVertex
100
AcDb2dVertex
 10
12505.64911432576
 20
-3347.342880191163
 30
0.0
  0
SEQEND
  5
35324A
330
353247
100
AcDbEntity
  8
姿図
  0
POLYLINE
  5
35324B
330
18
100
AcDbEntity
  8
姿図
100
AcDb2dPolyline
 66
     1
 10
0.0
 20
0.0
 30
0.0
  0
VERTEX
  5
35324C
330
35324B
100
AcDbEntity
  8
姿図
100
AcDbVertex
100
AcDb2dVertex
 10
12545.25444763077
 20
-3347.856784045679
 30
0.0
  0
VERTEX
  5
35324D
330
35324B
100
AcDbEntity
  8
姿図
100
AcDbVertex
100
AcDb2dVertex
 10
12545.25444763077
 20
-3347.342880191163
 30
0.0
  0
SEQEND
  5
35324E
330
35324B
100
AcDbEntity
  8
姿図
  0
SPLINE
  5
35324F
330
18
100
AcDbEntity
  8
姿図
100
AcDbSpline
210
0.0
220
0.0
230
1.0
 70
     8
 71
     3
 72
    23
 73
    19
 74
     0
 42
0.000000001
 43
0.0000000001
 40
0.0
 40
0.0
 40
0.0
 40
0.0
 40
1.0
 40
1.0
 40
1.0
 40
2.0
 40
2.0
 40
2.0
 40
3.0
 40
3.0
 40
3.0
 40
4.0
 40
4.0
 40
4.0
 40
5.0
 40
5.0
 40
5.0
 40
6.0
 40
6.0
 40
6.0
 40
6.0
 10
12527.59705051795
 20
-3338.577493160878
 30
0.0
 10
12527.59705051795
 20
-3338.577493160878
 30
0.0
 10
12527.82815098285
 20
-3338.577493160878
 30
0.0
 10
12527.82815098285
 20
-3338.577493160878
 30
0.0
 10
12527.82815098285
 20
-3338.577493160878
 30
0.0
 10
12528.19373263018
 20
-3338.379521858451
 30
0.0
 10
12528.19373263018
 20
-3338.379521858451
 30
0.0
 10
12528.19373263018
 20
-3338.379521858451
 30
0.0
 10
12528.35786039466
 20
-3335.341818761505
 30
0.0
 10
12528.35786039466
 20
-3335.341818761505
 30
0.0
 10
12535.28658808877
 20
-3335.680968516405
 30
0.0
 10
12540.73396894664
 20
-3337.218483124061
 30
0.0
 10
12541.84509069499
 20
-3339.158905497412
 30
0.0
 10
12541.84509069499
 20
-3339.158905497412
 30
0.0
 10
12542.21808398783
 20
-3344.511542308428
 30
0.0
 10
12542.21808398783
 20
-3344.511542308428
 30
0.0
 10
12542.21808398783
 20
-3344.511542308428
 30
0.0
 10
12541.84509069499
 20
-3328.214851874166
 30
0.0
 10
12541.84509069499
 20
-3328.214851874166
 30
0.0
  0
SPLINE
  5
353250
330
18
100
AcDbEntity
  8
姿図
100
AcDbSpline
210
0.0
220
0.0
230
1.0
 70
     8
 71
     3
 72
    26
 73
    22
 74
     0
 42
0.000000001
 43
0.0000000001
 40
0.0
 40
0.0
 40
0.0
 40
0.0
 40
1.0
 40
1.0
 40
1.0
 40
2.0
 40
2.0
 40
2.0
 40
3.0
 40
3.0
 40
3.0
 40
4.0
 40
4.0
 40
4.0
 40
5.0
 40
5.0
 40
5.0
 40
6.0
 40
6.0
 40
6.0
 40
7.0
 40
7.0
 40
7.0
 40
7.0
 10
12509.11178153107
 20
-3327.837215140761
 30
0.0
 10
12509.11178153107
 20
-3327.837215140761
 30
0.0
 10
12509.11178153107
 20
-3328.115107199016
 30
0.0
 10
12509.11178153107
 20
-3328.115107199016
 30
0.0
 10
12509.11178153107
 20
-3328.115107199016
 30
0.0
 10
12508.88358321652
 20
-3344.428674753782
 30
0.0
 10
12508.88358321652
 20
-3344.428674753782
 30
0.0
 10
12508.88358321652
 20
-3344.428674753782
 30
0.0
 10
12509.11178153107
 20
-3339.124258287064
 30
0.0
 10
12509.11178153107
 20
-3339.124258287064
 30
0.0
 10
12510.30447602852
 20
-3337.1387409621
 30
0.0
 10
12516.04202727306
 20
-3335.582295404461
 30
0.0
 10
12523.24302131859
 20
-3335.313154445728
 30
0.0
 10
12523.24302131859
 20
-3335.313154445728
 30
0.0
 10
12523.4715321724
 20
-3338.412472427056
 30
0.0
 10
12523.4715321724
 20
-3338.412472427056
 30
0.0
 10
12523.4715321724
 20
-3338.412472427056
 30
0.0
 10
12523.7355832059
 20
-3338.577493160878
 30
0.0
 10
12523.7355832059
 20
-3338.577493160878
 30
0.0
 10
12523.7355832059
 20
-3338.577493160878
 30
0.0
 10
12524.03258480801
 20
-3338.577493160878
 30
0.0
 10
12524.03258480801
 20
-3338.577493160878
 30
0.0
  0
POLYLINE
  5
353251
330
18
100
AcDbEntity
  8
姿図
100
AcDb2dPolyline
 66
     1
 10
0.0
 20
0.0
 30
0.0
  0
VERTEX
  5
353252
330
353251
100
AcDbEntity
  8
姿図
100
AcDbVertex
100
AcDb2dVertex
 10
12508.22863485493
 20
-3344.716389474765
 30
0.0
  0
VERTEX
  5
353253
330
353251
100
AcDbEntity
  8
姿図
100
AcDbVertex
100
AcDb2dVertex
 10
12508.22863485493
 20
-3344.716389474765
 30
0.0
  0
VERTEX
  5
353254
330
353251
100
AcDbEntity
  8
姿図
100
AcDbVertex
100
AcDb2dVertex
 10
12508.7185624827
 20
-3328.323169054971
 30
0.0
  0
VERTEX
  5
353255
330
353251
100
AcDbEntity
  8
姿図
100
AcDbVertex
100
AcDb2dVertex
 10
12509.11178153107
 20
-3327.837215140761
 30
0.0
  0
VERTEX
  5
353256
330
353251
100
AcDbEntity
  8
姿図
100
AcDbVertex
100
AcDb2dVertex
 10
12509.6551087253
 20
-3327.882845873977
 30
0.0
  0
VERTEX
  5
353257
330
353251
100
AcDbEntity
  8
姿図
100
AcDbVertex
100
AcDb2dVertex
 10
12509.87370761945
 20
-3328.046348559923
 30
0.0
  0
VERTEX
  5
353258
330
353251
100
AcDbEntity
  8
姿図
100
AcDbVertex
100
AcDb2dVertex
 10
12510.12012250851
 20
-3338.13868802776
 30
0.0
  0
SEQEND
  5
353259
330
353251
100
AcDbEntity
  8
姿図
  0
POLYLINE
  5
35325A
330
18
100
AcDbEntity
  8
姿図
100
AcDb2dPolyline
 66
     1
 10
0.0
 20
0.0
 30
0.0
  0
VERTEX
  5
35325B
330
35325A
100
AcDbEntity
  8
姿図
100
AcDbVertex
100
AcDb2dVertex
 10
12509.11178153107
 20
-3328.115107199016
 30
0.0
  0
VERTEX
  5
35325C
330
35325A
100
AcDbEntity
  8
姿図
100
AcDbVertex
100
AcDb2dVertex
 10
12509.87370761945
 20
-3328.046348559923
 30
0.0
  0
SEQEND
  5
35325D
330
35325A
100
AcDbEntity
  8
姿図
  0
POLYLINE
  5
35325E
330
18
100
AcDbEntity
  8
姿図
100
AcDb2dPolyline
 66
     1
 10
0.0
 20
0.0
 30
0.0
  0
VERTEX
  5
35325F
330
35325E
100
AcDbEntity
  8
姿図
100
AcDbVertex
100
AcDb2dVertex
 10
12540.90729429532
 20
-3338.20164236615
 30
0.0
  0
VERTEX
  5
353260
330
35325E
100
AcDbEntity
  8
姿図
100
AcDbVertex
100
AcDb2dVertex
 10
12541.06293885108
 20
-3328.323169054971
 30
0.0
  0
VERTEX
  5
353261
330
35325E
100
AcDbEntity
  8
姿図
100
AcDbVertex
100
AcDb2dVertex
 10
12541.39664149301
 20
-3328.214851874166
 30
0.0
  0
VERTEX
  5
353262
330
35325E
100
AcDbEntity
  8
姿図
100
AcDbVertex
100
AcDb2dVertex
 10
12541.84509069499
 20
-3328.214851874166
 30
0.0
  0
VERTEX
  5
353263
330
35325E
100
AcDbEntity
  8
姿図
100
AcDbVertex
100
AcDb2dVertex
 10
12542.38310472166
 20
-3328.851271121975
 30
0.0
  0
VERTEX
  5
353264
330
35325E
100
AcDbEntity
  8
姿図
100
AcDbVertex
100
AcDb2dVertex
 10
12542.60500760236
 20
-3344.683617500028
 30
0.0
  0
SEQEND
  5
353265
330
35325E
100
AcDbEntity
  8
姿図
  0
POLYLINE
  5
353266
330
18
100
AcDbEntity
  8
姿図
100
AcDb2dPolyline
 66
     1
 10
0.0
 20
0.0
 30
0.0
  0
VERTEX
  5
353267
330
353266
100
AcDbEntity
  8
姿図
100
AcDbVertex
100
AcDb2dVertex
 10
12532.58785615286
 20
-3335.71829463477
 30
0.0
  0
VERTEX
  5
353268
330
353266
100
AcDbEntity
  8
姿図
100
AcDbVertex
100
AcDb2dVertex
 10
12533.27392449591
 20
-3342.537990772606
 30
0.0
  0
SEQEND
  5
353269
330
353266
100
AcDbEntity
  8
姿図
  0
SPLINE
  5
35326A
330
18
100
AcDbEntity
  8
姿図
100
AcDbSpline
210
0.0
220
0.0
230
1.0
 70
     8
 71
     3
 72
     8
 73
     4
 74
     0
 42
0.000000001
 43
0.0000000001
 40
0.0
 40
0.0
 40
0.0
 40
0.0
 40
1.0
 40
1.0
 40
1.0
 40
1.0
 10
12536.73114458825
 20
-3336.501071557218
 30
0.0
 10
12536.72051825312
 20
-3336.4981247584
 30
0.0
 10
12536.26805068912
 20
-3342.887141784102
 30
0.0
 10
12536.26805068912
 20
-3342.887141784102
 30
0.0
  0
POLYLINE
  5
35326B
330
18
100
AcDbEntity
  8
姿図
100
AcDb2dPolyline
 66
     1
 10
0.0
 20
0.0
 30
0.0
  0
VERTEX
  5
35326C
330
35326B
100
AcDbEntity
  8
姿図
100
AcDbVertex
100
AcDb2dVertex
 10
12528.35786039466
 20
-3335.341818761505
 30
0.0
  0
VERTEX
  5
35326D
330
35326B
100
AcDbEntity
  8
姿図
100
AcDbVertex
100
AcDb2dVertex
 10
12528.19373263018
 20
-3335.574080086543
 30
0.0
  0
VERTEX
  5
35326E
330
35326B
100
AcDbEntity
  8
姿図
100
AcDbVertex
100
AcDb2dVertex
 10
12528.09184482862
 20
-3338.434796660528
 30
0.0
  0
SEQEND
  5
35326F
330
35326B
100
AcDbEntity
  8
姿図
  0
POLYLINE
  5
353270
330
18
100
AcDbEntity
  8
姿図
100
AcDb2dPolyline
 66
     1
 10
0.0
 20
0.0
 30
0.0
  0
VERTEX
  5
353271
330
353270
100
AcDbEntity
  8
姿図
100
AcDbVertex
100
AcDb2dVertex
 10
12523.24302131859
 20
-3335.313154445728
 30
0.0
  0
VERTEX
  5
353272
330
353270
100
AcDbEntity
  8
姿図
100
AcDbVertex
100
AcDb2dVertex
 10
12523.40554173826
 20
-3335.71829463477
 30
0.0
  0
VERTEX
  5
353273
330
353270
100
AcDbEntity
  8
姿図
100
AcDbVertex
100
AcDb2dVertex
 10
12523.61980973112
 20
-3338.505162644429
 30
0.0
  0
SEQEND
  5
353274
330
353270
100
AcDbEntity
  8
姿図
  0
POLYLINE
  5
353275
330
18
100
AcDbEntity
  8
姿図
100
AcDb2dPolyline
 66
     1
 10
0.0
 20
0.0
 30
0.0
  0
VERTEX
  5
353276
330
353275
100
AcDbEntity
  8
姿図
100
AcDbVertex
100
AcDb2dVertex
 10
12527.59705051795
 20
-3342.024176215024
 30
0.0
  0
VERTEX
  5
353277
330
353275
100
AcDbEntity
  8
姿図
100
AcDbVertex
100
AcDb2dVertex
 10
12524.03258480801
 20
-3342.024176215024
 30
0.0
  0
VERTEX
  5
353278
330
353275
100
AcDbEntity
  8
姿図
100
AcDbVertex
100
AcDb2dVertex
 10
12524.03258480801
 20
-3339.128098055221
 30
0.0
  0
VERTEX
  5
353279
330
353275
100
AcDbEntity
  8
姿図
100
AcDbVertex
100
AcDb2dVertex
 10
12524.03258480801
 20
-3337.950360794193
 30
0.0
  0
VERTEX
  5
35327A
330
353275
100
AcDbEntity
  8
姿図
100
AcDbVertex
100
AcDb2dVertex
 10
12524.03258480801
 20
-3336.174334076128
 30
0.0
  0
VERTEX
  5
35327B
330
353275
100
AcDbEntity
  8
姿図
100
AcDbVertex
100
AcDb2dVertex
 10
12524.19760554183
 20
-3333.527840846538
 30
0.0
  0
VERTEX
  5
35327C
330
353275
100
AcDbEntity
  8
姿図
100
AcDbVertex
100
AcDb2dVertex
 10
12524.46165657533
 20
-3333.296740381639
 30
0.0
  0
VERTEX
  5
35327D
330
353275
100
AcDbEntity
  8
姿図
100
AcDbVertex
100
AcDb2dVertex
 10
12527.33308878138
 20
-3333.296740381639
 30
0.0
  0
VERTEX
  5
35327E
330
353275
100
AcDbEntity
  8
姿図
100
AcDbVertex
100
AcDb2dVertex
 10
12527.59705051795
 20
-3333.494800981
 30
0.0
  0
VERTEX
  5
35327F
330
353275
100
AcDbEntity
  8
姿図
100
AcDbVertex
100
AcDb2dVertex
 10
12527.59705051795
 20
-3335.71829463477
 30
0.0
  0
VERTEX
  5
353280
330
353275
100
AcDbEntity
  8
姿図
100
AcDbVertex
100
AcDb2dVertex
 10
12527.59705051795
 20
-3338.11547082495
 30
0.0
  0
VERTEX
  5
353281
330
353275
100
AcDbEntity
  8
姿図
100
AcDbVertex
100
AcDb2dVertex
 10
12527.59705051795
 20
-3339.402686126922
 30
0.0
  0
VERTEX
  5
353282
330
353275
100
AcDbEntity
  8
姿図
100
AcDbVertex
100
AcDb2dVertex
 10
12527.59705051795
 20
-3342.024176215024
 30
0.0
  0
SEQEND
  5
353283
330
353275
100
AcDbEntity
  8
姿図
  0
POLYLINE
  5
353284
330
18
100
AcDbEntity
  8
姿図
100
AcDb2dPolyline
 66
     1
 10
0.0
 20
0.0
 30
0.0
  0
VERTEX
  5
353285
330
353284
100
AcDbEntity
  8
姿図
100
AcDbVertex
100
AcDb2dVertex
 10
12524.03258480801
 20
-3336.174334076128
 30
0.0
  0
VERTEX
  5
353286
330
353284
100
AcDbEntity
  8
姿図
100
AcDbVertex
100
AcDb2dVertex
 10
12527.59705051795
 20
-3336.174334076128
 30
0.0
  0
SEQEND
  5
353287
330
353284
100
AcDbEntity
  8
姿図
  0
POLYLINE
  5
353288
330
18
100
AcDbEntity
  8
姿図
100
AcDb2dPolyline
 66
     1
 10
0.0
 20
0.0
 30
0.0
  0
VERTEX
  5
353289
330
353288
100
AcDbEntity
  8
姿図
100
AcDbVertex
100
AcDb2dVertex
 10
12524.03258480801
 20
-3338.841544194379
 30
0.0
  0
VERTEX
  5
35328A
330
353288
100
AcDbEntity
  8
姿図
100
AcDbVertex
100
AcDb2dVertex
 10
12527.59705051795
 20
-3338.841544194379
 30
0.0
  0
SEQEND
  5
35328B
330
353288
100
AcDbEntity
  8
姿図
  0
SPLINE
  5
35328C
330
18
100
AcDbEntity
  8
姿図
100
AcDbSpline
210
0.0
220
0.0
230
1.0
 70
    11
 71
     3
 72
    17
 73
    13
 74
     0
 42
0.000000001
 43
0.0000000001
 40
0.0
 40
0.0
 40
0.0
 40
0.0
 40
1.0
 40
1.0
 40
1.0
 40
2.0
 40
2.0
 40
2.0
 40
3.0
 40
3.0
 40
3.0
 40
4.0
 40
4.0
 40
4.0
 40
4.0
 10
12526.57388624948
 20
-3340.590692535347
 30
0.0
 10
12526.57388624948
 20
-3340.991814362364
 30
0.0
 10
12526.2487561132
 20
-3341.316944498643
 30
0.0
 10
12525.84790217698
 20
-3341.316944498643
 30
0.0
 10
12525.4468696469
 20
-3341.316944498643
 30
0.0
 10
12525.12173951062
 20
-3340.991814362364
 30
0.0
 10
12525.12173951062
 20
-3340.590692535347
 30
0.0
 10
12525.12173951062
 20
-3340.189749302196
 30
0.0
 10
12525.4468696469
 20
-3339.86470846285
 30
0.0
 10
12525.84790217698
 20
-3339.86470846285
 30
0.0
 10
12526.2487561132
 20
-3339.86470846285
 30
0.0
 10
12526.57388624948
 20
-3340.189749302196
 30
0.0
 10
12526.57388624948
 20
-3340.590692535347
 30
0.0
  0
SPLINE
  5
35328D
330
18
100
AcDbEntity
  8
姿図
100
AcDbSpline
210
0.0
220
0.0
230
1.0
 70
    11
 71
     3
 72
    17
 73
    13
 74
     0
 42
0.000000001
 43
0.0000000001
 40
0.0
 40
0.0
 40
0.0
 40
0.0
 40
1.0
 40
1.0
 40
1.0
 40
2.0
 40
2.0
 40
2.0
 40
3.0
 40
3.0
 40
3.0
 40
4.0
 40
4.0
 40
4.0
 40
4.0
 10
12534.70062160861
 20
-3341.411242060828
 30
0.0
 10
12534.73803702391
 20
-3341.63716330356
 30
0.0
 10
12534.67535057632
 20
-3341.835581090656
 30
0.0
 10
12534.56078261014
 20
-3341.854601337574
 30
0.0
 10
12534.44612534703
 20
-3341.873621584491
 30
0.0
 10
12534.32280628134
 20
-3341.705921942652
 30
0.0
 10
12534.28539086604
 20
-3341.48000069992
 30
0.0
 10
12534.24797545074
 20
-3341.254168754122
 30
0.0
 10
12534.31066189833
 20
-3341.055750967026
 30
0.0
 10
12534.42522986451
 20
-3341.036730720109
 30
0.0
 10
12534.53988712762
 20
-3341.017799770125
 30
0.0
 10
12534.66320619331
 20
-3341.185410115029
 30
0.0
 10
12534.70062160861
 20
-3341.411242060828
 30
0.0
  0
SPLINE
  5
35328E
330
18
100
AcDbEntity
  8
姿図
100
AcDbSpline
210
0.0
220
0.0
230
1.0
 70
    11
 71
     3
 72
    17
 73
    13
 74
     0
 42
0.000000001
 43
0.0000000001
 40
0.0
 40
0.0
 40
0.0
 40
0.0
 40
1.0
 40
1.0
 40
1.0
 40
2.0
 40
2.0
 40
2.0
 40
3.0
 40
3.0
 40
3.0
 40
4.0
 40
4.0
 40
4.0
 40
4.0
 10
12509.87370761945
 20
-3348.544906218208
 30
0.0
 10
12509.87370761945
 20
-3350.65927901877
 30
0.0
 10
12516.89258056832
 20
-3352.373422961652
 30
0.0
 10
12525.55081127794
 20
-3352.373422961652
 30
0.0
 10
12534.20904198757
 20
-3352.373422961652
 30
0.0
 10
12541.2279595849
 20
-3350.65927901877
 30
0.0
 10
12541.2279595849
 20
-3348.544906218208
 30
0.0
 10
12541.2279595849
 20
-3346.430444120713
 30
0.0
 10
12534.20904198757
 20
-3344.716389474765
 30
0.0
 10
12525.55081127794
 20
-3344.716389474765
 30
0.0
 10
12516.89258056832
 20
-3344.716389474765
 30
0.0
 10
12509.87370761945
 20
-3346.430444120713
 30
0.0
 10
12509.87370761945
 20
-3348.544906218208
 30
0.0
  0
SPLINE
  5
35328F
330
18
100
AcDbEntity
  8
姿図
100
AcDbSpline
210
0.0
220
0.0
230
1.0
 70
    11
 71
     3
 72
    17
 73
    13
 74
     0
 42
0.000000001
 43
0.0000000001
 40
0.0
 40
0.0
 40
0.0
 40
0.0
 40
1.0
 40
1.0
 40
1.0
 40
2.0
 40
2.0
 40
2.0
 40
3.0
 40
3.0
 40
3.0
 40
4.0
 40
4.0
 40
4.0
 40
4.0
 10
12508.88358321652
 20
-3348.51186635267
 30
0.0
 10
12508.88358321652
 20
-3350.863233215766
 30
0.0
 10
12516.34577079367
 20
-3352.769454863439
 30
0.0
 10
12525.55081127794
 20
-3352.769454863439
 30
0.0
 10
12534.75589641069
 20
-3352.769454863439
 30
0.0
 10
12542.21808398783
 20
-3350.863233215766
 30
0.0
 10
12542.21808398783
 20
-3348.51186635267
 30
0.0
 10
12542.21808398783
 20
-3346.160499489574
 30
0.0
 10
12534.75589641069
 20
-3344.254277841902
 30
0.0
 10
12525.55081127794
 20
-3344.254277841902
 30
0.0
 10
12516.34577079367
 20
-3344.254277841902
 30
0.0
 10
12508.88358321652
 20
-3346.160499489574
 30
0.0
 10
12508.88358321652
 20
-3348.51186635267
 30
0.0
  0
SPLINE
  5
353290
330
18
100
AcDbEntity
  8
姿図
100
AcDbSpline
210
0.0
220
0.0
230
1.0
 70
     8
 71
     3
 72
     8
 73
     4
 74
     0
 42
0.000000001
 43
0.0000000001
 40
0.0
 40
0.0
 40
0.0
 40
0.0
 40
1.0
 40
1.0
 40
1.0
 40
1.0
 10
12527.59705051795
 20
-3334.19399597333
 30
0.0
 10
12534.20529151634
 20
-3334.452599893865
 30
0.0
 10
12539.44880747415
 20
-3335.966272220172
 30
0.0
 10
12540.40991037357
 20
-3337.884995438589
 30
0.0
  0
SPLINE
  5
353291
330
18
100
AcDbEntity
  8
姿図
100
AcDbSpline
210
0.0
220
0.0
230
1.0
 70
     8
 71
     3
 72
     8
 73
     4
 74
     0
 42
0.000000001
 43
0.0000000001
 40
0.0
 40
0.0
 40
0.0
 40
0.0
 40
1.0
 40
1.0
 40
1.0
 40
1.0
 10
12510.86338553772
 20
-3337.701490239452
 30
0.0
 10
12512.09313826273
 20
-3335.814735323367
 30
0.0
 10
12517.48921803208
 20
-3334.357855847011
 30
0.0
 10
12524.15728797618
 20
-3334.174350647875
 30
0.0
  0
SPLINE
  5
353292
330
18
100
AcDbEntity
  8
姿図
100
AcDbSpline
210
0.0
220
0.0
230
1.0
 70
     8
 71
     3
 72
     8
 73
     4
 74
     0
 42
0.000000001
 43
0.0000000001
 40
0.0
 40
0.0
 40
0.0
 40
0.0
 40
1.0
 40
1.0
 40
1.0
 40
1.0
 10
12511.919507647
 20
-3336.727154182021
 30
0.0
 10
12510.24589723989
 20
-3335.702935562142
 30
0.0
 10
12510.05596266152
 20
-3335.252521827619
 30
0.0
 10
12510.05596266152
 20
-3334.787552692873
 30
0.0
  0
SPLINE
  5
353293
330
18
100
AcDbEntity
  8
姿図
100
AcDbSpline
210
0.0
220
0.0
230
1.0
 70
     8
 71
     3
 72
     8
 73
     4
 74
     0
 42
0.000000001
 43
0.0000000001
 40
0.0
 40
0.0
 40
0.0
 40
0.0
 40
1.0
 40
1.0
 40
1.0
 40
1.0
 10
12540.90729429532
 20
-3334.787552692873
 30
0.0
 10
12540.90729429532
 20
-3335.313243742662
 30
0.0
 10
12540.74370231244
 20
-3335.799912032342
 30
0.0
 10
12539.13301705841
 20
-3336.628256457941
 30
0.0
  0
SPLINE
  5
353294
330
18
100
AcDbEntity
  8
姿図
100
AcDbSpline
210
0.0
220
0.0
230
1.0
 70
     8
 71
     3
 72
    11
 73
     7
 74
     0
 42
0.000000001
 43
0.0000000001
 40
0.0
 40
0.0
 40
0.0
 40
0.0
 40
1.0
 40
1.0
 40
1.0
 40
2.0
 40
2.0
 40
2.0
 40
2.0
 10
12510.05596266152
 20
-3334.787552692873
 30
0.0
 10
12510.05596266152
 20
-3331.983539671907
 30
0.0
 10
12516.96227682522
 20
-3329.710307625961
 30
0.0
 10
12525.48151685725
 20
-3329.710307625961
 30
0.0
 10
12534.00098013161
 20
-3329.710307625961
 30
0.0
 10
12540.90729429532
 20
-3331.983539671907
 30
0.0
 10
12540.90729429532
 20
-3334.787552692873
 30
0.0
  0
SPLINE
  5
353295
330
18
100
AcDbEntity
  8
姿図
100
AcDbSpline
210
0.0
220
0.0
230
1.0
 70
     8
 71
     3
 72
    11
 73
     7
 74
     0
 42
0.000000001
 43
0.0000000001
 40
0.0
 40
0.0
 40
0.0
 40
0.0
 40
1.0
 40
1.0
 40
1.0
 40
2.0
 40
2.0
 40
2.0
 40
2.0
 10
12510.12516778528
 20
-3334.36839288521
 30
0.0
 10
12510.12516778528
 20
-3331.564379864245
 30
0.0
 10
12517.03152659745
 20
-3329.291237115232
 30
0.0
 10
12525.55081127794
 20
-3329.291237115232
 30
0.0
 10
12534.07027455231
 20
-3329.291237115232
 30
0.0
 10
12540.97649941908
 20
-3331.564379864245
 30
0.0
 10
12540.97649941908
 20
-3334.36839288521
 30
0.0
  0
SPLINE
  5
353296
330
18
100
AcDbEntity
  8
姿図
100
AcDbSpline
210
0.0
220
0.0
230
1.0
 70
     8
 71
     3
 72
     8
 73
     4
 74
     0
 42
0.000000001
 43
0.0000000001
 40
0.0
 40
0.0
 40
0.0
 40
0.0
 40
1.0
 40
1.0
 40
1.0
 40
1.0
 10
12514.40909889154
 20
-3336.449190038631
 30
0.0
 10
12514.40909889154
 20
-3336.449190038631
 30
0.0
 10
12518.30266845132
 20
-3335.013206044803
 30
0.0
 10
12524.11054103129
 20
-3334.925069971057
 30
0.0
  0
SPLINE
  5
353297
330
18
100
AcDbEntity
  8
姿図
100
AcDbSpline
210
0.0
220
0.0
230
1.0
 70
     8
 71
     3
 72
     8
 73
     4
 74
     0
 42
0.000000001
 43
0.0000000001
 40
0.0
 40
0.0
 40
0.0
 40
0.0
 40
1.0
 40
1.0
 40
1.0
 40
1.0
 10
12527.59705051795
 20
-3334.925069971057
 30
0.0
 10
12527.59705051795
 20
-3334.925069971057
 30
0.0
 10
12533.47957533465
 20
-3335.045085050201
 30
0.0
 10
12538.06881265787
 20
-3336.888352359483
 30
0.0
  0
SPLINE
  5
353298
330
18
100
AcDbEntity
  8
姿図
100
AcDbSpline
210
0.0
220
0.0
230
1.0
 70
     8
 71
     3
 72
     8
 73
     4
 74
     0
 42
0.000000001
 43
0.0000000001
 40
0.0
 40
0.0
 40
0.0
 40
0.0
 40
1.0
 40
1.0
 40
1.0
 40
1.0
 10
12527.59705051795
 20
-3335.889566153965
 30
0.0
 10
12527.79627197745
 20
-3335.894120297593
 30
0.0
 10
12527.9921894504
 20
-3335.899835301361
 30
0.0
 10
12528.18185613797
 20
-3335.906711165271
 30
0.0
  0
SPLINE
  5
353299
330
18
100
AcDbEntity
  8
姿図
100
AcDbSpline
210
0.0
220
0.0
230
1.0
 70
     8
 71
     3
 72
     8
 73
     4
 74
     0
 42
0.000000001
 43
0.0000000001
 40
0.0
 40
0.0
 40
0.0
 40
0.0
 40
1.0
 40
1.0
 40
1.0
 40
1.0
 10
12523.43143784909
 20
-3335.906711165271
 30
0.0
 10
12523.43143784909
 20
-3335.906711165271
 30
0.0
 10
12523.66664597294
 20
-3335.900281786031
 30
0.0
 10
12524.05022095245
 20
-3335.893138031319
 30
0.0
  0
SPLINE
  5
35329A
330
18
100
AcDbEntity
  8
姿図
100
AcDbSpline
210
0.0
220
0.0
230
1.0
 70
     8
 71
     3
 72
    23
 73
    19
 74
     0
 42
0.000000001
 43
0.0000000001
 40
0.0
 40
0.0
 40
0.0
 40
0.0
 40
1.0
 40
1.0
 40
1.0
 40
2.0
 40
2.0
 40
2.0
 40
3.0
 40
3.0
 40
3.0
 40
4.0
 40
4.0
 40
4.0
 40
5.0
 40
5.0
 40
5.0
 40
6.0
 40
6.0
 40
6.0
 40
6.0
 10
12510.02377111685
 20
-3334.19399597333
 30
0.0
 10
12510.02377111685
 20
-3334.19399597333
 30
0.0
 10
12511.45787987506
 20
-3316.012515155528
 30
0.0
 10
12511.45787987506
 20
-3316.012515155528
 30
0.0
 10
12511.45787987506
 20
-3316.012515155528
 30
0.0
 10
12511.06180332481
 20
-3316.012515155528
 30
0.0
 10
12511.06180332481
 20
-3316.012515155528
 30
0.0
 10
12511.06180332481
 20
-3316.012515155528
 30
0.0
 10
12511.06180332481
 20
-3312.810996833367
 30
0.0
 10
12511.06180332481
 20
-3312.810996833367
 30
0.0
 10
12511.06180332481
 20
-3312.810996833367
 30
0.0
 10
12511.82091655978
 20
-3312.810996833367
 30
0.0
 10
12511.82091655978
 20
-3312.810996833367
 30
0.0
 10
12511.82091655978
 20
-3312.810996833367
 30
0.0
 10
12512.31602340971
 20
-3314.186660748354
 30
0.0
 10
12511.82091655978
 20
-3315.936434167857
 30
0.0
 10
12511.82091655978
 20
-3315.936434167857
 30
0.0
 10
12511.82091655978
 20
-3319.698960477159
 30
0.0
 10
12511.82091655978
 20
-3319.698960477159
 30
0.0
  0
SPLINE
  5
35329B
330
18
100
AcDbEntity
  8
姿図
100
AcDbSpline
210
0.0
220
0.0
230
1.0
 70
     8
 71
     3
 72
    29
 73
    25
 74
     0
 42
0.000000001
 43
0.0000000001
 40
0.0
 40
0.0
 40
0.0
 40
0.0
 40
1.0
 40
1.0
 40
1.0
 40
2.0
 40
2.0
 40
2.0
 40
3.0
 40
3.0
 40
3.0
 40
4.0
 40
4.0
 40
4.0
 40
5.0
 40
5.0
 40
5.0
 40
6.0
 40
6.0
 40
6.0
 40
7.0
 40
7.0
 40
7.0
 40
8.0
 40
8.0
 40
8.0
 40
8.0
 10
12510.52673609696
 20
-3327.664068385956
 30
0.0
 10
12513.44013786194
 20
-3323.076438407543
 30
0.0
 10
12524.11054103129
 20
-3322.867394285315
 30
0.0
 10
12524.11054103129
 20
-3322.867394285315
 30
0.0
 10
12524.11054103129
 20
-3322.867394285315
 30
0.0
 10
12523.37245722425
 20
-3315.606392700214
 30
0.0
 10
12523.37245722425
 20
-3315.606392700214
 30
0.0
 10
12523.37245722425
 20
-3315.606392700214
 30
0.0
 10
12523.40554173826
 20
-3315.21031614996
 30
0.0
 10
12522.74545880297
 20
-3315.309391098107
 30
0.0
 10
12522.74545880297
 20
-3315.309391098107
 30
0.0
 10
12514.26327699851
 20
-3316.563521886074
 30
0.0
 10
12512.84412547671
 20
-3319.203898275694
 30
0.0
 10
12512.84412547671
 20
-3319.203898275694
 30
0.0
 10
12513.04214142761
 20
-3319.467860012261
 30
0.0
 10
12513.04214142761
 20
-3319.467860012261
 30
0.0
 10
12513.04214142761
 20
-3319.467860012261
 30
0.0
 10
12512.94311112793
 20
-3319.797901479905
 30
0.0
 10
12512.94311112793
 20
-3319.797901479905
 30
0.0
 10
12512.94311112793
 20
-3319.797901479905
 30
0.0
 10
12512.64606487736
 20
-3320.061952513408
 30
0.0
 10
12512.64606487736
 20
-3320.061952513408
 30
0.0
 10
12512.64606487736
 20
-3320.061952513408
 30
0.0
 10
12511.74568389298
 20
-3326.248444093055
 30
0.0
 10
12511.74568389298
 20
-3326.248444093055
 30
0.0
  0
SPLINE
  5
35329C
330
18
100
AcDbEntity
  8
姿図
100
AcDbSpline
210
0.0
220
0.0
230
1.0
 70
     8
 71
     3
 72
     8
 73
     4
 74
     0
 42
0.000000001
 43
0.0000000001
 40
0.0
 40
0.0
 40
0.0
 40
0.0
 40
1.0
 40
1.0
 40
1.0
 40
1.0
 10
12512.20654536877
 20
-3325.867324779228
 30
0.0
 10
12512.20654536877
 20
-3325.867324779228
 30
0.0
 10
12513.21310040754
 20
-3318.600876081159
 30
0.0
 10
12513.68740107187
 20
-3318.270566722713
 30
0.0
  0
SPLINE
  5
35329D
330
18
100
AcDbEntity
  8
姿図
100
AcDbSpline
210
0.0
220
0.0
230
1.0
 70
     8
 71
     3
 72
     8
 73
     4
 74
     0
 42
0.000000001
 43
0.0000000001
 40
0.0
 40
0.0
 40
0.0
 40
0.0
 40
1.0
 40
1.0
 40
1.0
 40
1.0
 10
12516.45806168803
 20
-3316.86315774773
 30
0.0
 10
12516.45806168803
 20
-3316.86315774773
 30
0.0
 10
12514.73860457758
 20
-3322.686032212592
 30
0.0
 10
12514.32877629951
 20
-3324.776830622608
 30
0.0
  0
SPLINE
  5
35329E
330
18
100
AcDbEntity
  8
姿図
100
AcDbSpline
210
0.0
220
0.0
230
1.0
 70
     8
 71
     3
 72
     8
 73
     4
 74
     0
 42
0.000000001
 43
0.0000000001
 40
0.0
 40
0.0
 40
0.0
 40
0.0
 40
1.0
 40
1.0
 40
1.0
 40
1.0
 10
12512.78992223785
 20
-3322.068901102503
 30
0.0
 10
12512.78992223785
 20
-3322.068901102503
 30
0.0
 10
12512.96181883558
 20
-3322.352865352262
 30
0.0
 10
12514.65220979405
 20
-3323.484703989272
 30
0.0
  0
SPLINE
  5
35329F
330
18
100
AcDbEntity
  8
姿図
100
AcDbSpline
210
0.0
220
0.0
230
1.0
 70
     8
 71
     3
 72
    14
 73
    10
 74
     0
 42
0.000000001
 43
0.0000000001
 40
0.0
 40
0.0
 40
0.0
 40
0.0
 40
1.0
 40
1.0
 40
1.0
 40
2.0
 40
2.0
 40
2.0
 40
3.0
 40
3.0
 40
3.0
 40
3.0
 10
12512.94695089609
 20
-3321.16628769478
 30
0.0
 10
12512.94695089609
 20
-3321.16628769478
 30
0.0
 10
12513.53720362908
 20
-3321.646258714419
 30
0.0
 10
12513.53720362908
 20
-3321.646258714419
 30
0.0
 10
12513.53720362908
 20
-3321.646258714419
 30
0.0
 10
12513.40517811233
 20
-3322.068901102503
 30
0.0
 10
12513.40517811233
 20
-3322.068901102503
 30
0.0
 10
12513.40517811233
 20
-3322.068901102503
 30
0.0
 10
12514.32904419031
 20
-3322.67745970694
 30
0.0
 10
12514.77472518734
 20
-3322.986962879789
 30
0.0
  0
SPLINE
  5
3532A0
330
18
100
AcDbEntity
  8
姿図
100
AcDbSpline
210
0.0
220
0.0
230
1.0
 70
     8
 71
     3
 72
    26
 73
    22
 74
     0
 42
0.000000001
 43
0.0000000001
 40
0.0
 40
0.0
 40
0.0
 40
0.0
 40
1.0
 40
1.0
 40
1.0
 40
2.0
 40
2.0
 40
2.0
 40
3.0
 40
3.0
 40
3.0
 40
4.0
 40
4.0
 40
4.0
 40
5.0
 40
5.0
 40
5.0
 40
6.0
 40
6.0
 40
6.0
 40
7.0
 40
7.0
 40
7.0
 40
7.0
 10
12540.23783518197
 20
-3327.058903065008
 30
0.0
 10
12540.00673471707
 20
-3324.64958249182
 30
0.0
 10
12538.95061988
 20
-3319.897021076519
 30
0.0
 10
12538.95061988
 20
-3319.897021076519
 30
0.0
 10
12538.95061988
 20
-3319.897021076519
 30
0.0
 10
12538.38956724439
 20
-3319.764950911302
 30
0.0
 10
12538.38956724439
 20
-3319.764950911302
 30
0.0
 10
12538.38956724439
 20
-3319.764950911302
 30
0.0
 10
12538.19159594197
 20
-3319.335879143977
 30
0.0
 10
12538.19159594197
 20
-3319.335879143977
 30
0.0
 10
12538.19159594197
 20
-3319.335879143977
 30
0.0
 10
12538.38956724439
 20
-3319.170947707089
 30
0.0
 10
12538.38956724439
 20
-3319.170947707089
 30
0.0
 10
12534.92413183413
 20
-3315.243356015499
 30
0.0
 10
12527.39907921552
 20
-3315.293496243876
 30
0.0
 10
12527.39907921552
 20
-3315.293496243876
 30
0.0
 10
12527.39907921552
 20
-3315.293496243876
 30
0.0
 10
12526.57388624948
 20
-3322.776936491288
 30
0.0
 10
12526.57388624948
 20
-3322.776936491288
 30
0.0
 10
12526.57388624948
 20
-3322.776936491288
 30
0.0
 10
12538.17141483491
 20
-3322.608790364781
 30
0.0
 10
12540.62386582716
 20
-3327.837215140761
 30
0.0
  0
SPLINE
  5
3532A1
330
18
100
AcDbEntity
  8
姿図
100
AcDbSpline
210
0.0
220
0.0
230
1.0
 70
     8
 71
     3
 72
     8
 73
     4
 74
     0
 42
0.000000001
 43
0.0000000001
 40
0.0
 40
0.0
 40
0.0
 40
0.0
 40
1.0
 40
1.0
 40
1.0
 40
1.0
 10
12539.25271140734
 20
-3326.063063658306
 30
0.0
 10
12539.25271140734
 20
-3326.063063658306
 30
0.0
 10
12538.19873969668
 20
-3318.916897930183
 30
0.0
 10
12537.80797631399
 20
-3318.581766537307
 30
0.0
  0
SPLINE
  5
3532A2
330
18
100
AcDbEntity
  8
姿図
100
AcDbSpline
210
0.0
220
0.0
230
1.0
 70
     8
 71
     3
 72
     8
 73
     4
 74
     0
 42
0.000000001
 43
0.0000000001
 40
0.0
 40
0.0
 40
0.0
 40
0.0
 40
1.0
 40
1.0
 40
1.0
 40
1.0
 10
12536.52951211154
 20
-3324.447682124302
 30
0.0
 10
12536.52951211154
 20
-3324.447682124302
 30
0.0
 10
12534.93207926125
 20
-3317.104973844695
 30
0.0
 10
12534.69704973126
 20
-3316.685769388564
 30
0.0
  0
SPLINE
  5
3532A3
330
18
100
AcDbEntity
  8
姿図
100
AcDbSpline
210
0.0
220
0.0
230
1.0
 70
     8
 71
     3
 72
     8
 73
     4
 74
     0
 42
0.000000001
 43
0.0000000001
 40
0.0
 40
0.0
 40
0.0
 40
0.0
 40
1.0
 40
1.0
 40
1.0
 40
1.0
 10
12538.6114701251
 20
-3322.068901102503
 30
0.0
 10
12538.6114701251
 20
-3322.068901102503
 30
0.0
 10
12537.61339829505
 20
-3323.276999321053
 30
0.0
 10
12536.3183248629
 20
-3323.484703989272
 30
0.0
  0
SPLINE
  5
3532A4
330
18
100
AcDbEntity
  8
姿図
100
AcDbSpline
210
0.0
220
0.0
230
1.0
 70
     8
 71
     3
 72
    17
 73
    13
 74
     0
 42
0.000000001
 43
0.0000000001
 40
0.0
 40
0.0
 40
0.0
 40
0.0
 40
1.0
 40
1.0
 40
1.0
 40
2.0
 40
2.0
 40
2.0
 40
3.0
 40
3.0
 40
3.0
 40
4.0
 40
4.0
 40
4.0
 40
4.0
 10
12536.2374218408
 20
-3323.118318669536
 30
0.0
 10
12536.2374218408
 20
-3323.118318669536
 30
0.0
 10
12537.69644444357
 20
-3322.207311350027
 30
0.0
 10
12537.9935353426
 20
-3321.712249148562
 30
0.0
 10
12537.9935353426
 20
-3321.712249148562
 30
0.0
 10
12537.9935353426
 20
-3321.565444989252
 30
0.0
 10
12537.9935353426
 20
-3321.565444989252
 30
0.0
 10
12537.9935353426
 20
-3321.565444989252
 30
0.0
 10
12538.19159594197
 20
-3321.16628769478
 30
0.0
 10
12538.19159594197
 20
-3321.16628769478
 30
0.0
 10
12538.19159594197
 20
-3321.16628769478
 30
0.0
 10
12538.44975337783
 20
-3321.16628769478
 30
0.0
 10
12538.44975337783
 20
-3321.16628769478
 30
0.0
  0
SPLINE
  5
3532A5
330
18
100
AcDbEntity
  8
姿図
100
AcDbSpline
210
0.0
220
0.0
230
1.0
 70
     8
 71
     3
 72
    14
 73
    10
 74
     0
 42
0.000000001
 43
0.0000000001
 40
0.0
 40
0.0
 40
0.0
 40
0.0
 40
1.0
 40
1.0
 40
1.0
 40
2.0
 40
2.0
 40
2.0
 40
3.0
 40
3.0
 40
3.0
 40
3.0
 10
12512.64606487736
 20
-3320.061952513408
 30
0.0
 10
12512.64606487736
 20
-3320.061952513408
 30
0.0
 10
12511.82091655978
 20
-3319.698960477159
 30
0.0
 10
12511.82091655978
 20
-3319.698960477159
 30
0.0
 10
12511.82091655978
 20
-3319.698960477159
 30
0.0
 10
12512.11331936979
 20
-3316.465205961866
 30
0.0
 10
12522.74545880297
 20
-3314.946309764926
 30
0.0
 10
12523.2074811389
 20
-3314.880274682316
 30
0.0
 10
12523.32901426592
 20
-3315.178392496096
 30
0.0
 10
12523.37245722425
 20
-3315.606392700214
 30
0.0
  0
SPLINE
  5
3532A6
330
18
100
AcDbEntity
  8
姿図
100
AcDbSpline
210
0.0
220
0.0
230
1.0
 70
     8
 71
     3
 72
    14
 73
    10
 74
     0
 42
0.000000001
 43
0.0000000001
 40
0.0
 40
0.0
 40
0.0
 40
0.0
 40
1.0
 40
1.0
 40
1.0
 40
2.0
 40
2.0
 40
2.0
 40
3.0
 40
3.0
 40
3.0
 40
3.0
 10
12538.95061988
 20
-3319.897021076519
 30
0.0
 10
12538.95061988
 20
-3319.897021076519
 30
0.0
 10
12539.41264221593
 20
-3319.566979608875
 30
0.0
 10
12539.41264221593
 20
-3319.566979608875
 30
0.0
 10
12539.41264221593
 20
-3319.566979608875
 30
0.0
 10
12537.10235194242
 20
-3315.357075660802
 30
0.0
 10
12528.02612228528
 20
-3314.937156829202
 30
0.0
 10
12528.02612228528
 20
-3314.937156829202
 30
0.0
 10
12527.44872831077
 20
-3314.843082509352
 30
0.0
 10
12527.39907921552
 20
-3315.293496243876
 30
0.0
  0
SPLINE
  5
3532A7
330
18
100
AcDbEntity
  8
姿図
100
AcDbSpline
210
0.0
220
0.0
230
1.0
 70
     8
 71
     3
 72
    17
 73
    13
 74
     0
 42
0.000000001
 43
0.0000000001
 40
0.0
 40
0.0
 40
0.0
 40
0.0
 40
1.0
 40
1.0
 40
1.0
 40
2.0
 40
2.0
 40
2.0
 40
3.0
 40
3.0
 40
3.0
 40
4.0
 40
4.0
 40
4.0
 40
4.0
 10
12540.13871558536
 20
-3312.612980882475
 30
0.0
 10
12540.13871558536
 20
-3312.612980882475
 30
0.0
 10
12539.25271140734
 20
-3312.612980882475
 30
0.0
 10
12539.25271140734
 20
-3312.612980882475
 30
0.0
 10
12539.25271140734
 20
-3312.612980882475
 30
0.0
 10
12539.28066134764
 20
-3312.503993974667
 30
0.0
 10
12538.98365974554
 20
-3312.669059356956
 30
0.0
 10
12538.6865688465
 20
-3312.834035442311
 30
0.0
 10
12539.25271140734
 20
-3315.573397483142
 30
0.0
 10
12539.25271140734
 20
-3315.573397483142
 30
0.0
 10
12539.25271140734
 20
-3315.573397483142
 30
0.0
 10
12539.41264221593
 20
-3319.566979608875
 30
0.0
 10
12539.41264221593
 20
-3319.566979608875
 30
0.0
  0
POLYLINE
  5
3532A8
330
18
100
AcDbEntity
  8
姿図
100
AcDb2dPolyline
 66
     1
 10
0.0
 20
0.0
 30
0.0
  0
VERTEX
  5
3532A9
330
3532A8
100
AcDbEntity
  8
姿図
100
AcDbVertex
100
AcDb2dVertex
 10
12539.25271140734
 20
-3315.573397483142
 30
0.0
  0
VERTEX
  5
3532AA
330
3532A8
100
AcDbEntity
  8
姿図
100
AcDbVertex
100
AcDb2dVertex
 10
12539.25271140734
 20
-3315.573397483142
 30
0.0
  0
SEQEND
  5
3532AB
330
3532A8
100
AcDbEntity
  8
姿図
  0
SPLINE
  5
3532AC
330
18
100
AcDbEntity
  8
姿図
100
AcDbSpline
210
0.0
220
0.0
230
1.0
 70
     8
 71
     3
 72
    14
 73
    10
 74
     0
 42
0.000000001
 43
0.0000000001
 40
0.0
 40
0.0
 40
0.0
 40
0.0
 40
1.0
 40
1.0
 40
1.0
 40
2.0
 40
2.0
 40
2.0
 40
3.0
 40
3.0
 40
3.0
 40
3.0
 10
12511.82091655978
 20
-3312.810996833367
 30
0.0
 10
12511.82091655978
 20
-3312.810996833367
 30
0.0
 10
12512.78992223785
 20
-3304.582909454276
 30
0.0
 10
12512.78992223785
 20
-3304.582909454276
 30
0.0
 10
12512.78992223785
 20
-3304.582909454276
 30
0.0
 10
12513.53720362908
 20
-3300.49034167733
 30
0.0
 10
12522.81144923711
 20
-3299.764223659433
 30
0.0
 10
12522.81144923711
 20
-3299.764223659433
 30
0.0
 10
12523.00946518801
 20
-3314.928986159751
 30
0.0
 10
12523.00946518801
 20
-3314.928986159751
 30
0.0
  0
SPLINE
  5
3532AD
330
18
100
AcDbEntity
  8
姿図
100
AcDbSpline
210
0.0
220
0.0
230
1.0
 70
     8
 71
     3
 72
    14
 73
    10
 74
     0
 42
0.000000001
 43
0.0000000001
 40
0.0
 40
0.0
 40
0.0
 40
0.0
 40
1.0
 40
1.0
 40
1.0
 40
2.0
 40
2.0
 40
2.0
 40
3.0
 40
3.0
 40
3.0
 40
3.0
 10
12511.66415579234
 20
-3312.696250273324
 30
0.0
 10
12511.66415579234
 20
-3312.696250273324
 30
0.0
 10
12511.72652970066
 20
-3312.075368692011
 30
0.0
 10
12511.72652970066
 20
-3312.075368692011
 30
0.0
 10
12511.72652970066
 20
-3312.075368692011
 30
0.0
 10
12512.28959151728
 20
-3305.68956635593
 30
0.0
 10
12512.28959151728
 20
-3305.68956635593
 30
0.0
 10
12512.28959151728
 20
-3305.68956635593
 30
0.0
 10
12512.57418084558
 20
-3304.916210260007
 30
0.0
 10
12512.75866831099
 20
-3304.848523184121
 30
0.0
  0
SPLINE
  5
3532AE
330
18
100
AcDbEntity
  8
姿図
100
AcDbSpline
210
0.0
220
0.0
230
1.0
 70
     8
 71
     3
 72
    14
 73
    10
 74
     0
 42
0.000000001
 43
0.0000000001
 40
0.0
 40
0.0
 40
0.0
 40
0.0
 40
1.0
 40
1.0
 40
1.0
 40
2.0
 40
2.0
 40
2.0
 40
3.0
 40
3.0
 40
3.0
 40
3.0
 10
12522.81618197461
 20
-3300.127260344148
 30
0.0
 10
12522.81618197461
 20
-3300.127260344148
 30
0.0
 10
12525.02279850787
 20
-3299.170175806754
 30
0.0
 10
12525.02279850787
 20
-3299.170175806754
 30
0.0
 10
12525.02279850787
 20
-3299.170175806754
 30
0.0
 10
12525.18772994476
 20
-3298.906124773252
 30
0.0
 10
12525.9799723422
 20
-3299.170175806754
 30
0.0
 10
12525.9799723422
 20
-3299.170175806754
 30
0.0
 10
12527.79511111731
 20
-3300.127260344148
 30
0.0
 10
12527.79511111731
 20
-3300.127260344148
 30
0.0
  0
SPLINE
  5
3532AF
330
18
100
AcDbEntity
  8
姿図
100
AcDbSpline
210
0.0
220
0.0
230
1.0
 70
     8
 71
     3
 72
    14
 73
    10
 74
     0
 42
0.000000001
 43
0.0000000001
 40
0.0
 40
0.0
 40
0.0
 40
0.0
 40
1.0
 40
1.0
 40
1.0
 40
2.0
 40
2.0
 40
2.0
 40
3.0
 40
3.0
 40
3.0
 40
3.0
 10
12527.79511111731
 20
-3314.928986159751
 30
0.0
 10
12527.79511111731
 20
-3314.928986159751
 30
0.0
 10
12527.79511111731
 20
-3299.764223659433
 30
0.0
 10
12527.79511111731
 20
-3299.764223659433
 30
0.0
 10
12527.79511111731
 20
-3299.764223659433
 30
0.0
 10
12536.00167793534
 20
-3299.434182191789
 30
0.0
 10
12538.44975337783
 20
-3304.615904671346
 30
0.0
 10
12538.44975337783
 20
-3304.615904671346
 30
0.0
 10
12539.06661659712
 20
-3312.13863556967
 30
0.0
 10
12538.98365974554
 20
-3312.669059356956
 30
0.0
  0
SPLINE
  5
3532B0
330
18
100
AcDbEntity
  8
姿図
100
AcDbSpline
210
0.0
220
0.0
230
1.0
 70
     8
 71
     3
 72
    11
 73
     7
 74
     0
 42
0.000000001
 43
0.0000000001
 40
0.0
 40
0.0
 40
0.0
 40
0.0
 40
1.0
 40
1.0
 40
1.0
 40
2.0
 40
2.0
 40
2.0
 40
2.0
 10
12539.51810189485
 20
-3312.57770859359
 30
0.0
 10
12539.51810189485
 20
-3312.57770859359
 30
0.0
 10
12538.75255928064
 20
-3305.286033511697
 30
0.0
 10
12538.75255928064
 20
-3305.286033511697
 30
0.0
 10
12538.75255928064
 20
-3305.286033511697
 30
0.0
 10
12538.64200967649
 20
-3304.784184743256
 30
0.0
 10
12538.44975337783
 20
-3304.848523184121
 30
0.0
  0
POLYLINE
  5
3532B1
330
18
100
AcDbEntity
  8
姿図
100
AcDb2dPolyline
 66
     1
 10
0.0
 20
0.0
 30
0.0
  0
VERTEX
  5
3532B2
330
3532B1
100
AcDbEntity
  8
姿図
100
AcDbVertex
100
AcDb2dVertex
 10
12511.45787987506
 20
-3316.012515155528
 30
0.0
  0
VERTEX
  5
3532B3
330
3532B1
100
AcDbEntity
  8
姿図
100
AcDbVertex
100
AcDb2dVertex
 10
12511.82091655978
 20
-3315.936434167857
 30
0.0
  0
SEQEND
  5
3532B4
330
3532B1
100
AcDbEntity
  8
姿図
  0
POLYLINE
  5
3532B5
330
18
100
AcDbEntity
  8
姿図
100
AcDb2dPolyline
 66
     1
 10
0.0
 20
0.0
 30
0.0
  0
VERTEX
  5
3532B6
330
3532B5
100
AcDbEntity
  8
姿図
100
AcDbVertex
100
AcDb2dVertex
 10
12539.77572354911
 20
-3315.84744977324
 30
0.0
  0
VERTEX
  5
3532B7
330
3532B5
100
AcDbEntity
  8
姿図
100
AcDbVertex
100
AcDb2dVertex
 10
12539.25271140734
 20
-3315.573397483142
 30
0.0
  0
SEQEND
  5
3532B8
330
3532B5
100
AcDbEntity
  8
姿図
  0
SPLINE
  5
3532B9
330
18
100
AcDbEntity
  8
姿図
100
AcDbSpline
210
0.0
220
0.0
230
1.0
 70
     8
 71
     3
 72
    14
 73
    10
 74
     0
 42
0.000000001
 43
0.0000000001
 40
0.0
 40
0.0
 40
0.0
 40
0.0
 40
1.0
 40
1.0
 40
1.0
 40
2.0
 40
2.0
 40
2.0
 40
3.0
 40
3.0
 40
3.0
 40
3.0
 10
12540.97649941908
 20
-3333.296740381639
 30
0.0
 10
12540.97649941908
 20
-3333.296740381639
 30
0.0
 10
12540.00673471707
 20
-3318.035894380459
 30
0.0
 10
12539.77572354911
 20
-3315.84744977324
 30
0.0
 10
12539.77572354911
 20
-3315.84744977324
 30
0.0
 10
12540.10576501675
 20
-3315.84744977324
 30
0.0
 10
12540.10576501675
 20
-3315.84744977324
 30
0.0
 10
12540.10576501675
 20
-3315.84744977324
 30
0.0
 10
12540.13871558536
 20
-3312.612980882475
 30
0.0
 10
12540.13871558536
 20
-3312.612980882475
 30
0.0
  0
POLYLINE
  5
3532BA
330
18
100
AcDbEntity
  8
姿図
100
AcDb2dPolyline
 66
     1
 10
0.0
 20
0.0
 30
0.0
  0
VERTEX
  5
3532BB
330
3532BA
100
AcDbEntity
  8
姿図
100
AcDbVertex
100
AcDb2dVertex
 10
12524.32963105858
 20
-3323.263426187101
 30
0.0
  0
VERTEX
  5
3532BC
330
3532BA
100
AcDbEntity
  8
姿図
100
AcDbVertex
100
AcDb2dVertex
 10
12524.32963105858
 20
-3323.263426187101
 30
0.0
  0
SEQEND
  5
3532BD
330
3532BA
100
AcDbEntity
  8
姿図
  0
POLYLINE
  5
3532BE
330
18
100
AcDbEntity
  8
姿図
100
AcDb2dPolyline
 66
     1
 10
0.0
 20
0.0
 30
0.0
  0
VERTEX
  5
3532BF
330
3532BE
100
AcDbEntity
  8
姿図
100
AcDbVertex
100
AcDb2dVertex
 10
12525.30569119443
 20
-3299.055875731379
 30
0.0
  0
VERTEX
  5
3532C0
330
3532BE
100
AcDbEntity
  8
姿図
100
AcDbVertex
100
AcDb2dVertex
 10
12525.34185645265
 20
-3323.285482529771
 30
0.0
  0
SEQEND
  5
3532C1
330
3532BE
100
AcDbEntity
  8
姿図
  0
SPLINE
  5
3532C2
330
18
100
AcDbEntity
  8
姿図
100
AcDbSpline
210
0.0
220
0.0
230
1.0
 70
     8
 71
     3
 72
     8
 73
     4
 74
     0
 42
0.000000001
 43
0.0000000001
 40
0.0
 40
0.0
 40
0.0
 40
0.0
 40
1.0
 40
1.0
 40
1.0
 40
1.0
 10
12514.1649610743
 20
-3301.466089273906
 30
0.0
 10
12513.65529882414
 20
-3302.182518574476
 30
0.0
 10
12513.3253913019
 20
-3302.914664135411
 30
0.0
 10
12513.07317211214
 20
-3303.89358177314
 30
0.0
  0
SPLINE
  5
3532C3
330
18
100
AcDbEntity
  8
姿図
100
AcDbSpline
210
0.0
220
0.0
230
1.0
 70
     8
 71
     3
 72
     8
 73
     4
 74
     0
 42
0.000000001
 43
0.0000000001
 40
0.0
 40
0.0
 40
0.0
 40
0.0
 40
1.0
 40
1.0
 40
1.0
 40
1.0
 10
12517.07050470909
 20
-3298.901838520425
 30
0.0
 10
12516.07787999201
 20
-3299.432887386247
 30
0.0
 10
12515.65278193824
 20
-3299.787842698445
 30
0.0
 10
12514.78892339983
 20
-3300.673802227999
 30
0.0
  0
SPLINE
  5
3532C4
330
18
100
AcDbEntity
  8
姿図
100
AcDbSpline
210
0.0
220
0.0
230
1.0
 70
     8
 71
     3
 72
     8
 73
     4
 74
     0
 42
0.000000001
 43
0.0000000001
 40
0.0
 40
0.0
 40
0.0
 40
0.0
 40
1.0
 40
1.0
 40
1.0
 40
1.0
 10
12521.96388738913
 20
-3297.360975277749
 30
0.0
 10
12520.85008673277
 20
-3297.51563756724
 30
0.0
 10
12519.82835121524
 20
-3297.723074344658
 30
0.0
 10
12518.5903831723
 20
-3298.20550102998
 30
0.0
  0
SPLINE
  5
3532C5
330
18
100
AcDbEntity
  8
姿図
100
AcDbSpline
210
0.0
220
0.0
230
1.0
 70
     8
 71
     3
 72
     8
 73
     4
 74
     0
 42
0.000000001
 43
0.0000000001
 40
0.0
 40
0.0
 40
0.0
 40
0.0
 40
1.0
 40
1.0
 40
1.0
 40
1.0
 10
12525.45178097826
 20
-3297.167915306687
 30
0.0
 10
12525.45178097826
 20
-3297.167915306687
 30
0.0
 10
12524.61676534949
 20
-3297.110943862868
 30
0.0
 10
12523.23525248534
 20
-3297.230065972672
 30
0.0
  0
SPLINE
  5
3532C6
330
18
100
AcDbEntity
  8
姿図
100
AcDbSpline
210
0.0
220
0.0
230
1.0
 70
     8
 71
     3
 72
    11
 73
     7
 74
     0
 42
0.000000001
 43
0.0000000001
 40
0.0
 40
0.0
 40
0.0
 40
0.0
 40
1.0
 40
1.0
 40
1.0
 40
2.0
 40
2.0
 40
2.0
 40
2.0
 10
12525.45178097826
 20
-3289.507711778646
 30
0.0
 10
12525.45178097826
 20
-3289.507711778646
 30
0.0
 10
12524.28551837324
 20
-3289.532938162469
 30
0.0
 10
12524.02151198821
 20
-3289.708942419158
 30
0.0
 10
12524.02151198821
 20
-3289.708942419158
 30
0.0
 10
12524.02151198821
 20
-3297.170013784633
 30
0.0
 10
12524.02151198821
 20
-3297.170013784633
 30
0.0
  0
POLYLINE
  5
3532C7
330
18
100
AcDbEntity
  8
姿図
100
AcDb2dPolyline
 66
     1
 10
0.0
 20
0.0
 30
0.0
  0
VERTEX
  5
3532C8
330
3532C7
100
AcDbEntity
  8
姿図
100
AcDbVertex
100
AcDb2dVertex
 10
12523.00946518801
 20
-3298.378067354715
 30
0.0
  0
VERTEX
  5
3532C9
330
3532C7
100
AcDbEntity
  8
姿図
100
AcDbVertex
100
AcDb2dVertex
 10
12523.27342692457
 20
-3297.035889789935
 30
0.0
  0
VERTEX
  5
3532CA
330
3532C7
100
AcDbEntity
  8
姿図
100
AcDbVertex
100
AcDb2dVertex
 10
12523.74344133608
 20
-3297.192159424237
 30
0.0
  0
SEQEND
  5
3532CB
330
3532C7
100
AcDbEntity
  8
姿図
  0
SPLINE
  5
3532CC
330
18
100
AcDbEntity
  8
姿図
100
AcDbSpline
210
0.0
220
0.0
230
1.0
 70
     8
 71
     3
 72
    26
 73
    22
 74
     0
 42
0.000000001
 43
0.0000000001
 40
0.0
 40
0.0
 40
0.0
 40
0.0
 40
1.0
 40
1.0
 40
1.0
 40
2.0
 40
2.0
 40
2.0
 40
3.0
 40
3.0
 40
3.0
 40
4.0
 40
4.0
 40
4.0
 40
5.0
 40
5.0
 40
5.0
 40
6.0
 40
6.0
 40
6.0
 40
7.0
 40
7.0
 40
7.0
 40
7.0
 10
12525.04360469347
 20
-3289.526598080162
 30
0.0
 10
12525.04360469347
 20
-3289.526598080162
 30
0.0
 10
12522.63941869398
 20
-3284.1826677202
 30
0.0
 10
12522.63941869398
 20
-3284.1826677202
 30
0.0
 10
12522.22133044953
 20
-3283.720600735805
 30
0.0
 10
12522.10444076307
 20
-3284.200393161576
 30
0.0
 10
12522.10444076307
 20
-3284.200393161576
 30
0.0
 10
12522.10444076307
 20
-3284.200393161576
 30
0.0
 10
12521.9312493598
 20
-3297.299940823438
 30
0.0
 10
12521.9312493598
 20
-3297.299940823438
 30
0.0
 10
12521.9312493598
 20
-3297.299940823438
 30
0.0
 10
12522.55784594488
 20
-3298.472230971498
 30
0.0
 10
12522.55784594488
 20
-3298.472230971498
 30
0.0
 10
12522.55784594488
 20
-3298.472230971498
 30
0.0
 10
12523.05357787334
 20
-3298.554071611405
 30
0.0
 10
12523.00946518801
 20
-3298.378067354715
 30
0.0
 10
12522.96535250267
 20
-3298.202063098024
 30
0.0
 10
12522.50328551827
 20
-3297.233905740828
 30
0.0
 10
12522.50328551827
 20
-3297.233905740828
 30
0.0
 10
12522.50328551827
 20
-3297.233905740828
 30
0.0
 10
12522.63941869398
 20
-3284.1826677202
 30
0.0
 10
12522.63941869398
 20
-3284.1826677202
 30
0.0
  0
SPLINE
  5
3532CD
330
18
100
AcDbEntity
  8
姿図
100
AcDbSpline
210
0.0
220
0.0
230
1.0
 70
     8
 71
     3
 72
     8
 73
     4
 74
     0
 42
0.000000001
 43
0.0000000001
 40
0.0
 40
0.0
 40
0.0
 40
0.0
 40
1.0
 40
1.0
 40
1.0
 40
1.0
 10
12521.9312493598
 20
-3297.299940823438
 30
0.0
 10
12521.9312493598
 20
-3297.299940823438
 30
0.0
 10
12522.01920683967
 20
-3297.035845141469
 30
0.0
 10
12522.50328551827
 20
-3297.233905740828
 30
0.0
  0
SPLINE
  5
3532CE
330
18
100
AcDbEntity
  8
姿図
100
AcDbSpline
210
0.0
220
0.0
230
1.0
 70
     8
 71
     3
 72
    11
 73
     7
 74
     0
 42
0.000000001
 43
0.0000000001
 40
0.0
 40
0.0
 40
0.0
 40
0.0
 40
1.0
 40
1.0
 40
1.0
 40
2.0
 40
2.0
 40
2.0
 40
2.0
 10
12522.02755610299
 20
-3290.016748950265
 30
0.0
 10
12522.02755610299
 20
-3290.016748950265
 30
0.0
 10
12521.2491547303
 20
-3290.170964755086
 30
0.0
 10
12521.11712921355
 20
-3290.390992400182
 30
0.0
 10
12521.11712921355
 20
-3290.390992400182
 30
0.0
 10
12521.11712921355
 20
-3297.503582481165
 30
0.0
 10
12521.11712921355
 20
-3297.503582481165
 30
0.0
  0
SPLINE
  5
3532CF
330
18
100
AcDbEntity
  8
姿図
100
AcDbSpline
210
0.0
220
0.0
230
1.0
 70
     8
 71
     3
 72
    17
 73
    13
 74
     0
 42
0.000000001
 43
0.0000000001
 40
0.0
 40
0.0
 40
0.0
 40
0.0
 40
1.0
 40
1.0
 40
1.0
 40
2.0
 40
2.0
 40
2.0
 40
3.0
 40
3.0
 40
3.0
 40
4.0
 40
4.0
 40
4.0
 40
4.0
 10
12522.02755610299
 20
-3288.5207127684
 30
0.0
 10
12522.02755610299
 20
-3288.5207127684
 30
0.0
 10
12517.78595174339
 20
-3285.431172801333
 30
0.0
 10
12517.78595174339
 20
-3285.431172801333
 30
0.0
 10
12517.78595174339
 20
-3285.431172801333
 30
0.0
 10
12517.20578956393
 20
-3285.002234979409
 30
0.0
 10
12517.15355085761
 20
-3285.751213012381
 30
0.0
 10
12517.15355085761
 20
-3285.751213012381
 30
0.0
 10
12516.84855717992
 20
-3297.299940823438
 30
0.0
 10
12516.84855717992
 20
-3297.299940823438
 30
0.0
 10
12516.84855717992
 20
-3297.299940823438
 30
0.0
 10
12517.07050470909
 20
-3298.901838520425
 30
0.0
 10
12517.07050470909
 20
-3298.901838520425
 30
0.0
  0
SPLINE
  5
3532D0
330
18
100
AcDbEntity
  8
姿図
100
AcDbSpline
210
0.0
220
0.0
230
1.0
 70
     8
 71
     3
 72
    17
 73
    13
 74
     0
 42
0.000000001
 43
0.0000000001
 40
0.0
 40
0.0
 40
0.0
 40
0.0
 40
1.0
 40
1.0
 40
1.0
 40
2.0
 40
2.0
 40
2.0
 40
3.0
 40
3.0
 40
3.0
 40
4.0
 40
4.0
 40
4.0
 40
4.0
 10
12519.56371975166
 20
-3297.879701166696
 30
0.0
 10
12519.56371975166
 20
-3297.879701166696
 30
0.0
 10
12518.76281555164
 20
-3297.706956248092
 30
0.0
 10
12518.76281555164
 20
-3297.706956248092
 30
0.0
 10
12518.76281555164
 20
-3297.706956248092
 30
0.0
 10
12518.2567698273
 20
-3299.170175806754
 30
0.0
 10
12518.2567698273
 20
-3299.170175806754
 30
0.0
 10
12518.2567698273
 20
-3299.170175806754
 30
0.0
 10
12517.9927187938
 20
-3299.412215146053
 30
0.0
 10
12517.77269114871
 20
-3299.324213017708
 30
0.0
 10
12517.55261885514
 20
-3299.236166240895
 30
0.0
 10
12517.09340937263
 20
-3299.0646268309
 30
0.0
 10
12517.07068330296
 20
-3298.901838520425
 30
0.0
  0
SPLINE
  5
3532D1
330
18
100
AcDbEntity
  8
姿図
100
AcDbSpline
210
0.0
220
0.0
230
1.0
 70
     8
 71
     3
 72
    11
 73
     7
 74
     0
 42
0.000000001
 43
0.0000000001
 40
0.0
 40
0.0
 40
0.0
 40
0.0
 40
1.0
 40
1.0
 40
1.0
 40
2.0
 40
2.0
 40
2.0
 40
2.0
 10
12517.07050470909
 20
-3298.901838520425
 30
0.0
 10
12517.07050470909
 20
-3298.901838520425
 30
0.0
 10
12517.11872505339
 20
-3298.576083305607
 30
0.0
 10
12517.57775594203
 20
-3298.796155599171
 30
0.0
 10
12518.03669753374
 20
-3299.016183244267
 30
0.0
 10
12518.34597746426
 20
-3299.135662541807
 30
0.0
 10
12518.19051150236
 20
-3299.222414513077
 30
0.0
  0
SPLINE
  5
3532D2
330
18
100
AcDbEntity
  8
姿図
100
AcDbSpline
210
0.0
220
0.0
230
1.0
 70
     8
 71
     3
 72
    14
 73
    10
 74
     0
 42
0.000000001
 43
0.0000000001
 40
0.0
 40
0.0
 40
0.0
 40
0.0
 40
1.0
 40
1.0
 40
1.0
 40
2.0
 40
2.0
 40
2.0
 40
3.0
 40
3.0
 40
3.0
 40
3.0
 10
12517.6859838259
 20
-3285.37161174643
 30
0.0
 10
12517.6859838259
 20
-3285.37161174643
 30
0.0
 10
12517.55878034358
 20
-3285.572351253806
 30
0.0
 10
12517.57775594203
 20
-3286.276457577501
 30
0.0
 10
12517.59668689202
 20
-3286.980519252728
 30
0.0
 10
12517.41519087389
 20
-3297.153136664129
 30
0.0
 10
12517.41519087389
 20
-3297.153136664129
 30
0.0
 10
12517.41519087389
 20
-3297.153136664129
 30
0.0
 10
12517.41519087389
 20
-3298.735389035661
 30
0.0
 10
12517.41519087389
 20
-3298.735389035661
 30
0.0
  0
SPLINE
  5
3532D3
330
18
100
AcDbEntity
  8
姿図
100
AcDbSpline
210
0.0
220
0.0
230
1.0
 70
     8
 71
     3
 72
    32
 73
    28
 74
     0
 42
0.000000001
 43
0.0000000001
 40
0.0
 40
0.0
 40
0.0
 40
0.0
 40
1.0
 40
1.0
 40
1.0
 40
2.0
 40
2.0
 40
2.0
 40
3.0
 40
3.0
 40
3.0
 40
4.0
 40
4.0
 40
4.0
 40
5.0
 40
5.0
 40
5.0
 40
6.0
 40
6.0
 40
6.0
 40
7.0
 40
7.0
 40
7.0
 40
8.0
 40
8.0
 40
8.0
 40
9.0
 40
9.0
 40
9.0
 40
9.0
 10
12517.08269374057
 20
-3288.432844585455
 30
0.0
 10
12517.08269374057
 20
-3288.432844585455
 30
0.0
 10
12514.13120683329
 20
-3287.430620447982
 30
0.0
 10
12514.13120683329
 20
-3287.430620447982
 30
0.0
 10
12514.13120683329
 20
-3287.430620447982
 30
0.0
 10
12513.6978934616
 20
-3287.236578210647
 30
0.0
 10
12513.65244132226
 20
-3287.909207365145
 30
0.0
 10
12513.65244132226
 20
-3287.909207365145
 30
0.0
 10
12513.07317211214
 20
-3298.735389035661
 30
0.0
 10
12513.07317211214
 20
-3298.735389035661
 30
0.0
 10
12513.07317211214
 20
-3298.735389035661
 30
0.0
 10
12513.39406064406
 20
-3301.062422484273
 30
0.0
 10
12513.39406064406
 20
-3301.062422484273
 30
0.0
 10
12513.39406064406
 20
-3301.062422484273
 30
0.0
 10
12513.41611698673
 20
-3301.260438435166
 30
0.0
 10
12513.70213506596
 20
-3301.34844056351
 30
0.0
 10
12513.70213506596
 20
-3301.34844056351
 30
0.0
 10
12514.1649610743
 20
-3301.466089273906
 30
0.0
 10
12514.1649610743
 20
-3301.466089273906
 30
0.0
 10
12514.1649610743
 20
-3301.466089273906
 30
0.0
 10
12514.40619674119
 20
-3301.458499034526
 30
0.0
 10
12514.51625521221
 20
-3301.282450129369
 30
0.0
 10
12514.51625521221
 20
-3301.282450129369
 30
0.0
 10
12515.1983498417
 20
-3299.76002670354
 30
0.0
 10
12515.1983498417
 20
-3299.76002670354
 30
0.0
 10
12515.1983498417
 20
-3299.76002670354
 30
0.0
 10
12515.6351457938
 20
-3299.87030841689
 30
0.0
 10
12515.6351457938
 20
-3299.87030841689
 30
0.0
  0
SPLINE
  5
3532D4
330
18
100
AcDbEntity
  8
姿図
100
AcDbSpline
210
0.0
220
0.0
230
1.0
 70
     8
 71
     3
 72
    14
 73
    10
 74
     0
 42
0.000000001
 43
0.0000000001
 40
0.0
 40
0.0
 40
0.0
 40
0.0
 40
1.0
 40
1.0
 40
1.0
 40
2.0
 40
2.0
 40
2.0
 40
3.0
 40
3.0
 40
3.0
 40
3.0
 10
12514.32935672958
 20
-3287.497459202995
 30
0.0
 10
12514.32935672958
 20
-3287.497459202995
 30
0.0
 10
12513.92216271106
 20
-3287.332572414574
 30
0.0
 10
12513.90015101686
 20
-3287.926664915721
 30
0.0
 10
12513.87813932265
 20
-3288.5207127684
 30
0.0
 10
12513.61408828915
 20
-3298.491251218416
 30
0.0
 10
12513.61408828915
 20
-3298.491251218416
 30
0.0
 10
12513.61408828915
 20
-3298.491251218416
 30
0.0
 10
12513.72472719024
 20
-3300.911957150674
 30
0.0
 10
12513.72472719024
 20
-3300.911957150674
 30
0.0
  0
SPLINE
  5
3532D5
330
18
100
AcDbEntity
  8
姿図
100
AcDbSpline
210
0.0
220
0.0
230
1.0
 70
     8
 71
     3
 72
    26
 73
    22
 74
     0
 42
0.000000001
 43
0.0000000001
 40
0.0
 40
0.0
 40
0.0
 40
0.0
 40
1.0
 40
1.0
 40
1.0
 40
2.0
 40
2.0
 40
2.0
 40
3.0
 40
3.0
 40
3.0
 40
4.0
 40
4.0
 40
4.0
 40
5.0
 40
5.0
 40
5.0
 40
6.0
 40
6.0
 40
6.0
 40
7.0
 40
7.0
 40
7.0
 40
7.0
 10
12513.52903295962
 20
-3290.214988143493
 30
0.0
 10
12513.52903295962
 20
-3290.214988143493
 30
0.0
 10
12512.31597876125
 20
-3290.214988143493
 30
0.0
 10
12512.31597876125
 20
-3290.214988143493
 30
0.0
 10
12512.31597876125
 20
-3290.214988143493
 30
0.0
 10
12512.01058324735
 20
-3290.216774082171
 30
0.0
 10
12511.99357218145
 20
-3290.654463003615
 30
0.0
 10
12511.97656111554
 20
-3291.092151925059
 30
0.0
 10
12511.62374892976
 20
-3301.466089273906
 30
0.0
 10
12511.62374892976
 20
-3301.466089273906
 30
0.0
 10
12511.62374892976
 20
-3301.466089273906
 30
0.0
 10
12511.86690448073
 20
-3303.410931845484
 30
0.0
 10
12511.89338102163
 20
-3303.435934986972
 30
0.0
 10
12511.91976826559
 20
-3303.460938128461
 30
0.0
 10
12512.62927705379
 20
-3303.63680843975
 30
0.0
 10
12512.75866831099
 20
-3303.63680843975
 30
0.0
 10
12512.88801491972
 20
-3303.63680843975
 30
0.0
 10
12513.47335632135
 20
-3302.030579841469
 30
0.0
 10
12513.47335632135
 20
-3302.030579841469
 30
0.0
 10
12513.47335632135
 20
-3302.030579841469
 30
0.0
 10
12513.77968945304
 20
-3302.093176992123
 30
0.0
 10
12513.77968945304
 20
-3302.093176992123
 30
0.0
  0
SPLINE
  5
3532D6
330
18
100
AcDbEntity
  8
姿図
100
AcDbSpline
210
0.0
220
0.0
230
1.0
 70
     8
 71
     3
 72
    14
 73
    10
 74
     0
 42
0.000000001
 43
0.0000000001
 40
0.0
 40
0.0
 40
0.0
 40
0.0
 40
1.0
 40
1.0
 40
1.0
 40
2.0
 40
2.0
 40
2.0
 40
3.0
 40
3.0
 40
3.0
 40
3.0
 10
12511.89338102163
 20
-3303.435934986972
 30
0.0
 10
12511.89338102163
 20
-3303.435934986972
 30
0.0
 10
12511.73278048603
 20
-3302.954669161792
 30
0.0
 10
12512.21141205167
 20
-3303.064727632807
 30
0.0
 10
12512.68999896883
 20
-3303.174741455355
 30
0.0
 10
12512.68999896883
 20
-3303.174741455355
 30
0.0
 10
12512.68999896883
 20
-3303.174741455355
 30
0.0
 10
12512.68999896883
 20
-3303.174741455355
 30
0.0
 10
12513.09134403818
 20
-3303.350790360511
 30
0.0
 10
12512.75866831099
 20
-3303.63680843975
 30
0.0
  0
POLYLINE
  5
3532D7
330
18
100
AcDbEntity
  8
姿図
100
AcDb2dPolyline
 66
     1
 10
0.0
 20
0.0
 30
0.0
  0
VERTEX
  5
3532D8
330
3532D7
100
AcDbEntity
  8
姿図
100
AcDbVertex
100
AcDb2dVertex
 10
12512.31597876125
 20
-3290.214988143493
 30
0.0
  0
VERTEX
  5
3532D9
330
3532D7
100
AcDbEntity
  8
姿図
100
AcDbVertex
100
AcDb2dVertex
 10
12511.82091655978
 20
-3301.466089273906
 30
0.0
  0
VERTEX
  5
3532DA
330
3532D7
100
AcDbEntity
  8
姿図
100
AcDbVertex
100
AcDb2dVertex
 10
12511.94776285436
 20
-3303.084149715927
 30
0.0
  0
SEQEND
  5
3532DB
330
3532D7
100
AcDbEntity
  8
姿図
  0
SPLINE
  5
3532DC
330
18
100
AcDbEntity
  8
姿図
100
AcDbSpline
210
0.0
220
0.0
230
1.0
 70
     8
 71
     3
 72
    11
 73
     7
 74
     0
 42
0.000000001
 43
0.0000000001
 40
0.0
 40
0.0
 40
0.0
 40
0.0
 40
1.0
 40
1.0
 40
1.0
 40
2.0
 40
2.0
 40
2.0
 40
2.0
 10
12513.47634776863
 20
-3301.216325749826
 30
0.0
 10
12513.47634776863
 20
-3301.216325749826
 30
0.0
 10
12513.41611698673
 20
-3300.82042779344
 30
0.0
 10
12513.83416058271
 20
-3300.930441615988
 30
0.0
 10
12514.25215953024
 20
-3301.04041079007
 30
0.0
 10
12514.66997988389
 20
-3301.149933479482
 30
0.0
 10
12514.51625521221
 20
-3301.282450129369
 30
0.0
  0
POLYLINE
  5
3532DD
330
18
100
AcDbEntity
  8
姿図
100
AcDb2dPolyline
 66
     1
 10
0.0
 20
0.0
 30
0.0
  0
VERTEX
  5
3532DE
330
3532DD
100
AcDbEntity
  8
姿図
100
AcDbVertex
100
AcDb2dVertex
 10
12513.97172250936
 20
-3301.762644391343
 30
0.0
  0
VERTEX
  5
3532DF
330
3532DD
100
AcDbEntity
  8
姿図
100
AcDbVertex
100
AcDb2dVertex
 10
12513.61408828915
 20
-3301.678526679622
 30
0.0
  0
VERTEX
  5
3532E0
330
3532DD
100
AcDbEntity
  8
姿図
100
AcDbVertex
100
AcDb2dVertex
 10
12513.47335632135
 20
-3302.030579841469
 30
0.0
  0
SEQEND
  5
3532E1
330
3532DD
100
AcDbEntity
  8
姿図
  0
SPLINE
  5
3532E2
330
18
100
AcDbEntity
  8
姿図
100
AcDbSpline
210
0.0
220
0.0
230
1.0
 70
     8
 71
     3
 72
     8
 73
     4
 74
     0
 42
0.000000001
 43
0.0000000001
 40
0.0
 40
0.0
 40
0.0
 40
0.0
 40
1.0
 40
1.0
 40
1.0
 40
1.0
 10
12536.73855623376
 20
-3301.466089273906
 30
0.0
 10
12537.17923660249
 20
-3302.029865465998
 30
0.0
 10
12537.46436171239
 20
-3302.606009283433
 30
0.0
 10
12537.68242482494
 20
-3303.376284635136
 30
0.0
  0
SPLINE
  5
3532E3
330
18
100
AcDbEntity
  8
姿図
100
AcDbSpline
210
0.0
220
0.0
230
1.0
 70
     8
 71
     3
 72
     8
 73
     4
 74
     0
 42
0.000000001
 43
0.0000000001
 40
0.0
 40
0.0
 40
0.0
 40
0.0
 40
1.0
 40
1.0
 40
1.0
 40
1.0
 10
12533.83301259897
 20
-3298.901838520425
 30
0.0
 10
12534.82572661299
 20
-3299.432887386247
 30
0.0
 10
12535.25078001828
 20
-3299.787842698445
 30
0.0
 10
12536.11454925977
 20
-3300.673802227999
 30
0.0
  0
SPLINE
  5
3532E4
330
18
100
AcDbEntity
  8
姿図
100
AcDbSpline
210
0.0
220
0.0
230
1.0
 70
     8
 71
     3
 72
     8
 73
     4
 74
     0
 42
0.000000001
 43
0.0000000001
 40
0.0
 40
0.0
 40
0.0
 40
0.0
 40
1.0
 40
1.0
 40
1.0
 40
1.0
 10
12528.93971921587
 20
-3297.360975277749
 30
0.0
 10
12530.05351987223
 20
-3297.51563756724
 30
0.0
 10
12531.07516609282
 20
-3297.723074344658
 30
0.0
 10
12532.31308948729
 20
-3298.20550102998
 30
0.0
  0
SPLINE
  5
3532E5
330
18
100
AcDbEntity
  8
姿図
100
AcDbSpline
210
0.0
220
0.0
230
1.0
 70
     8
 71
     3
 72
     8
 73
     4
 74
     0
 42
0.000000001
 43
0.0000000001
 40
0.0
 40
0.0
 40
0.0
 40
0.0
 40
1.0
 40
1.0
 40
1.0
 40
1.0
 10
12525.45178097826
 20
-3297.167915306687
 30
0.0
 10
12525.45178097826
 20
-3297.167915306687
 30
0.0
 10
12526.28679660704
 20
-3297.110943862868
 30
0.0
 10
12527.66839876813
 20
-3297.230065972672
 30
0.0
  0
SPLINE
  5
3532E6
330
18
100
AcDbEntity
  8
姿図
100
AcDbSpline
210
0.0
220
0.0
230
1.0
 70
     8
 71
     3
 72
    11
 73
     7
 74
     0
 42
0.000000001
 43
0.0000000001
 40
0.0
 40
0.0
 40
0.0
 40
0.0
 40
1.0
 40
1.0
 40
1.0
 40
2.0
 40
2.0
 40
2.0
 40
2.0
 10
12525.45178097826
 20
-3289.507711778646
 30
0.0
 10
12525.45178097826
 20
-3289.507711778646
 30
0.0
 10
12526.61799893482
 20
-3289.532938162469
 30
0.0
 10
12526.88204996832
 20
-3289.708942419158
 30
0.0
 10
12526.88204996832
 20
-3289.708942419158
 30
0.0
 10
12526.88204996832
 20
-3297.170013784633
 30
0.0
 10
12526.88204996832
 20
-3297.170013784633
 30
0.0
  0
POLYLINE
  5
3532E7
330
18
100
AcDbEntity
  8
姿図
100
AcDb2dPolyline
 66
     1
 10
0.0
 20
0.0
 30
0.0
  0
VERTEX
  5
3532E8
330
3532E7
100
AcDbEntity
  8
姿図
100
AcDbVertex
100
AcDb2dVertex
 10
12527.89405212006
 20
-3298.378067354715
 30
0.0
  0
VERTEX
  5
3532E9
330
3532E7
100
AcDbEntity
  8
姿図
100
AcDbVertex
100
AcDb2dVertex
 10
12527.63009038349
 20
-3297.035889789935
 30
0.0
  0
VERTEX
  5
3532EA
330
3532E7
100
AcDbEntity
  8
姿図
100
AcDbVertex
100
AcDb2dVertex
 10
12527.16020991738
 20
-3297.192159424237
 30
0.0
  0
SEQEND
  5
3532EB
330
3532E7
100
AcDbEntity
  8
姿図
  0
SPLINE
  5
3532EC
330
18
100
AcDbEntity
  8
姿図
100
AcDbSpline
210
0.0
220
0.0
230
1.0
 70
     8
 71
     3
 72
    26
 73
    22
 74
     0
 42
0.000000001
 43
0.0000000001
 40
0.0
 40
0.0
 40
0.0
 40
0.0
 40
1.0
 40
1.0
 40
1.0
 40
2.0
 40
2.0
 40
2.0
 40
3.0
 40
3.0
 40
3.0
 40
4.0
 40
4.0
 40
4.0
 40
5.0
 40
5.0
 40
5.0
 40
6.0
 40
6.0
 40
6.0
 40
7.0
 40
7.0
 40
7.0
 40
7.0
 10
12525.85995726306
 20
-3289.526598080162
 30
0.0
 10
12525.85995726306
 20
-3289.526598080162
 30
0.0
 10
12528.26418791102
 20
-3284.1826677202
 30
0.0
 10
12528.26418791102
 20
-3284.1826677202
 30
0.0
 10
12528.68227615547
 20
-3283.720600735805
 30
0.0
 10
12528.79916584193
 20
-3284.200393161576
 30
0.0
 10
12528.79916584193
 20
-3284.200393161576
 30
0.0
 10
12528.79916584193
 20
-3284.200393161576
 30
0.0
 10
12528.97240189367
 20
-3297.299940823438
 30
0.0
 10
12528.97240189367
 20
-3297.299940823438
 30
0.0
 10
12528.97240189367
 20
-3297.299940823438
 30
0.0
 10
12528.34580530859
 20
-3298.472230971498
 30
0.0
 10
12528.34580530859
 20
-3298.472230971498
 30
0.0
 10
12528.34580530859
 20
-3298.472230971498
 30
0.0
 10
12527.85002873165
 20
-3298.554071611405
 30
0.0
 10
12527.89405212006
 20
-3298.378067354715
 30
0.0
 10
12527.9381648054
 20
-3298.202063098024
 30
0.0
 10
12528.40036573519
 20
-3297.233905740828
 30
0.0
 10
12528.40036573519
 20
-3297.233905740828
 30
0.0
 10
12528.40036573519
 20
-3297.233905740828
 30
0.0
 10
12528.26418791102
 20
-3284.1826677202
 30
0.0
 10
12528.26418791102
 20
-3284.1826677202
 30
0.0
  0
SPLINE
  5
3532ED
330
18
100
AcDbEntity
  8
姿図
100
AcDbSpline
210
0.0
220
0.0
230
1.0
 70
     8
 71
     3
 72
     8
 73
     4
 74
     0
 42
0.000000001
 43
0.0000000001
 40
0.0
 40
0.0
 40
0.0
 40
0.0
 40
1.0
 40
1.0
 40
1.0
 40
1.0
 10
12528.97240189367
 20
-3297.299940823438
 30
0.0
 10
12528.97240189367
 20
-3297.299940823438
 30
0.0
 10
12528.88435511686
 20
-3297.035845141469
 30
0.0
 10
12528.40036573519
 20
-3297.233905740828
 30
0.0
  0
SPLINE
  5
3532EE
330
18
100
AcDbEntity
  8
姿図
100
AcDbSpline
210
0.0
220
0.0
230
1.0
 70
     8
 71
     3
 72
    11
 73
     7
 74
     0
 42
0.000000001
 43
0.0000000001
 40
0.0
 40
0.0
 40
0.0
 40
0.0
 40
1.0
 40
1.0
 40
1.0
 40
2.0
 40
2.0
 40
2.0
 40
2.0
 10
12528.87605050201
 20
-3290.016748950265
 30
0.0
 10
12528.87605050201
 20
-3290.016748950265
 30
0.0
 10
12529.65445187469
 20
-3290.170964755086
 30
0.0
 10
12529.78643274298
 20
-3290.390992400182
 30
0.0
 10
12529.78643274298
 20
-3290.390992400182
 30
0.0
 10
12529.78643274298
 20
-3297.503582481165
 30
0.0
 10
12529.78643274298
 20
-3297.503582481165
 30
0.0
  0
SPLINE
  5
3532EF
330
18
100
AcDbEntity
  8
姿図
100
AcDbSpline
210
0.0
220
0.0
230
1.0
 70
     8
 71
     3
 72
    17
 73
    13
 74
     0
 42
0.000000001
 43
0.0000000001
 40
0.0
 40
0.0
 40
0.0
 40
0.0
 40
1.0
 40
1.0
 40
1.0
 40
2.0
 40
2.0
 40
2.0
 40
3.0
 40
3.0
 40
3.0
 40
4.0
 40
4.0
 40
4.0
 40
4.0
 10
12528.87605050201
 20
-3288.5207127684
 30
0.0
 10
12528.87605050201
 20
-3288.5207127684
 30
0.0
 10
12533.11756556467
 20
-3285.431172801333
 30
0.0
 10
12533.11756556467
 20
-3285.431172801333
 30
0.0
 10
12533.11756556467
 20
-3285.431172801333
 30
0.0
 10
12533.69772774413
 20
-3285.002234979409
 30
0.0
 10
12533.74996645046
 20
-3285.751213012381
 30
0.0
 10
12533.74996645046
 20
-3285.751213012381
 30
0.0
 10
12534.05500477661
 20
-3297.299940823438
 30
0.0
 10
12534.05500477661
 20
-3297.299940823438
 30
0.0
 10
12534.05500477661
 20
-3297.299940823438
 30
0.0
 10
12533.83301259897
 20
-3298.901838520425
 30
0.0
 10
12533.83301259897
 20
-3298.901838520425
 30
0.0
  0
SPLINE
  5
3532F0
330
18
100
AcDbEntity
  8
姿図
100
AcDbSpline
210
0.0
220
0.0
230
1.0
 70
     8
 71
     3
 72
    17
 73
    13
 74
     0
 42
0.000000001
 43
0.0000000001
 40
0.0
 40
0.0
 40
0.0
 40
0.0
 40
1.0
 40
1.0
 40
1.0
 40
2.0
 40
2.0
 40
2.0
 40
3.0
 40
3.0
 40
3.0
 40
4.0
 40
4.0
 40
4.0
 40
4.0
 10
12531.3399315018
 20
-3297.879701166696
 30
0.0
 10
12531.3399315018
 20
-3297.879701166696
 30
0.0
 10
12532.14074640489
 20
-3297.706956248092
 30
0.0
 10
12532.14074640489
 20
-3297.706956248092
 30
0.0
 10
12532.14074640489
 20
-3297.706956248092
 30
0.0
 10
12532.64679212922
 20
-3299.170175806754
 30
0.0
 10
12532.64679212922
 20
-3299.170175806754
 30
0.0
 10
12532.64679212922
 20
-3299.170175806754
 30
0.0
 10
12532.91084316273
 20
-3299.412215146053
 30
0.0
 10
12533.13087080782
 20
-3299.324213017708
 30
0.0
 10
12533.35098774985
 20
-3299.236166240895
 30
0.0
 10
12533.81024188083
 20
-3299.0646268309
 30
0.0
 10
12533.8328340051
 20
-3298.901838520425
 30
0.0
  0
SPLINE
  5
3532F1
330
18
100
AcDbEntity
  8
姿図
100
AcDbSpline
210
0.0
220
0.0
230
1.0
 70
     8
 71
     3
 72
    11
 73
     7
 74
     0
 42
0.000000001
 43
0.0000000001
 40
0.0
 40
0.0
 40
0.0
 40
0.0
 40
1.0
 40
1.0
 40
1.0
 40
2.0
 40
2.0
 40
2.0
 40
2.0
 10
12533.83301259897
 20
-3298.901838520425
 30
0.0
 10
12533.83301259897
 20
-3298.901838520425
 30
0.0
 10
12533.78479225467
 20
-3298.576083305607
 30
0.0
 10
12533.3258060145
 20
-3298.796155599171
 30
0.0
 10
12532.86681977432
 20
-3299.016183244267
 30
0.0
 10
12532.55758449227
 20
-3299.135662541807
 30
0.0
 10
12532.71305045417
 20
-3299.222414513077
 30
0.0
  0
SPLINE
  5
3532F2
330
18
100
AcDbEntity
  8
姿図
100
AcDbSpline
210
0.0
220
0.0
230
1.0
 70
     8
 71
     3
 72
    14
 73
    10
 74
     0
 42
0.000000001
 43
0.0000000001
 40
0.0
 40
0.0
 40
0.0
 40
0.0
 40
1.0
 40
1.0
 40
1.0
 40
2.0
 40
2.0
 40
2.0
 40
3.0
 40
3.0
 40
3.0
 40
3.0
 10
12533.21757813063
 20
-3285.37161174643
 30
0.0
 10
12533.21757813063
 20
-3285.37161174643
 30
0.0
 10
12533.34482626141
 20
-3285.572351253806
 30
0.0
 10
12533.3258060145
 20
-3286.276457577501
 30
0.0
 10
12533.30687506451
 20
-3286.980519252728
 30
0.0
 10
12533.48832643417
 20
-3297.153136664129
 30
0.0
 10
12533.48832643417
 20
-3297.153136664129
 30
0.0
 10
12533.48832643417
 20
-3297.153136664129
 30
0.0
 10
12533.48832643417
 20
-3298.735389035661
 30
0.0
 10
12533.48832643417
 20
-3298.735389035661
 30
0.0
  0
SPLINE
  5
3532F3
330
18
100
AcDbEntity
  8
姿図
100
AcDbSpline
210
0.0
220
0.0
230
1.0
 70
     8
 71
     3
 72
    32
 73
    28
 74
     0
 42
0.000000001
 43
0.0000000001
 40
0.0
 40
0.0
 40
0.0
 40
0.0
 40
1.0
 40
1.0
 40
1.0
 40
2.0
 40
2.0
 40
2.0
 40
3.0
 40
3.0
 40
3.0
 40
4.0
 40
4.0
 40
4.0
 40
5.0
 40
5.0
 40
5.0
 40
6.0
 40
6.0
 40
6.0
 40
7.0
 40
7.0
 40
7.0
 40
8.0
 40
8.0
 40
8.0
 40
9.0
 40
9.0
 40
9.0
 40
9.0
 10
12533.82086821596
 20
-3288.432844585455
 30
0.0
 10
12533.82086821596
 20
-3288.432844585455
 30
0.0
 10
12536.77231047477
 20
-3287.430620447982
 30
0.0
 10
12536.77231047477
 20
-3287.430620447982
 30
0.0
 10
12536.77231047477
 20
-3287.430620447982
 30
0.0
 10
12537.20566849492
 20
-3287.236578210647
 30
0.0
 10
12537.25112063427
 20
-3287.909207365145
 30
0.0
 10
12537.25112063427
 20
-3287.909207365145
 30
0.0
 10
12537.8303898444
 20
-3298.735389035661
 30
0.0
 10
12537.8303898444
 20
-3298.735389035661
 30
0.0
 10
12537.8303898444
 20
-3298.735389035661
 30
0.0
 10
12537.50945666401
 20
-3301.062422484273
 30
0.0
 10
12537.50945666401
 20
-3301.062422484273
 30
0.0
 10
12537.50945666401
 20
-3301.062422484273
 30
0.0
 10
12537.48740032134
 20
-3301.260438435166
 30
0.0
 10
12537.2013822421
 20
-3301.34844056351
 30
0.0
 10
12537.2013822421
 20
-3301.34844056351
 30
0.0
 10
12536.73855623376
 20
-3301.466089273906
 30
0.0
 10
12536.73855623376
 20
-3301.466089273906
 30
0.0
 10
12536.73855623376
 20
-3301.466089273906
 30
0.0
 10
12536.4972759184
 20
-3301.458499034526
 30
0.0
 10
12536.38735139279
 20
-3301.282450129369
 30
0.0
 10
12536.38735139279
 20
-3301.282450129369
 30
0.0
 10
12535.70521211483
 20
-3299.76002670354
 30
0.0
 10
12535.70521211483
 20
-3299.76002670354
 30
0.0
 10
12535.70521211483
 20
-3299.76002670354
 30
0.0
 10
12535.26846081119
 20
-3299.87030841689
 30
0.0
 10
12535.26846081119
 20
-3299.87030841689
 30
0.0
  0
SPLINE
  5
3532F4
330
18
100
AcDbEntity
  8
姿図
100
AcDbSpline
210
0.0
220
0.0
230
1.0
 70
     8
 71
     3
 72
    14
 73
    10
 74
     0
 42
0.000000001
 43
0.0000000001
 40
0.0
 40
0.0
 40
0.0
 40
0.0
 40
1.0
 40
1.0
 40
1.0
 40
2.0
 40
2.0
 40
2.0
 40
3.0
 40
3.0
 40
3.0
 40
3.0
 10
12536.57416057848
 20
-3287.497459202995
 30
0.0
 10
12536.57416057848
 20
-3287.497459202995
 30
0.0
 10
12536.981354597
 20
-3287.332572414574
 30
0.0
 10
12537.00341093967
 20
-3287.926664915721
 30
0.0
 10
12537.02537798541
 20
-3288.5207127684
 30
0.0
 10
12537.28942901891
 20
-3298.491251218416
 30
0.0
 10
12537.28942901891
 20
-3298.491251218416
 30
0.0
 10
12537.28942901891
 20
-3298.491251218416
 30
0.0
 10
12537.17879011782
 20
-3300.911957150674
 30
0.0
 10
12537.17879011782
 20
-3300.911957150674
 30
0.0
  0
SPLINE
  5
3532F5
330
18
100
AcDbEntity
  8
姿図
100
AcDbSpline
210
0.0
220
0.0
230
1.0
 70
     8
 71
     3
 72
    26
 73
    22
 74
     0
 42
0.000000001
 43
0.0000000001
 40
0.0
 40
0.0
 40
0.0
 40
0.0
 40
1.0
 40
1.0
 40
1.0
 40
2.0
 40
2.0
 40
2.0
 40
3.0
 40
3.0
 40
3.0
 40
4.0
 40
4.0
 40
4.0
 40
5.0
 40
5.0
 40
5.0
 40
6.0
 40
6.0
 40
6.0
 40
7.0
 40
7.0
 40
7.0
 40
7.0
 10
12537.3745289969
 20
-3290.214988143493
 30
0.0
 10
12537.3745289969
 20
-3290.214988143493
 30
0.0
 10
12538.58762784375
 20
-3290.214988143493
 30
0.0
 10
12538.58762784375
 20
-3290.214988143493
 30
0.0
 10
12538.58762784375
 20
-3290.214988143493
 30
0.0
 10
12538.89302335764
 20
-3290.216774082171
 30
0.0
 10
12538.90998977508
 20
-3290.654463003615
 30
0.0
 10
12538.92704548945
 20
-3291.092151925059
 30
0.0
 10
12539.2797683783
 20
-3301.466089273906
 30
0.0
 10
12539.2797683783
 20
-3301.466089273906
 30
0.0
 10
12539.2797683783
 20
-3301.466089273906
 30
0.0
 10
12539.03661282733
 20
-3303.410931845484
 30
0.0
 10
12539.0101809349
 20
-3303.435934986972
 30
0.0
 10
12538.98374904247
 20
-3303.460938128461
 30
0.0
 10
12538.27428490274
 20
-3303.63680843975
 30
0.0
 10
12538.14489364554
 20
-3303.63680843975
 30
0.0
 10
12538.01559168528
 20
-3303.63680843975
 30
0.0
 10
12537.43025028365
 20
-3302.030579841469
 30
0.0
 10
12537.43025028365
 20
-3302.030579841469
 30
0.0
 10
12537.43025028365
 20
-3302.030579841469
 30
0.0
 10
12537.12396180042
 20
-3302.093176992123
 30
0.0
 10
12537.12396180042
 20
-3302.093176992123
 30
0.0
  0
SPLINE
  5
3532F6
330
18
100
AcDbEntity
  8
姿図
100
AcDbSpline
210
0.0
220
0.0
230
1.0
 70
     8
 71
     3
 72
    14
 73
    10
 74
     0
 42
0.000000001
 43
0.0000000001
 40
0.0
 40
0.0
 40
0.0
 40
0.0
 40
1.0
 40
1.0
 40
1.0
 40
2.0
 40
2.0
 40
2.0
 40
3.0
 40
3.0
 40
3.0
 40
3.0
 10
12539.0101809349
 20
-3303.435934986972
 30
0.0
 10
12539.0101809349
 20
-3303.435934986972
 30
0.0
 10
12539.17073682203
 20
-3302.954669161792
 30
0.0
 10
12538.6921052564
 20
-3303.064727632807
 30
0.0
 10
12538.21365228463
 20
-3303.174741455355
 30
0.0
 10
12538.21365228463
 20
-3303.174741455355
 30
0.0
 10
12538.21365228463
 20
-3303.174741455355
 30
0.0
 10
12538.21365228463
 20
-3303.174741455355
 30
0.0
 10
12537.81226256682
 20
-3303.350790360511
 30
0.0
 10
12538.14489364554
 20
-3303.63680843975
 30
0.0
  0
POLYLINE
  5
3532F7
330
18
100
AcDbEntity
  8
姿図
100
AcDb2dPolyline
 66
     1
 10
0.0
 20
0.0
 30
0.0
  0
VERTEX
  5
3532F8
330
3532F7
100
AcDbEntity
  8
姿図
100
AcDbVertex
100
AcDb2dVertex
 10
12538.58762784375
 20
-3290.214988143493
 30
0.0
  0
VERTEX
  5
3532F9
330
3532F7
100
AcDbEntity
  8
姿図
100
AcDbVertex
100
AcDb2dVertex
 10
12539.08260074828
 20
-3301.466089273906
 30
0.0
  0
VERTEX
  5
3532FA
330
3532F7
100
AcDbEntity
  8
姿図
100
AcDbVertex
100
AcDb2dVertex
 10
12538.95579910216
 20
-3303.084149715927
 30
0.0
  0
SEQEND
  5
3532FB
330
3532F7
100
AcDbEntity
  8
姿図
  0
SPLINE
  5
3532FC
330
18
100
AcDbEntity
  8
姿図
100
AcDbSpline
210
0.0
220
0.0
230
1.0
 70
     8
 71
     3
 72
    11
 73
     7
 74
     0
 42
0.000000001
 43
0.0000000001
 40
0.0
 40
0.0
 40
0.0
 40
0.0
 40
1.0
 40
1.0
 40
1.0
 40
2.0
 40
2.0
 40
2.0
 40
2.0
 10
12537.42712489096
 20
-3301.216325749826
 30
0.0
 10
12537.42712489096
 20
-3301.216325749826
 30
0.0
 10
12537.48740032134
 20
-3300.82042779344
 30
0.0
 10
12537.06940137381
 20
-3300.930441615988
 30
0.0
 10
12536.65140242629
 20
-3301.04041079007
 30
0.0
 10
12536.23358207264
 20
-3301.149933479482
 30
0.0
 10
12536.38735139279
 20
-3301.282450129369
 30
0.0
  0
POLYLINE
  5
3532FD
330
18
100
AcDbEntity
  8
姿図
100
AcDb2dPolyline
 66
     1
 10
0.0
 20
0.0
 30
0.0
  0
VERTEX
  5
3532FE
330
3532FD
100
AcDbEntity
  8
姿図
100
AcDbVertex
100
AcDb2dVertex
 10
12536.9317947987
 20
-3301.762644391343
 30
0.0
  0
VERTEX
  5
3532FF
330
3532FD
100
AcDbEntity
  8
姿図
100
AcDbVertex
100
AcDb2dVertex
 10
12537.28942901891
 20
-3301.678526679622
 30
0.0
  0
VERTEX
  5
353300
330
3532FD
100
AcDbEntity
  8
姿図
100
AcDbVertex
100
AcDb2dVertex
 10
12537.43025028365
 20
-3302.030579841469
 30
0.0
  0
SEQEND
  5
353301
330
3532FD
100
AcDbEntity
  8
姿図
  0
SPLINE
  5
353302
330
18
100
AcDbEntity
  8
姿図
100
AcDbSpline
210
0.0
220
0.0
230
1.0
 70
     8
 71
     3
 72
    11
 73
     7
 74
     0
 42
0.000000001
 43
0.0000000001
 40
0.0
 40
0.0
 40
0.0
 40
0.0
 40
1.0
 40
1.0
 40
1.0
 40
2.0
 40
2.0
 40
2.0
 40
2.0
 10
12540.66681765236
 20
-3328.092157887007
 30
0.0
 10
12540.66681765236
 20
-3328.092157887007
 30
0.0
 10
12536.99948187458
 20
-3323.064204727601
 30
0.0
 10
12525.34185645265
 20
-3323.285482529771
 30
0.0
 10
12525.34185645265
 20
-3323.285482529771
 30
0.0
 10
12526.57388624948
 20
-3322.776936491288
 30
0.0
 10
12526.57388624948
 20
-3322.776936491288
 30
0.0
  0
SPLINE
  5
353303
330
18
100
AcDbEntity
  8
姿図
100
AcDbSpline
210
0.0
220
0.0
230
1.0
 70
     8
 71
     3
 72
    11
 73
     7
 74
     0
 42
0.000000001
 43
0.0000000001
 40
0.0
 40
0.0
 40
0.0
 40
0.0
 40
1.0
 40
1.0
 40
1.0
 40
2.0
 40
2.0
 40
2.0
 40
2.0
 10
12524.11054103129
 20
-3322.867394285315
 30
0.0
 10
12524.11054103129
 20
-3322.867394285315
 30
0.0
 10
12525.34185645265
 20
-3323.285482529771
 30
0.0
 10
12525.34185645265
 20
-3323.285482529771
 30
0.0
 10
12525.34185645265
 20
-3323.285482529771
 30
0.0
 10
12513.95212183238
 20
-3323.323880211342
 30
0.0
 10
12510.52673609696
 20
-3328.046348559923
 30
0.0
  0
SPLINE
  5
353304
330
18
100
AcDbEntity
  8
姿図
100
AcDbSpline
210
0.0
220
0.0
230
1.0
 70
     8
 71
     3
 72
    11
 73
     7
 74
     0
 42
0.000000001
 43
0.0000000001
 40
1.001401759486589
 40
1.001401759486589
 40
1.001401759486589
 40
1.001401759486589
 40
2.0
 40
2.0
 40
2.0
 40
2.325448533580545
 40
2.325448533580545
 40
2.325448533580545
 40
2.325448533580545
 10
12525.3809804753
 20
-3331.482234433133
 30
0.0
 10
12518.43608114055
 20
-3331.698205032802
 30
0.0
 10
12513.64545027288
 20
-3333.228925174639
 30
0.0
 10
12512.87940030224
 20
-3334.840374058689
 30
0.0
 10
12512.87940030224
 20
-3334.840374058689
 30
0.0
 10
12512.63712730428
 20
-3335.229432625667
 30
0.0
 10
12512.4650918789
 20
-3336.531948753175
 30
0.0
  0
SPLINE
  5
353305
330
18
100
AcDbEntity
  8
姿図
100
AcDbSpline
210
0.0
220
0.0
230
1.0
 70
     8
 71
     3
 72
    11
 73
     7
 74
     0
 42
0.000000001
 43
0.0000000001
 40
1.001401759486589
 40
1.001401759486589
 40
1.001401759486589
 40
1.001401759486589
 40
2.0
 40
2.0
 40
2.0
 40
2.325448533580545
 40
2.325448533580545
 40
2.325448533580545
 40
2.325448533580545
 10
12525.3809804753
 20
-3331.482234433133
 30
0.0
 10
12532.3280429758
 20
-3331.611047024654
 30
0.0
 10
12537.13750339673
 20
-3333.081536304595
 30
0.0
 10
12537.92371268928
 20
-3334.683246331951
 30
0.0
 10
12537.92371268928
 20
-3334.683246331951
 30
0.0
 10
12538.1708483206
 20
-3335.069234354841
 30
0.0
 10
12538.58175401386
 20
-3336.482646744028
 30
0.0
  0
ENDSEC
  0
SECTION
  2
OBJECTS
  0
DICTIONARY
  5
C
330
0
100
AcDbDictionary
281
     1
  3
ACAD_GROUP
350
D
  3
ACAD_IMAGE_VARS
350
2F1759
  3
ACAD_LAYOUT
350
353
  3
ACAD_MLINESTYLE
350
E
  3
ACAD_PLOTSETTINGS
350
354
  3
ACAD_PLOTSTYLENAME
350
351
  3
ACAD_SCALELIST
350
CD53
  3
AcadDim
350
5182D
  3
AcDbVariableDictionary
350
E0D
  3
APPDATA
350
2F1758
  3
DWGPROPS
350
353567
  0
DICTIONARY
  5
559E
330
2
100
AcDbDictionary
280
     1
281
     1
  3
ACAD_LAYERFILTERS
360
29A509
  3
ACAD_LAYERSTATES
360
559F
  3
ACLYDICTIONARY
360
29A508
  0
DICTIONARY
  5
CD7F
330
F
100
AcDbDictionary
280
     1
281
     1
  3
ADSK_XREC_LAYER_RECONCILED
360
CD80
  0
DICTIONARY
  5
CD85
330
34
100
AcDbDictionary
280
     1
281
     1
  3
ADSK_XREC_LAYER_RECONCILED
360
CD86
  0
DICTIONARY
  5
CD8D
330
2F4
100
AcDbDictionary
280
     1
281
     1
  3
ADSK_XREC_LAYER_RECONCILED
360
CD8E
  0
DICTIONARY
  5
D25F
330
18
100
AcDbDictionary
280
     1
281
     1
  3
ACAD_SORTENTS
360
D260
  0
DICTIONARY
  5
D
102
{ACAD_REACTORS
330
C
102
}
330
C
100
AcDbDictionary
281
     1
  0
RASTERVARIABLES
  5
2F1759
102
{ACAD_REACTORS
330
C
102
}
330
C
100
AcDbRasterVariables
 90
        0
 70
     1
 71
     1
 72
     0
  0
DICTIONARY
  5
353
102
{ACAD_REACTORS
330
C
102
}
330
C
100
AcDbDictionary
281
     1
  3
Model
350
355
  3
ﾚｲｱｳﾄ1
350
356
  0
DICTIONARY
  5
E
102
{ACAD_REACTORS
330
C
102
}
330
C
100
AcDbDictionary
281
     1
  3
STANDARD
350
1B
  0
DICTIONARY
  5
354
102
{ACAD_REACTORS
330
C
102
}
330
C
100
AcDbDictionary
281
     1
  0
ACDBDICTIONARYWDFLT
  5
351
102
{ACAD_REACTORS
330
C
102
}
330
C
100
AcDbDictionary
281
     1
  3
Normal
350
352
100
AcDbDictionaryWithDefault
340
352
  0
DICTIONARY
  5
CD53
102
{ACAD_REACTORS
330
C
102
}
330
C
100
AcDbDictionary
281
     1
  3
A0
350
CD54
  3
A1
350
35DF8
  3
A2
350
35DF9
  3
A3
350
35DFA
  3
A4
350
35DFB
  3
A5
350
35DFC
  3
A6
350
35DFD
  3
A7
350
35DFE
  3
A8
350
35DFF
  3
A9
350
35E00
  3
B0
350
35E01
  3
B1
350
35E02
  3
B2
350
35E03
  3
B3
350
35E04
  3
B4
350
35E05
  3
B5
350
35E06
  3
B6
350
35E07
  3
B7
350
35E08
  3
B8
350
35E09
  3
B9
350
35E0A
  3
C0
350
35E0B
  3
C1
350
35E0C
  3
C2
350
35E0D
  3
C3
350
35E0E
  3
C4
350
35E0F
  3
C5
350
35E10
  3
C6
350
35E11
  3
C7
350
35E12
  3
C8
350
35E13
  3
C9
350
35E14
  3
D0
350
35E15
  3
D1
350
35E16
  3
D2
350
35E17
  0
XRECORD
  5
5182D
102
{ACAD_REACTORS
330
C
102
}
330
C
100
AcDbXrecord
280
     1
 90
   990106
  3
OPEN30
 60
     0
 61
     0
 62
     4
 63
     4
 64
     1
 65
     0
 66
     0
 67
     3
 68
     1
 69
     0
 70
     0
 71
     0
 72
     0
 40
0.0
170
     0
340
0
  0
DICTIONARY
  5
E0D
102
{ACAD_REACTORS
330
C
102
}
330
C
100
AcDbDictionary
281
     1
  3
DIMASSOC
350
E0E
  3
INDEXCTL
350
D04A
  3
PROJECTNAME
350
E0F
  3
SORTENTS
350
D049
  0
DICTIONARY
  5
2F1758
102
{ACAD_REACTORS
330
C
102
}
330
C
100
AcDbDictionary
281
     1
  0
XRECORD
  5
353567
102
{ACAD_REACTORS
330
C
102
}
330
C
100
AcDbXrecord
280
     1
  1
DWGPROPS COOKIE
  2

  3

  4

  6

  7

  8
SPAX
  9

300
=
301
=
302
=
303
=
304
=
305
=
306
=
307
=
308
=
309
=
 40
0.0
 41
2448636.244629629
 42
2456821.203399398
  1

 90
        0
  0
DICTIONARY
  5
29A509
102
{ACAD_REACTORS
330
559E
102
}
330
559E
100
AcDbDictionary
281
     1
  0
DICTIONARY
  5
559F
102
{ACAD_REACTORS
330
559E
102
}
330
559E
100
AcDbDictionary
281
     1
  0
DICTIONARY
  5
29A508
102
{ACAD_REACTORS
330
559E
102
}
330
559E
100
AcDbDictionary
281
     1
1001
ACAD
1000
<All
  0
XRECORD
  5
CD80
102
{ACAD_REACTORS
330
CD7F
102
}
330
CD7F
100
AcDbXrecord
280
     1
290
     1
  0
XRECORD
  5
CD86
102
{ACAD_REACTORS
330
CD85
102
}
330
CD85
100
AcDbXrecord
280
     1
290
     1
  0
XRECORD
  5
CD8E
102
{ACAD_REACTORS
330
CD8D
102
}
330
CD8D
100
AcDbXrecord
280
     1
290
     1
  0
SORTENTSTABLE
  5
D260
102
{ACAD_REACTORS
330
D25F
102
}
330
D25F
100
AcDbSortentsTable
330
18
331
0
  5
324657
331
8182F
  5
2FEC53
331
3073B9
  5
307455
  0
LAYOUT
  5
355
102
{ACAD_REACTORS
330
353
102
}
330
353
100
AcDbPlotSettings
  1

  2
JUST PDF 2
  4
A4
  6

 40
3.174999952316284
 41
3.174999952316284
 42
3.175003051757812
 43
3.17498779296875
 44
209.8886566162109
 45
297.0530090332031
 46
14.27171755861491
 47
9.855173074625782
 48
12474.98391984091
 49
-3775.814013617565
140
12824.97435683072
141
-3233.828663340232
142
1.0
143
2.0
 70
  3748
 72
     1
 73
     0
 74
     4
  7
spax form.ctb
 75
     0
147
0.547045008312821
148
-12474.98391984091
149
3775.814013617565
100
AcDbLayout
  1
Model
 70
     1
 71
     0
 10
0.0
 20
0.0
 11
12.0
 21
9.0
 12
0.0
 22
0.0
 32
0.0
 14
12481.03195189028
 24
-3373.690920144389
 34
0.0
 15
12556.86528522361
 25
-3283.982029925432
 35
0.0
146
0.0
 13
0.0
 23
0.0
 33
0.0
 16
1.0
 26
0.0
 36
0.0
 17
0.0
 27
1.0
 37
0.0
 76
     0
330
18
331
3523F0
1001
ACAD_PSEXT
1000
JUST PDF 2
1000
JUST PDF 2
1000
JUST PDF 2 Port:
1000

1070
     0
  0
LAYOUT
  5
356
102
{ACAD_REACTORS
330
353
102
}
330
353
100
AcDbPlotSettings
  1

  2
Canon LASER SHOT LBP-750
  4

  6

 40
0.0
 41
0.0
 42
0.0
 43
0.0
 44
0.0
 45
0.0
 46
0.0
 47
0.0
 48
0.0
 49
0.0
140
0.0
141
0.0
142
1.0
143
1.0
 70
   688
 72
     0
 73
     0
 74
     5
  7
spax form.ctb
 75
    16
147
1.0
148
0.0
149
0.0
100
AcDbLayout
  1
ﾚｲｱｳﾄ1
 70
     0
 71
     1
 10
0.0
 20
0.0
 11
12.0
 21
9.0
 12
0.0
 22
0.0
 32
0.0
 14
1.000000000000000E+20
 24
1.000000000000000E+20
 34
1.000000000000000E+20
 15
-1.000000000000000E+20
 25
-1.000000000000000E+20
 35
-1.000000000000000E+20
146
0.0
 13
0.0
 23
0.0
 33
0.0
 16
1.0
 26
0.0
 36
0.0
 17
0.0
 27
1.0
 37
0.0
 76
     0
330
15
  0
MLINESTYLE
  5
1B
102
{ACAD_REACTORS
330
E
102
}
330
E
100
AcDbMlineStyle
  2
STANDARD
 70
     0
  3

 62
     0
 51
90.0
 52
90.0
 71
     2
 49
0.5
 62
   256
  6
BYLAYER
 49
-0.5
 62
   256
  6
BYLAYER
  0
ACDBPLACEHOLDER
  5
352
102
{ACAD_REACTORS
330
351
102
}
330
351
  0
SCALE
  5
CD54
102
{ACAD_REACTORS
330
CD53
102
}
330
CD53
100
AcDbScale
 70
     0
300
1:1
140
1.0
141
1.0
290
     1
1001
ACAD
1000
AcRTDxfName
1000
SCALE
1000
AcRTDxfName
1000
SCALE
  0
SCALE
  5
35DF8
102
{ACAD_REACTORS
330
CD53
102
}
330
CD53
100
AcDbScale
 70
     0
300
1:2
140
1.0
141
2.0
290
     0
1001
ACAD
1000
AcRTDxfName
1000
SCALE
1000
AcRTDxfName
1000
SCALE
  0
SCALE
  5
35DF9
102
{ACAD_REACTORS
330
CD53
102
}
330
CD53
100
AcDbScale
 70
     0
300
1:4
140
1.0
141
4.0
290
     0
1001
ACAD
1000
AcRTDxfName
1000
SCALE
1000
AcRTDxfName
1000
SCALE
  0
SCALE
  5
35DFA
102
{ACAD_REACTORS
330
CD53
102
}
330
CD53
100
AcDbScale
 70
     0
300
1:5
140
1.0
141
5.0
290
     0
1001
ACAD
1000
AcRTDxfName
1000
SCALE
1000
AcRTDxfName
1000
SCALE
  0
SCALE
  5
35DFB
102
{ACAD_REACTORS
330
CD53
102
}
330
CD53
100
AcDbScale
 70
     0
300
1:8
140
1.0
141
8.0
290
     0
1001
ACAD
1000
AcRTDxfName
1000
SCALE
1000
AcRTDxfName
1000
SCALE
  0
SCALE
  5
35DFC
102
{ACAD_REACTORS
330
CD53
102
}
330
CD53
100
AcDbScale
 70
     0
300
1:10
140
1.0
141
10.0
290
     0
1001
ACAD
1000
AcRTDxfName
1000
SCALE
1000
AcRTDxfName
1000
SCALE
  0
SCALE
  5
35DFD
102
{ACAD_REACTORS
330
CD53
102
}
330
CD53
100
AcDbScale
 70
     0
300
1:16
140
1.0
141
16.0
290
     0
1001
ACAD
1000
AcRTDxfName
1000
SCALE
1000
AcRTDxfName
1000
SCALE
  0
SCALE
  5
35DFE
102
{ACAD_REACTORS
330
CD53
102
}
330
CD53
100
AcDbScale
 70
     0
300
1:20
140
1.0
141
20.0
290
     0
1001
ACAD
1000
AcRTDxfName
1000
SCALE
1000
AcRTDxfName
1000
SCALE
  0
SCALE
  5
35DFF
102
{ACAD_REACTORS
330
CD53
102
}
330
CD53
100
AcDbScale
 70
     0
300
1:30
140
1.0
141
30.0
290
     0
1001
ACAD
1000
AcRTDxfName
1000
SCALE
1000
AcRTDxfName
1000
SCALE
  0
SCALE
  5
35E00
102
{ACAD_REACTORS
330
CD53
102
}
330
CD53
100
AcDbScale
 70
     0
300
1:40
140
1.0
141
40.0
290
     0
1001
ACAD
1000
AcRTDxfName
1000
SCALE
1000
AcRTDxfName
1000
SCALE
  0
SCALE
  5
35E01
102
{ACAD_REACTORS
330
CD53
102
}
330
CD53
100
AcDbScale
 70
     0
300
1:50
140
1.0
141
50.0
290
     0
1001
ACAD
1000
AcRTDxfName
1000
SCALE
1000
AcRTDxfName
1000
SCALE
  0
SCALE
  5
35E02
102
{ACAD_REACTORS
330
CD53
102
}
330
CD53
100
AcDbScale
 70
     0
300
1:100
140
1.0
141
100.0
290
     0
1001
ACAD
1000
AcRTDxfName
1000
SCALE
1000
AcRTDxfName
1000
SCALE
  0
SCALE
  5
35E03
102
{ACAD_REACTORS
330
CD53
102
}
330
CD53
100
AcDbScale
 70
     0
300
2:1
140
2.0
141
1.0
290
     0
1001
ACAD
1000
AcRTDxfName
1000
SCALE
1000
AcRTDxfName
1000
SCALE
  0
SCALE
  5
35E04
102
{ACAD_REACTORS
330
CD53
102
}
330
CD53
100
AcDbScale
 70
     0
300
4:1
140
4.0
141
1.0
290
     0
1001
ACAD
1000
AcRTDxfName
1000
SCALE
1000
AcRTDxfName
1000
SCALE
  0
SCALE
  5
35E05
102
{ACAD_REACTORS
330
CD53
102
}
330
CD53
100
AcDbScale
 70
     0
300
8:1
140
8.0
141
1.0
290
     0
1001
ACAD
1000
AcRTDxfName
1000
SCALE
1000
AcRTDxfName
1000
SCALE
  0
SCALE
  5
35E06
102
{ACAD_REACTORS
330
CD53
102
}
330
CD53
100
AcDbScale
 70
     0
300
10:1
140
10.0
141
1.0
290
     0
1001
ACAD
1000
AcRTDxfName
1000
SCALE
1000
AcRTDxfName
1000
SCALE
  0
SCALE
  5
35E07
102
{ACAD_REACTORS
330
CD53
102
}
330
CD53
100
AcDbScale
 70
     0
300
100:1
140
100.0
141
1.0
290
     0
1001
ACAD
1000
AcRTDxfName
1000
SCALE
1000
AcRTDxfName
1000
SCALE
  0
SCALE
  5
35E08
102
{ACAD_REACTORS
330
CD53
102
}
330
CD53
100
AcDbScale
 70
     0
300
1/128" = 1'-0"
140
0.0078125
141
12.0
290
     0
1001
ACAD
1000
AcRTDxfName
1000
SCALE
1000
AcRTDxfName
1000
SCALE
  0
SCALE
  5
35E09
102
{ACAD_REACTORS
330
CD53
102
}
330
CD53
100
AcDbScale
 70
     0
300
1/64" = 1'-0"
140
0.015625
141
12.0
290
     0
1001
ACAD
1000
AcRTDxfName
1000
SCALE
1000
AcRTDxfName
1000
SCALE
  0
SCALE
  5
35E0A
102
{ACAD_REACTORS
330
CD53
102
}
330
CD53
100
AcDbScale
 70
     0
300
1/32" = 1'-0"
140
0.03125
141
12.0
290
     0
1001
ACAD
1000
AcRTDxfName
1000
SCALE
1000
AcRTDxfName
1000
SCALE
  0
SCALE
  5
35E0B
102
{ACAD_REACTORS
330
CD53
102
}
330
CD53
100
AcDbScale
 70
     0
300
1/16" = 1'-0"
140
0.0625
141
12.0
290
     0
1001
ACAD
1000
AcRTDxfName
1000
SCALE
1000
AcRTDxfName
1000
SCALE
  0
SCALE
  5
35E0C
102
{ACAD_REACTORS
330
CD53
102
}
330
CD53
100
AcDbScale
 70
     0
300
3/32" = 1'-0"
140
0.09375
141
12.0
290
     0
1001
ACAD
1000
AcRTDxfName
1000
SCALE
1000
AcRTDxfName
1000
SCALE
  0
SCALE
  5
35E0D
102
{ACAD_REACTORS
330
CD53
102
}
330
CD53
100
AcDbScale
 70
     0
300
1/8" = 1'-0"
140
0.125
141
12.0
290
     0
1001
ACAD
1000
AcRTDxfName
1000
SCALE
1000
AcRTDxfName
1000
SCALE
  0
SCALE
  5
35E0E
102
{ACAD_REACTORS
330
CD53
102
}
330
CD53
100
AcDbScale
 70
     0
300
3/16" = 1'-0"
140
0.1875
141
12.0
290
     0
1001
ACAD
1000
AcRTDxfName
1000
SCALE
1000
AcRTDxfName
1000
SCALE
  0
SCALE
  5
35E0F
102
{ACAD_REACTORS
330
CD53
102
}
330
CD53
100
AcDbScale
 70
     0
300
1/4" = 1'-0"
140
0.25
141
12.0
290
     0
1001
ACAD
1000
AcRTDxfName
1000
SCALE
1000
AcRTDxfName
1000
SCALE
  0
SCALE
  5
35E10
102
{ACAD_REACTORS
330
CD53
102
}
330
CD53
100
AcDbScale
 70
     0
300
3/8" = 1'-0"
140
0.375
141
12.0
290
     0
1001
ACAD
1000
AcRTDxfName
1000
SCALE
1000
AcRTDxfName
1000
SCALE
  0
SCALE
  5
35E11
102
{ACAD_REACTORS
330
CD53
102
}
330
CD53
100
AcDbScale
 70
     0
300
1/2" = 1'-0"
140
0.5
141
12.0
290
     0
1001
ACAD
1000
AcRTDxfName
1000
SCALE
1000
AcRTDxfName
1000
SCALE
  0
SCALE
  5
35E12
102
{ACAD_REACTORS
330
CD53
102
}
330
CD53
100
AcDbScale
 70
     0
300
3/4" = 1'-0"
140
0.75
141
12.0
290
     0
1001
ACAD
1000
AcRTDxfName
1000
SCALE
1000
AcRTDxfName
1000
SCALE
  0
SCALE
  5
35E13
102
{ACAD_REACTORS
330
CD53
102
}
330
CD53
100
AcDbScale
 70
     0
300
1" = 1'-0"
140
1.0
141
12.0
290
     0
1001
ACAD
1000
AcRTDxfName
1000
SCALE
1000
AcRTDxfName
1000
SCALE
  0
SCALE
  5
35E14
102
{ACAD_REACTORS
330
CD53
102
}
330
CD53
100
AcDbScale
 70
     0
300
1-1/2" = 1'-0"
140
1.5
141
12.0
290
     0
1001
ACAD
1000
AcRTDxfName
1000
SCALE
1000
AcRTDxfName
1000
SCALE
  0
SCALE
  5
35E15
102
{ACAD_REACTORS
330
CD53
102
}
330
CD53
100
AcDbScale
 70
     0
300
3" = 1'-0"
140
3.0
141
12.0
290
     0
1001
ACAD
1000
AcRTDxfName
1000
SCALE
1000
AcRTDxfName
1000
SCALE
  0
SCALE
  5
35E16
102
{ACAD_REACTORS
330
CD53
102
}
330
CD53
100
AcDbScale
 70
     0
300
6" = 1'-0"
140
6.0
141
12.0
290
     0
1001
ACAD
1000
AcRTDxfName
1000
SCALE
1000
AcRTDxfName
1000
SCALE
  0
SCALE
  5
35E17
102
{ACAD_REACTORS
330
CD53
102
}
330
CD53
100
AcDbScale
 70
     0
300
1'-0" = 1'-0"
140
12.0
141
12.0
290
     0
1001
ACAD
1000
AcRTDxfName
1000
SCALE
1000
AcRTDxfName
1000
SCALE
  0
DICTIONARYVAR
  5
E0E
102
{ACAD_REACTORS
330
E0D
102
}
330
E0D
100
DictionaryVariables
280
     0
  1
1
  0
DICTIONARYVAR
  5
D04A
102
{ACAD_REACTORS
330
E0D
102
}
330
E0D
100
DictionaryVariables
280
     0
  1
0
  0
DICTIONARYVAR
  5
E0F
102
{ACAD_REACTORS
330
E0D
102
}
330
E0D
100
DictionaryVariables
280
     0
  1

  0
DICTIONARYVAR
  5
D049
102
{ACAD_REACTORS
330
E0D
102
}
330
E0D
100
DictionaryVariables
280
     0
  1
127
  0
ENDSEC
  0
EOF
