  0
SECTION
  2
HEADER
  9
$ACADVER
  1
AC1015
  9
$ACADMAINTVER
 70
     6
  9
$DWGCODEPAGE
  3
ANSI_932
  9
$INSBASE
 10
0.0
 20
0.0
 30
0.0
  9
$EXTMIN
 10
5039.721646800705
 20
-7047.545959956495
 30
-0.0000000000000125
  9
$EXTMAX
 10
5135.054980134038
 20
-6956.208167724942
 30
0.0000000000000274
  9
$LIMMIN
 10
0.0
 20
0.0
  9
$LIMMAX
 10
420.0
 20
297.0
  9
$ORTHOMODE
 70
     1
  9
$REGENMODE
 70
     1
  9
$FILLMODE
 70
     1
  9
$QTEXTMODE
 70
     0
  9
$MIRRTEXT
 70
     1
  9
$LTSCALE
 40
5.0
  9
$ATTMODE
 70
     0
  9
$TEXTSIZE
 40
53.44730959687513
  9
$TRACEWID
 40
1.0
  9
$TEXTSTYLE
  7
STANDARD
  9
$CLAYER
  8
寸法線
  9
$CELTYPE
  6
BYLAYER
  9
$CECOLOR
 62
   256
  9
$CELTSCALE
 40
1.0
  9
$DISPSILH
 70
     0
  9
$DIMSCALE
 40
1.0
  9
$DIMASZ
 40
2.5
  9
$DIMEXO
 40
1.5
  9
$DIMDLI
 40
0.38
  9
$DIMRND
 40
0.0
  9
$DIMDLE
 40
0.0
  9
$DIMEXE
 40
1.0
  9
$DIMTP
 40
0.0
  9
$DIMTM
 40
0.0
  9
$DIMTXT
 40
2.500000000000003
  9
$DIMCEN
 40
0.0
  9
$DIMTSZ
 40
0.0
  9
$DIMTOL
 70
     0
  9
$DIMLIM
 70
     0
  9
$DIMTIH
 70
     0
  9
$DIMTOH
 70
     0
  9
$DIMSE1
 70
     0
  9
$DIMSE2
 70
     0
  9
$DIMTAD
 70
     3
  9
$DIMZIN
 70
     8
  9
$DIMBLK
  1

  9
$DIMASO
 70
     1
  9
$DIMSHO
 70
     0
  9
$DIMPOST
  1

  9
$DIMAPOST
  1

  9
$DIMALT
 70
     0
  9
$DIMALTD
 70
     0
  9
$DIMALTF
 40
25.4
  9
$DIMLFAC
 40
1.0
  9
$DIMTOFL
 70
     1
  9
$DIMTVP
 40
0.0
  9
$DIMTIX
 70
     0
  9
$DIMSOXD
 70
     0
  9
$DIMSAH
 70
     1
  9
$DIMBLK1
  1
OPEN
  9
$DIMBLK2
  1
OPEN
  9
$DIMSTYLE
  2
STANDARD
  9
$DIMCLRD
 70
     8
  9
$DIMCLRE
 70
     8
  9
$DIMCLRT
 70
   256
  9
$DIMTFAC
 40
1.0
  9
$DIMGAP
 40
1.0
  9
$DIMJUST
 70
     0
  9
$DIMSD1
 70
     0
  9
$DIMSD2
 70
     0
  9
$DIMTOLJ
 70
     1
  9
$DIMTZIN
 70
     0
  9
$DIMALTZ
 70
     0
  9
$DIMALTTZ
 70
     0
  9
$DIMUPT
 70
     0
  9
$DIMDEC
 70
     2
  9
$DIMTDEC
 70
     2
  9
$DIMALTU
 70
     2
  9
$DIMALTTD
 70
     0
  9
$DIMTXSTY
  7
STANDARD
  9
$DIMAUNIT
 70
     0
  9
$DIMADEC
 70
     2
  9
$DIMALTRND
 40
0.0
  9
$DIMAZIN
 70
     2
  9
$DIMDSEP
 70
    46
  9
$DIMATFIT
 70
     1
  9
$DIMFRAC
 70
     0
  9
$DIMLDRBLK
  1
OPEN
  9
$DIMLUNIT
 70
     2
  9
$DIMLWD
 70
    -2
  9
$DIMLWE
 70
    -2
  9
$DIMTMOVE
 70
     0
  9
$LUNITS
 70
     2
  9
$LUPREC
 70
     2
  9
$SKETCHINC
 40
0.1
  9
$FILLETRAD
 40
7.0
  9
$AUNITS
 70
     0
  9
$AUPREC
 70
     1
  9
$MENU
  1
FM
  9
$ELEVATION
 40
0.0
  9
$PELEVATION
 40
0.0
  9
$THICKNESS
 40
0.0
  9
$LIMCHECK
 70
     0
  9
$CHAMFERA
 40
0.0
  9
$CHAMFERB
 40
0.0
  9
$CHAMFERC
 40
0.0
  9
$CHAMFERD
 40
0.0
  9
$SKPOLY
 70
     0
  9
$TDCREATE
 40
2448636.619629629
  9
$TDUCREATE
 40
2448636.244629629
  9
$TDUPDATE
 40
2456821.579389386
  9
$TDUUPDATE
 40
2456821.204389386
  9
$TDINDWG
 40
53.8370439468
  9
$TDUSRTIMER
 40
2456821.204218634
  9
$USRTIMER
 70
     1
  9
$ANGBASE
 50
0.0
  9
$ANGDIR
 70
     0
  9
$PDMODE
 70
     3
  9
$PDSIZE
 40
0.0
  9
$PLINEWID
 40
0.0
  9
$SPLFRAME
 70
     0
  9
$SPLINETYPE
 70
     6
  9
$SPLINESEGS
 70
     8
  9
$HANDSEED
  5
16D96C
  9
$SURFTAB1
 70
     6
  9
$SURFTAB2
 70
     6
  9
$SURFTYPE
 70
     6
  9
$SURFU
 70
     6
  9
$SURFV
 70
     6
  9
$UCSBASE
  2

  9
$UCSNAME
  2

  9
$UCSORG
 10
0.0
 20
0.0
 30
0.0
  9
$UCSXDIR
 10
1.0
 20
0.0
 30
0.0
  9
$UCSYDIR
 10
0.0
 20
1.0
 30
0.0
  9
$UCSORTHOREF
  2

  9
$UCSORTHOVIEW
 70
     0
  9
$UCSORGTOP
 10
0.0
 20
0.0
 30
0.0
  9
$UCSORGBOTTOM
 10
0.0
 20
0.0
 30
0.0
  9
$UCSORGLEFT
 10
0.0
 20
0.0
 30
0.0
  9
$UCSORGRIGHT
 10
0.0
 20
0.0
 30
0.0
  9
$UCSORGFRONT
 10
0.0
 20
0.0
 30
0.0
  9
$UCSORGBACK
 10
0.0
 20
0.0
 30
0.0
  9
$PUCSBASE
  2

  9
$PUCSNAME
  2

  9
$PUCSORG
 10
0.0
 20
0.0
 30
0.0
  9
$PUCSXDIR
 10
1.0
 20
0.0
 30
0.0
  9
$PUCSYDIR
 10
0.0
 20
1.0
 30
0.0
  9
$PUCSORTHOREF
  2

  9
$PUCSORTHOVIEW
 70
     0
  9
$PUCSORGTOP
 10
0.0
 20
0.0
 30
0.0
  9
$PUCSORGBOTTOM
 10
0.0
 20
0.0
 30
0.0
  9
$PUCSORGLEFT
 10
0.0
 20
0.0
 30
0.0
  9
$PUCSORGRIGHT
 10
0.0
 20
0.0
 30
0.0
  9
$PUCSORGFRONT
 10
0.0
 20
0.0
 30
0.0
  9
$PUCSORGBACK
 10
0.0
 20
0.0
 30
0.0
  9
$USERI1
 70
     0
  9
$USERI2
 70
     0
  9
$USERI3
 70
     0
  9
$USERI4
 70
     0
  9
$USERI5
 70
     0
  9
$USERR1
 40
0.0
  9
$USERR2
 40
0.0
  9
$USERR3
 40
0.0
  9
$USERR4
 40
0.0
  9
$USERR5
 40
0.0
  9
$WORLDVIEW
 70
     0
  9
$SHADEDGE
 70
     3
  9
$SHADEDIF
 70
    70
  9
$TILEMODE
 70
     1
  9
$MAXACTVP
 70
    16
  9
$PINSBASE
 10
0.0
 20
0.0
 30
0.0
  9
$PLIMCHECK
 70
     0
  9
$PEXTMIN
 10
1.000000000000000E+20
 20
1.000000000000000E+20
 30
1.000000000000000E+20
  9
$PEXTMAX
 10
-1.000000000000000E+20
 20
-1.000000000000000E+20
 30
-1.000000000000000E+20
  9
$PLIMMIN
 10
0.0
 20
0.0
  9
$PLIMMAX
 10
0.0
 20
0.0
  9
$UNITMODE
 70
     0
  9
$VISRETAIN
 70
     0
  9
$PLINEGEN
 70
     0
  9
$PSLTSCALE
 70
     0
  9
$TREEDEPTH
 70
  3020
  9
$CMLSTYLE
  2
STANDARD
  9
$CMLJUST
 70
     0
  9
$CMLSCALE
 40
1.0
  9
$PROXYGRAPHICS
 70
     1
  9
$MEASUREMENT
 70
     0
  9
$CELWEIGHT
370
    -1
  9
$ENDCAPS
280
     0
  9
$JOINSTYLE
280
     0
  9
$LWDISPLAY
290
     0
  9
$INSUNITS
 70
     0
  9
$HYPERLINKBASE
  1

  9
$STYLESHEET
  1
spax form.ctb
  9
$XEDIT
290
     1
  9
$CEPSNTYPE
380
     0
  9
$PSTYLEMODE
290
     1
  9
$FINGERPRINTGUID
  2
{BBAEEBA6-8B94-11D3-9160-00E0294F7E09}
  9
$VERSIONGUID
  2
{0DA72DF4-C324-41EE-8A18-A311C039CC2D}
  9
$EXTNAMES
290
     1
  9
$PSVPSCALE
 40
0.0
  9
$OLESTARTUP
290
     0
  0
ENDSEC
  0
SECTION
  2
CLASSES
  0
CLASS
  1
LWPOLYLINE
  2
AcDbPolyline
  3
ObjectDBX Classes
 90
        0
280
     0
281
     1
  0
CLASS
  1
ACDBDICTIONARYWDFLT
  2
AcDbDictionaryWithDefault
  3
ObjectDBX Classes
 90
        0
280
     0
281
     0
  0
CLASS
  1
ACDBPLACEHOLDER
  2
AcDbPlaceHolder
  3
ObjectDBX Classes
 90
        0
280
     0
281
     0
  0
CLASS
  1
LAYOUT
  2
AcDbLayout
  3
ObjectDBX Classes
 90
        0
280
     0
281
     0
  0
CLASS
  1
DICTIONARYVAR
  2
AcDbDictionaryVar
  3
ObjectDBX Classes
 90
        0
280
     0
281
     0
  0
CLASS
  1
MATERIAL
  2
AcDbMaterial
  3
ObjectDBX Classes
 90
     1153
280
     0
281
     0
  0
CLASS
  1
VISUALSTYLE
  2
AcDbVisualStyle
  3
ObjectDBX Classes
 90
     4095
280
     0
281
     0
  0
CLASS
  1
TABLESTYLE
  2
AcDbTableStyle
  3
ObjectDBX Classes
 90
     4095
280
     0
281
     0
  0
CLASS
  1
SCALE
  2
AcDbScale
  3
ObjectDBX Classes
 90
     1153
280
     0
281
     0
  0
CLASS
  1
MLEADERSTYLE
  2
AcDbMLeaderStyle
  3
ACDB_MLEADERSTYLE_CLASS
 90
     4095
280
     0
281
     0
  0
CLASS
  1
CELLSTYLEMAP
  2
AcDbCellStyleMap
  3
ObjectDBX Classes
 90
     1152
280
     0
281
     0
  0
CLASS
  1
SORTENTSTABLE
  2
AcDbSortentsTable
  3
ObjectDBX Classes
 90
        0
280
     0
281
     0
  0
CLASS
  1
MULTILEADER
  2
AcDbMLeader
  3
ACDB_MLEADER_CLASS
 90
     1025
280
     0
281
     1
  0
CLASS
  1
DIMASSOC
  2
AcDbDimAssoc
  3
"AcDbDimAssoc|Product Desc:     AcDim ARX App For Dimension|Company:          Autodesk, Inc.|WEB Address:      www.autodesk.com"
 90
        0
280
     0
281
     0
  0
CLASS
  1
RASTERVARIABLES
  2
AcDbRasterVariables
  3
ISM
 90
        0
280
     0
281
     0
  0
CLASS
  1
SUN
  2
AcDbSun
  3
SCENEOE
 90
     1153
280
     0
281
     0
  0
ENDSEC
  0
SECTION
  2
TABLES
  0
TABLE
  2
VPORT
  5
8
330
0
100
AcDbSymbolTable
 70
     1
  0
VPORT
  5
16A8C7
330
8
100
AcDbSymbolTableRecord
100
AcDbViewportTableRecord
  2
*Active
 70
     0
 10
0.0
 20
0.0
 11
1.0
 21
1.0
 12
5087.388313467371
 22
-7001.877063840719
 13
0.0
 23
0.0
 14
1.0
 24
1.0
 15
20.0
 25
20.0
 16
0.0
 26
0.0
 36
1.0
 17
0.0
 27
0.0
 37
0.0
 40
93.16454807618413
 41
1.731829573934837
 42
50.0
 43
0.0
 44
0.0
 50
0.0
 51
0.0
 71
    16
 72
   100
 73
     1
 74
     0
 75
     0
 76
     0
 77
     0
 78
     0
281
     0
 65
     1
110
0.0
120
0.0
130
0.0
111
1.0
121
0.0
131
0.0
112
0.0
122
1.0
132
0.0
 79
     0
146
0.0
  0
ENDTAB
  0
TABLE
  2
LTYPE
  5
5
330
0
100
AcDbSymbolTable
 70
     5
  0
LTYPE
  5
12
330
5
100
AcDbSymbolTableRecord
100
AcDbLinetypeTableRecord
  2
BYBLOCK
 70
     0
  3

 72
    65
 73
     0
 40
0.0
  0
LTYPE
  5
13
330
5
100
AcDbSymbolTableRecord
100
AcDbLinetypeTableRecord
  2
BYLAYER
 70
     0
  3

 72
    65
 73
     0
 40
0.0
  0
LTYPE
  5
14
330
5
100
AcDbSymbolTableRecord
100
AcDbLinetypeTableRecord
  2
CONTINUOUS
 70
     0
  3
Solid line
 72
    65
 73
     0
 40
0.0
  0
LTYPE
  5
26
330
5
100
AcDbSymbolTableRecord
100
AcDbLinetypeTableRecord
  2
PHANTOM
 70
     0
  3
_____ _ _ _____ _ _ _____ _ _ _____ _ _ ____
 72
    65
 73
     6
 40
2.5
 49
1.25
 74
     0
 49
-0.25
 74
     0
 49
0.25
 74
     0
 49
-0.25
 74
     0
 49
0.25
 74
     0
 49
-0.25
 74
     0
  0
LTYPE
  5
27
330
5
100
AcDbSymbolTableRecord
100
AcDbLinetypeTableRecord
  2
HIDDEN
 70
     0
  3
_ _ _ _ _ _ _ _ _ _ _ _ _ _ _ _ _ _ _ _ _ _ _
 72
    65
 73
     2
 40
0.375
 49
0.25
 74
     0
 49
-0.125
 74
     0
  0
LTYPE
  5
514
330
5
100
AcDbSymbolTableRecord
100
AcDbLinetypeTableRecord
  2
CENTER
 70
     0
  3
Center ____ _ ____ _ ____ _ ____ _ ____ _ ____
 72
    65
 73
     4
 40
2.0
 49
1.25
 74
     0
 49
-0.25
 74
     0
 49
0.25
 74
     0
 49
-0.25
 74
     0
  0
ENDTAB
  0
TABLE
  2
LAYER
  5
2
102
{ACAD_XDICTIONARY
360
8BF
102
}
330
0
100
AcDbSymbolTable
 70
    15
  0
LAYER
  5
F
102
{ACAD_XDICTIONARY
360
A60
102
}
330
2
100
AcDbSymbolTableRecord
100
AcDbLayerTableRecord
  2
0
 70
     0
 62
     7
  6
CONTINUOUS
370
    -3
390
616
  0
LAYER
  5
34
102
{ACAD_XDICTIONARY
360
A66
102
}
330
2
100
AcDbSymbolTableRecord
100
AcDbLayerTableRecord
  2
寸法線
 70
     0
 62
     7
  6
CONTINUOUS
370
    -3
390
616
  0
LAYER
  5
2F4
102
{ACAD_XDICTIONARY
360
A6E
102
}
330
2
100
AcDbSymbolTableRecord
100
AcDbLayerTableRecord
  2
文字
 70
     0
 62
     7
  6
CONTINUOUS
370
    -3
390
616
  0
LAYER
  5
305
102
{ACAD_XDICTIONARY
360
A72
102
}
330
2
100
AcDbSymbolTableRecord
100
AcDbLayerTableRecord
  2
姿図
 70
     0
 62
     8
  6
CONTINUOUS
370
    -3
390
616
  0
ENDTAB
  0
TABLE
  2
STYLE
  5
3
330
0
100
AcDbSymbolTable
 70
     1
  0
STYLE
  5
10
330
3
100
AcDbSymbolTableRecord
100
AcDbTextStyleTableRecord
  2
STANDARD
 70
     0
 40
0.0
 41
1.0
 50
0.0
 71
     0
 42
53.44730959687513
  3
MONOTXT
  4
BIGFONT
  0
ENDTAB
  0
TABLE
  2
VIEW
  5
6
330
0
100
AcDbSymbolTable
 70
     0
  0
ENDTAB
  0
TABLE
  2
UCS
  5
7
330
0
100
AcDbSymbolTable
 70
     0
  0
ENDTAB
  0
TABLE
  2
APPID
  5
9
330
0
100
AcDbSymbolTable
 70
    17
  0
APPID
  5
11
330
9
100
AcDbSymbolTableRecord
100
AcDbRegAppTableRecord
  2
ACAD
 70
     0
  0
APPID
  5
8BB
330
9
100
AcDbSymbolTableRecord
100
AcDbRegAppTableRecord
  2
ACAD_PSEXT
 70
     0
  0
APPID
  5
A5A
330
9
100
AcDbSymbolTableRecord
100
AcDbRegAppTableRecord
  2
ACAD_MLEADERVER
 70
     0
  0
APPID
  5
A5E
330
9
100
AcDbSymbolTableRecord
100
AcDbRegAppTableRecord
  2
ACAD_DSTYLE_DIMJAG
 70
     0
  0
APPID
  5
A5F
330
9
100
AcDbSymbolTableRecord
100
AcDbRegAppTableRecord
  2
ACAD_DSTYLE_DIMTALN
 70
     0
  0
APPID
  5
12C0
330
9
100
AcDbSymbolTableRecord
100
AcDbRegAppTableRecord
  2
ACAD_EXEMPT_FROM_CAD_STANDARDS
 70
     0
  0
APPID
  5
1C50
330
9
100
AcDbSymbolTableRecord
100
AcDbRegAppTableRecord
  2
AcAecLayerStandard
 70
     0
  0
APPID
  5
5088
330
9
100
AcDbSymbolTableRecord
100
AcDbRegAppTableRecord
  2
ACAD_DSTYLE_DIMRADIAL_EXTENSION
 70
     0
  0
APPID
  5
14AF3
330
9
100
AcDbSymbolTableRecord
100
AcDbRegAppTableRecord
  2
WACOM_STRING
 70
     0
  0
APPID
  5
14AF4
330
9
100
AcDbSymbolTableRecord
100
AcDbRegAppTableRecord
  2
WACOM_DRSYM_ARROW
 70
     0
  0
APPID
  5
1E1A8
330
9
100
AcDbSymbolTableRecord
100
AcDbRegAppTableRecord
  2
GENIUS_GENODEF_13
 70
     0
  0
APPID
  5
1E1A9
330
9
100
AcDbSymbolTableRecord
100
AcDbRegAppTableRecord
  2
GENIUS_GENREC_14
 70
     0
  0
APPID
  5
1E1AA
330
9
100
AcDbSymbolTableRecord
100
AcDbRegAppTableRecord
  2
GENIUS_GENOBJ-N-REC_13
 70
     0
  0
APPID
  5
27C72
330
9
100
AcDbSymbolTableRecord
100
AcDbRegAppTableRecord
  2
ASK_MEN_XD
 70
     0
  0
APPID
  5
29316
330
9
100
AcDbSymbolTableRecord
100
AcDbRegAppTableRecord
  2
ACAD_DSTYLE_DIMBREAK
 70
     0
  0
APPID
  5
16BE64
330
9
100
AcDbSymbolTableRecord
100
AcDbRegAppTableRecord
  2
ACAD_DSTYLE_DIMJOGGED_JOGANGLE_SYMBOL
 70
     0
  0
APPID
  5
16BE65
330
9
100
AcDbSymbolTableRecord
100
AcDbRegAppTableRecord
  2
AcadStringInfo
 70
     0
  0
ENDTAB
  0
TABLE
  2
DIMSTYLE
  5
A
330
0
100
AcDbSymbolTable
 70
     3
100
AcDbDimStyleTable
  0
DIMSTYLE
105
1CC
330
A
100
AcDbSymbolTableRecord
100
AcDbDimStyleTableRecord
  2
STANDARD
 70
     0
 41
2.5
 42
1.5
 44
1.0
 73
     0
 74
     0
 77
     3
 78
     8
 79
     2
140
2.500000000000003
141
0.0
147
1.0
171
     0
172
     1
173
     1
176
     8
177
     8
271
     2
178
   256
179
     2
271
     2
272
     2
274
     0
289
     1
340
10
341
608
343
608
344
608
1001
ACAD_DSTYLE_DIMJAG
1070
   388
1040
1.5
1001
ACAD_DSTYLE_DIMTALN
1070
   392
1070
     0
  0
ENDTAB
  0
TABLE
  2
BLOCK_RECORD
  5
1
330
0
100
AcDbSymbolTable
 70
    16
  0
BLOCK_RECORD
  5
18
102
{ACAD_XDICTIONARY
360
143F
102
}
330
1
100
AcDbSymbolTableRecord
100
AcDbBlockTableRecord
  2
*MODEL_SPACE
340
619
  0
BLOCK_RECORD
  5
15
330
1
100
AcDbSymbolTableRecord
100
AcDbBlockTableRecord
  2
*PAPER_SPACE
340
61A
  0
BLOCK_RECORD
  5
608
330
1
100
AcDbSymbolTableRecord
100
AcDbBlockTableRecord
  2
_OPEN
340
0
102
{BLKREFS
331
15C2B4
331
15C2B5
331
15C2C8
331
15C2C9
331
15C2D3
331
15C2D4
331
163619
331
16361A
331
16BFBF
331
16BFC0
331
16BFC8
331
16BFC9
331
16BFD3
331
16BFD4
331
16BFDE
331
16BFDF
331
16D90C
331
16D90D
331
16D917
331
16D918
331
16D922
331
16D923
331
16D92B
331
16D92C
102
}
  0
BLOCK_RECORD
  5
89D
330
1
100
AcDbSymbolTableRecord
100
AcDbBlockTableRecord
  2
SUN
340
0
  0
BLOCK_RECORD
  5
1F1F
330
1
100
AcDbSymbolTableRecord
100
AcDbBlockTableRecord
  2
_OPEN30
340
0
  0
ENDTAB
  0
ENDSEC
  0
SECTION
  2
BLOCKS
  0
BLOCK
  5
39
330
18
100
AcDbEntity
  8
0
100
AcDbBlockBegin
  2
*MODEL_SPACE
 70
     0
 10
0.0
 20
0.0
 30
0.0
  3
*MODEL_SPACE
  1
*MODEL_SPACE
  0
ENDBLK
  5
3A
330
18
100
AcDbEntity
  8
0
100
AcDbBlockEnd
  0
BLOCK
  5
37
330
15
100
AcDbEntity
 67
     1
  8
0
100
AcDbBlockBegin
  2
*PAPER_SPACE
 70
     0
 10
0.0
 20
0.0
 30
0.0
  3
*PAPER_SPACE
  1
*PAPER_SPACE
  0
ENDBLK
  5
38
330
15
100
AcDbEntity
 67
     1
  8
0
100
AcDbBlockEnd
  0
BLOCK
  5
609
330
608
100
AcDbEntity
  8
0
100
AcDbBlockBegin
  2
_OPEN
 70
     0
 10
0.0
 20
0.0
 30
0.0
  3
_OPEN
  1
_OPEN
  0
LINE
  5
60A
330
608
100
AcDbEntity
  8
0
  6
ByBlock
 62
     0
100
AcDbLine
 10
-1.0
 20
0.1666666666666667
 30
0.0
 11
0.0
 21
0.0
 31
0.0
  0
LINE
  5
60B
330
608
100
AcDbEntity
  8
0
  6
ByBlock
 62
     0
100
AcDbLine
 10
0.0
 20
0.0
 30
0.0
 11
-1.0
 21
-0.1666666666666667
 31
0.0
  0
LINE
  5
60C
330
608
100
AcDbEntity
  8
0
  6
ByBlock
 62
     0
100
AcDbLine
 10
0.0
 20
0.0
 30
0.0
 11
-1.0
 21
0.0
 31
0.0
  0
ENDBLK
  5
60D
330
608
100
AcDbEntity
  8
0
100
AcDbBlockEnd
  0
BLOCK
  5
89E
330
89D
100
AcDbEntity
  8
0
100
AcDbBlockBegin
  2
SUN
 70
     0
 10
0.0
 20
0.0
 30
0.0
  3
SUN
  1
SUN
  0
LINE
  5
89F
330
89D
100
AcDbEntity
  8
0
100
AcDbLine
 10
-0.0000000000000568
 20
0.0
 30
0.0
 11
-1.500000000000057
 21
0.0
 31
0.0
  0
LINE
  5
8A0
330
89D
100
AcDbEntity
  8
0
100
AcDbLine
 10
-0.0000000000000568
 20
0.0000000000000284
 30
0.0
 11
-1.500000000000057
 21
0.401923788646684
 31
0.0
  0
LINE
  5
8A1
330
89D
100
AcDbEntity
  8
0
100
AcDbLine
 10
-0.0000000000000568
 20
0.0000000000000284
 30
0.0
 11
-1.500000000000057
 21
-0.4019237886466556
 31
0.0
  0
ENDBLK
  5
8A2
330
89D
100
AcDbEntity
  8
0
100
AcDbBlockEnd
  0
BLOCK
  5
1F20
330
1F1F
100
AcDbEntity
  8
0
100
AcDbBlockBegin
  2
_OPEN30
 70
     0
 10
0.0
 20
0.0
 30
0.0
  3
_OPEN30
  1
_OPEN30
  0
LINE
  5
1F21
330
1F1F
100
AcDbEntity
  8
0
  6
ByBlock
 62
     0
100
AcDbLine
 10
-1.0
 20
0.26794919
 30
0.0
 11
0.0
 21
0.0
 31
0.0
  0
LINE
  5
1F22
330
1F1F
100
AcDbEntity
  8
0
  6
ByBlock
 62
     0
100
AcDbLine
 10
0.0
 20
0.0
 30
0.0
 11
-1.0
 21
-0.26794919
 31
0.0
  0
LINE
  5
1F23
330
1F1F
100
AcDbEntity
  8
0
  6
ByBlock
 62
     0
100
AcDbLine
 10
0.0
 20
0.0
 30
0.0
 11
-1.0
 21
0.0
 31
0.0
  0
ENDBLK
  5
1F24
330
1F1F
100
AcDbEntity
  8
0
100
AcDbBlockEnd
  0
ENDSEC
  0
SECTION
  2
ENTITIES
  0
MTEXT
  5
D0CC6
330
18
100
AcDbEntity
  8
寸法線
100
AcDbMText
 10
2610.774875364868
 20
-2740.315466585338
 30
0.0
 40
2.500000000000003
 41
0.0
 71
     9
 72
     1
  1
\A1;
 73
     1
 44
1.0
  0
MTEXT
  5
F6D77
330
18
100
AcDbEntity
  8
文字
100
AcDbMText
 10
5821.057140836062
 20
-2842.341718131323
 30
0.0
 40
2.5
 41
64.39156592258223
 71
     1
 72
     5
  1
   
 73
     1
 44
1.0
  0
MTEXT
  5
F6D78
330
18
100
AcDbEntity
  8
寸法線
100
AcDbMText
 10
6222.662262480188
 20
-2968.738290481128
 30
0.0
 40
3.000000000000001
 41
0.0
 71
     7
 72
     1
  1
\A1;
 73
     1
 44
1.0
  0
TEXT
  5
16C42A
330
18
100
AcDbEntity
  8
文字
100
AcDbText
 10
5039.721646800705
 20
-7046.462626623162
 30
0.0
 40
6.5
  1
SX-B1352D/WC,NC
100
AcDbText
  0
ELLIPSE
  5
16D47E
330
18
100
AcDbEntity
  8
姿図
100
AcDbEllipse
 10
5089.793564194404
 20
-6971.583535172858
 30
0.0
 11
15.172283203125
 21
0.0
 31
0.0
210
0.0
220
0.0
230
1.0
 40
0.4970283540701101
 41
7.074854205792756
 42
8.482454624318267
  0
ELLIPSE
  5
16D47F
330
18
100
AcDbEntity
  8
姿図
100
AcDbEllipse
 10
5090.233764715237
 20
-6963.557168245776
 30
0.0
 11
6.807216536458333
 21
0.0
 31
0.0
210
0.0
220
0.0
230
1.0
 40
0.5787746356777222
 41
1.112128156115095
 42
1.201556856358739
  0
ELLIPSE
  5
16D480
330
18
100
AcDbEntity
  8
姿図
100
AcDbEllipse
 10
5090.233764715237
 20
-6963.557168245776
 30
0.0
 11
6.807216536458333
 21
0.0
 31
0.0
210
0.0
220
0.0
230
1.0
 40
0.5787746356777222
 41
1.412415807147717
 42
1.598884992121848
  0
ELLIPSE
  5
16D481
330
18
100
AcDbEntity
  8
姿図
100
AcDbEllipse
 10
5090.233764715237
 20
-6963.557168245776
 30
0.0
 11
6.807216536458333
 21
0.0
 31
0.0
210
0.0
220
0.0
230
1.0
 40
0.5787746356777222
 41
1.728626964199836
 42
1.903766585222755
  0
LINE
  5
16D482
330
18
100
AcDbEntity
  8
姿図
100
AcDbLine
 10
5104.967607438803
 20
-7001.134949866927
 30
0.0
 11
5105.337390936135
 21
-7002.463603113203
 31
0.0
  0
LINE
  5
16D483
330
18
100
AcDbEntity
  8
姿図
100
AcDbLine
 10
5075.377066118223
 20
-7001.180019417348
 30
0.0
 11
5074.98622031415
 21
-7002.526883543602
 31
0.0
  0
LINE
  5
16D484
330
18
100
AcDbEntity
  8
姿図
100
AcDbLine
 10
5073.912314180973
 20
-7006.22759014111
 30
0.0
 11
5073.427369648034
 21
-7007.898720770713
 31
0.0
  0
LINE
  5
16D485
330
18
100
AcDbEntity
  8
姿図
100
AcDbLine
 10
5105.214225001696
 20
-6991.937434912441
 30
0.0
 11
5105.130747065368
 21
-6995.598302976621
 31
0.0
  0
LINE
  5
16D486
330
18
100
AcDbEntity
  8
姿図
100
AcDbLine
 10
5075.343758855862
 20
-6991.937434912441
 30
0.0
 11
5075.236239491484
 21
-6995.797799082078
 31
0.0
  0
LINE
  5
16D487
330
18
100
AcDbEntity
  8
姿図
100
AcDbLine
 10
5074.689014324612
 20
-6977.702190120775
 30
0.0
 11
5074.621271905468
 21
-6980.261963101055
 31
0.0
  0
LINE
  5
16D488
330
18
100
AcDbEntity
  8
姿図
100
AcDbLine
 10
5075.380135310767
 20
-6980.300332954219
 30
0.0
 11
5074.621271905468
 21
-6980.261963101055
 31
0.0
  0
LINE
  5
16D489
330
18
100
AcDbEntity
  8
姿図
100
AcDbLine
 10
5075.592103387112
 20
-6977.702190120775
 30
0.0
 11
5074.689014324612
 21
-6977.702190120775
 31
0.0
  0
LINE
  5
16D48A
330
18
100
AcDbEntity
  8
姿図
100
AcDbLine
 10
5106.005952035427
 20
-6978.743643846246
 30
0.0
 11
5105.981781251697
 21
-6981.314645589524
 31
0.0
  0
LINE
  5
16D48B
330
18
100
AcDbEntity
  8
姿図
100
AcDbLine
 10
5105.981781251697
 20
-6981.314645589524
 30
0.0
 11
5105.309540260031
 21
-6981.315696531199
 31
0.0
  0
LINE
  5
16D48C
330
18
100
AcDbEntity
  8
姿図
100
AcDbLine
 10
5106.005952035427
 20
-6978.743643846246
 30
0.0
 11
5105.241189589101
 21
-6978.748900578903
 31
0.0
  0
LINE
  5
16D48D
330
18
100
AcDbEntity
  8
姿図
100
AcDbLine
 10
5104.627569094473
 20
-6978.021203032588
 30
0.0
 11
5104.549762689748
 21
-6980.513567211582
 31
0.0
  0
LINE
  5
16D48E
330
18
100
AcDbEntity
  8
姿図
100
AcDbLine
 10
5076.210840495312
 20
-6976.528167724941
 30
0.0
 11
5076.205746699846
 21
-6980.049281709219
 31
0.0
  0
LINE
  5
16D48F
330
18
100
AcDbEntity
  8
姿図
100
AcDbLine
 10
5088.008815200287
 20
-6959.833717241554
 30
0.0
 11
5087.96441181415
 21
-6964.097483269295
 31
0.0
  0
LINE
  5
16D490
330
18
100
AcDbEntity
  8
姿図
100
AcDbLine
 10
5093.247689275236
 20
-6960.024534594108
 30
0.0
 11
5093.29122673435
 21
-6964.245596433559
 31
0.0
  0
LINE
  5
16D491
330
18
100
AcDbEntity
  8
姿図
100
AcDbLine
 10
5091.307393483382
 20
-6959.666635060443
 30
0.0
 11
5091.349809801198
 21
-6964.08225459725
 31
0.0
  0
LINE
  5
16D492
330
18
100
AcDbEntity
  8
姿図
100
AcDbLine
 10
5090.042584229829
 20
-6959.618878088337
 30
0.0
 11
5090.087036720445
 21
-6964.065234391608
 31
0.0
  0
LINE
  5
16D493
330
18
100
AcDbEntity
  8
姿図
100
AcDbLine
 10
5097.447381251696
 20
-6958.691712256192
 30
0.0
 11
5095.59602552253
 21
-6959.549656787442
 31
0.0
  0
LINE
  5
16D494
330
18
100
AcDbEntity
  8
姿図
100
AcDbLine
 10
5095.279914585029
 20
-6957.201578922858
 30
0.0
 11
5092.706047918362
 21
-6959.685123454108
 31
0.0
  0
LINE
  5
16D495
330
18
100
AcDbEntity
  8
姿図
100
AcDbLine
 10
5092.390003126696
 20
-6956.433923454108
 30
0.0
 11
5091.16727582043
 21
-6959.654546455323
 31
0.0
  0
LINE
  5
16D496
330
18
100
AcDbEntity
  8
姿図
100
AcDbLine
 10
5089.545170053779
 20
-6956.208167724942
 30
0.0
 11
5090.173608671656
 21
-6959.617477817623
 31
0.0
  0
LINE
  5
16D497
330
18
100
AcDbEntity
  8
姿図
100
AcDbLine
 10
5086.474614324613
 20
-6956.885501058275
 30
0.0
 11
5088.768000653042
 21
-6959.709743114257
 31
0.0
  0
LINE
  5
16D498
330
18
100
AcDbEntity
  8
姿図
100
AcDbLine
 10
5083.991036720446
 20
-6957.969234391609
 30
0.0
 11
5086.141272768667
 21
-6959.457870106211
 31
0.0
  0
ELLIPSE
  5
16D499
330
18
100
AcDbEntity
  8
姿図
100
AcDbEllipse
 10
5090.064514064195
 20
-6998.947834912442
 30
0.0
 11
-15.72127068290483
 21
1.572368522818131
 31
0.0
210
0.0
220
0.0
230
1.0
 40
0.4268081429402281
 41
3.41487396931836
 42
3.77556961069008
  0
ELLIPSE
  5
16D49A
330
18
100
AcDbEntity
  8
姿図
100
AcDbEllipse
 10
5090.064514064195
 20
-6998.947834912442
 30
0.0
 11
15.08197760416667
 21
0.0
 31
0.0
210
0.0
220
0.0
230
1.0
 40
0.359285297639149
 41
7.112852223479593
 42
7.656454855824705
  0
ELLIPSE
  5
16D49B
330
18
100
AcDbEntity
  8
姿図
100
AcDbEllipse
 10
5090.064514064195
 20
-6998.947834912442
 30
0.0
 11
15.08197760416667
 21
0.0
 31
0.0
210
0.0
220
0.0
230
1.0
 40
0.359285297639149
 41
7.825574573037986
 42
8.547289682742333
  0
ELLIPSE
  5
16D49C
330
18
100
AcDbEntity
  8
姿図
100
AcDbEllipse
 10
5090.064514064195
 20
-6998.947834912442
 30
0.0
 11
15.08197760416667
 21
0.0
 31
0.0
210
0.0
220
0.0
230
1.0
 40
0.359285297639149
 41
8.914808065990233
 42
9.337446565053689
  0
ELLIPSE
  5
16D49D
330
18
100
AcDbEntity
  8
姿図
100
AcDbEllipse
 10
5090.177408465237
 20
-6998.067301579108
 30
0.0
 11
-15.23373145994704
 21
0.2106274502766241
 31
0.0
210
0.0
220
0.0
230
1.0
 40
0.4186036671425239
 41
3.202482138794768
 42
3.703239094700399
  0
ELLIPSE
  5
16D49E
330
18
100
AcDbEntity
  8
姿図
100
AcDbEllipse
 10
5090.177408465237
 20
-6998.067301579108
 30
0.0
 11
15.172283203125
 21
0.0
 31
0.0
210
0.0
220
0.0
230
1.0
 40
0.4062539168738495
 41
7.129382602215342
 42
7.660879420274057
  0
ELLIPSE
  5
16D49F
330
18
100
AcDbEntity
  8
姿図
100
AcDbEllipse
 10
5090.177408465237
 20
-6998.067301579108
 30
0.0
 11
15.172283203125
 21
0.0
 31
0.0
210
0.0
220
0.0
230
1.0
 40
0.4062539168738495
 41
7.833746855100951
 42
8.54882710759696
  0
ELLIPSE
  5
16D4A0
330
18
100
AcDbEntity
  8
姿図
100
AcDbEllipse
 10
5090.177408465237
 20
-6998.067301579108
 30
0.0
 11
15.172283203125
 21
0.0
 31
0.0
210
0.0
220
0.0
230
1.0
 40
0.4062539168738495
 41
8.919585895043166
 42
9.351902541126062
  0
LINE
  5
16D4A1
330
18
100
AcDbEntity
  8
姿図
100
AcDbLine
 10
5076.900423583456
 20
-6995.084173506073
 30
0.0
 11
5076.901579296632
 21
-6996.302675220327
 31
0.0
  0
LINE
  5
16D4A2
330
18
100
AcDbEntity
  8
姿図
100
AcDbLine
 10
5103.117882210602
 20
-6994.849362358666
 30
0.0
 11
5103.128326193745
 21
-6996.239985235496
 31
0.0
  0
LINE
  5
16D4A3
330
18
100
AcDbEntity
  8
姿図
100
AcDbLine
 10
5100.234132820816
 20
-6993.452062671562
 30
0.0
 11
5100.247069793362
 21
-6994.996745849942
 31
0.0
  0
LINE
  5
16D4A4
330
18
100
AcDbEntity
  8
姿図
100
AcDbLine
 10
5093.089035889298
 20
-6992.018064756798
 30
0.0
 11
5093.024273796696
 21
-6993.634469721326
 31
0.0
  0
LINE
  5
16D4A5
330
18
100
AcDbEntity
  8
姿図
100
AcDbLine
 10
5090.484395310755
 20
-6991.904763929236
 30
0.0
 11
5090.49289110168
 21
-6993.531288306246
 31
0.0
  0
LINE
  5
16D4A6
330
18
100
AcDbEntity
  8
姿図
100
AcDbLine
 10
5080.463100049207
 20
-6993.332562680871
 30
0.0
 11
5080.425848193945
 21
-6994.78009187462
 31
0.0
  0
LINE
  5
16D4A7
330
18
100
AcDbEntity
  8
姿図
100
AcDbLine
 10
5097.808669793362
 20
-6975.444434391608
 30
0.0
 11
5098.079603126695
 21
-6976.528167724941
 31
0.0
  0
LINE
  5
16D4A8
330
18
100
AcDbEntity
  8
姿図
100
AcDbLine
 10
5097.123495817984
 20
-6975.188398893381
 30
0.0
 11
5097.419454521719
 21
-6976.330113172839
 31
0.0
  0
LINE
  5
16D4A9
330
18
100
AcDbEntity
  8
姿図
100
AcDbLine
 10
5084.048715283326
 20
-6975.159274046137
 30
0.0
 11
5083.847597177571
 21
-6976.114456173818
 31
0.0
  0
LINE
  5
16D4AA
330
18
100
AcDbEntity
  8
姿図
100
AcDbLine
 10
5084.849561204976
 20
-6974.899754112203
 30
0.0
 11
5084.640256012916
 21
-6975.946218755625
 31
0.0
  0
LINE
  5
16D4AB
330
18
100
AcDbEntity
  8
姿図
100
AcDbLine
 10
5088.325970053779
 20
-6974.186887948954
 30
0.0
 11
5088.134913614908
 21
-6975.491855975362
 31
0.0
  0
LINE
  5
16D4AC
330
18
100
AcDbEntity
  8
姿図
100
AcDbLine
 10
5089.274236720446
 20
-6974.102894850743
 30
0.0
 11
5089.274236720446
 21
-6975.435730062154
 31
0.0
  0
LINE
  5
16D4AD
330
18
100
AcDbEntity
  8
姿図
100
AcDbLine
 10
5092.931869793362
 20
-6974.206676984609
 30
0.0
 11
5092.931869793362
 21
-6975.544932595226
 31
0.0
  0
LINE
  5
16D4AE
330
18
100
AcDbEntity
  8
姿図
100
AcDbLine
 10
5093.770856935566
 20
-6974.326995042349
 30
0.0
 11
5094.094215662239
 21
-6975.674309912652
 31
0.0
  0
LINE
  5
16D4AF
330
18
100
AcDbEntity
  8
姿図
100
AcDbLine
 10
5100.4545029345
 20
-6966.217871503596
 30
0.0
 11
5101.556558855862
 21
-6977.973123454109
 31
0.0
  0
LINE
  5
16D4B0
330
18
100
AcDbEntity
  8
姿図
100
AcDbLine
 10
5080.873624054871
 20
-6965.483378282755
 30
0.0
 11
5079.774325467019
 21
-6977.484043350822
 31
0.0
  0
LINE
  5
16D4B1
330
18
100
AcDbEntity
  8
姿図
100
AcDbLine
 10
5083.178236720446
 20
-6961.762301058274
 30
0.0
 11
5082.985625273528
 21
-6964.844260560762
 31
0.0
  0
LINE
  5
16D4B2
330
18
100
AcDbEntity
  8
姿図
100
AcDbLine
 10
5083.674958855862
 20
-6958.104701058275
 30
0.0
 11
5083.441479078575
 21
-6964.735191578446
 31
0.0
  0
LINE
  5
16D4B3
330
18
100
AcDbEntity
  8
姿図
100
AcDbLine
 10
5083.991036720446
 20
-6957.969234391609
 30
0.0
 11
5083.89975082093
 21
-6964.634710083126
 31
0.0
  0
LINE
  5
16D4B4
330
18
100
AcDbEntity
  8
姿図
100
AcDbLine
 10
5086.20368099128
 20
-6956.930645589525
 30
0.0
 11
5086.022214013056
 21
-6964.27916117196
 31
0.0
  0
LINE
  5
16D4B5
330
18
100
AcDbEntity
  8
姿図
100
AcDbLine
 10
5086.474614324613
 20
-6956.885501058275
 30
0.0
 11
5086.383299302449
 21
-6964.235440839347
 31
0.0
  0
LINE
  5
16D4B6
330
18
100
AcDbEntity
  8
姿図
100
AcDbLine
 10
5089.183947657945
 20
-6956.208167724942
 30
0.0
 11
5089.138336100946
 21
-6964.049515610141
 31
0.0
  0
LINE
  5
16D4B7
330
18
100
AcDbEntity
  8
姿図
100
AcDbLine
 10
5089.545170053779
 20
-6956.208167724942
 30
0.0
 11
5089.677958721725
 21
-6964.042699133774
 31
0.0
  0
LINE
  5
16D4B8
330
18
100
AcDbEntity
  8
姿図
100
AcDbLine
 10
5097.769895609645
 20
-6958.780115017835
 30
0.0
 11
5098.080924669723
 21
-6965.266818384419
 31
0.0
  0
LINE
  5
16D4B9
330
18
100
AcDbEntity
  8
姿図
100
AcDbLine
 10
5097.447381251696
 20
-6958.691712256192
 30
0.0
 11
5097.624864196086
 21
-6965.124672884138
 31
0.0
  0
LINE
  5
16D4BA
330
18
100
AcDbEntity
  8
姿図
100
AcDbLine
 10
5095.50573646003
 20
-6957.246723454108
 30
0.0
 11
5095.780091776519
 21
-6964.654316999336
 31
0.0
  0
LINE
  5
16D4BB
330
18
100
AcDbEntity
  8
姿図
100
AcDbLine
 10
5095.279914585029
 20
-6957.201578922858
 30
0.0
 11
5095.279914585029
 21
-6964.561923454108
 31
0.0
  0
LINE
  5
16D4BC
330
18
100
AcDbEntity
  8
姿図
100
AcDbLine
 10
5092.570581251695
 20
-6956.433441046096
 30
0.0
 11
5092.844591281364
 21
-6964.196526420247
 31
0.0
  0
LINE
  5
16D4BD
330
18
100
AcDbEntity
  8
姿図
100
AcDbLine
 10
5092.390003126696
 20
-6956.433923454108
 30
0.0
 11
5092.434864418971
 21
-6964.157630312764
 31
0.0
  0
ELLIPSE
  5
16D4BE
330
18
100
AcDbEntity
  8
姿図
100
AcDbEllipse
 10
5090.199964194404
 20
-6982.962735172858
 30
0.0
 11
15.172283203125
 21
0.0
 31
0.0
210
0.0
220
0.0
230
1.0
 40
0.4970283540701101
 41
6.361584542067506
 42
9.229399068880687
  0
ELLIPSE
  5
16D4BF
330
18
100
AcDbEntity
  8
姿図
100
AcDbEllipse
 10
5090.27899192878
 20
-6991.937434912441
 30
0.0
 11
14.93523307291667
 21
0.0
 31
0.0
210
0.0
220
0.0
230
1.0
 40
0.4603164409801034
 41
6.262193097272712
 42
9.42477796076938
  0
ELLIPSE
  5
16D4C0
330
18
100
AcDbEntity
  8
姿図
100
AcDbEllipse
 10
5090.177358855862
 20
-7001.724901579108
 30
0.0
 11
14.85846326965584
 21
0.0
 31
0.0
210
0.0
220
0.0
230
1.0
 40
0.4148342508443969
 41
0.095859086798415
 42
3.053076739676217
  0
ELLIPSE
  5
16D4C1
330
18
100
AcDbEntity
  8
姿図
100
AcDbEllipse
 10
5090.098364194405
 20
-7008.159634391608
 30
0.0
 11
17.08012747395833
 21
0.0
 31
0.0
210
0.0
220
0.0
230
1.0
 40
0.3542648350204007
 41
6.588844122369665
 42
8.063259535111335
  0
ELLIPSE
  5
16D4C2
330
18
100
AcDbEntity
  8
姿図
100
AcDbEllipse
 10
5090.098364194405
 20
-7008.159634391608
 30
0.0
 11
17.08012747395833
 21
0.0
 31
0.0
210
0.0
220
0.0
230
1.0
 40
0.3542648350204007
 41
8.47455964473377
 42
9.099788009899381
  0
ELLIPSE
  5
16D4C3
330
18
100
AcDbEntity
  8
姿図
100
AcDbEllipse
 10
5090.199964194404
 20
-7000.437968245775
 30
0.0
 11
15.172283203125
 21
0.0
 31
0.0
210
0.0
220
0.0
230
1.0
 40
0.4062539168738495
 41
6.102070736612631
 42
9.604636669081895
  0
ELLIPSE
  5
16D4C4
330
18
100
AcDbEntity
  8
姿図
100
AcDbEllipse
 10
5090.222519923571
 20
-6996.848101579109
 30
0.0
 11
15.172283203125
 21
0.0
 31
0.0
210
0.0
220
0.0
230
1.0
 40
0.4434548040623525
 41
6.277624879366126
 42
9.42477796076938
  0
ELLIPSE
  5
16D4C5
330
18
100
AcDbEntity
  8
姿図
100
AcDbEllipse
 10
5090.290253256904
 20
-7006.714744808274
 30
0.0
 11
18.15254986979166
 21
0.0
 31
0.0
210
0.0
220
0.0
230
1.0
 40
0.3420334162633325
 41
6.561691422199647
 42
8.067365724106057
  0
ELLIPSE
  5
16D4C6
330
18
100
AcDbEntity
  8
姿図
100
AcDbEllipse
 10
5090.290253256904
 20
-7006.714744808274
 30
0.0
 11
18.15254986979166
 21
0.0
 31
0.0
210
0.0
220
0.0
230
1.0
 40
0.3420334162633325
 41
8.146893070061683
 42
8.351464029464973
  0
ELLIPSE
  5
16D4C7
330
18
100
AcDbEntity
  8
姿図
100
AcDbEllipse
 10
5090.290253256904
 20
-7006.714744808274
 30
0.0
 11
18.15254986979166
 21
0.0
 31
0.0
210
0.0
220
0.0
230
1.0
 40
0.3420334162633325
 41
8.439057421236186
 42
9.664094613630073
  0
ELLIPSE
  5
16D4C8
330
18
100
AcDbEntity
  8
姿図
100
AcDbEllipse
 10
5090.222519923571
 20
-7005.901944808274
 30
0.0
 11
18.15254986979166
 21
0.0
 31
0.0
210
0.0
220
0.0
230
1.0
 40
0.3420334162633325
 41
6.52893080039274
 42
8.358669529499954
  0
ELLIPSE
  5
16D4C9
330
18
100
AcDbEntity
  8
姿図
100
AcDbEllipse
 10
5090.222519923571
 20
-7005.901944808274
 30
0.0
 11
18.15254986979166
 21
0.0
 31
0.0
210
0.0
220
0.0
230
1.0
 40
0.3420334162633325
 41
8.426891086246613
 42
9.51880220902288
  0
ARC
  5
16D4CA
330
18
100
AcDbEntity
  8
姿図
100
AcDbCircle
 10
5168.254887268618
 20
-6985.844847104816
 30
0.0
 40
93.04010526863462
100
AcDbArc
 50
174.2529884563951
 51
183.4469198872945
  0
ARC
  5
16D4CB
330
18
100
AcDbEntity
  8
姿図
100
AcDbCircle
 10
4946.106095610158
 20
-6984.270783635727
 30
0.0
 40
159.2308680130216
100
AcDbArc
 50
357.4187120087766
 51
2.250399010489077
  0
LINE
  5
16D4CC
330
18
100
AcDbEntity
  8
姿図
100
AcDbLine
 10
5105.214158855863
 20
-6978.018301058275
 30
0.0
 11
5104.627569094473
 21
-6978.021203032588
 31
0.0
  0
LINE
  5
16D4CD
330
18
100
AcDbEntity
  8
姿図
100
AcDbLine
 10
5075.682425522528
 20
-6976.528167724941
 30
0.0
 11
5076.210840495312
 21
-6976.528167724941
 31
0.0
  0
ARC
  5
16D4CE
330
18
100
AcDbEntity
  8
姿図
100
AcDbCircle
 10
5090.544527527533
 20
-6993.839119855777
 30
0.0
 40
19.77706288061811
100
AcDbArc
 50
68.4507183271559
 51
70.56990692624822
  0
ARC
  5
16D4CF
330
18
100
AcDbEntity
  8
姿図
100
AcDbCircle
 10
5090.544527527533
 20
-6993.839119855777
 30
0.0
 40
19.77706288061811
100
AcDbArc
 50
80.61109519498008
 51
83.06676485220326
  0
ARC
  5
16D4D0
330
18
100
AcDbEntity
  8
姿図
100
AcDbCircle
 10
5090.544527527533
 20
-6993.839119855777
 30
0.0
 40
19.77706288061811
100
AcDbArc
 50
93.68267220367096
 51
96.4409008326219
  0
ARC
  5
16D4D1
330
18
100
AcDbEntity
  8
姿図
100
AcDbCircle
 10
5090.544527527533
 20
-6993.839119855777
 30
0.0
 40
19.77706288061811
100
AcDbArc
 50
106.7357525055276
 51
109.1748340181634
  0
LINE
  5
16D4D2
330
18
100
AcDbEntity
  8
姿図
100
AcDbLine
 10
5097.123495817984
 20
-6975.188398893381
 30
0.0
 11
5097.111966035035
 21
-6976.249679375022
 31
0.0
  0
LINE
  5
16D4D3
330
18
100
AcDbEntity
  8
姿図
100
AcDbLine
 10
5092.931869793362
 20
-6974.206676984609
 30
0.0
 11
5092.766904475126
 21
-6975.530391218446
 31
0.0
  0
LINE
  5
16D4D4
330
18
100
AcDbEntity
  8
姿図
100
AcDbLine
 10
5084.849561204976
 20
-6974.899754112203
 30
0.0
 11
5084.859386210225
 21
-6975.904295460632
 31
0.0
  0
LINE
  5
16D4D5
330
18
100
AcDbEntity
  8
姿図
100
AcDbLine
 10
5075.050236720445
 20
-6996.848101579109
 30
0.0
 11
5075.027680991278
 21
-7000.437968245775
 31
0.0
  0
LINE
  5
16D4D6
330
18
100
AcDbEntity
  8
姿図
100
AcDbLine
 10
5105.394803126696
 20
-6996.848101579109
 30
0.0
 11
5105.372198185204
 21
-7000.453667340886
 31
0.0
  0
LINE
  5
16D4D7
330
18
100
AcDbEntity
  8
姿図
100
AcDbLine
 10
5072.069970053779
 20
-7005.901944808274
 30
0.0
 11
5072.143804921876
 21
-7006.875711271906
 31
0.0
  0
LINE
  5
16D4D8
330
18
100
AcDbEntity
  8
姿図
100
AcDbLine
 10
5083.178236720446
 20
-6961.762301058274
 30
0.0
 11
5083.542695419316
 21
-6961.8607927951
 31
0.0
  0
LINE
  5
16D4D9
330
18
100
AcDbEntity
  8
姿図
100
AcDbLine
 10
5083.674958855862
 20
-6958.104701058275
 30
0.0
 11
5083.991036720446
 21
-6957.969234391609
 31
0.0
  0
LINE
  5
16D4DA
330
18
100
AcDbEntity
  8
姿図
100
AcDbLine
 10
5086.20368099128
 20
-6956.930645589525
 30
0.0
 11
5086.474614324613
 21
-6956.885501058275
 31
0.0
  0
LINE
  5
16D4DB
330
18
100
AcDbEntity
  8
姿図
100
AcDbLine
 10
5089.183947657945
 20
-6956.208167724942
 30
0.0
 11
5089.545170053779
 21
-6956.208167724942
 31
0.0
  0
LINE
  5
16D4DC
330
18
100
AcDbEntity
  8
姿図
100
AcDbLine
 10
5092.390003126696
 20
-6956.433923454108
 30
0.0
 11
5092.570581251695
 21
-6956.433441046096
 31
0.0
  0
LINE
  5
16D4DD
330
18
100
AcDbEntity
  8
姿図
100
AcDbLine
 10
5095.50573646003
 20
-6957.246723454108
 30
0.0
 11
5095.279914585029
 21
-6957.201578922858
 31
0.0
  0
LINE
  5
16D4DE
330
18
100
AcDbEntity
  8
姿図
100
AcDbLine
 10
5097.769895609645
 20
-6958.780115017835
 30
0.0
 11
5097.447381251696
 21
-6958.691712256192
 31
0.0
  0
LINE
  5
16D4DF
330
18
100
AcDbEntity
  8
姿図
100
AcDbLine
 10
5089.274236720446
 20
-6974.102894850743
 30
0.0
 11
5089.090816947538
 21
-6975.44185738487
 31
0.0
  0
SPLINE
  5
16D4E0
330
18
100
AcDbEntity
  8
姿図
100
AcDbSpline
210
0.0
220
0.0
230
1.0
 70
     8
 71
     3
 72
    26
 73
    22
 74
     0
 42
0.000000001
 43
0.0000000001
 40
0.0
 40
0.0
 40
0.0
 40
0.0
 40
0.1264422350829495
 40
0.1264422350829495
 40
0.1588844121662647
 40
0.1588844121662647
 40
0.1751106177118944
 40
0.1751106177118944
 40
0.1858741810274541
 40
0.1858741810274541
 40
0.1957084812443391
 40
0.1957084812443391
 40
0.2081347559133095
 40
0.2081347559133095
 40
0.2307818527987925
 40
0.2307818527987925
 40
0.2883799021281352
 40
0.2883799021281352
 40
0.5072725936264543
 40
0.5072725936264543
 40
1.002470307424774
 40
1.002470307424774
 40
1.002470307424774
 40
1.002470307424774
 10
5110.81141917196
 20
-7009.780500330521
 30
0.0000000000000084
 10
5110.814621355517
 20
-7009.780790923298
 30
-0.0000000000000011
 10
5110.818437478687
 20
-7009.780421471961
 30
0.0000000000000084
 10
5110.821511888287
 20
-7009.776688258677
 30
0.0000000000000179
 10
5110.822185867762
 20
-7009.775588863452
 30
0.0000000000000084
 10
5110.822915175149
 20
-7009.77318941282
 30
0.0000000000000084
 10
5110.823132682031
 20
-7009.772195273375
 30
0.0000000000000084
 10
5110.823342606997
 20
-7009.770148473217
 30
0.0000000000000084
 10
5110.823384801403
 20
-7009.769242000359
 30
0.0000000000000179
 10
5110.823359687125
 20
-7009.767313381879
 30
0.0000000000000274
 10
5110.823302320064
 20
-7009.766369486615
 30
0.0000000000000084
 10
5110.823087303943
 20
-7009.764203592972
 30
0.0000000000000274
 10
5110.822911845709
 20
-7009.763020902376
 30
0.0000000000000179
 10
5110.8223507654
 20
-7009.759890667465
 30
0.0000000000000179
 10
5110.821881909344
 20
-7009.757953673427
 30
0.0000000000000179
 10
5110.820265450407
 20
-7009.752014695146
 30
0.0000000000000179
 10
5110.818741824981
 20
-7009.747801665042
 30
0.0000000000000274
 10
5110.811773265334
 20
-7009.730386577415
 30
0.0000000000000179
 10
5110.803617859663
 20
-7009.715934467167
 30
-0.0000000000000011
 10
5110.78359215528
 20
-7009.682920505476
 30
0.0000000000000084
 10
5110.764311551095
 20
-7009.655985092887
 30
-0.0000000000000011
 10
5110.738728070673
 20
-7009.625491518009
 30
0.0000000000000179
  0
SPLINE
  5
16D4E1
330
18
100
AcDbEntity
  8
姿図
100
AcDbSpline
210
0.0
220
0.0
230
1.0
 70
     8
 71
     3
 72
    16
 73
    12
 74
     0
 42
0.000000001
 43
0.0000000001
 40
15.85860550385592
 40
15.85860550385592
 40
15.85860550385592
 40
15.85860550385592
 40
16.11243786898941
 40
16.11243786898941
 40
16.67677331177295
 40
16.67677331177295
 40
17.2411087545565
 40
17.2411087545565
 40
17.80544419734004
 40
17.80544419734004
 40
18.35651257010812
 40
18.35651257010812
 40
18.35651257010812
 40
18.35651257010812
 10
5107.720917616425
 20
-7005.033924767972
 30
0.0000000000000179
 10
5107.733070585648
 20
-7005.020759942472
 30
0.0000000000000179
 10
5107.744670363563
 20
-7005.006675988503
 30
0.0000000000000179
 10
5107.780074974603
 20
-7004.958749561547
 30
-0.0000000000000011
 10
5107.803094007677
 20
-7004.919582291979
 30
0.0000000000000084
 10
5107.843983279548
 20
-7004.830473169752
 30
0.0000000000000084
 10
5107.861858324602
 20
-7004.780534364675
 30
0.0000000000000179
 10
5107.891082661274
 20
-7004.672921839876
 30
0.0000000000000179
 10
5107.902457659751
 20
-7004.615160051695
 30
-0.0000000000000011
 10
5107.918066233055
 20
-7004.497316853975
 30
-0.0000000000000011
 10
5107.922461325213
 20
-7004.437320671141
 30
0.0000000000000179
 10
5107.923796652154
 20
-7004.377917020687
 30
0.0000000000000084
  0
SPLINE
  5
16D4E2
330
18
100
AcDbEntity
  8
姿図
100
AcDbSpline
210
0.0
220
0.0
230
1.0
 70
     8
 71
     3
 72
    30
 73
    26
 74
     0
 42
0.000000001
 43
0.0000000001
 40
5.468358937646049
 40
5.468358937646049
 40
5.468358937646049
 40
5.468358937646049
 40
5.554474529312383
 40
5.554474529312383
 40
5.597484804418004
 40
5.597484804418004
 40
5.640495079523625
 40
5.640495079523625
 40
5.653252350784877
 40
5.653252350784877
 40
5.659630986415502
 40
5.659630986415502
 40
5.666009622046128
 40
5.666009622046128
 40
5.672394292855955
 40
5.672394292855955
 40
5.678778963665781
 40
5.678778963665781
 40
5.691548305285435
 40
5.691548305285435
 40
5.734612320533793
 40
5.734612320533793
 40
5.77767633578215
 40
5.77767633578215
 40
5.877831414689104
 40
5.877831414689104
 40
5.877831414689104
 40
5.877831414689104
 10
5110.71522227449
 20
-7008.422464938677
 30
0.0000000000000179
 10
5110.717600117145
 20
-7008.422939330362
 30
0.0000000000000084
 10
5110.719924287079
 20
-7008.423160217108
 30
-0.0000000000000011
 10
5110.723287992756
 20
-7008.422628430897
 30
0.0000000000000179
 10
5110.724502444056
 20
-7008.422287391364
 30
0.0000000000000084
 10
5110.726815854028
 20
-7008.420855437252
 30
0.0000000000000084
 10
5110.727926039449
 20
-7008.419861931136
 30
0.0000000000000274
 10
5110.729020968603
 20
-7008.417162538985
 30
0.0000000000000179
 10
5110.729271468363
 20
-7008.416366471708
 30
-0.0000000000000011
 10
5110.72953300728
 20
-7008.414859453093
 30
0.0000000000000179
 10
5110.729602240867
 20
-7008.414307087472
 30
0.0000000000000179
 10
5110.729687042684
 20
-7008.413105023739
 30
-0.0000000000000011
 10
5110.729702942275
 20
-7008.412456063913
 30
0.0000000000000179
 10
5110.729674150992
 20
-7008.411087104591
 30
0.0000000000000084
 10
5110.729629614472
 20
-7008.410376721076
 30
0.0000000000000179
 10
5110.729489430048
 20
-7008.408946788415
 30
-0.0000000000000011
 10
5110.729393474808
 20
-7008.408227326051
 30
-0.0000000000000011
 10
5110.72905597459
 20
-7008.406114438787
 30
0.0000000000000084
 10
5110.728760703754
 20
-7008.404766437705
 30
0.0000000000000369
 10
5110.727503244931
 20
-7008.399686938754
 30
-0.0000000000000011
 10
5110.726302363065
 20
-7008.396354705702
 30
0.0000000000000274
 10
5110.723827221899
 20
-7008.390085512331
 30
0.0000000000000274
 10
5110.722545396944
 20
-7008.387226476831
 30
-0.0000000000000011
 10
5110.718632068047
 20
-7008.37894195453
 30
0.0000000000000179
 10
5110.715815246241
 20
-7008.37373867021
 30
0.0000000000000179
 10
5110.712939532909
 20
-7008.368729377032
 30
0.0000000000000274
  0
SPLINE
  5
16D4E3
330
18
100
AcDbEntity
  8
姿図
100
AcDbSpline
210
0.0
220
0.0
230
1.0
 70
    12
 71
     2
 72
     6
 73
     3
 74
     0
 42
0.000000001
 43
0.0000000001
 40
22.18928893771569
 40
22.18928893771569
 40
22.18928893771569
 40
29.25375354177516
 40
29.25375354177516
 40
29.25375354177516
 10
5109.778424612425
 20
-7009.421005943156
 30
0.0000000000000274
 41
0.9999999984713707
 10
5109.804429259599
 20
-7008.283042495961
 30
0.0000000000000179
 41
0.9999999989658331
 10
5109.830468494127
 20
-7007.143585176396
 30
0.0000000000000084
 41
0.9999999999300861
  0
SPLINE
  5
16D4E4
330
18
100
AcDbEntity
  8
姿図
100
AcDbSpline
210
0.0
220
0.0
230
1.0
 70
     8
 71
     3
 72
    26
 73
    22
 74
     0
 42
0.000000001
 43
0.0000000001
 40
5.508613077618151
 40
5.508613077618151
 40
5.508613077618151
 40
5.508613077618151
 40
6.179005067686559
 40
6.179005067686559
 40
6.340002190112532
 40
6.340002190112532
 40
6.392156946112854
 40
6.392156946112854
 40
6.417035445654846
 40
6.417035445654846
 40
6.433276212519534
 40
6.433276212519534
 40
6.447901642471058
 40
6.447901642471058
 40
6.46599523881348
 40
6.46599523881348
 40
6.498353151737191
 40
6.498353151737191
 40
6.578911697646714
 40
6.578911697646714
 40
6.714781857145347
 40
6.714781857145347
 40
6.714781857145347
 40
6.714781857145347
 10
5109.422687077291
 20
-7008.683421505803
 30
0.0000000000000179
 10
5109.363116231888
 20
-7008.657725519847
 30
0.0000000000000084
 10
5109.321541590913
 20
-7008.646588983513
 30
0.0000000000000179
 10
5109.29266888358
 20
-7008.646870018386
 30
0.0000000000000084
 10
5109.28616255506
 20
-7008.64759886572
 30
-0.0000000000000011
 10
5109.280203833916
 20
-7008.651299882687
 30
-0.0000000000000011
 10
5109.278764274465
 20
-7008.652540523733
 30
0.0000000000000179
 10
5109.277235997735
 20
-7008.655101005719
 30
0.0000000000000179
 10
5109.276783190423
 20
-7008.656126619948
 30
0.0000000000000179
 10
5109.276319183858
 20
-7008.658212965397
 30
0.0000000000000369
 10
5109.276211374779
 20
-7008.659127728655
 30
0.0000000000000179
 10
5109.276204540139
 20
-7008.66105905992
 30
0.0000000000000179
 10
5109.276286025774
 20
-7008.661995853534
 30
0.0000000000000084
 10
5109.27662955552
 20
-7008.66412170052
 30
0.0000000000000084
 10
5109.276921814676
 20
-7008.665267998086
 30
0.0000000000000084
 10
5109.277866329043
 20
-7008.668267628001
 30
0.0000000000000084
 10
5109.27866357816
 20
-7008.67010047436
 30
0.0000000000000179
 10
5109.281400573949
 20
-7008.675644246784
 30
0.0000000000000179
 10
5109.28397652392
 20
-7008.679513178306
 30
-0.0000000000000011
 10
5109.290613406008
 20
-7008.688476324935
 30
0.0000000000000274
 10
5109.295454698849
 20
-7008.693895998769
 30
0.0000000000000179
 10
5109.299747468779
 20
-7008.698390740457
 30
0.0000000000000274
  0
SPLINE
  5
16D4E5
330
18
100
AcDbEntity
  8
姿図
100
AcDbSpline
210
0.0
220
0.0
230
1.0
 70
     8
 71
     3
 72
    10
 73
     6
 74
     0
 42
0.000000001
 43
0.0000000001
 40
0.505347474080478
 40
0.505347474080478
 40
0.505347474080478
 40
0.505347474080478
 40
0.5908081871204214
 40
0.5908081871204214
 40
0.6018930666040991
 40
0.6018930666040991
 40
0.6018930666040991
 40
0.6018930666040991
 10
5109.622748112423
 20
-7009.245108334196
 30
0.0000000000000084
 10
5109.620808977912
 20
-7009.236375315019
 30
-0.0000000000000011
 10
5109.617656345225
 20
-7009.226750365099
 30
-0.0000000000000011
 10
5109.612430931475
 20
-7009.216700881142
 30
0.0000000000000179
 10
5109.611807113034
 20
-7009.215558809825
 30
0.0000000000000179
 10
5109.611159868189
 20
-7009.214431748777
 30
0.0000000000000084
  0
SPLINE
  5
16D4E6
330
18
100
AcDbEntity
  8
姿図
100
AcDbSpline
210
0.0
220
0.0
230
1.0
 70
     8
 71
     3
 72
    26
 73
    22
 74
     0
 42
0.000000001
 43
0.0000000001
 40
0.0
 40
0.0
 40
0.0
 40
0.0
 40
0.128245973690629
 40
0.128245973690629
 40
0.1709107023387558
 40
0.1709107023387558
 40
0.1890943956851749
 40
0.1890943956851749
 40
0.2007783270636655
 40
0.2007783270636655
 40
0.2111470640880597
 40
0.2111470640880597
 40
0.2237033505467542
 40
0.2237033505467542
 40
0.2457537947997618
 40
0.2457537947997618
 40
0.2995509632558
 40
0.2995509632558
 40
0.4920237835540287
 40
0.4920237835540287
 40
0.793426644719398
 40
0.793426644719398
 40
0.793426644719398
 40
0.793426644719398
 10
5110.764937323395
 20
-7009.102639855802
 30
0.0000000000000179
 10
5110.768286921219
 20
-7009.10312486061
 30
0.0000000000000179
 10
5110.772182818166
 20
-7009.103032401858
 30
0.0000000000000179
 10
5110.775737561773
 20
-7009.099862124666
 30
0.0000000000000179
 10
5110.776624478201
 20
-7009.098698864046
 30
0.0000000000000179
 10
5110.777495283307
 20
-7009.096177022209
 30
0.0000000000000084
 10
5110.777734599535
 20
-7009.095228237017
 30
-0.0000000000000011
 10
5110.777973705987
 20
-7009.093275289996
 30
0.0000000000000179
 10
5110.778027926571
 20
-7009.092417804896
 30
0.0000000000000179
 10
5110.778024758831
 20
-7009.090598955429
 30
0.0000000000000179
 10
5110.777979348028
 20
-7009.089716142869
 30
0.0000000000000274
 10
5110.777794351313
 20
-7009.087718945685
 30
0.0000000000000274
 10
5110.777641532287
 20
-7009.086645082438
 30
-0.0000000000000011
 10
5110.777153699631
 20
-7009.083847731548
 30
0.0000000000000274
 10
5110.776749008982
 20
-7009.082137806518
 30
-0.0000000000000011
 10
5110.775375253806
 20
-7009.077001246349
 30
0.0000000000000084
 10
5110.774100856262
 20
-7009.07340557698
 30
0.0000000000000084
 10
5110.768458509972
 20
-7009.059058457501
 30
0.0000000000000179
 10
5110.762049620397
 20
-7009.047353967659
 30
0.0000000000000274
 10
5110.748921989323
 20
-7009.025136127992
 30
0.0000000000000084
 10
5110.738615306672
 20
-7009.009729226076
 30
0.0000000000000179
 10
5110.725740246454
 20
-7008.992549443516
 30
0.0000000000000179
  0
SPLINE
  5
16D4E7
330
18
100
AcDbEntity
  8
姿図
100
AcDbSpline
210
0.0
220
0.0
230
1.0
 70
     8
 71
     3
 72
    30
 73
    26
 74
     0
 42
0.000000001
 43
0.0000000001
 40
16.78601875418834
 40
16.78601875418834
 40
16.78601875418834
 40
16.78601875418834
 40
16.8861738330952
 40
16.8861738330952
 40
16.92923784834355
 40
16.92923784834355
 40
16.97230186359191
 40
16.97230186359191
 40
16.98507120521156
 40
16.98507120521156
 40
16.99145587602139
 40
16.99145587602139
 40
16.99784054683122
 40
16.99784054683122
 40
17.00421918246185
 40
17.00421918246185
 40
17.01059781809247
 40
17.01059781809247
 40
17.02335508935372
 40
17.02335508935372
 40
17.06636536445934
 40
17.06636536445934
 40
17.10937563956496
 40
17.10937563956496
 40
17.1954912312313
 40
17.1954912312313
 40
17.1954912312313
 40
17.1954912312313
 10
5109.396898539623
 20
-7007.426659364908
 30
0.0000000000000179
 10
5109.392171466733
 20
-7007.426226307168
 30
-0.0000000000000011
 10
5109.387534440448
 20
-7007.426093855901
 30
0.0000000000000084
 10
5109.381122547657
 20
-7007.426987208952
 30
0.0000000000000369
 10
5109.379026284907
 20
-7007.427428086397
 30
0.0000000000000179
 10
5109.3750120421
 20
-7007.429051942686
 30
0.0000000000000179
 10
5109.3730762243
 20
-7007.430138812018
 30
0.0000000000000179
 10
5109.371136732057
 20
-7007.432929817106
 30
-0.0000000000000011
 10
5109.370689886891
 20
-7007.433746584566
 30
0.0000000000000179
 10
5109.370211539373
 20
-7007.435275458344
 30
-0.0000000000000011
 10
5109.370082267351
 20
-7007.435833694843
 30
0.0000000000000084
 10
5109.369914970843
 20
-7007.437043521467
 30
0.0000000000000369
 10
5109.369876396101
 20
-7007.43769441092
 30
0.0000000000000179
 10
5109.369903266882
 20
-7007.43906199548
 30
0.0000000000000084
 10
5109.369968438683
 20
-7007.43976898915
 30
0.0000000000000084
 10
5109.370187348417
 20
-7007.44118846066
 30
0.0000000000000084
 10
5109.370341632284
 20
-7007.441900828209
 30
-0.0000000000000011
 10
5109.370891336395
 20
-7007.443988564091
 30
-0.0000000000000106
 10
5109.37138083747
 20
-7007.445314350879
 30
-0.0000000000000011
 10
5109.373474916953
 20
-7007.450296551408
 30
-0.0000000000000011
 10
5109.375496134158
 20
-7007.45353162943
 30
-0.0000000000000011
 10
5109.379661947198
 20
-7007.459601647039
 30
0.0000000000000179
 10
5109.381820892421
 20
-7007.462357486514
 30
0.0000000000000084
 10
5109.387765443431
 20
-7007.469552461428
 30
0.0000000000000084
 10
5109.39182381026
 20
-7007.473900426648
 30
0.0000000000000084
 10
5109.395944366244
 20
-7007.478077825089
 30
0.0000000000000084
  0
SPLINE
  5
16D4E8
330
18
100
AcDbEntity
  8
姿図
100
AcDbSpline
210
0.0
220
0.0
230
1.0
 70
     8
 71
     3
 72
    12
 73
     8
 74
     0
 42
0.000000001
 43
0.0000000001
 40
2.214246753416005
 40
2.214246753416005
 40
2.214246753416005
 40
2.214246753416005
 40
2.273337669201671
 40
2.273337669201671
 40
2.651501823638109
 40
2.651501823638109
 40
2.971189770913845
 40
2.971189770913845
 40
2.971189770913845
 40
2.971189770913845
 10
5109.830468494127
 20
-7007.143585176396
 30
0.0000000000000084
 10
5109.828760878559
 20
-7007.149084971266
 30
0.0000000000000084
 10
5109.827104927348
 20
-7007.154650122349
 30
-0.0000000000000106
 10
5109.815264932199
 20
-7007.196122014103
 30
-0.0000000000000011
 10
5109.806034525957
 20
-7007.238662924838
 30
0.0000000000000179
 10
5109.794048197648
 20
-7007.319691135403
 30
0.0000000000000179
 10
5109.790484496961
 20
-7007.357807745128
 30
0.0000000000000084
 10
5109.789004307794
 20
-7007.393177842794
 30
0.0000000000000274
  0
SPLINE
  5
16D4E9
330
18
100
AcDbEntity
  8
姿図
100
AcDbSpline
210
0.0
220
0.0
230
1.0
 70
     8
 71
     3
 72
    12
 73
     8
 74
     0
 42
0.000000001
 43
0.0000000001
 40
2.214246753415932
 40
2.214246753415932
 40
2.214246753415932
 40
2.214246753415932
 40
2.27333766920167
 40
2.27333766920167
 40
2.65150182363811
 40
2.65150182363811
 40
2.971189770913846
 40
2.971189770913846
 40
2.971189770913846
 40
2.971189770913846
 10
5086.320263186165
 20
-7000.21203269095
 30
0.0000000000000179
 10
5086.325209517367
 20
-7000.216080609315
 30
-0.0000000000000011
 10
5086.329986160869
 20
-7000.220246792321
 30
0.0000000000000084
 10
5086.363999457403
 20
-7000.251778664998
 30
0.0000000000000084
 10
5086.38966964332
 20
-7000.286949824118
 30
0.0000000000000084
 10
5086.421275150405
 20
-7000.359182997441
 30
0.0000000000000084
 10
5086.429742325452
 20
-7000.395101439748
 30
0.0000000000000084
 10
5086.432019955388
 20
-7000.430114054499
 30
0.0000000000000084
  0
SPLINE
  5
16D4EA
330
18
100
AcDbEntity
  8
姿図
100
AcDbSpline
210
0.0
220
0.0
230
1.0
 70
     8
 71
     3
 72
    14
 73
    10
 74
     0
 42
0.000000001
 43
0.0000000001
 40
0.0518711334186413
 40
0.0518711334186413
 40
0.0518711334186413
 40
0.0518711334186413
 40
0.3761852694724612
 40
0.3761852694724612
 40
0.7523705389449225
 40
0.7523705389449225
 40
1.132719326167469
 40
1.132719326167469
 40
1.510190416961686
 40
1.510190416961686
 40
1.510190416961686
 40
1.510190416961686
 10
5086.297684028514
 20
-7000.333951511765
 30
0.0000000000000179
 10
5086.295928391673
 20
-7000.298873673305
 30
0.0000000000000179
 10
5086.287826835998
 20
-7000.262787642234
 30
-0.0000000000000011
 10
5086.25681071921
 20
-7000.191128153431
 30
0.0000000000000179
 10
5086.231614850014
 20
-7000.156572801737
 30
0.0000000000000084
 10
5086.173255727151
 20
-7000.102765044718
 30
0.0000000000000179
 10
5086.136092792702
 20
-7000.080059109995
 30
0.0000000000000084
 10
5086.055063093146
 20
-7000.051942620842
 30
0.0000000000000274
 10
5086.011251543056
 20
-7000.046395276975
 30
0.0000000000000274
 10
5085.970152134238
 20
-7000.048665859114
 30
0.0000000000000179
  0
SPLINE
  5
16D4EB
330
18
100
AcDbEntity
  8
姿図
100
AcDbSpline
210
0.0
220
0.0
230
1.0
 70
     8
 71
     3
 72
    14
 73
    10
 74
     0
 42
0.000000001
 43
0.0000000001
 40
0.0516007629148517
 40
0.0516007629148517
 40
0.0516007629148517
 40
0.0516007629148517
 40
0.3775999287975693
 40
0.3775999287975693
 40
0.7551998575951386
 40
0.7551998575951386
 40
1.136339040160537
 40
1.136339040160537
 40
1.513620557812546
 40
1.513620557812546
 40
1.513620557812546
 40
1.513620557812546
 10
5079.999579679911
 20
-7006.097602018868
 30
0.0000000000000084
 10
5079.997507937339
 20
-7006.133220298379
 30
0.0000000000000179
 10
5079.989713388027
 20
-7006.171001883488
 30
0.0000000000000179
 10
5079.960859121121
 20
-7006.248641390462
 30
0.0000000000000179
 10
5079.937789367234
 20
-7006.287892731874
 30
0.0000000000000274
 10
5079.884859065134
 20
-7006.352427203231
 30
0.0000000000000179
 10
5079.85140897211
 20
-7006.381898850544
 30
0.0000000000000179
 10
5079.779051318734
 20
-7006.424840055252
 30
0.0000000000000084
 10
5079.740207523281
 20
-7006.438484196168
 30
0.0000000000000084
 10
5079.703934438915
 20
-7006.443973811473
 30
0.0000000000000084
  0
SPLINE
  5
16D4EC
330
18
100
AcDbEntity
  8
姿図
100
AcDbSpline
210
0.0
220
0.0
230
1.0
 70
     8
 71
     3
 72
    14
 73
    10
 74
     0
 42
0.000000001
 43
0.0000000001
 40
1.526591127950939
 40
1.526591127950939
 40
1.526591127950939
 40
1.526591127950939
 40
1.903872645602957
 40
1.903872645602957
 40
2.285011828168357
 40
2.285011828168357
 40
2.662611756965921
 40
2.662611756965921
 40
2.988610922850349
 40
2.988610922850349
 40
2.988610922850349
 40
2.988610922850349
 10
5086.887038921189
 20
-7005.771785614495
 30
0.0000000000000084
 10
5086.845588732676
 20
-7005.773569270342
 30
0.0000000000000179
 10
5086.801429631761
 20
-7005.767692462812
 30
0.0000000000000084
 10
5086.719638884866
 20
-7005.739176321177
 30
0.0000000000000084
 10
5086.682079682966
 20
-7005.716349657254
 30
0.0000000000000084
 10
5086.623016687055
 20
-7005.662295413947
 30
0.0000000000000084
 10
5086.597502606486
 20
-7005.627590502308
 30
0.0000000000000084
 10
5086.566070365451
 20
-7005.555592550341
 30
0.0000000000000084
 10
5086.557858466213
 20
-7005.519308833716
 30
0.0000000000000084
 10
5086.556085042906
 20
-7005.484050381223
 30
0.0000000000000084
  0
SPLINE
  5
16D4ED
330
18
100
AcDbEntity
  8
姿図
100
AcDbSpline
210
0.0
220
0.0
230
1.0
 70
     8
 71
     3
 72
    16
 73
    12
 74
     0
 42
0.000000001
 43
0.0000000001
 40
7.430778314876192
 40
7.430778314876192
 40
7.430778314876192
 40
7.430778314876192
 40
7.48439642458809
 40
7.48439642458809
 40
8.051682043090178
 40
8.051682043090178
 40
8.618967661592267
 40
8.618967661592267
 40
9.186253280094355
 40
9.186253280094355
 40
9.198233509684796
 40
9.198233509684796
 40
9.198233509684796
 40
9.198233509684796
 10
5069.564350988278
 20
-7008.475290440732
 30
0.0000000000000084
 10
5069.564984860889
 20
-7008.471326915972
 30
0.0000000000000084
 10
5069.565614474841
 20
-7008.467313688348
 30
-0.0000000000000011
 10
5069.572850214338
 20
-7008.420251761476
 30
0.0000000000000084
 10
5069.578924209673
 20
-7008.371571056819
 30
0.0000000000000179
 10
5069.589351274557
 20
-7008.265843879533
 30
0.0000000000000084
 10
5069.593710946779
 20
-7008.208708813796
 30
0.0000000000000179
 10
5069.600377299255
 20
-7008.090134716054
 30
-0.0000000000000011
 10
5069.602682609413
 20
-7008.028693285817
 30
0.0000000000000084
 10
5069.604015675714
 20
-7007.966421801461
 30
0.0000000000000179
 10
5069.604042847188
 20
-7007.965132308173
 30
0.0000000000000084
 10
5069.604069617756
 20
-7007.963841224851
 30
0.0000000000000084
  0
SPLINE
  5
16D4EE
330
18
100
AcDbEntity
  8
姿図
100
AcDbSpline
210
7.530136444098227E-10
220
1.567454002971237E-11
230
-1.0
 70
    12
 71
     2
 72
     6
 73
     3
 74
     0
 42
0.000000001
 43
0.0000000001
 40
3.438957747159619
 40
3.438957747159619
 40
3.438957747159619
 40
27.9798144579688
 40
27.9798144579688
 40
27.9798144579688
 10
5108.525849234362
 20
-7012.231950350094
 30
0.0000000000000084
 41
1.000002949620377
 10
5108.443357386045
 20
-7008.267785931046
 30
0.0000000000000274
 41
1.000012270378906
 10
5108.361534189784
 20
-7004.336953951472
 30
0.0000000000000274
 41
1.000004411873195
  0
ELLIPSE
  5
16D4EF
330
18
100
AcDbEntity
  8
姿図
100
AcDbEllipse
 10
5109.182407176383
 20
-6998.153858393399
 30
0.0000000000000013
 11
0.06010428184121885
 21
-0.5975910098000778
 31
1.000209876702184E-16
210
-1.666545791913223E-17
220
1.656974764790396E-16
230
1.0
 40
0.3266547503873754
 41
1.290961286430822
 42
2.861757613225796
  0
LINE
  5
16D4F0
330
18
100
AcDbEntity
  8
姿図
100
AcDbLine
 10
5110.847212657688
 20
-6998.790661018524
 30
0.0000000000000013
 11
5110.04434735556
 21
-6998.86579240234
 31
0.0000000000000013
  0
ELLIPSE
  5
16D4F1
330
18
100
AcDbEntity
  8
姿図
100
AcDbEllipse
 10
5109.454511594382
 20
-7001.000954202451
 30
0.0000000000000013
 11
0.03884321122096071
 21
0.05426269557437717
 31
3.704401490077422E-18
210
-3.231153159914879E-17
220
-4.513815278383454E-17
230
1.0
 40
0.9083744652357184
 41
0.6674062465666986
 42
2.67181090378285
  0
ELLIPSE
  5
16D4F2
330
18
100
AcDbEntity
  8
姿図
100
AcDbEllipse
 10
5109.454511594382
 20
-7000.35636712565
 30
0.0000000000000013
 11
0.03884321122097171
 21
0.05426269557439264
 31
3.704401490078473E-18
210
-3.231153159914872E-17
220
-4.513815278383454E-17
230
1.0
 40
0.9083744652357185
 41
0.66740624656714
 42
2.671810903783259
  0
LINE
  5
16D4F3
330
18
100
AcDbEntity
  8
姿図
100
AcDbLine
 10
5109.605595167341
 20
-7000.186229258266
 30
0.0000000000000013
 11
5109.397562823665
 21
-6999.744191454147
 31
0.0000000000000013
  0
LINE
  5
16D4F4
330
18
100
AcDbEntity
  8
姿図
100
AcDbLine
 10
5109.605595167341
 20
-6999.541642181465
 30
0.0000000000000013
 11
5109.397562823665
 21
-6999.099604377346
 31
0.0000000000000013
  0
LINE
  5
16D4F5
330
18
100
AcDbEntity
  8
姿図
100
AcDbLine
 10
5109.605595167341
 20
-6998.897055104661
 30
0.0000000000000013
 11
5109.387507909059
 21
-6998.433652101775
 31
0.0000000000000013
  0
ELLIPSE
  5
16D4F6
330
18
100
AcDbEntity
  8
姿図
100
AcDbEllipse
 10
5109.454511594382
 20
-6999.711780048847
 30
0.0000000000000013
 11
0.03884321122097171
 21
0.05426269557439264
 31
3.704401490078473E-18
210
-3.231153159914872E-17
220
-4.513815278383454E-17
230
1.0
 40
0.9083744652357185
 41
0.6674062465669841
 42
2.671810903783383
  0
ELLIPSE
  5
16D4F7
330
18
100
AcDbEntity
  8
姿図
100
AcDbEllipse
 10
5109.454511594382
 20
-6999.067192972046
 30
0.0000000000000013
 11
0.03884321122097171
 21
0.05426269557439264
 31
3.704401490078473E-18
210
-3.231153159914872E-17
220
-4.513815278383454E-17
230
1.0
 40
0.9083744652357185
 41
0.6674062465673603
 42
2.671810903782924
  0
LINE
  5
16D4F8
330
18
100
AcDbEntity
  8
姿図
100
AcDbLine
 10
5109.605595167341
 20
-7000.830816335068
 30
0.0000000000000013
 11
5109.397562823665
 21
-7000.38877853095
 31
0.0000000000000013
  0
LINE
  5
16D4F9
330
18
100
AcDbEntity
  8
姿図
100
AcDbLine
 10
5109.387507909059
 20
-6998.433652101775
 30
0.0000000000000013
 11
5109.386620433982
 21
-6998.300041671156
 31
0.0000000000000013
  0
LINE
  5
16D4FA
330
18
100
AcDbEntity
  8
姿図
100
AcDbLine
 10
5109.454511594382
 20
-7000.936495494771
 30
0.0000000000000013
 11
5109.548646396622
 21
-7000.927686448051
 31
0.0000000000000013
  0
ELLIPSE
  5
16D4FB
330
18
100
AcDbEntity
  8
姿図
100
AcDbEllipse
 10
5109.548646396621
 20
-7000.863227740368
 30
0.0000000000000013
 11
0.03884321122095504
 21
0.05426269557438004
 31
-7.408802980154736E-18
210
6.462306319828886E-17
220
9.027630556767531E-17
230
1.0
 40
0.9083744652357182
 41
3.80899890015702
 42
5.813403557372653
  0
LINE
  5
16D4FC
330
18
100
AcDbEntity
  8
姿図
100
AcDbLine
 10
5109.454511594382
 20
-6999.647321341169
 30
0.0000000000000013
 11
5109.548646396622
 21
-6999.638512294447
 31
0.0000000000000013
  0
LINE
  5
16D4FD
330
18
100
AcDbEntity
  8
姿図
100
AcDbLine
 10
5109.454511594382
 20
-7000.29190841797
 30
0.0000000000000013
 11
5109.548646396622
 21
-7000.283099371248
 31
0.0000000000000013
  0
LINE
  5
16D4FE
330
18
100
AcDbEntity
  8
姿図
100
AcDbLine
 10
5109.454511594382
 20
-6999.002734264363
 30
0.0000000000000013
 11
5109.548646396622
 21
-6998.993925217641
 31
0.0000000000000013
  0
ELLIPSE
  5
16D4FF
330
18
100
AcDbEntity
  8
姿図
100
AcDbEllipse
 10
5109.548646396621
 20
-6999.574053586765
 30
0.0000000000000013
 11
0.03884321122095504
 21
0.05426269557438004
 31
-7.408802980154736E-18
210
6.462306319828886E-17
220
9.027630556767531E-17
230
1.0
 40
0.9083744652357182
 41
3.808998900156833
 42
5.813403557372844
  0
ELLIPSE
  5
16D500
330
18
100
AcDbEntity
  8
姿図
100
AcDbEllipse
 10
5109.548646396621
 20
-7000.218640663566
 30
0.0000000000000013
 11
0.03884321122095504
 21
0.05426269557438004
 31
-7.408802980154736E-18
210
6.462306319828886E-17
220
9.027630556767531E-17
230
1.0
 40
0.9083744652357182
 41
3.808998900156709
 42
5.813403557372572
  0
ELLIPSE
  5
16D501
330
18
100
AcDbEntity
  8
姿図
100
AcDbEllipse
 10
5110.096602243297
 20
-6999.46411949813
 30
0.0000000000000013
 11
0.05180155529089057
 21
-0.5983679293381275
 31
0.0
210
0.0
220
0.0
230
1.0
 40
0.3301839125655894
 41
3.14388787013195
 42
4.437113948144849
  0
ELLIPSE
  5
16D502
330
18
100
AcDbEntity
  8
姿図
100
AcDbEllipse
 10
5109.548646396621
 20
-6998.929466509966
 30
0.0000000000000013
 11
0.03884321122095504
 21
0.05426269557438004
 31
-7.408802980154736E-18
210
6.462306319828886E-17
220
9.027630556767531E-17
230
1.0
 40
0.9083744652357182
 41
3.80899890015702
 42
5.813403557372702
  0
LINE
  5
16D503
330
18
100
AcDbEntity
  8
姿図
100
AcDbLine
 10
5110.713603817073
 20
-7000.041674389557
 30
0.0000000000000013
 11
5110.92163616075
 21
-7000.483712193678
 31
0.0000000000000013
  0
LINE
  5
16D504
330
18
100
AcDbEntity
  8
姿図
100
AcDbLine
 10
5111.625037381362
 20
-7000.342645295815
 30
0.0000000000000013
 11
5111.406950123085
 21
-6999.87924229293
 31
0.0000000000000013
  0
LINE
  5
16D505
330
18
100
AcDbEntity
  8
姿図
100
AcDbLine
 10
5111.473953808408
 20
-7000.448324455515
 30
0.0000000000000013
 11
5111.568088610646
 21
-7000.439515408796
 31
0.0000000000000013
  0
ELLIPSE
  5
16D506
330
18
100
AcDbEntity
  8
姿図
100
AcDbEllipse
 10
5111.473953808408
 20
-7000.512783163198
 30
0.0000000000000013
 11
0.03884321122097171
 21
0.05426269557439264
 31
3.704401490078473E-18
210
-3.231153159914872E-17
220
-4.513815278383454E-17
230
1.0
 40
0.9083744652357185
 41
0.66740624656764
 42
2.671810903783141
  0
LINE
  5
16D507
330
18
100
AcDbEntity
  8
姿図
100
AcDbLine
 10
5110.864687390031
 20
-7000.580582306658
 30
0.0000000000000013
 11
5110.770552587792
 21
-7000.589391353378
 31
0.0000000000000013
  0
ELLIPSE
  5
16D508
330
18
100
AcDbEntity
  8
姿図
100
AcDbEllipse
 10
5110.770552587792
 20
-7000.653850061062
 30
0.0000000000000013
 11
0.03884321122096699
 21
0.054262695574396
 31
3.704401490078473E-18
210
-3.231153159914480E-17
220
-4.513815278383737E-17
230
1.0
 40
0.9083744652357179
 41
0.6674062465667575
 42
2.671810903783107
  0
ELLIPSE
  5
16D509
330
18
100
AcDbEntity
  8
姿図
100
AcDbEllipse
 10
5110.864687390028
 20
-7000.516123598983
 30
0.0000000000000013
 11
0.03884321122096051
 21
0.05426269557437609
 31
3.704401490077339E-18
210
-3.231153159914885E-17
220
-4.513815278383398E-17
230
1.0
 40
0.9083744652357179
 41
3.808998900156757
 42
5.813403557372718
  0
ELLIPSE
  5
16D50A
330
18
100
AcDbEntity
  8
姿図
100
AcDbEllipse
 10
5111.568088610644
 20
-7000.375056701118
 30
0.0000000000000013
 11
0.03884321122095504
 21
0.05426269557438004
 31
-7.408802980154736E-18
210
6.462306319828886E-17
220
9.027630556767531E-17
230
1.0
 40
0.9083744652357182
 41
3.808998900156673
 42
5.813403557372901
  0
LINE
  5
16D50B
330
18
100
AcDbEntity
  8
姿図
100
AcDbLine
 10
5111.406950123085
 20
-6999.87924229293
 30
0.0000000000000013
 11
5111.406062648005
 21
-6999.745631862304
 31
0.0000000000000013
  0
LINE
  5
16D50C
330
18
100
AcDbEntity
  8
姿図
100
AcDbLine
 10
5110.703548902467
 20
-6999.375722113993
 30
0.0000000000000013
 11
5110.92163616075
 21
-6999.839125116873
 31
0.0000000000000013
  0
LINE
  5
16D50D
330
18
100
AcDbEntity
  8
姿図
100
AcDbLine
 10
5110.864687390031
 20
-6999.935995229856
 30
0.0000000000000013
 11
5110.770552587792
 21
-6999.944804276577
 31
0.0000000000000013
  0
LINE
  5
16D50E
330
18
100
AcDbEntity
  8
姿図
100
AcDbLine
 10
5110.702661427389
 20
-6999.242111683367
 30
0.0000000000000013
 11
5110.703548902467
 21
-6999.375722113993
 31
0.0000000000000013
  0
LINE
  5
16D50F
330
18
100
AcDbEntity
  8
姿図
100
AcDbLine
 10
5111.197998421226
 20
-6999.019680585518
 30
0.0000000000000013
 11
5110.903023715805
 21
-6998.808526962095
 31
0.0000000000000013
  0
LINE
  5
16D510
330
18
100
AcDbEntity
  8
姿図
100
AcDbLine
 10
5111.406950123085
 20
-6999.87924229293
 30
0.0000000000000013
 11
5110.703548902467
 21
-6999.375722113993
 31
0.0000000000000013
  0
ELLIPSE
  5
16D511
330
18
100
AcDbEntity
  8
姿図
100
AcDbEllipse
 10
5111.201849390408
 20
-6999.599448584548
 30
0.0000000000000013
 11
0.06010428184121885
 21
-0.5975910098000778
 31
1.000209876702184E-16
210
-1.666545791913223E-17
220
1.656974764790396E-16
230
1.0
 40
0.3266547503873754
 41
1.29096128643083
 42
2.861757613225647
  0
ELLIPSE
  5
16D512
330
18
100
AcDbEntity
  8
姿図
100
AcDbEllipse
 10
5110.770552587792
 20
-7000.009262984261
 30
0.0000000000000013
 11
0.03884321122096699
 21
0.054262695574396
 31
3.704401490078473E-18
210
-3.231153159914480E-17
220
-4.513815278383737E-17
230
1.0
 40
0.9083744652357179
 41
0.6674062465679877
 42
2.671810903783201
  0
ELLIPSE
  5
16D513
330
18
100
AcDbEntity
  8
姿図
100
AcDbEllipse
 10
5110.864687390028
 20
-6999.871536522177
 30
0.0000000000000013
 11
0.03884321122096051
 21
0.05426269557437609
 31
3.704401490077339E-18
210
-3.231153159914885E-17
220
-4.513815278383398E-17
230
1.0
 40
0.9083744652357179
 41
3.808998900156948
 42
5.813403557372959
  0
ELLIPSE
  5
16D514
330
18
100
AcDbEntity
  8
姿図
100
AcDbEllipse
 10
5110.906874684988
 20
-6999.388294961122
 30
0.0000000000000013
 11
0.06010428184121885
 21
-0.5975910098000778
 31
1.000209876702184E-16
210
-1.666545791913223E-17
220
1.656974764790396E-16
230
1.0
 40
0.3266547503873754
 41
2.861757613225715
 42
4.432553940020625
  0
LINE
  5
16D515
330
18
100
AcDbEntity
  8
姿図
100
AcDbLine
 10
5111.625037381362
 20
-7000.987232372619
 30
0.0000000000000013
 11
5111.417005037688
 21
-7000.545194568498
 31
0.0000000000000013
  0
LINE
  5
16D516
330
18
100
AcDbEntity
  8
姿図
100
AcDbLine
 10
5109.1785562072
 20
-6997.57409039437
 30
0.0000000000000013
 11
5108.88358150178
 21
-6997.362936770942
 31
0.0000000000000013
  0
ELLIPSE
  5
16D517
330
18
100
AcDbEntity
  8
姿図
100
AcDbEllipse
 10
5108.077160029275
 20
-6998.018529306975
 30
0.0000000000000013
 11
0.05180155529089057
 21
-0.5983679293381275
 31
0.0
210
0.0
220
0.0
230
1.0
 40
0.3301839125655894
 41
3.143887870131958
 42
4.437113948144826
  0
ELLIPSE
  5
16D518
330
18
100
AcDbEntity
  8
姿図
100
AcDbEllipse
 10
5108.751110373766
 20
-7000.497434023509
 30
0.0000000000000013
 11
0.03884321122095558
 21
0.05426269557438083
 31
-3.704401490077417E-18
210
3.231153159914449E-17
220
4.513815278383754E-17
230
1.0
 40
0.9083744652357193
 41
0.6674062465669471
 42
2.671810903782859
  0
LINE
  5
16D519
330
18
100
AcDbEntity
  8
姿図
100
AcDbLine
 10
5108.845245176006
 20
-7000.424166269109
 30
0.0000000000000013
 11
5108.751110373768
 21
-7000.432975315834
 31
0.0000000000000013
  0
LINE
  5
16D51A
330
18
100
AcDbEntity
  8
姿図
100
AcDbLine
 10
5108.845245176006
 20
-6998.490405038704
 30
0.0000000000000013
 11
5108.751110373768
 21
-6998.499214085425
 31
0.0000000000000013
  0
LINE
  5
16D51B
330
18
100
AcDbEntity
  8
姿図
100
AcDbLine
 10
5108.683219213365
 20
-6997.796521492211
 30
0.0000000000000013
 11
5108.684106688446
 21
-6997.930131922838
 31
0.0000000000000013
  0
LINE
  5
16D51C
330
18
100
AcDbEntity
  8
姿図
100
AcDbLine
 10
5108.845245176006
 20
-6999.779579192304
 30
0.0000000000000013
 11
5108.751110373768
 21
-6999.788388239029
 31
0.0000000000000013
  0
LINE
  5
16D51D
330
18
100
AcDbEntity
  8
姿図
100
AcDbLine
 10
5108.845245176006
 20
-6999.134992115503
 30
0.0000000000000013
 11
5108.751110373768
 21
-6999.143801162223
 31
0.0000000000000013
  0
ELLIPSE
  5
16D51E
330
18
100
AcDbEntity
  8
姿図
100
AcDbEllipse
 10
5108.751110373766
 20
-6999.852846946708
 30
0.0000000000000013
 11
0.03884321122096667
 21
0.05426269557439624
 31
3.704401490078475E-18
210
-3.231153159914452E-17
220
-4.513815278383759E-17
230
1.0
 40
0.908374465235719
 41
0.6674062465670006
 42
2.67181090378307
  0
ELLIPSE
  5
16D51F
330
18
100
AcDbEntity
  8
姿図
100
AcDbEllipse
 10
5108.751110373766
 20
-6999.208259869909
 30
0.0000000000000013
 11
0.03884321122096667
 21
0.05426269557439624
 31
3.704401490078475E-18
210
-3.231153159914452E-17
220
-4.513815278383759E-17
230
1.0
 40
0.908374465235719
 41
0.6674062465671249
 42
2.671810903782978
  0
ELLIPSE
  5
16D520
330
18
100
AcDbEntity
  8
姿図
100
AcDbEllipse
 10
5108.751110373766
 20
-6998.563672793108
 30
0.0000000000000013
 11
0.03884321122096667
 21
0.05426269557439624
 31
3.704401490078475E-18
210
-3.231153159914452E-17
220
-4.513815278383759E-17
230
1.0
 40
0.908374465235719
 41
0.6674062465673204
 42
2.671810903783249
  0
LINE
  5
16D521
330
18
100
AcDbEntity
  8
姿図
100
AcDbLine
 10
5108.827770443664
 20
-6997.345070827371
 30
0.0000000000000013
 11
5108.024905141536
 21
-6997.420202211187
 31
0.0000000000000013
  0
ELLIPSE
  5
16D522
330
18
100
AcDbEntity
  8
姿図
100
AcDbEllipse
 10
5108.887432470962
 20
-6997.942704769972
 30
0.0000000000000013
 11
0.06010428184121885
 21
-0.5975910098000778
 31
1.000209876702184E-16
210
-1.666545791913223E-17
220
1.656974764790396E-16
230
1.0
 40
0.3266547503873754
 41
2.861757613225734
 42
4.432553940020584
  0
LINE
  5
16D523
330
18
100
AcDbEntity
  8
姿図
100
AcDbLine
 10
5108.694161603048
 20
-6999.885258352008
 30
0.0000000000000013
 11
5108.902193946726
 21
-7000.32729615613
 31
0.0000000000000013
  0
ELLIPSE
  5
16D524
330
18
100
AcDbEntity
  8
姿図
100
AcDbEllipse
 10
5108.845245176006
 20
-7000.359707561428
 30
0.0000000000000013
 11
0.03884321122096011
 21
0.05426269557437637
 31
3.704401490077365E-18
210
-3.231153159914871E-17
220
-4.513815278383459E-17
230
1.0
 40
0.9083744652357191
 41
3.808998900156817
 42
5.813403557372729
  0
LINE
  5
16D525
330
18
100
AcDbEntity
  8
姿図
100
AcDbLine
 10
5109.387507909059
 20
-6998.433652101775
 30
0.0000000000000013
 11
5108.684106688446
 21
-6997.930131922838
 31
0.0000000000000013
  0
LINE
  5
16D526
330
18
100
AcDbEntity
  8
姿図
100
AcDbLine
 10
5108.684106688446
 20
-6997.930131922838
 30
0.0000000000000013
 11
5108.902193946726
 21
-6998.393534925718
 31
0.0000000000000013
  0
LINE
  5
16D527
330
18
100
AcDbEntity
  8
姿図
100
AcDbLine
 10
5108.694161603048
 20
-6999.240671275207
 30
0.0000000000000013
 11
5108.902193946726
 21
-6999.682709079325
 31
0.0000000000000013
  0
LINE
  5
16D528
330
18
100
AcDbEntity
  8
姿図
100
AcDbLine
 10
5108.694161603048
 20
-6998.596084198404
 30
0.0000000000000013
 11
5108.902193946726
 21
-6999.038122002524
 31
0.0000000000000013
  0
ELLIPSE
  5
16D529
330
18
100
AcDbEntity
  8
姿図
100
AcDbEllipse
 10
5108.845245176006
 20
-6999.715120484629
 30
0.0000000000000013
 11
0.03884321122096011
 21
0.05426269557437637
 31
3.704401490077365E-18
210
-3.231153159914871E-17
220
-4.513815278383459E-17
230
1.0
 40
0.9083744652357191
 41
3.808998900156848
 42
5.813403557372545
  0
ELLIPSE
  5
16D52A
330
18
100
AcDbEntity
  8
姿図
100
AcDbEllipse
 10
5108.845245176006
 20
-6999.070533407824
 30
0.0000000000000013
 11
0.03884321122096011
 21
0.05426269557437637
 31
3.704401490077365E-18
210
-3.231153159914871E-17
220
-4.513815278383459E-17
230
1.0
 40
0.9083744652357191
 41
3.808998900156624
 42
5.813403557372816
  0
ELLIPSE
  5
16D52B
330
18
100
AcDbEntity
  8
姿図
100
AcDbEllipse
 10
5108.845245176006
 20
-6998.425946331023
 30
0.0000000000000013
 11
0.03884321122096011
 21
0.05426269557437637
 31
3.704401490077365E-18
210
-3.231153159914871E-17
220
-4.513815278383459E-17
230
1.0
 40
0.9083744652357191
 41
3.808998900157184
 42
5.813403557372866
  0
LINE
  5
16D52C
330
18
100
AcDbEntity
  8
姿図
100
AcDbLine
 10
5108.694161603048
 20
-7000.529845428809
 30
0.0000000000000013
 11
5108.902193946726
 21
-7000.971883232931
 31
0.0000000000000013
  0
LINE
  5
16D52D
330
18
100
AcDbEntity
  8
姿図
100
AcDbLine
 10
5109.454511594382
 20
-7001.581082571571
 30
0.0000000000000013
 11
5109.548646396622
 21
-7001.572273524853
 31
0.0000000000000013
  0
LINE
  5
16D52E
330
18
100
AcDbEntity
  8
姿図
100
AcDbLine
 10
5111.625037381362
 20
-7001.631819449419
 30
0.0000000000000013
 11
5111.417005037688
 21
-7001.189781645299
 31
0.0000000000000013
  0
LINE
  5
16D52F
330
18
100
AcDbEntity
  8
姿図
100
AcDbLine
 10
5110.713603817073
 20
-7001.330848543162
 30
0.0000000000000013
 11
5110.92163616075
 21
-7001.772886347283
 31
0.0000000000000013
  0
LINE
  5
16D530
330
18
100
AcDbEntity
  8
姿図
100
AcDbLine
 10
5108.694161603048
 20
-7001.174432505613
 30
0.0000000000000013
 11
5108.902193946726
 21
-7001.61647030973
 31
0.0000000000000013
  0
LINE
  5
16D531
330
18
100
AcDbEntity
  8
姿図
100
AcDbLine
 10
5109.605595167341
 20
-7008.565861256701
 30
0.0000000000000013
 11
5109.411826162598
 21
-7008.154130927418
 31
0.0000000000000013
  0
LINE
  5
16D532
330
18
100
AcDbEntity
  8
姿図
100
AcDbLine
 10
5111.625037381362
 20
-7008.722277294245
 30
0.0000000000000013
 11
5111.417005037688
 21
-7008.28023949013
 31
0.0000000000000013
  0
LINE
  5
16D533
330
18
100
AcDbEntity
  8
姿図
100
AcDbLine
 10
5110.714037310764
 20
-7008.422227497644
 30
0.0000000000000013
 11
5110.92163616075
 21
-7008.863344192109
 31
0.0000000000000013
  0
ELLIPSE
  5
16D534
330
18
100
AcDbEntity
  8
姿図
100
AcDbEllipse
 10
5092.228770493987
 20
-6761.066235259505
 30
0.0000000000000013
 11
-4.569929460419698
 21
-463.1211597134612
 31
-2.570964033087312E-14
210
-5.477393773410846E-19
220
-5.550844883974055E-17
230
1.0
 40
0.0509529088182855
 41
1.005428428192962
 42
1.010474847289326
  0
LINE
  5
16D535
330
18
100
AcDbEntity
  8
姿図
100
AcDbLine
 10
5110.870718019967
 20
-7010.202909294839
 30
0.0000000000000013
 11
5109.668128836333
 21
-7009.342052214713
 31
0.0000000000000013
  0
ELLIPSE
  5
16D536
330
18
100
AcDbEntity
  8
姿図
100
AcDbEllipse
 10
5091.202423320841
 20
-6969.179283256536
 30
0.0000000000000013
 11
-19.83658726056133
 21
40.56437036753362
 31
-1.253298195558075E-15
210
-1.219306866792505E-17
220
2.493393378939952E-17
230
1.0
 40
0.0898112888334004
 41
2.866072935780159
 42
2.880426324101852
  0
ELLIPSE
  5
16D537
330
18
100
AcDbEntity
  8
姿図
100
AcDbEllipse
 10
5108.845245176006
 20
-7008.739339559865
 30
0.0000000000000013
 11
0.03884321122096011
 21
0.05426269557437637
 31
3.704401490077365E-18
210
-3.231153159914871E-17
220
-4.513815278383459E-17
230
1.0
 40
0.9083744652357191
 41
5.379795226951904
 42
5.813403557372927
  0
ELLIPSE
  5
16D538
330
18
100
AcDbEntity
  8
姿図
100
AcDbEllipse
 10
5109.548646396621
 20
-7008.598272662001
 30
0.0000000000000013
 11
0.03884321122095253
 21
0.05426269557437655
 31
0.0
210
0.0
220
0.0
230
1.0
 40
0.9083744652357187
 41
3.808998900156733
 42
5.813403557372704
  0
LINE
  5
16D539
330
18
100
AcDbEntity
  8
姿図
100
AcDbLine
 10
5109.454511594382
 20
-7008.671540416401
 30
0.0000000000000013
 11
5109.548646396622
 21
-7008.662731369678
 31
0.0000000000000013
  0
LINE
  5
16D53A
330
18
100
AcDbEntity
  8
姿図
100
AcDbLine
 10
5109.425655919422
 20
-7008.828104187548
 30
0.0000000000000013
 11
5109.422687076984
 21
-7008.683421505828
 31
0.0000000000000013
  0
LINE
  5
16D53B
330
18
100
AcDbEntity
  8
姿図
100
AcDbLine
 10
5109.574218988588
 20
-7009.14377861805
 30
0.0000000000000013
 11
5109.425655922108
 21
-7008.828104187238
 31
0.0000000000000013
  0
ELLIPSE
  5
16D53C
330
18
100
AcDbEntity
  8
姿図
100
AcDbEllipse
 10
5109.668128836333
 20
-7009.180905445516
 30
0.0000000000000013
 11
-0.01554401597754887
 21
0.1661056997765384
 31
-9.261003725194074E-18
210
-5.172084878144057E-18
220
5.526967929193049E-17
230
1.0
 40
0.3284334526200731
 41
1.936727186806237
 42
2.86402240480802
  0
ELLIPSE
  5
16D53D
330
18
100
AcDbEntity
  8
姿図
100
AcDbEllipse
 10
5109.454511594382
 20
-7008.73599912408
 30
0.0000000000000013
 11
0.03884321122096071
 21
0.05426269557437717
 31
3.704401490077422E-18
210
-3.231153159914879E-17
220
-4.513815278383454E-17
230
1.0
 40
0.9083744652357184
 41
0.6674062465667715
 42
1.199235524511626
  0
ELLIPSE
  5
16D53E
330
18
100
AcDbEntity
  8
姿図
100
AcDbEllipse
 10
5109.630944893475
 20
-7009.184385084097
 30
0.0000000000000013
 11
0.08781036397791203
 21
-0.1588491864505247
 31
1.007549936372717E-17
210
-2.685589719099224E-17
220
4.858239081278761E-17
230
1.0
 40
0.1762382375576922
 41
4.358020013766092
 42
4.80466361244018
  0
LINE
  5
16D53F
330
18
100
AcDbEntity
  8
姿図
100
AcDbLine
 10
5111.625037381362
 20
-7009.366864371051
 30
0.0000000000000013
 11
5111.417005037688
 21
-7008.924826566933
 31
0.0000000000000013
  0
LINE
  5
16D540
330
18
100
AcDbEntity
  8
姿図
100
AcDbLine
 10
5111.625037381362
 20
-7010.656038524658
 30
0.0000000000000013
 11
5111.417005037688
 21
-7010.214000720535
 31
0.0000000000000013
  0
LINE
  5
16D541
330
18
100
AcDbEntity
  8
姿図
100
AcDbLine
 10
5111.625037381362
 20
-7010.011451447856
 30
0.0000000000000013
 11
5111.417005037688
 21
-7009.569413643734
 31
0.0000000000000013
  0
ELLIPSE
  5
16D542
330
18
100
AcDbEntity
  8
姿図
100
AcDbEllipse
 10
5111.473953808408
 20
-7009.537002238434
 30
0.0000000000000013
 11
0.03884321122096071
 21
0.05426269557437717
 31
3.704401490077422E-18
210
-3.231153159914879E-17
220
-4.513815278383454E-17
230
1.0
 40
0.9083744652357184
 41
0.6674062465671117
 42
2.671810903782999
  0
ELLIPSE
  5
16D543
330
18
100
AcDbEntity
  8
姿図
100
AcDbEllipse
 10
5111.473953808408
 20
-7010.181589315235
 30
0.0000000000000013
 11
0.03884321122096071
 21
0.05426269557437717
 31
3.704401490077422E-18
210
-3.231153159914879E-17
220
-4.513815278383454E-17
230
1.0
 40
0.9083744652357184
 41
0.6674062465671138
 42
2.671810903782835
  0
ELLIPSE
  5
16D544
330
18
100
AcDbEntity
  8
姿図
100
AcDbEllipse
 10
5111.473953808408
 20
-7008.892415161629
 30
0.0000000000000013
 11
0.03884321122096071
 21
0.05426269557437717
 31
3.704401490077422E-18
210
-3.231153159914879E-17
220
-4.513815278383454E-17
230
1.0
 40
0.9083744652357184
 41
0.6674062465672714
 42
2.671810903782924
  0
LINE
  5
16D545
330
18
100
AcDbEntity
  8
姿図
100
AcDbLine
 10
5110.727867156008
 20
-7009.096200939635
 30
0.0000000000000013
 11
5110.92163616075
 21
-7009.50793126891
 31
0.0000000000000013
  0
LINE
  5
16D546
330
18
100
AcDbEntity
  8
姿図
100
AcDbLine
 10
5110.738728070394
 20
-7009.625491518043
 30
0.0000000000000013
 11
5110.741696912832
 21
-7009.77017419976
 31
0.0000000000000013
  0
LINE
  5
16D547
330
18
100
AcDbEntity
  8
姿図
100
AcDbLine
 10
5110.864687390031
 20
-7009.604801381892
 30
0.0000000000000013
 11
5110.770552587792
 21
-7009.613610428612
 31
0.0000000000000013
  0
LINE
  5
16D548
330
18
100
AcDbEntity
  8
姿図
100
AcDbLine
 10
5110.725740245935
 20
-7008.992549443578
 30
0.0000000000000013
 11
5110.727867153854
 21
-7009.096200939883
 31
0.0000000000000013
  0
LINE
  5
16D549
330
18
100
AcDbEntity
  8
姿図
100
AcDbLine
 10
5110.864687390031
 20
-7008.960214305092
 30
0.0000000000000013
 11
5110.770552587792
 21
-7008.969023351813
 31
0.0000000000000013
  0
LINE
  5
16D54A
330
18
100
AcDbEntity
  8
姿図
100
AcDbLine
 10
5110.741696915516
 20
-7009.77017419945
 30
0.0000000000000013
 11
5110.890259981997
 21
-7010.085848630265
 31
0.0000000000000013
  0
ELLIPSE
  5
16D54B
330
18
100
AcDbEntity
  8
姿図
100
AcDbEllipse
 10
5110.770552587792
 20
-7009.678069136298
 30
0.0000000000000013
 11
0.03884321122095603
 21
0.05426269557438058
 31
3.704401490077424E-18
210
-3.231153159914461E-17
220
-4.513815278383751E-17
230
1.0
 40
0.9083744652357181
 41
0.6674062465669202
 42
1.199235524648299
  0
ELLIPSE
  5
16D54C
330
18
100
AcDbEntity
  8
姿図
100
AcDbEllipse
 10
5110.864687390028
 20
-7009.540342674215
 30
0.0000000000000013
 11
0.038843211220958
 21
0.05426269557437263
 31
7.408802980154252E-18
210
-6.462306319829806E-17
220
-9.027630556766861E-17
230
1.0
 40
0.9083744652357179
 41
3.808998900156816
 42
5.813403557372785
  0
ELLIPSE
  5
16D54D
330
18
100
AcDbEntity
  8
姿図
100
AcDbEllipse
 10
5110.870718019967
 20
-7010.041762525639
 30
0.0000000000000013
 11
-0.01554401597754887
 21
0.1661056997765384
 31
-9.261003725194074E-18
210
-5.172084878144057E-18
220
5.526967929193049E-17
230
1.0
 40
0.3284334526200731
 41
2.864022404808038
 42
3.791317622809779
  0
ELLIPSE
  5
16D54E
330
18
100
AcDbEntity
  8
姿図
100
AcDbEllipse
 10
5110.833534077106
 20
-7010.045242164219
 30
0.0000000000000013
 11
0.08781036397791203
 21
-0.1588491864505247
 31
1.007549936372717E-17
210
-2.685589719099224E-17
220
4.858239081278761E-17
230
1.0
 40
0.1762382375576922
 41
0.7697837615025532
 42
1.216427360176595
  0
ELLIPSE
  5
16D54F
330
18
100
AcDbEntity
  8
姿図
100
AcDbEllipse
 10
5091.202423320841
 20
-6969.179283256536
 30
0.0000000000000013
 11
-19.83658726056133
 21
40.56437036753362
 31
-1.253298195558075E-15
210
-1.219306866792505E-17
220
2.493393378939952E-17
230
1.0
 40
0.0898112888334004
 41
3.072805797846053
 42
3.087159186167753
  0
ELLIPSE
  5
16D550
330
18
100
AcDbEntity
  8
姿図
100
AcDbEllipse
 10
5110.770552587792
 20
-7009.033482059489
 30
0.0000000000000013
 11
0.03884321122095603
 21
0.05426269557438058
 31
3.704401490077424E-18
210
-3.231153159914461E-17
220
-4.513815278383751E-17
230
1.0
 40
0.9083744652357181
 41
0.6674062465669227
 42
1.462696070731774
  0
ELLIPSE
  5
16D551
330
18
100
AcDbEntity
  8
姿図
100
AcDbEllipse
 10
5110.864687390028
 20
-7008.895755597408
 30
0.0000000000000013
 11
0.038843211220958
 21
0.05426269557437263
 31
7.408802980154252E-18
210
-6.462306319829806E-17
220
-9.027630556766861E-17
230
1.0
 40
0.9083744652357179
 41
3.808998900157097
 42
5.813403557372832
  0
ELLIPSE
  5
16D552
330
18
100
AcDbEntity
  8
姿図
100
AcDbEllipse
 10
5091.201827362059
 20
-6968.533429855915
 30
0.0000000000000013
 11
-19.82281215858677
 21
40.53620129132076
 31
2.504855737825179E-15
210
2.438613733585006E-17
220
-4.986786757879896E-17
230
1.0
 40
0.0898112888334004
 41
3.072872848347417
 42
3.080408125087992
  0
LINE
  5
16D553
330
18
100
AcDbEntity
  8
姿図
100
AcDbLine
 10
5111.473953808408
 20
-7009.472543530751
 30
0.0000000000000013
 11
5111.568088610646
 21
-7009.46373448403
 31
0.0000000000000013
  0
LINE
  5
16D554
330
18
100
AcDbEntity
  8
姿図
100
AcDbLine
 10
5111.473953808408
 20
-7008.82795645395
 30
0.0000000000000013
 11
5111.568088610646
 21
-7008.819147407229
 31
0.0000000000000013
  0
LINE
  5
16D555
330
18
100
AcDbEntity
  8
姿図
100
AcDbLine
 10
5111.473953808408
 20
-7010.11713060755
 30
0.0000000000000013
 11
5111.568088610646
 21
-7010.108321560831
 31
0.0000000000000013
  0
ELLIPSE
  5
16D556
330
18
100
AcDbEntity
  8
姿図
100
AcDbEllipse
 10
5111.568088610644
 20
-7009.399275776354
 30
0.0000000000000013
 11
0.03884321122095253
 21
0.05426269557437655
 31
0.0
210
0.0
220
0.0
230
1.0
 40
0.9083744652357187
 41
3.808998900156633
 42
5.813403557372653
  0
ELLIPSE
  5
16D557
330
18
100
AcDbEntity
  8
姿図
100
AcDbEllipse
 10
5111.568088610644
 20
-7010.043862853154
 30
0.0000000000000013
 11
0.03884321122095253
 21
0.05426269557437655
 31
0.0
210
0.0
220
0.0
230
1.0
 40
0.9083744652357187
 41
3.808998900156507
 42
5.813403557372811
  0
ELLIPSE
  5
16D558
330
18
100
AcDbEntity
  8
姿図
100
AcDbEllipse
 10
5111.568088610644
 20
-7010.688449929955
 30
0.0000000000000013
 11
0.03884321122095504
 21
0.05426269557438004
 31
-7.408802980154736E-18
210
6.462306319828886E-17
220
9.027630556767531E-17
230
1.0
 40
0.9083744652357182
 41
5.379795226951762
 42
5.813403557372785
  0
ELLIPSE
  5
16D559
330
18
100
AcDbEntity
  8
姿図
100
AcDbEllipse
 10
5111.568088610644
 20
-7008.754688699553
 30
0.0000000000000013
 11
0.03884321122095253
 21
0.05426269557437655
 31
0.0
210
0.0
220
0.0
230
1.0
 40
0.9083744652357187
 41
3.808998900156414
 42
5.813403557372719
  0
LINE
  5
16D55A
330
18
100
AcDbEntity
  8
姿図
100
AcDbLine
 10
5109.605595167341
 20
-7004.05375171908
 30
0.0000000000000013
 11
5109.397562823665
 21
-7003.611713914962
 31
0.0000000000000013
  0
LINE
  5
16D55B
330
18
100
AcDbEntity
  8
姿図
100
AcDbLine
 10
5109.605595167341
 20
-7002.119990488678
 30
0.0000000000000013
 11
5109.397562823665
 21
-7001.677952684557
 31
0.0000000000000013
  0
LINE
  5
16D55C
330
18
100
AcDbEntity
  8
姿図
100
AcDbLine
 10
5109.605595167341
 20
-7002.764577565477
 30
0.0000000000000013
 11
5109.397562823665
 21
-7002.322539761358
 31
0.0000000000000013
  0
LINE
  5
16D55D
330
18
100
AcDbEntity
  8
姿図
100
AcDbLine
 10
5109.605595167341
 20
-7003.409164642278
 30
0.0000000000000013
 11
5109.397562823665
 21
-7002.967126838157
 31
0.0000000000000013
  0
LINE
  5
16D55E
330
18
100
AcDbEntity
  8
姿図
100
AcDbLine
 10
5109.605595167341
 20
-7007.921274179896
 30
0.0000000000000013
 11
5109.397996317354
 21
-7007.480157485428
 31
0.0000000000000013
  0
LINE
  5
16D55F
330
18
100
AcDbEntity
  8
姿図
100
AcDbLine
 10
5109.605595167341
 20
-7005.987512949489
 30
0.0000000000000013
 11
5109.397562823665
 21
-7005.545475145368
 31
0.0000000000000013
  0
LINE
  5
16D560
330
18
100
AcDbEntity
  8
姿図
100
AcDbLine
 10
5109.605595167341
 20
-7006.632100026291
 30
0.0000000000000013
 11
5109.397562823665
 21
-7006.190062222174
 31
0.0000000000000013
  0
LINE
  5
16D561
330
18
100
AcDbEntity
  8
姿図
100
AcDbLine
 10
5109.605595167341
 20
-7007.276687103094
 30
0.0000000000000013
 11
5109.397562823665
 21
-7006.834649298975
 31
0.0000000000000013
  0
LINE
  5
16D562
330
18
100
AcDbEntity
  8
姿図
100
AcDbLine
 10
5109.605595167341
 20
-7005.342925872688
 30
0.0000000000000013
 11
5109.397562823665
 21
-7004.900888068567
 31
0.0000000000000013
  0
LINE
  5
16D563
330
18
100
AcDbEntity
  8
姿図
100
AcDbLine
 10
5109.605595167341
 20
-7004.698338795885
 30
0.0000000000000013
 11
5109.397562823665
 21
-7004.256300991768
 31
0.0000000000000013
  0
ELLIPSE
  5
16D564
330
18
100
AcDbEntity
  8
姿図
100
AcDbEllipse
 10
5109.454511594382
 20
-7007.44682497048
 30
0.0000000000000013
 11
0.03884321122096071
 21
0.05426269557437717
 31
3.704401490077422E-18
210
-3.231153159914879E-17
220
-4.513815278383454E-17
230
1.0
 40
0.9083744652357184
 41
0.6674062465669873
 42
1.830516517602442
  0
ELLIPSE
  5
16D565
330
18
100
AcDbEntity
  8
姿図
100
AcDbEllipse
 10
5109.454511594382
 20
-7008.091412047279
 30
0.0000000000000013
 11
0.03884321122096071
 21
0.05426269557437717
 31
3.704401490077422E-18
210
-3.231153159914879E-17
220
-4.513815278383454E-17
230
1.0
 40
0.9083744652357184
 41
0.6674062465667715
 42
1.46269607064669
  0
ELLIPSE
  5
16D566
330
18
100
AcDbEntity
  8
姿図
100
AcDbEllipse
 10
5109.454511594382
 20
-7003.579302509666
 30
0.0000000000000013
 11
0.03884321122096071
 21
0.05426269557437717
 31
3.704401490077422E-18
210
-3.231153159914879E-17
220
-4.513815278383454E-17
230
1.0
 40
0.9083744652357184
 41
0.6674062465669873
 42
2.671810903782851
  0
ELLIPSE
  5
16D567
330
18
100
AcDbEntity
  8
姿図
100
AcDbEllipse
 10
5109.454511594382
 20
-7005.51306374007
 30
0.0000000000000013
 11
0.03884321122096071
 21
0.05426269557437717
 31
3.704401490077422E-18
210
-3.231153159914879E-17
220
-4.513815278383454E-17
230
1.0
 40
0.9083744652357184
 41
0.6674062465668904
 42
2.671810903783141
  0
ELLIPSE
  5
16D568
330
18
100
AcDbEntity
  8
姿図
100
AcDbEllipse
 10
5109.454511594382
 20
-7006.157650816869
 30
0.0000000000000013
 11
0.03884321122096071
 21
0.05426269557437717
 31
3.704401490077422E-18
210
-3.231153159914879E-17
220
-4.513815278383454E-17
230
1.0
 40
0.9083744652357184
 41
0.6674062465668275
 42
2.671810903782999
  0
ELLIPSE
  5
16D569
330
18
100
AcDbEntity
  8
姿図
100
AcDbEllipse
 10
5109.454511594382
 20
-7006.802237893678
 30
0.0000000000000013
 11
0.03884321122096071
 21
0.05426269557437717
 31
3.704401490077422E-18
210
-3.231153159914879E-17
220
-4.513815278383454E-17
230
1.0
 40
0.9083744652357184
 41
0.6674062465667715
 42
2.671810903782776
  0
ELLIPSE
  5
16D56A
330
18
100
AcDbEntity
  8
姿図
100
AcDbEllipse
 10
5109.454511594382
 20
-7004.223889586468
 30
0.0000000000000013
 11
0.03884321122096071
 21
0.05426269557437717
 31
3.704401490077422E-18
210
-3.231153159914879E-17
220
-4.513815278383454E-17
230
1.0
 40
0.9083744652357184
 41
0.6674062465671117
 42
2.671810903783074
  0
ELLIPSE
  5
16D56B
330
18
100
AcDbEntity
  8
姿図
100
AcDbEllipse
 10
5109.454511594382
 20
-7004.868476663269
 30
0.0000000000000013
 11
0.03884321122096071
 21
0.05426269557437717
 31
3.704401490077422E-18
210
-3.231153159914879E-17
220
-4.513815278383454E-17
230
1.0
 40
0.9083744652357184
 41
0.6674062465663877
 42
2.671810903782819
  0
ELLIPSE
  5
16D56C
330
18
100
AcDbEntity
  8
姿図
100
AcDbEllipse
 10
5109.454511594382
 20
-7001.645541279257
 30
0.0000000000000013
 11
0.03884321122096071
 21
0.05426269557437717
 31
3.704401490077422E-18
210
-3.231153159914879E-17
220
-4.513815278383454E-17
230
1.0
 40
0.9083744652357184
 41
0.6674062465670556
 42
2.671810903782919
  0
ELLIPSE
  5
16D56D
330
18
100
AcDbEntity
  8
姿図
100
AcDbEllipse
 10
5109.454511594382
 20
-7002.290128356061
 30
0.0000000000000013
 11
0.03884321122096071
 21
0.05426269557437717
 31
3.704401490077422E-18
210
-3.231153159914879E-17
220
-4.513815278383454E-17
230
1.0
 40
0.9083744652357184
 41
0.6674062465668229
 42
2.671810903782974
  0
ELLIPSE
  5
16D56E
330
18
100
AcDbEntity
  8
姿図
100
AcDbEllipse
 10
5109.454511594382
 20
-7002.934715432863
 30
0.0000000000000013
 11
0.03884321122096071
 21
0.05426269557437717
 31
3.704401490077422E-18
210
-3.231153159914879E-17
220
-4.513815278383454E-17
230
1.0
 40
0.9083744652357184
 41
0.6674062465671117
 42
2.671810903783024
  0
LINE
  5
16D56F
330
18
100
AcDbEntity
  8
姿図
100
AcDbLine
 10
5109.397996315734
 20
-7007.480157485616
 30
0.0000000000000013
 11
5109.396898538658
 21
-7007.426659364967
 31
0.0000000000000013
  0
LINE
  5
16D570
330
18
100
AcDbEntity
  8
姿図
100
AcDbLine
 10
5109.411826160446
 20
-7008.154130927669
 30
0.0000000000000013
 11
5109.409699252526
 21
-7008.050479431363
 31
0.0000000000000013
  0
ELLIPSE
  5
16D571
330
18
100
AcDbEntity
  8
姿図
100
AcDbEllipse
 10
5091.201231403279
 20
-6967.887576455299
 30
0.0000000000000013
 11
-19.80903705661221
 21
40.50803221510786
 31
-2.503115084534214E-15
210
-2.438613733585011E-17
220
4.986786757879905E-17
230
1.0
 40
0.0898112888334005
 41
2.880054474313594
 42
2.880292129410969
  0
ELLIPSE
  5
16D572
330
18
100
AcDbEntity
  8
姿図
100
AcDbEllipse
 10
5091.201827362059
 20
-6968.533429855915
 30
0.0000000000000013
 11
-19.82281215858677
 21
40.53620129132076
 31
2.504855737825179E-15
210
2.438613733585006E-17
220
-4.986786757879896E-17
230
1.0
 40
0.0898112888334004
 41
2.872823996859904
 42
2.880359273600474
  0
LINE
  5
16D573
330
18
100
AcDbEntity
  8
姿図
100
AcDbLine
 10
5109.454511594382
 20
-7003.514843801982
 30
0.0000000000000013
 11
5109.548646396622
 21
-7003.506034755263
 31
0.0000000000000013
  0
LINE
  5
16D574
330
18
100
AcDbEntity
  8
姿図
100
AcDbLine
 10
5109.454511594382
 20
-7004.159430878784
 30
0.0000000000000013
 11
5109.548646396622
 21
-7004.150621832064
 31
0.0000000000000013
  0
LINE
  5
16D575
330
18
100
AcDbEntity
  8
姿図
100
AcDbLine
 10
5109.454511594382
 20
-7002.225669648378
 30
0.0000000000000013
 11
5109.548646396622
 21
-7002.216860601654
 31
0.0000000000000013
  0
LINE
  5
16D576
330
18
100
AcDbEntity
  8
姿図
100
AcDbLine
 10
5109.454511594382
 20
-7002.870256725181
 30
0.0000000000000013
 11
5109.548646396622
 21
-7002.861447678457
 31
0.0000000000000013
  0
LINE
  5
16D577
330
18
100
AcDbEntity
  8
姿図
100
AcDbLine
 10
5109.454511594382
 20
-7007.382366262795
 30
0.0000000000000013
 11
5109.548646396622
 21
-7007.373557216076
 31
0.0000000000000013
  0
LINE
  5
16D578
330
18
100
AcDbEntity
  8
姿図
100
AcDbLine
 10
5109.454511594382
 20
-7008.026953339596
 30
0.0000000000000013
 11
5109.548646396622
 21
-7008.018144292877
 31
0.0000000000000013
  0
LINE
  5
16D579
330
18
100
AcDbEntity
  8
姿図
100
AcDbLine
 10
5109.454511594382
 20
-7005.448605032393
 30
0.0000000000000013
 11
5109.548646396622
 21
-7005.439795985664
 31
0.0000000000000013
  0
LINE
  5
16D57A
330
18
100
AcDbEntity
  8
姿図
100
AcDbLine
 10
5109.454511594382
 20
-7006.093192109194
 30
0.0000000000000013
 11
5109.548646396622
 21
-7006.084383062469
 31
0.0000000000000013
  0
LINE
  5
16D57B
330
18
100
AcDbEntity
  8
姿図
100
AcDbLine
 10
5109.454511594382
 20
-7006.737779185995
 30
0.0000000000000013
 11
5109.548646396622
 21
-7006.728970139275
 31
0.0000000000000013
  0
LINE
  5
16D57C
330
18
100
AcDbEntity
  8
姿図
100
AcDbLine
 10
5109.519646602133
 20
-7006.087096836107
 30
0.0000000000000013
 11
5109.529363695587
 21
-7006.445524568087
 31
0.0000000000000013
  0
LINE
  5
16D57D
330
18
100
AcDbEntity
  8
姿図
100
AcDbLine
 10
5109.454511594382
 20
-7004.804017955587
 30
0.0000000000000013
 11
5109.548646396622
 21
-7004.795208908865
 31
0.0000000000000013
  0
ELLIPSE
  5
16D57E
330
18
100
AcDbEntity
  8
姿図
100
AcDbEllipse
 10
5109.548646396621
 20
-7007.309098508398
 30
0.0000000000000013
 11
0.03884321122095253
 21
0.05426269557437655
 31
0.0
210
0.0
220
0.0
230
1.0
 40
0.9083744652357187
 41
3.808998900156664
 42
5.813403557372635
  0
ELLIPSE
  5
16D57F
330
18
100
AcDbEntity
  8
姿図
100
AcDbEllipse
 10
5109.548646396621
 20
-7007.9536855852
 30
0.0000000000000013
 11
0.03884321122095253
 21
0.05426269557437655
 31
0.0
210
0.0
220
0.0
230
1.0
 40
0.9083744652357187
 41
3.808998900156701
 42
5.813403557372721
  0
ELLIPSE
  5
16D580
330
18
100
AcDbEntity
  8
姿図
100
AcDbEllipse
 10
5109.548646396621
 20
-7003.441576047583
 30
0.0000000000000013
 11
0.03884321122095386
 21
0.05426269557437831
 31
0.0
210
0.0
220
0.0
230
1.0
 40
0.9083744652357182
 41
3.808998900156944
 42
5.813403557372685
  0
ELLIPSE
  5
16D581
330
18
100
AcDbEntity
  8
姿図
100
AcDbEllipse
 10
5109.548646396621
 20
-7005.375337277988
 30
0.0000000000000013
 11
0.03884321122095386
 21
0.05426269557437831
 31
0.0
210
0.0
220
0.0
230
1.0
 40
0.9083744652357182
 41
3.808998900156665
 42
5.813403557372685
  0
ELLIPSE
  5
16D582
330
18
100
AcDbEntity
  8
姿図
100
AcDbEllipse
 10
5090.344223621087
 20
-7005.932466681114
 30
0.0000000000000013
 11
-19.17075898940471
 21
-3.634211928550238E-13
 31
-1.064190901478840E-15
210
-5.551115123125783E-17
220
-1.052328121613185E-30
230
1.0
 40
0.258819045102515
 41
3.173482583937681
 42
3.237425862011138
  0
ELLIPSE
  5
16D583
330
18
100
AcDbEntity
  8
姿図
100
AcDbEllipse
 10
5090.344223621087
 20
-7006.480365696399
 30
0.0000000000000013
 11
-19.18561234589598
 21
-3.653002919402808E-13
 31
-1.065015428397319E-15
210
-5.551115123125783E-17
220
-1.056950353479716E-30
230
1.0
 40
0.258819045102515
 41
3.048817195001321
 42
3.090682397459626
  0
ELLIPSE
  5
16D584
330
18
100
AcDbEntity
  8
姿図
100
AcDbEllipse
 10
5090.344223621087
 20
-7006.480365696399
 30
0.0000000000000013
 11
-19.18561234589598
 21
-3.653002919402808E-13
 31
-1.065015428397319E-15
210
-5.551115123125783E-17
220
-1.056950353479716E-30
230
1.0
 40
0.258819045102515
 41
3.143468445217585
 42
3.219953961483735
  0
ELLIPSE
  5
16D585
330
18
100
AcDbEntity
  8
姿図
100
AcDbEllipse
 10
5109.863995558832
 20
-7007.326931875219
 30
0.0000000000000013
 11
-0.02279106511062913
 21
-0.3329635378327955
 31
1.852643819635814E-17
210
3.790819955422916E-18
220
5.538156367497354E-17
230
1.0
 40
0.163803715364946
 41
3.940366134145706
 42
4.140498290499586
  0
ELLIPSE
  5
16D586
330
18
100
AcDbEntity
  8
姿図
100
AcDbEllipse
 10
5109.548646396621
 20
-7006.019924354794
 30
0.0000000000000013
 11
0.03884321122095386
 21
0.05426269557437831
 31
0.0
210
0.0
220
0.0
230
1.0
 40
0.9083744652357182
 41
3.808998900156953
 42
5.813403557372611
  0
ELLIPSE
  5
16D587
330
18
100
AcDbEntity
  8
姿図
100
AcDbEllipse
 10
5109.548646396621
 20
-7006.664511431595
 30
0.0000000000000013
 11
0.03884321122095386
 21
0.05426269557437831
 31
0.0
210
0.0
220
0.0
230
1.0
 40
0.9083744652357182
 41
3.808998900157146
 42
5.813403557372803
  0
ELLIPSE
  5
16D588
330
18
100
AcDbEntity
  8
姿図
100
AcDbEllipse
 10
5109.548646396621
 20
-7004.086163124382
 30
0.0000000000000013
 11
0.03884321122095386
 21
0.05426269557437831
 31
0.0
210
0.0
220
0.0
230
1.0
 40
0.9083744652357182
 41
3.808998900156944
 42
5.813403557372685
  0
ELLIPSE
  5
16D589
330
18
100
AcDbEntity
  8
姿図
100
AcDbEllipse
 10
5109.548646396621
 20
-7004.730750201184
 30
0.0000000000000013
 11
0.03884321122095386
 21
0.05426269557437831
 31
0.0
210
0.0
220
0.0
230
1.0
 40
0.9083744652357182
 41
3.808998900157137
 42
5.813403557372877
  0
ELLIPSE
  5
16D58A
330
18
100
AcDbEntity
  8
姿図
100
AcDbEllipse
 10
5109.548646396621
 20
-7002.152401893976
 30
0.0000000000000013
 11
0.03884321122095386
 21
0.05426269557437831
 31
0.0
210
0.0
220
0.0
230
1.0
 40
0.9083744652357182
 41
3.808998900156944
 42
5.813403557372635
  0
ELLIPSE
  5
16D58B
330
18
100
AcDbEntity
  8
姿図
100
AcDbEllipse
 10
5109.548646396621
 20
-7002.796988970777
 30
0.0000000000000013
 11
0.03884321122095386
 21
0.05426269557437831
 31
0.0
210
0.0
220
0.0
230
1.0
 40
0.9083744652357182
 41
3.808998900157069
 42
5.813403557372808
  0
LINE
  5
16D58C
330
18
100
AcDbEntity
  8
姿図
100
AcDbLine
 10
5111.625037381362
 20
-7003.565580679827
 30
0.0000000000000013
 11
5111.417005037688
 21
-7003.123542875709
 31
0.0000000000000013
  0
LINE
  5
16D58D
330
18
100
AcDbEntity
  8
姿図
100
AcDbLine
 10
5111.625037381362
 20
-7004.210167756632
 30
0.0000000000000013
 11
5111.417005037688
 21
-7003.768129952511
 31
0.0000000000000013
  0
LINE
  5
16D58E
330
18
100
AcDbEntity
  8
姿図
100
AcDbLine
 10
5111.625037381362
 20
-7002.27640652622
 30
0.0000000000000013
 11
5111.417005037688
 21
-7001.834368722105
 31
0.0000000000000013
  0
LINE
  5
16D58F
330
18
100
AcDbEntity
  8
姿図
100
AcDbLine
 10
5111.625037381362
 20
-7002.920993603022
 30
0.0000000000000013
 11
5111.417005037688
 21
-7002.478955798906
 31
0.0000000000000013
  0
LINE
  5
16D590
330
18
100
AcDbEntity
  8
姿図
100
AcDbLine
 10
5111.625037381362
 20
-7007.433103140643
 30
0.0000000000000013
 11
5111.417005037688
 21
-7006.991065336523
 31
0.0000000000000013
  0
LINE
  5
16D591
330
18
100
AcDbEntity
  8
姿図
100
AcDbLine
 10
5111.625037381362
 20
-7008.077690217444
 30
0.0000000000000013
 11
5111.417005037688
 21
-7007.635652413324
 31
0.0000000000000013
  0
LINE
  5
16D592
330
18
100
AcDbEntity
  8
姿図
100
AcDbLine
 10
5111.625037381362
 20
-7005.499341910233
 30
0.0000000000000013
 11
5111.417005037688
 21
-7005.057304106113
 31
0.0000000000000013
  0
LINE
  5
16D593
330
18
100
AcDbEntity
  8
姿図
100
AcDbLine
 10
5111.625037381362
 20
-7006.143928987034
 30
0.0000000000000013
 11
5111.417005037688
 21
-7005.701891182916
 31
0.0000000000000013
  0
LINE
  5
16D594
330
18
100
AcDbEntity
  8
姿図
100
AcDbLine
 10
5111.625037381362
 20
-7006.78851606384
 30
0.0000000000000013
 11
5111.417005037688
 21
-7006.346478259722
 31
0.0000000000000013
  0
LINE
  5
16D595
330
18
100
AcDbEntity
  8
姿図
100
AcDbLine
 10
5111.625037381362
 20
-7004.854754833434
 30
0.0000000000000013
 11
5111.417005037688
 21
-7004.412717029312
 31
0.0000000000000013
  0
ELLIPSE
  5
16D596
330
18
100
AcDbEntity
  8
姿図
100
AcDbEllipse
 10
5111.473953808408
 20
-7007.603241008024
 30
0.0000000000000013
 11
0.03884321122096071
 21
0.05426269557437717
 31
3.704401490077422E-18
210
-3.231153159914879E-17
220
-4.513815278383454E-17
230
1.0
 40
0.9083744652357184
 41
0.6674062465674321
 42
2.671810903783085
  0
ELLIPSE
  5
16D597
330
18
100
AcDbEntity
  8
姿図
100
AcDbEllipse
 10
5111.473953808408
 20
-7008.247828084827
 30
0.0000000000000013
 11
0.03884321122096071
 21
0.05426269557437717
 31
3.704401490077422E-18
210
-3.231153159914879E-17
220
-4.513815278383454E-17
230
1.0
 40
0.9083744652357184
 41
0.6674062465669873
 42
2.671810903782875
  0
ELLIPSE
  5
16D598
330
18
100
AcDbEntity
  8
姿図
100
AcDbEllipse
 10
5111.473953808408
 20
-7005.669479777621
 30
0.0000000000000013
 11
0.03884321122096071
 21
0.05426269557437717
 31
3.704401490077422E-18
210
-3.231153159914879E-17
220
-4.513815278383454E-17
230
1.0
 40
0.9083744652357184
 41
0.6674062465671117
 42
2.671810903782999
  0
ELLIPSE
  5
16D599
330
18
100
AcDbEntity
  8
姿図
100
AcDbEllipse
 10
5111.473953808408
 20
-7006.314066854422
 30
0.0000000000000013
 11
0.03884321122096071
 21
0.05426269557437717
 31
3.704401490077422E-18
210
-3.231153159914879E-17
220
-4.513815278383454E-17
230
1.0
 40
0.9083744652357184
 41
0.6674062465669561
 42
2.671810903782844
  0
ELLIPSE
  5
16D59A
330
18
100
AcDbEntity
  8
姿図
100
AcDbEllipse
 10
5111.473953808408
 20
-7006.958653931223
 30
0.0000000000000013
 11
0.03884321122096071
 21
0.05426269557437717
 31
3.704401490077422E-18
210
-3.231153159914879E-17
220
-4.513815278383454E-17
230
1.0
 40
0.9083744652357184
 41
0.6674062465670799
 42
2.671810903782968
  0
ELLIPSE
  5
16D59B
330
18
100
AcDbEntity
  8
姿図
100
AcDbEllipse
 10
5111.473953808408
 20
-7003.735718547211
 30
0.0000000000000013
 11
0.03884321122096071
 21
0.05426269557437717
 31
3.704401490077422E-18
210
-3.231153159914879E-17
220
-4.513815278383454E-17
230
1.0
 40
0.9083744652357184
 41
0.6674062465670799
 42
2.671810903783017
  0
ELLIPSE
  5
16D59C
330
18
100
AcDbEntity
  8
姿図
100
AcDbEllipse
 10
5111.473953808408
 20
-7004.380305624012
 30
0.0000000000000013
 11
0.03884321122096071
 21
0.05426269557437717
 31
3.704401490077422E-18
210
-3.231153159914879E-17
220
-4.513815278383454E-17
230
1.0
 40
0.9083744652357184
 41
0.667406246567148
 42
2.671810903783085
  0
ELLIPSE
  5
16D59D
330
18
100
AcDbEntity
  8
姿図
100
AcDbEllipse
 10
5111.473953808408
 20
-7005.024892700817
 30
0.0000000000000013
 11
0.03884321122096071
 21
0.05426269557437717
 31
3.704401490077422E-18
210
-3.231153159914879E-17
220
-4.513815278383454E-17
230
1.0
 40
0.9083744652357184
 41
0.6674062465669873
 42
2.671810903782924
  0
ELLIPSE
  5
16D59E
330
18
100
AcDbEntity
  8
姿図
100
AcDbEllipse
 10
5111.473953808408
 20
-7001.8019573168
 30
0.0000000000000013
 11
0.03884321122097171
 21
0.05426269557439264
 31
3.704401490078473E-18
210
-3.231153159914872E-17
220
-4.513815278383454E-17
230
1.0
 40
0.9083744652357185
 41
0.6674062465670405
 42
2.671810903783109
  0
ELLIPSE
  5
16D59F
330
18
100
AcDbEntity
  8
姿図
100
AcDbEllipse
 10
5111.473953808408
 20
-7002.446544393602
 30
0.0000000000000013
 11
0.03884321122096071
 21
0.05426269557437717
 31
3.704401490077422E-18
210
-3.231153159914879E-17
220
-4.513815278383454E-17
230
1.0
 40
0.9083744652357184
 41
0.667406246567148
 42
2.671810903783036
  0
ELLIPSE
  5
16D5A0
330
18
100
AcDbEntity
  8
姿図
100
AcDbEllipse
 10
5111.473953808408
 20
-7003.091131470412
 30
0.0000000000000013
 11
0.03884321122096071
 21
0.05426269557437717
 31
3.704401490077422E-18
210
-3.231153159914879E-17
220
-4.513815278383454E-17
230
1.0
 40
0.9083744652357184
 41
0.6674062465670241
 42
2.671810903782961
  0
LINE
  5
16D5A1
330
18
100
AcDbEntity
  8
姿図
100
AcDbLine
 10
5110.713603817073
 20
-7003.264609773573
 30
0.0000000000000013
 11
5110.92163616075
 21
-7003.706647577686
 31
0.0000000000000013
  0
LINE
  5
16D5A2
330
18
100
AcDbEntity
  8
姿図
100
AcDbLine
 10
5110.864687390031
 20
-7003.803517690671
 30
0.0000000000000013
 11
5110.770552587792
 21
-7003.812326737389
 31
0.0000000000000013
  0
LINE
  5
16D5A3
330
18
100
AcDbEntity
  8
姿図
100
AcDbLine
 10
5110.864687390031
 20
-7003.158930613869
 30
0.0000000000000013
 11
5110.770552587792
 21
-7003.16773966059
 31
0.0000000000000013
  0
LINE
  5
16D5A4
330
18
100
AcDbEntity
  8
姿図
100
AcDbLine
 10
5110.713603817073
 20
-7002.620022696768
 30
0.0000000000000013
 11
5110.92163616075
 21
-7003.062060500885
 31
0.0000000000000013
  0
LINE
  5
16D5A5
330
18
100
AcDbEntity
  8
姿図
100
AcDbLine
 10
5110.864687390031
 20
-7002.514343537064
 30
0.0000000000000013
 11
5110.770552587792
 21
-7002.523152583788
 31
0.0000000000000013
  0
LINE
  5
16D5A6
330
18
100
AcDbEntity
  8
姿図
100
AcDbLine
 10
5110.713603817073
 20
-7001.975435619963
 30
0.0000000000000013
 11
5110.92163616075
 21
-7002.417473424084
 31
0.0000000000000013
  0
LINE
  5
16D5A7
330
18
100
AcDbEntity
  8
姿図
100
AcDbLine
 10
5110.864687390031
 20
-7001.869756460263
 30
0.0000000000000013
 11
5110.770552587792
 21
-7001.878565506983
 31
0.0000000000000013
  0
LINE
  5
16D5A8
330
18
100
AcDbEntity
  8
姿図
100
AcDbLine
 10
5110.713603817073
 20
-7007.132132234385
 30
0.0000000000000013
 11
5110.92163616075
 21
-7007.574170038502
 31
0.0000000000000013
  0
LINE
  5
16D5A9
330
18
100
AcDbEntity
  8
姿図
100
AcDbLine
 10
5110.712939532068
 20
-7008.368729377179
 30
0.0000000000000013
 11
5110.714037309142
 21
-7008.422227497827
 31
0.0000000000000013
  0
LINE
  5
16D5AA
330
18
100
AcDbEntity
  8
姿図
100
AcDbLine
 10
5110.864687390031
 20
-7008.315627228283
 30
0.0000000000000013
 11
5110.770552587792
 21
-7008.324436275012
 31
0.0000000000000013
  0
LINE
  5
16D5AB
330
18
100
AcDbEntity
  8
姿図
100
AcDbLine
 10
5110.713603817073
 20
-7007.776719311187
 30
0.0000000000000013
 11
5110.92163616075
 21
-7008.218757115308
 31
0.0000000000000013
  0
LINE
  5
16D5AC
330
18
100
AcDbEntity
  8
姿図
100
AcDbLine
 10
5110.864687390031
 20
-7007.671040151482
 30
0.0000000000000013
 11
5110.770552587792
 21
-7007.679849198206
 31
0.0000000000000013
  0
LINE
  5
16D5AD
330
18
100
AcDbEntity
  8
姿図
100
AcDbLine
 10
5110.713603817073
 20
-7005.198371003975
 30
0.0000000000000013
 11
5110.92163616075
 21
-7005.640408808096
 31
0.0000000000000013
  0
LINE
  5
16D5AE
330
18
100
AcDbEntity
  8
姿図
100
AcDbLine
 10
5110.864687390031
 20
-7007.026453074683
 30
0.0000000000000013
 11
5110.770552587792
 21
-7007.035262121403
 31
0.0000000000000013
  0
LINE
  5
16D5AF
330
18
100
AcDbEntity
  8
姿図
100
AcDbLine
 10
5110.713603817073
 20
-7006.487545157582
 30
0.0000000000000013
 11
5110.92163616075
 21
-7006.929582961698
 31
0.0000000000000013
  0
LINE
  5
16D5B0
330
18
100
AcDbEntity
  8
姿図
100
AcDbLine
 10
5110.864687390031
 20
-7006.381865997882
 30
0.0000000000000013
 11
5110.770552587792
 21
-7006.390675044602
 31
0.0000000000000013
  0
LINE
  5
16D5B1
330
18
100
AcDbEntity
  8
姿図
100
AcDbLine
 10
5110.713603817073
 20
-7005.842958080781
 30
0.0000000000000013
 11
5110.92163616075
 21
-7006.284995884896
 31
0.0000000000000013
  0
LINE
  5
16D5B2
330
18
100
AcDbEntity
  8
姿図
100
AcDbLine
 10
5110.864687390031
 20
-7005.73727892108
 30
0.0000000000000013
 11
5110.770552587792
 21
-7005.746087967801
 31
0.0000000000000013
  0
LINE
  5
16D5B3
330
18
100
AcDbEntity
  8
姿図
100
AcDbLine
 10
5110.864687390031
 20
-7005.092691844275
 30
0.0000000000000013
 11
5110.770552587792
 21
-7005.101500890995
 31
0.0000000000000013
  0
LINE
  5
16D5B4
330
18
100
AcDbEntity
  8
姿図
100
AcDbLine
 10
5110.713603817073
 20
-7004.553783927176
 30
0.0000000000000013
 11
5110.92163616075
 21
-7004.995821731295
 31
0.0000000000000013
  0
LINE
  5
16D5B5
330
18
100
AcDbEntity
  8
姿図
100
AcDbLine
 10
5110.864687390031
 20
-7004.448104767472
 30
0.0000000000000013
 11
5110.770552587792
 21
-7004.456913814194
 31
0.0000000000000013
  0
LINE
  5
16D5B6
330
18
100
AcDbEntity
  8
姿図
100
AcDbLine
 10
5110.713603817073
 20
-7003.909196850374
 30
0.0000000000000013
 11
5110.92163616075
 21
-7004.35123465449
 31
0.0000000000000013
  0
ELLIPSE
  5
16D5B7
330
18
100
AcDbEntity
  8
姿図
100
AcDbEllipse
 10
5110.770552587792
 20
-7008.388894982688
 30
0.0000000000000013
 11
0.03884321122095603
 21
0.05426269557438058
 31
3.704401490077424E-18
210
-3.231153159914461E-17
220
-4.513815278383751E-17
230
1.0
 40
0.9083744652357181
 41
0.6674062465666386
 42
1.830516517601721
  0
ELLIPSE
  5
16D5B8
330
18
100
AcDbEntity
  8
姿図
100
AcDbEllipse
 10
5110.864687390028
 20
-7008.251168520608
 30
0.0000000000000013
 11
0.038843211220958
 21
0.05426269557437263
 31
7.408802980154252E-18
210
-6.462306319829806E-17
220
-9.027630556766861E-17
230
1.0
 40
0.9083744652357179
 41
3.808998900156779
 42
5.813403557372749
  0
ELLIPSE
  5
16D5B9
330
18
100
AcDbEntity
  8
姿図
100
AcDbEllipse
 10
5110.770552587792
 20
-7007.744307905888
 30
0.0000000000000013
 11
0.03884321122095603
 21
0.05426269557438058
 31
3.704401490077424E-18
210
-3.231153159914461E-17
220
-4.513815278383751E-17
230
1.0
 40
0.9083744652357181
 41
0.6674062465669787
 42
2.671810903782915
  0
ELLIPSE
  5
16D5BA
330
18
100
AcDbEntity
  8
姿図
100
AcDbEllipse
 10
5110.864687390028
 20
-7007.606581443802
 30
0.0000000000000013
 11
0.03884321122095925
 21
0.05426269557437442
 31
-3.704401490077249E-18
210
3.231153159914906E-17
220
4.513815278383431E-17
230
1.0
 40
0.908374465235718
 41
3.80899890015719
 42
5.813403557373379
  0
ELLIPSE
  5
16D5BB
330
18
100
AcDbEntity
  8
姿図
100
AcDbEllipse
 10
5091.201231403279
 20
-6967.887576455299
 30
0.0000000000000013
 11
-19.80903705661221
 21
40.50803221510786
 31
-2.503115084534214E-15
210
-2.438613733585011E-17
220
4.986786757879905E-17
230
1.0
 40
0.0898112888334005
 41
3.072939992536941
 42
3.073177647634316
  0
ELLIPSE
  5
16D5BC
330
18
100
AcDbEntity
  8
姿図
100
AcDbEllipse
 10
5110.770552587792
 20
-7007.099720829087
 30
0.0000000000000013
 11
0.03884321122095603
 21
0.05426269557438058
 31
3.704401490077424E-18
210
-3.231153159914461E-17
220
-4.513815278383751E-17
230
1.0
 40
0.9083744652357181
 41
0.6674062465666698
 42
2.671810903782841
  0
ELLIPSE
  5
16D5BD
330
18
100
AcDbEntity
  8
姿図
100
AcDbEllipse
 10
5110.864687390028
 20
-7006.961994367001
 30
0.0000000000000013
 11
0.03884321122095925
 21
0.05426269557437442
 31
-3.704401490077249E-18
210
3.231153159914906E-17
220
4.513815278383431E-17
230
1.0
 40
0.908374465235718
 41
3.808998900156782
 42
5.813403557372797
  0
ELLIPSE
  5
16D5BE
330
18
100
AcDbEntity
  8
姿図
100
AcDbEllipse
 10
5110.770552587792
 20
-7006.455133752285
 30
0.0000000000000013
 11
0.03884321122095603
 21
0.05426269557438058
 31
3.704401490077424E-18
210
-3.231153159914461E-17
220
-4.513815278383751E-17
230
1.0
 40
0.9083744652357181
 41
0.6674062465669538
 42
2.671810903782891
  0
ELLIPSE
  5
16D5BF
330
18
100
AcDbEntity
  8
姿図
100
AcDbEllipse
 10
5110.864687390028
 20
-7006.3174072902
 30
0.0000000000000013
 11
0.03884321122095925
 21
0.05426269557437442
 31
-3.704401490077249E-18
210
3.231153159914906E-17
220
4.513815278383431E-17
230
1.0
 40
0.908374465235718
 41
3.808998900157067
 42
5.813403557373014
  0
ELLIPSE
  5
16D5C0
330
18
100
AcDbEntity
  8
姿図
100
AcDbEllipse
 10
5110.770552587792
 20
-7005.810546675481
 30
0.0000000000000013
 11
0.03884321122095603
 21
0.05426269557438058
 31
3.704401490077424E-18
210
-3.231153159914461E-17
220
-4.513815278383751E-17
230
1.0
 40
0.9083744652357181
 41
0.6674062465669787
 42
2.671810903782915
  0
ELLIPSE
  5
16D5C1
330
18
100
AcDbEntity
  8
姿図
100
AcDbEllipse
 10
5110.864687390028
 20
-7005.672820213397
 30
0.0000000000000013
 11
0.03884321122095925
 21
0.05426269557437442
 31
-3.704401490077249E-18
210
3.231153159914906E-17
220
4.513815278383431E-17
230
1.0
 40
0.908374465235718
 41
3.808998900156782
 42
5.813403557372797
  0
ELLIPSE
  5
16D5C2
330
18
100
AcDbEntity
  8
姿図
100
AcDbEllipse
 10
5110.770552587792
 20
-7005.165959598679
 30
0.0000000000000013
 11
0.03884321122095603
 21
0.05426269557438058
 31
3.704401490077424E-18
210
-3.231153159914461E-17
220
-4.513815278383751E-17
230
1.0
 40
0.9083744652357181
 41
0.6674062465668864
 42
2.671810903783139
  0
ELLIPSE
  5
16D5C3
330
18
100
AcDbEntity
  8
姿図
100
AcDbEllipse
 10
5110.864687390028
 20
-7005.028233136595
 30
0.0000000000000013
 11
0.03884321122095925
 21
0.05426269557437442
 31
-3.704401490077249E-18
210
3.231153159914906E-17
220
4.513815278383431E-17
230
1.0
 40
0.908374465235718
 41
3.808998900157258
 42
5.81340355737299
  0
ELLIPSE
  5
16D5C4
330
18
100
AcDbEntity
  8
姿図
100
AcDbEllipse
 10
5110.770552587792
 20
-7004.521372521874
 30
0.0000000000000013
 11
0.03884321122095603
 21
0.05426269557438058
 31
3.704401490077424E-18
210
-3.231153159914461E-17
220
-4.513815278383751E-17
230
1.0
 40
0.9083744652357181
 41
0.6674062465670783
 42
2.671810903783331
  0
ELLIPSE
  5
16D5C5
330
18
100
AcDbEntity
  8
姿図
100
AcDbEllipse
 10
5110.864687390028
 20
-7004.383646059794
 30
0.0000000000000013
 11
0.03884321122095925
 21
0.05426269557437442
 31
-3.704401490077249E-18
210
3.231153159914906E-17
220
4.513815278383431E-17
230
1.0
 40
0.908374465235718
 41
3.808998900157067
 42
5.813403557372797
  0
ELLIPSE
  5
16D5C6
330
18
100
AcDbEntity
  8
姿図
100
AcDbEllipse
 10
5110.770552587792
 20
-7003.876785445074
 30
0.0000000000000013
 11
0.03884321122095603
 21
0.05426269557438058
 31
3.704401490077424E-18
210
-3.231153159914461E-17
220
-4.513815278383751E-17
230
1.0
 40
0.9083744652357181
 41
0.6674062465670099
 42
2.671810903783262
  0
ELLIPSE
  5
16D5C7
330
18
100
AcDbEntity
  8
姿図
100
AcDbEllipse
 10
5110.864687390028
 20
-7003.739058982993
 30
0.0000000000000013
 11
0.03884321122095925
 21
0.05426269557437442
 31
-3.704401490077249E-18
210
3.231153159914906E-17
220
4.513815278383431E-17
230
1.0
 40
0.908374465235718
 41
3.808998900156622
 42
5.81340355737292
  0
ELLIPSE
  5
16D5C8
330
18
100
AcDbEntity
  8
姿図
100
AcDbEllipse
 10
5110.770552587792
 20
-7003.23219836827
 30
0.0000000000000013
 11
0.03884321122095603
 21
0.05426269557438058
 31
3.704401490077424E-18
210
-3.231153159914461E-17
220
-4.513815278383751E-17
230
1.0
 40
0.9083744652357181
 41
0.6674062465666947
 42
2.671810903783231
  0
ELLIPSE
  5
16D5C9
330
18
100
AcDbEntity
  8
姿図
100
AcDbEllipse
 10
5110.864687390028
 20
-7003.094471906185
 30
0.0000000000000013
 11
0.03884321122095925
 21
0.05426269557437442
 31
-3.704401490077249E-18
210
3.231153159914906E-17
220
4.513815278383431E-17
230
1.0
 40
0.908374465235718
 41
3.808998900156782
 42
5.813403557372797
  0
ELLIPSE
  5
16D5CA
330
18
100
AcDbEntity
  8
姿図
100
AcDbEllipse
 10
5110.770552587792
 20
-7002.587611291468
 30
0.0000000000000013
 11
0.03884321122095603
 21
0.05426269557438058
 31
3.704401490077424E-18
210
-3.231153159914461E-17
220
-4.513815278383751E-17
230
1.0
 40
0.9083744652357181
 41
0.6674062465668553
 42
2.671810903783083
  0
ELLIPSE
  5
16D5CB
330
18
100
AcDbEntity
  8
姿図
100
AcDbEllipse
 10
5110.864687390028
 20
-7002.449884829384
 30
0.0000000000000013
 11
0.03884321122095925
 21
0.05426269557437442
 31
-3.704401490077249E-18
210
3.231153159914906E-17
220
4.513815278383431E-17
230
1.0
 40
0.908374465235718
 41
3.808998900156777
 42
5.813403557372797
  0
ELLIPSE
  5
16D5CC
330
18
100
AcDbEntity
  8
姿図
100
AcDbEllipse
 10
5110.770552587792
 20
-7001.943024214665
 30
0.0000000000000013
 11
0.03884321122095603
 21
0.05426269557438058
 31
3.704401490077424E-18
210
-3.231153159914461E-17
220
-4.513815278383751E-17
230
1.0
 40
0.9083744652357181
 41
0.6674062465666901
 42
2.671810903782891
  0
ELLIPSE
  5
16D5CD
330
18
100
AcDbEntity
  8
姿図
100
AcDbEllipse
 10
5110.864687390028
 20
-7001.805297752583
 30
0.0000000000000013
 11
0.03884321122096051
 21
0.05426269557437609
 31
3.704401490077339E-18
210
-3.231153159914885E-17
220
-4.513815278383398E-17
230
1.0
 40
0.9083744652357179
 41
3.808998900156912
 42
5.813403557372872
  0
LINE
  5
16D5CE
330
18
100
AcDbEntity
  8
姿図
100
AcDbLine
 10
5111.473953808408
 20
-7003.671259839531
 30
0.0000000000000013
 11
5111.568088610646
 21
-7003.662450792806
 31
0.0000000000000013
  0
LINE
  5
16D5CF
330
18
100
AcDbEntity
  8
姿図
100
AcDbLine
 10
5111.473953808408
 20
-7001.737498609125
 30
0.0000000000000013
 11
5111.568088610646
 21
-7001.728689562401
 31
0.0000000000000013
  0
LINE
  5
16D5D0
330
18
100
AcDbEntity
  8
姿図
100
AcDbLine
 10
5111.473953808408
 20
-7002.382085685927
 30
0.0000000000000013
 11
5111.568088610646
 21
-7002.373276639206
 31
0.0000000000000013
  0
LINE
  5
16D5D1
330
18
100
AcDbEntity
  8
姿図
100
AcDbLine
 10
5111.473953808408
 20
-7003.026672762726
 30
0.0000000000000013
 11
5111.568088610646
 21
-7003.017863716005
 31
0.0000000000000013
  0
LINE
  5
16D5D2
330
18
100
AcDbEntity
  8
姿図
100
AcDbLine
 10
5111.473953808408
 20
-7007.538782300347
 30
0.0000000000000013
 11
5111.568088610646
 21
-7007.529973253624
 31
0.0000000000000013
  0
LINE
  5
16D5D3
330
18
100
AcDbEntity
  8
姿図
100
AcDbLine
 10
5111.473953808408
 20
-7008.183369377148
 30
0.0000000000000013
 11
5111.568088610646
 21
-7008.17456033043
 31
0.0000000000000013
  0
LINE
  5
16D5D4
330
18
100
AcDbEntity
  8
姿図
100
AcDbLine
 10
5111.473953808408
 20
-7005.605021069937
 30
0.0000000000000013
 11
5111.568088610646
 21
-7005.596212023216
 31
0.0000000000000013
  0
LINE
  5
16D5D5
330
18
100
AcDbEntity
  8
姿図
100
AcDbLine
 10
5111.473953808408
 20
-7006.249608146738
 30
0.0000000000000013
 11
5111.568088610646
 21
-7006.240799100018
 31
0.0000000000000013
  0
LINE
  5
16D5D6
330
18
100
AcDbEntity
  8
姿図
100
AcDbLine
 10
5111.473953808408
 20
-7006.894195223544
 30
0.0000000000000013
 11
5111.568088610646
 21
-7006.885386176819
 31
0.0000000000000013
  0
LINE
  5
16D5D7
330
18
100
AcDbEntity
  8
姿図
100
AcDbLine
 10
5111.473953808408
 20
-7004.315846916333
 30
0.0000000000000013
 11
5111.568088610646
 21
-7004.307037869612
 31
0.0000000000000013
  0
LINE
  5
16D5D8
330
18
100
AcDbEntity
  8
姿図
100
AcDbLine
 10
5111.473953808408
 20
-7004.960433993136
 30
0.0000000000000013
 11
5111.568088610646
 21
-7004.951624946415
 31
0.0000000000000013
  0
ELLIPSE
  5
16D5D9
330
18
100
AcDbEntity
  8
姿図
100
AcDbEllipse
 10
5111.568088610644
 20
-7007.465514545945
 30
0.0000000000000013
 11
0.03884321122095386
 21
0.05426269557437831
 31
0.0
210
0.0
220
0.0
230
1.0
 40
0.9083744652357182
 41
3.808998900157078
 42
5.8134035573731
  0
ELLIPSE
  5
16D5DA
330
18
100
AcDbEntity
  8
姿図
100
AcDbEllipse
 10
5111.568088610644
 20
-7008.110101622744
 30
0.0000000000000013
 11
0.03884321122095386
 21
0.05426269557437831
 31
0.0
210
0.0
220
0.0
230
1.0
 40
0.9083744652357182
 41
3.808998900156706
 42
5.813403557372963
  0
ELLIPSE
  5
16D5DB
330
18
100
AcDbEntity
  8
姿図
100
AcDbEllipse
 10
5111.568088610644
 20
-7005.531753315533
 30
0.0000000000000013
 11
0.03884321122095386
 21
0.05426269557437831
 31
0.0
210
0.0
220
0.0
230
1.0
 40
0.9083744652357182
 41
3.808998900156737
 42
5.813403557372994
  0
ELLIPSE
  5
16D5DC
330
18
100
AcDbEntity
  8
姿図
100
AcDbEllipse
 10
5111.568088610644
 20
-7006.176340392334
 30
0.0000000000000013
 11
0.03884321122095386
 21
0.05426269557437831
 31
0.0
210
0.0
220
0.0
230
1.0
 40
0.9083744652357182
 41
3.808998900157022
 42
5.813403557372752
  0
ELLIPSE
  5
16D5DD
330
18
100
AcDbEntity
  8
姿図
100
AcDbEllipse
 10
5111.568088610644
 20
-7006.820927469143
 30
0.0000000000000013
 11
0.03884321122095386
 21
0.05426269557437831
 31
0.0
210
0.0
220
0.0
230
1.0
 40
0.9083744652357182
 41
3.808998900156638
 42
5.813403557372579
  0
ELLIPSE
  5
16D5DE
330
18
100
AcDbEntity
  8
姿図
100
AcDbEllipse
 10
5111.568088610644
 20
-7003.597992085131
 30
0.0000000000000013
 11
0.03884321122095386
 21
0.05426269557437831
 31
0.0
210
0.0
220
0.0
230
1.0
 40
0.9083744652357182
 41
3.808998900156422
 42
5.813403557372648
  0
ELLIPSE
  5
16D5DF
330
18
100
AcDbEntity
  8
姿図
100
AcDbEllipse
 10
5111.568088610644
 20
-7004.242579161931
 30
0.0000000000000013
 11
0.03884321122095386
 21
0.05426269557437831
 31
0.0
210
0.0
220
0.0
230
1.0
 40
0.9083744652357182
 41
3.808998900156578
 42
5.813403557372803
  0
ELLIPSE
  5
16D5E0
330
18
100
AcDbEntity
  8
姿図
100
AcDbEllipse
 10
5111.568088610644
 20
-7004.887166238732
 30
0.0000000000000013
 11
0.03884321122095386
 21
0.05426269557437831
 31
0.0
210
0.0
220
0.0
230
1.0
 40
0.9083744652357182
 41
3.808998900157022
 42
5.813403557373044
  0
ELLIPSE
  5
16D5E1
330
18
100
AcDbEntity
  8
姿図
100
AcDbEllipse
 10
5111.568088610644
 20
-7001.664230854722
 30
0.0000000000000013
 11
0.03884321122095504
 21
0.05426269557438004
 31
-7.408802980154736E-18
210
6.462306319828886E-17
220
9.027630556767531E-17
230
1.0
 40
0.9083744652357182
 41
3.808998900156864
 42
5.813403557372728
  0
ELLIPSE
  5
16D5E2
330
18
100
AcDbEntity
  8
姿図
100
AcDbEllipse
 10
5111.568088610644
 20
-7002.308817931525
 30
0.0000000000000013
 11
0.03884321122095504
 21
0.05426269557438004
 31
-7.408802980154736E-18
210
6.462306319828886E-17
220
9.027630556767531E-17
230
1.0
 40
0.9083744652357182
 41
3.808998900156512
 42
5.813403557373049
  0
ELLIPSE
  5
16D5E3
330
18
100
AcDbEntity
  8
姿図
100
AcDbEllipse
 10
5111.568088610644
 20
-7002.953405008326
 30
0.0000000000000013
 11
0.03884321122095386
 21
0.05426269557437831
 31
0.0
210
0.0
220
0.0
230
1.0
 40
0.9083744652357182
 41
3.808998900156478
 42
5.813403557372704
  0
LINE
  5
16D5E4
330
18
100
AcDbEntity
  8
姿図
100
AcDbLine
 10
5107.442827109014
 20
-7004.930658084234
 30
0.0000000000000013
 11
5106.953612440392
 21
-7004.976438335218
 31
0.0000000000000013
  0
ELLIPSE
  5
16D5E5
330
18
100
AcDbEntity
  8
姿図
100
AcDbEllipse
 10
5090.062474987088
 20
-6999.000808352682
 30
0.0000000000000013
 11
11.53937528561558
 21
32.62347191877432
 31
0.0
210
0.0
220
0.0
230
1.0
 40
0.5306663220532383
 41
4.635006625735985
 42
4.718323401449883
  0
ELLIPSE
  5
16D5E6
330
18
100
AcDbEntity
  8
姿図
100
AcDbEllipse
 10
5090.649101178
 20
-6996.254413684261
 30
0.0000000000000013
 11
11.52422002329554
 21
32.58550975387643
 31
3.837299372999473E-15
210
-3.701743464227736E-17
220
-1.046692943349816E-16
230
1.0
 40
0.5306015190202691
 41
4.552834753258026
 42
4.631677754451532
  0
LINE
  5
16D5E7
330
18
100
AcDbEntity
  8
姿図
100
AcDbLine
 10
5108.845245176006
 20
-7003.647101653126
 30
0.0000000000000013
 11
5108.751110373768
 21
-7003.655910699845
 31
0.0000000000000013
  0
LINE
  5
16D5E8
330
18
100
AcDbEntity
  8
姿図
100
AcDbLine
 10
5108.845245176006
 20
-7003.002514576317
 30
0.0000000000000013
 11
5108.751110373768
 21
-7003.011323623041
 31
0.0000000000000013
  0
LINE
  5
16D5E9
330
18
100
AcDbEntity
  8
姿図
100
AcDbLine
 10
5108.845245176006
 20
-7002.357927499515
 30
0.0000000000000013
 11
5108.751110373768
 21
-7002.366736546236
 31
0.0000000000000013
  0
LINE
  5
16D5EA
330
18
100
AcDbEntity
  8
姿図
100
AcDbLine
 10
5108.845245176006
 20
-7001.713340422714
 30
0.0000000000000013
 11
5108.751110373768
 21
-7001.722149469435
 31
0.0000000000000013
  0
LINE
  5
16D5EB
330
18
100
AcDbEntity
  8
姿図
100
AcDbLine
 10
5108.845245176006
 20
-7008.159211190739
 30
0.0000000000000013
 11
5108.751110373768
 21
-7008.168020237459
 31
0.0000000000000013
  0
LINE
  5
16D5EC
330
18
100
AcDbEntity
  8
姿図
100
AcDbLine
 10
5108.845245176006
 20
-7007.514624113938
 30
0.0000000000000013
 11
5108.751110373768
 21
-7007.523433160658
 31
0.0000000000000013
  0
LINE
  5
16D5ED
330
18
100
AcDbEntity
  8
姿図
100
AcDbLine
 10
5108.845245176006
 20
-7006.870037037134
 30
0.0000000000000013
 11
5108.751110373768
 21
-7006.878846083857
 31
0.0000000000000013
  0
LINE
  5
16D5EE
330
18
100
AcDbEntity
  8
姿図
100
AcDbLine
 10
5108.845245176006
 20
-7006.22544996033
 30
0.0000000000000013
 11
5108.751110373768
 21
-7006.234259007054
 31
0.0000000000000013
  0
LINE
  5
16D5EF
330
18
100
AcDbEntity
  8
姿図
100
AcDbLine
 10
5108.845245176006
 20
-7005.580862883528
 30
0.0000000000000013
 11
5108.751110373768
 21
-7005.589671930253
 31
0.0000000000000013
  0
LINE
  5
16D5F0
330
18
100
AcDbEntity
  8
姿図
100
AcDbLine
 10
5108.845245176006
 20
-7004.936275806726
 30
0.0000000000000013
 11
5108.751110373768
 21
-7004.945084853447
 31
0.0000000000000013
  0
LINE
  5
16D5F1
330
18
100
AcDbEntity
  8
姿図
100
AcDbLine
 10
5108.845245176006
 20
-7004.291688729927
 30
0.0000000000000013
 11
5108.751110373768
 21
-7004.300497776646
 31
0.0000000000000013
  0
ELLIPSE
  5
16D5F2
330
18
100
AcDbEntity
  8
姿図
100
AcDbEllipse
 10
5108.751110373766
 20
-7008.232478945143
 30
0.0000000000000013
 11
0.03884321122095558
 21
0.05426269557438083
 31
-3.704401490077417E-18
210
3.231153159914449E-17
220
4.513815278383754E-17
230
1.0
 40
0.9083744652357193
 41
0.6674062465669471
 42
2.671810903782884
  0
ELLIPSE
  5
16D5F3
330
18
100
AcDbEntity
  8
姿図
100
AcDbEllipse
 10
5108.751110373766
 20
-7007.587891868342
 30
0.0000000000000013
 11
0.03884321122095558
 21
0.05426269557438083
 31
-3.704401490077417E-18
210
3.231153159914449E-17
220
4.513815278383754E-17
230
1.0
 40
0.9083744652357193
 41
0.6674062465665955
 42
2.671810903782768
  0
ELLIPSE
  5
16D5F4
330
18
100
AcDbEntity
  8
姿図
100
AcDbEllipse
 10
5108.751110373766
 20
-7006.943304791538
 30
0.0000000000000013
 11
0.03884321122095558
 21
0.05426269557438083
 31
-3.704401490077417E-18
210
3.231153159914449E-17
220
4.513815278383754E-17
230
1.0
 40
0.9083744652357193
 41
0.6674062465671594
 42
2.671810903782743
  0
ELLIPSE
  5
16D5F5
330
18
100
AcDbEntity
  8
姿図
100
AcDbEllipse
 10
5108.751110373766
 20
-7006.298717714733
 30
0.0000000000000013
 11
0.03884321122095558
 21
0.05426269557438083
 31
-3.704401490077417E-18
210
3.231153159914449E-17
220
4.513815278383754E-17
230
1.0
 40
0.9083744652357193
 41
0.6674062465669471
 42
2.67181090378281
  0
ELLIPSE
  5
16D5F6
330
18
100
AcDbEntity
  8
姿図
100
AcDbEllipse
 10
5108.751110373766
 20
-7005.654130637932
 30
0.0000000000000013
 11
0.03884321122095558
 21
0.05426269557438083
 31
-3.704401490077417E-18
210
3.231153159914449E-17
220
4.513815278383754E-17
230
1.0
 40
0.9083744652357193
 41
0.6674062465673514
 42
2.671810903782983
  0
ELLIPSE
  5
16D5F7
330
18
100
AcDbEntity
  8
姿図
100
AcDbEllipse
 10
5108.751110373766
 20
-7005.009543561127
 30
0.0000000000000013
 11
0.03884321122095558
 21
0.05426269557438083
 31
-3.704401490077417E-18
210
3.231153159914449E-17
220
4.513815278383754E-17
230
1.0
 40
0.9083744652357193
 41
0.6674062465669721
 42
2.671810903782982
  0
ELLIPSE
  5
16D5F8
330
18
100
AcDbEntity
  8
姿図
100
AcDbEllipse
 10
5108.751110373766
 20
-7004.364956484325
 30
0.0000000000000013
 11
0.03884321122095558
 21
0.05426269557438083
 31
-3.704401490077417E-18
210
3.231153159914449E-17
220
4.513815278383754E-17
230
1.0
 40
0.9083744652357193
 41
0.667406246567283
 42
2.671810903782915
  0
ELLIPSE
  5
16D5F9
330
18
100
AcDbEntity
  8
姿図
100
AcDbEllipse
 10
5108.751110373766
 20
-7003.720369407526
 30
0.0000000000000013
 11
0.03884321122095558
 21
0.05426269557438083
 31
-3.704401490077417E-18
210
3.231153159914449E-17
220
4.513815278383754E-17
230
1.0
 40
0.9083744652357193
 41
0.6674062465668796
 42
2.671810903782743
  0
ELLIPSE
  5
16D5FA
330
18
100
AcDbEntity
  8
姿図
100
AcDbEllipse
 10
5108.751110373766
 20
-7003.07578233072
 30
0.0000000000000013
 11
0.03884321122095558
 21
0.05426269557438083
 31
-3.704401490077417E-18
210
3.231153159914449E-17
220
4.513815278383754E-17
230
1.0
 40
0.9083744652357193
 41
0.6674062465670032
 42
2.671810903782915
  0
ELLIPSE
  5
16D5FB
330
18
100
AcDbEntity
  8
姿図
100
AcDbEllipse
 10
5108.751110373766
 20
-7002.431195253919
 30
0.0000000000000013
 11
0.03884321122095558
 21
0.05426269557438083
 31
-3.704401490077417E-18
210
3.231153159914449E-17
220
4.513815278383754E-17
230
1.0
 40
0.9083744652357193
 41
0.6674062465670032
 42
2.671810903782866
  0
ELLIPSE
  5
16D5FC
330
18
100
AcDbEntity
  8
姿図
100
AcDbEllipse
 10
5108.751110373766
 20
-7001.786608177118
 30
0.0000000000000013
 11
0.03884321122095558
 21
0.05426269557438083
 31
-3.704401490077417E-18
210
3.231153159914449E-17
220
4.513815278383754E-17
230
1.0
 40
0.9083744652357193
 41
0.6674062465668796
 42
2.671810903783108
  0
ELLIPSE
  5
16D5FD
330
18
100
AcDbEntity
  8
姿図
100
AcDbEllipse
 10
5090.344223621089
 20
-7008.091833388407
 30
0.0000000000000013
 11
-21.01285829126131
 21
-6.030535924285209E-13
 31
1.166447954407197E-15
210
5.551115123125783E-17
220
1.593129249997122E-30
230
1.0
 40
0.2588190451025202
 41
3.729026483883834
 42
3.761863642495804
  0
LINE
  5
16D5FE
330
18
100
AcDbEntity
  8
姿図
100
AcDbLine
 10
5108.694161603048
 20
-7008.264890350443
 30
0.0000000000000013
 11
5108.902193946726
 21
-7008.706928154561
 31
0.0000000000000013
  0
LINE
  5
16D5FF
330
18
100
AcDbEntity
  8
姿図
100
AcDbLine
 10
5108.694161603048
 20
-7003.108193736021
 30
0.0000000000000013
 11
5108.902193946726
 21
-7003.550231540141
 31
0.0000000000000013
  0
LINE
  5
16D600
330
18
100
AcDbEntity
  8
姿図
100
AcDbLine
 10
5108.694161603048
 20
-7003.752780812822
 30
0.0000000000000013
 11
5108.902193946726
 21
-7004.194818616942
 31
0.0000000000000013
  0
LINE
  5
16D601
330
18
100
AcDbEntity
  8
姿図
100
AcDbLine
 10
5108.694161603048
 20
-7002.463606659219
 30
0.0000000000000013
 11
5108.902193946726
 21
-7002.905644463342
 31
0.0000000000000013
  0
LINE
  5
16D602
330
18
100
AcDbEntity
  8
姿図
100
AcDbLine
 10
5108.694161603048
 20
-7001.81901958242
 30
0.0000000000000013
 11
5108.902193946726
 21
-7002.261057386536
 31
0.0000000000000013
  0
LINE
  5
16D603
330
18
100
AcDbEntity
  8
姿図
100
AcDbLine
 10
5108.694161603048
 20
-7006.975716196836
 30
0.0000000000000013
 11
5108.902193946726
 21
-7007.417754000954
 31
0.0000000000000013
  0
LINE
  5
16D604
330
18
100
AcDbEntity
  8
姿図
100
AcDbLine
 10
5108.694161603048
 20
-7007.620303273638
 30
0.0000000000000013
 11
5108.902193946726
 21
-7008.06234107776
 31
0.0000000000000013
  0
LINE
  5
16D605
330
18
100
AcDbEntity
  8
姿図
100
AcDbLine
 10
5108.694161603048
 20
-7005.041954966431
 30
0.0000000000000013
 11
5108.902193946726
 21
-7005.483992770548
 31
0.0000000000000013
  0
LINE
  5
16D606
330
18
100
AcDbEntity
  8
姿図
100
AcDbLine
 10
5108.694161603048
 20
-7006.331129120033
 30
0.0000000000000013
 11
5108.902193946726
 21
-7006.773166924155
 31
0.0000000000000013
  0
LINE
  5
16D607
330
18
100
AcDbEntity
  8
姿図
100
AcDbLine
 10
5108.694161603048
 20
-7005.686542043232
 30
0.0000000000000013
 11
5108.902193946726
 21
-7006.128579847354
 31
0.0000000000000013
  0
LINE
  5
16D608
330
18
100
AcDbEntity
  8
姿図
100
AcDbLine
 10
5108.694161603048
 20
-7004.397367889627
 30
0.0000000000000013
 11
5108.902193946726
 21
-7004.839405693743
 31
0.0000000000000013
  0
ELLIPSE
  5
16D609
330
18
100
AcDbEntity
  8
姿図
100
AcDbEllipse
 10
5108.845245176006
 20
-7008.094752483064
 30
0.0000000000000013
 11
0.03884321122095765
 21
0.05426269557437282
 31
3.704401490077099E-18
210
-3.231153159914856E-17
220
-4.513815278383420E-17
230
1.0
 40
0.9083744652357186
 41
3.808998900156581
 42
5.813403557372885
  0
ELLIPSE
  5
16D60A
330
18
100
AcDbEntity
  8
姿図
100
AcDbEllipse
 10
5108.845245176006
 20
-7007.450165406259
 30
0.0000000000000013
 11
0.03884321122095765
 21
0.05426269557437282
 31
3.704401490077099E-18
210
-3.231153159914856E-17
220
-4.513815278383420E-17
230
1.0
 40
0.9083744652357186
 41
3.808998900156897
 42
5.813403557372916
  0
ELLIPSE
  5
16D60B
330
18
100
AcDbEntity
  8
姿図
100
AcDbEllipse
 10
5108.845245176006
 20
-7006.805578329453
 30
0.0000000000000013
 11
0.03884321122095765
 21
0.05426269557437282
 31
3.704401490077099E-18
210
-3.231153159914856E-17
220
-4.513815278383420E-17
230
1.0
 40
0.9083744652357186
 41
3.808998900156773
 42
5.813403557372792
  0
ELLIPSE
  5
16D60C
330
18
100
AcDbEntity
  8
姿図
100
AcDbEllipse
 10
5108.845245176006
 20
-7006.160991252652
 30
0.0000000000000013
 11
0.03884321122095893
 21
0.05426269557437464
 31
3.704401490077246E-18
210
-3.231153159914860E-17
220
-4.513815278383460E-17
230
1.0
 40
0.9083744652357184
 41
3.808998900156934
 42
5.813403557373269
  0
ELLIPSE
  5
16D60D
330
18
100
AcDbEntity
  8
姿図
100
AcDbEllipse
 10
5108.845245176006
 20
-7005.516404175853
 30
0.0000000000000013
 11
0.03884321122095893
 21
0.05426269557437464
 31
3.704401490077246E-18
210
-3.231153159914860E-17
220
-4.513815278383460E-17
230
1.0
 40
0.9083744652357184
 41
3.808998900156452
 42
5.81340355737276
  0
ELLIPSE
  5
16D60E
330
18
100
AcDbEntity
  8
姿図
100
AcDbEllipse
 10
5108.845245176006
 20
-7004.871817099043
 30
0.0000000000000013
 11
0.03884321122095893
 21
0.05426269557437464
 31
3.704401490077246E-18
210
-3.231153159914860E-17
220
-4.513815278383460E-17
230
1.0
 40
0.9083744652357184
 41
3.808998900156965
 42
5.813403557372935
  0
ELLIPSE
  5
16D60F
330
18
100
AcDbEntity
  8
姿図
100
AcDbEllipse
 10
5108.845245176006
 20
-7004.227230022242
 30
0.0000000000000013
 11
0.03884321122095893
 21
0.05426269557437464
 31
3.704401490077246E-18
210
-3.231153159914860E-17
220
-4.513815278383460E-17
230
1.0
 40
0.9083744652357184
 41
3.808998900157052
 42
5.813403557372792
  0
ELLIPSE
  5
16D610
330
18
100
AcDbEntity
  8
姿図
100
AcDbEllipse
 10
5108.845245176006
 20
-7003.582642945443
 30
0.0000000000000013
 11
0.03884321122095893
 21
0.05426269557437464
 31
3.704401490077246E-18
210
-3.231153159914860E-17
220
-4.513815278383460E-17
230
1.0
 40
0.9083744652357184
 41
3.808998900156897
 42
5.813403557372867
  0
ELLIPSE
  5
16D611
330
18
100
AcDbEntity
  8
姿図
100
AcDbEllipse
 10
5108.845245176006
 20
-7002.938055868642
 30
0.0000000000000013
 11
0.03884321122095893
 21
0.05426269557437464
 31
3.704401490077246E-18
210
-3.231153159914860E-17
220
-4.513815278383460E-17
230
1.0
 40
0.9083744652357184
 41
3.808998900157176
 42
5.813403557372916
  0
ELLIPSE
  5
16D612
330
18
100
AcDbEntity
  8
姿図
100
AcDbEllipse
 10
5108.845245176006
 20
-7002.29346879184
 30
0.0000000000000013
 11
0.03884321122095893
 21
0.05426269557437464
 31
3.704401490077246E-18
210
-3.231153159914860E-17
220
-4.513815278383460E-17
230
1.0
 40
0.9083744652357184
 41
3.808998900156742
 42
5.813403557372712
  0
ELLIPSE
  5
16D613
330
18
100
AcDbEntity
  8
姿図
100
AcDbEllipse
 10
5108.845245176006
 20
-7001.648881715035
 30
0.0000000000000013
 11
0.03884321122095893
 21
0.05426269557437464
 31
3.704401490077246E-18
210
-3.231153159914860E-17
220
-4.513815278383460E-17
230
1.0
 40
0.9083744652357184
 41
3.808998900156483
 42
5.813403557372792
  0
ELLIPSE
  5
16D614
330
18
100
AcDbEntity
  8
姿図
100
AcDbEllipse
 10
5109.548646396621
 20
-7001.507814817175
 30
0.0000000000000013
 11
0.03884321122095386
 21
0.05426269557437831
 31
0.0
210
0.0
220
0.0
230
1.0
 40
0.9083744652357182
 41
3.808998900156913
 42
5.813403557372654
  0
ELLIPSE
  5
16D615
330
18
100
AcDbEntity
  8
姿図
100
AcDbEllipse
 10
5111.473953808408
 20
-7001.157370239999
 30
0.0000000000000013
 11
0.03884321122097171
 21
0.05426269557439264
 31
3.704401490078473E-18
210
-3.231153159914872E-17
220
-4.513815278383454E-17
230
1.0
 40
0.9083744652357185
 41
0.6674062465672639
 42
2.671810903783432
  0
LINE
  5
16D616
330
18
100
AcDbEntity
  8
姿図
100
AcDbLine
 10
5110.864687390031
 20
-7001.22516938346
 30
0.0000000000000013
 11
5110.770552587792
 21
-7001.233978430179
 31
0.0000000000000013
  0
ELLIPSE
  5
16D617
330
18
100
AcDbEntity
  8
姿図
100
AcDbEllipse
 10
5110.770552587792
 20
-7001.298437137863
 30
0.0000000000000013
 11
0.03884321122096699
 21
0.054262695574396
 31
3.704401490078473E-18
210
-3.231153159914480E-17
220
-4.513815278383737E-17
230
1.0
 40
0.9083744652357179
 41
0.6674062465670622
 42
2.671810903783181
  0
ELLIPSE
  5
16D618
330
18
100
AcDbEntity
  8
姿図
100
AcDbEllipse
 10
5110.864687390028
 20
-7001.160710675784
 30
0.0000000000000013
 11
0.03884321122096051
 21
0.05426269557437609
 31
3.704401490077339E-18
210
-3.231153159914885E-17
220
-4.513815278383398E-17
230
1.0
 40
0.9083744652357179
 41
3.80899890015716
 42
5.813403557372792
  0
LINE
  5
16D619
330
18
100
AcDbEntity
  8
姿図
100
AcDbLine
 10
5111.473953808408
 20
-7001.09291153232
 30
0.0000000000000013
 11
5111.568088610646
 21
-7001.084102485595
 31
0.0000000000000013
  0
LINE
  5
16D61A
330
18
100
AcDbEntity
  8
姿図
100
AcDbLine
 10
5108.845245176006
 20
-7001.068753345913
 30
0.0000000000000013
 11
5108.751110373768
 21
-7001.077562392634
 31
0.0000000000000013
  0
ELLIPSE
  5
16D61B
330
18
100
AcDbEntity
  8
姿図
100
AcDbEllipse
 10
5108.751110373766
 20
-7001.142021100311
 30
0.0000000000000013
 11
0.03884321122095558
 21
0.05426269557438083
 31
-3.704401490077417E-18
210
3.231153159914449E-17
220
4.513815278383754E-17
230
1.0
 40
0.9083744652357193
 41
0.6674062465669471
 42
2.671810903782859
  0
ELLIPSE
  5
16D61C
330
18
100
AcDbEntity
  8
姿図
100
AcDbEllipse
 10
5103.570181214866
 20
-7008.703151579124
 30
0.0000000000000013
 11
-0.1273458545886664
 21
0.4146471030314782
 31
2.407860968550460E-17
210
1.629723296148894E-17
220
-5.306494237082086E-17
230
1.0
 40
0.7386189460394768
 41
4.318335530375434
 42
5.623669093019634
  0
ELLIPSE
  5
16D61D
330
18
100
AcDbEntity
  8
姿図
100
AcDbEllipse
 10
5103.570181214866
 20
-7008.703151579124
 30
0.0000000000000013
 11
-0.1273458545886664
 21
0.4146471030314782
 31
2.407860968550460E-17
210
1.629723296148894E-17
220
-5.306494237082086E-17
230
1.0
 40
0.7386189460394768
 41
3.822881783457571
 42
4.318335530375473
  0
LINE
  5
16D61E
330
18
100
AcDbEntity
  8
姿図
100
AcDbLine
 10
5109.825143240753
 20
-7009.454448836572
 30
0.0000000000000013
 11
5109.892388985701
 21
-6999.31793622037
 31
0.0000000000000013
  0
LINE
  5
16D61F
330
18
100
AcDbEntity
  8
姿図
100
AcDbLine
 10
5107.826534735435
 20
-7004.868419777473
 30
0.0000000000000013
 11
5107.872946771677
 21
-6997.872346029219
 31
0.0000000000000013
  0
LINE
  5
16D620
330
18
100
AcDbEntity
  8
姿図
100
AcDbLine
 10
5109.605595167341
 20
-7001.475403411871
 30
0.0000000000000013
 11
5109.397562823665
 21
-7001.033365607756
 31
0.0000000000000013
  0
ELLIPSE
  5
16D621
330
18
100
AcDbEntity
  8
姿図
100
AcDbEllipse
 10
5111.568088610644
 20
-7001.01964377792
 30
0.0000000000000013
 11
0.03884321122095504
 21
0.05426269557438004
 31
-7.408802980154736E-18
210
6.462306319828886E-17
220
9.027630556767531E-17
230
1.0
 40
0.9083744652357182
 41
3.808998900156461
 42
5.813403557372752
  0
LINE
  5
16D622
330
18
100
AcDbEntity
  8
姿図
100
AcDbLine
 10
5110.713603817073
 20
-7000.686261466362
 30
0.0000000000000013
 11
5110.92163616075
 21
-7001.12829927048
 31
0.0000000000000013
  0
ELLIPSE
  5
16D623
330
18
100
AcDbEntity
  8
姿図
100
AcDbEllipse
 10
5108.845245176006
 20
-7001.004294638229
 30
0.0000000000000013
 11
0.03884321122095893
 21
0.05426269557437464
 31
3.704401490077246E-18
210
-3.231153159914860E-17
220
-4.513815278383460E-17
230
1.0
 40
0.9083744652357184
 41
3.808998900156551
 42
5.81340355737281
  0
LINE
  5
16D624
330
18
100
AcDbEntity
  8
姿図
100
AcDbLine
 10
5081.445323625308
 20
-7000.442570118633
 30
0.0000000000000013
 11
5081.622115090578
 21
-7000.569123880014
 31
0.0000000000000013
  0
ELLIPSE
  5
16D625
330
18
100
AcDbEntity
  8
姿図
100
AcDbEllipse
 10
5090.344223621089
 20
-7005.35233831199
 30
0.0000000000000013
 11
-20.95344975293549
 21
-4.012867907278595E-14
 31
2.326300236103528E-15
210
1.110223024625157E-16
220
2.126226658603514E-31
230
1.0
 40
0.2588190451025204
 41
5.151017883384803
 42
5.195965363531555
  0
LINE
  5
16D626
330
18
100
AcDbEntity
  8
姿図
100
AcDbLine
 10
5086.305235193059
 20
-7000.200483644027
 30
0.0000000000000013
 11
5086.173864250509
 21
-7000.106443544915
 31
0.0000000000000013
  0
ELLIPSE
  5
16D627
330
18
100
AcDbEntity
  8
姿図
100
AcDbEllipse
 10
5090.344223621089
 20
-7005.35233831199
 30
0.0000000000000013
 11
-20.95344975293549
 21
-4.012867907278595E-14
 31
2.326300236103528E-15
210
1.110223024625157E-16
220
2.126226658603514E-31
230
1.0
 40
0.2588190451025204
 41
4.922687502237706
 42
4.96763498238446
  0
ELLIPSE
  5
16D628
330
18
100
AcDbEntity
  8
姿図
100
AcDbEllipse
 10
5086.113041289939
 20
-7000.473244652557
 30
0.0000000000000013
 11
-0.1817624353723096
 21
-0.2798765934127235
 31
-5.557540744779826E-17
210
-9.070358557838999E-17
220
-1.396647799640267E-16
230
1.0
 40
0.913939136448976
 41
3.038071040901397
 42
3.100190541308247
  0
LINE
  5
16D629
330
18
100
AcDbEntity
  8
姿図
100
AcDbLine
 10
5070.237208266161
 20
-7000.956339530831
 30
0.0000000000000013
 11
5069.434342964031
 21
-7001.031470914651
 31
0.0000000000000013
  0
ELLIPSE
  5
16D62A
330
18
100
AcDbEntity
  8
姿図
100
AcDbEllipse
 10
5090.344223621089
 20
-7007.608393080804
 30
0.0000000000000013
 11
-21.00237443155676
 21
-6.021697803670383E-13
 31
1.165865983285650E-15
210
5.551115123125783E-17
220
1.591588506041613E-30
230
1.0
 40
0.2588190451025204
 41
4.96784917457373
 42
5.150803691193217
  0
ELLIPSE
  5
16D62B
330
18
100
AcDbEntity
  8
姿図
100
AcDbEllipse
 10
5083.378565491052
 20
-7007.778818239773
 30
0.0000000000000013
 11
0.2362911659839567
 21
0.3638395714365712
 31
4.816535312142512E-17
210
-6.046905705224812E-17
220
-9.310985330935852E-17
230
1.0
 40
0.9139391364489742
 41
0.6260041342852541
 42
2.752838026093648
  0
ELLIPSE
  5
16D62C
330
18
100
AcDbEntity
  8
姿図
100
AcDbEllipse
 10
5083.378565491052
 20
-7007.778818239773
 30
0.0000000000000013
 11
0.2362911659839567
 21
0.3638395714365712
 31
4.816535312142512E-17
210
-6.046905705224812E-17
220
-9.310985330935852E-17
230
1.0
 40
0.9139391364489742
 41
0.2886548266583326
 42
0.6260041342852678
  0
LINE
  5
16D62D
330
18
100
AcDbEntity
  8
姿図
100
AcDbLine
 10
5070.092657035864
 20
-7001.407790195676
 30
0.0000000000000013
 11
5070.14701823934
 21
-7009.591934153096
 31
0.0000000000000013
  0
ELLIPSE
  5
16D62E
330
18
100
AcDbEntity
  8
姿図
100
AcDbEllipse
 10
5070.591844998881
 20
-7001.765127096859
 30
0.0000000000000013
 11
0.06010428184121636
 21
-0.5975910098000781
 31
0.0
210
0.0
220
0.0
230
1.0
 40
0.3266547503873695
 41
1.290961286430747
 42
2.861757613225721
  0
LINE
  5
16D62F
330
18
100
AcDbEntity
  8
姿図
100
AcDbLine
 10
5069.281497119094
 20
-7001.617391261483
 30
0.0000000000000013
 11
5069.282384594176
 21
-7001.483614732683
 31
0.0000000000000013
  0
LINE
  5
16D630
330
18
100
AcDbEntity
  8
姿図
100
AcDbLine
 10
5071.082852074839
 20
-7008.723897873114
 30
0.0000000000000013
 11
5071.290884418514
 21
-7008.242925124821
 31
0.0000000000000013
  0
LINE
  5
16D631
330
18
100
AcDbEntity
  8
姿図
100
AcDbLine
 10
5071.233935647795
 20
-7008.801300514012
 30
0.0000000000000013
 11
5071.139800845559
 21
-7008.810109560733
 31
0.0000000000000013
  0
LINE
  5
16D632
330
18
100
AcDbEntity
  8
姿図
100
AcDbLine
 10
5071.100957634336
 20
-7008.799913548627
 30
0.0000000000000013
 11
5071.199545912255
 21
-7008.870486623972
 31
0.0000000000000013
  0
LINE
  5
16D633
330
18
100
AcDbEntity
  8
姿図
100
AcDbLine
 10
5071.082852074839
 20
-7003.567201258696
 30
0.0000000000000013
 11
5071.300939333119
 21
-7003.062981452632
 31
0.0000000000000013
  0
LINE
  5
16D634
330
18
100
AcDbEntity
  8
姿図
100
AcDbLine
 10
5071.233935647795
 20
-7003.64460389959
 30
0.0000000000000013
 11
5071.139800845559
 21
-7003.65341294631
 31
0.0000000000000013
  0
LINE
  5
16D635
330
18
100
AcDbEntity
  8
姿図
100
AcDbLine
 10
5071.082852074839
 20
-7004.211788335501
 30
0.0000000000000013
 11
5071.290884418514
 21
-7003.730815587208
 31
0.0000000000000013
  0
LINE
  5
16D636
330
18
100
AcDbEntity
  8
姿図
100
AcDbLine
 10
5071.100957634336
 20
-7003.643216934207
 30
0.0000000000000013
 11
5071.27491337839
 21
-7003.767740783194
 31
0.0000000000000013
  0
LINE
  5
16D637
330
18
100
AcDbEntity
  8
姿図
100
AcDbLine
 10
5071.082852074839
 20
-7007.434723719513
 30
0.0000000000000013
 11
5071.291019360969
 21
-7006.954717869405
 31
0.0
  0
LINE
  5
16D638
330
18
100
AcDbEntity
  8
姿図
100
AcDbLine
 10
5071.233935647795
 20
-7007.512126360405
 30
0.0000000000000013
 11
5071.139800845559
 21
-7007.520935407126
 31
0.0000000000000013
  0
LINE
  5
16D639
330
18
100
AcDbEntity
  8
姿図
100
AcDbLine
 10
5071.082852074839
 20
-7008.079310796315
 30
0.0000000000000013
 11
5071.290884418514
 21
-7007.59833804802
 31
0.0000000000000013
  0
LINE
  5
16D63A
330
18
100
AcDbEntity
  8
姿図
100
AcDbLine
 10
5071.233935647795
 20
-7008.156713437206
 30
0.0000000000000013
 11
5071.139800845559
 21
-7008.165522483931
 31
0.0000000000000013
  0
LINE
  5
16D63B
330
18
100
AcDbEntity
  8
姿図
100
AcDbLine
 10
5071.100957634336
 20
-7007.510739395021
 30
0.0000000000000013
 11
5071.27491337839
 21
-7007.635263244008
 31
0.0000000000000013
  0
LINE
  5
16D63C
330
18
100
AcDbEntity
  8
姿図
100
AcDbLine
 10
5071.100957634336
 20
-7008.155326471822
 30
0.0000000000000013
 11
5071.27491337839
 21
-7008.279850320807
 31
0.0000000000000013
  0
LINE
  5
16D63D
330
18
100
AcDbEntity
  8
姿図
100
AcDbLine
 10
5071.082852074839
 20
-7005.500962489104
 30
0.0000000000000013
 11
5071.290884418514
 21
-7005.019989740813
 31
0.0000000000000013
  0
LINE
  5
16D63E
330
18
100
AcDbEntity
  8
姿図
100
AcDbLine
 10
5071.222039250873
 20
-7005.579478383693
 30
0.0000000000000013
 11
5071.139800845559
 21
-7005.58717417672
 31
0.0000000000000013
  0
LINE
  5
16D63F
330
18
100
AcDbEntity
  8
姿図
100
AcDbLine
 10
5071.082852074839
 20
-7006.145549565907
 30
0.0000000000000013
 11
5071.373122823826
 21
-7005.656881024584
 31
0.0000000000000013
  0
LINE
  5
16D640
330
18
100
AcDbEntity
  8
姿図
100
AcDbLine
 10
5071.234070590251
 20
-7006.868506181791
 30
0.0
 11
5071.139800845559
 21
-7006.876348330323
 31
0.0000000000000013
  0
LINE
  5
16D641
330
18
100
AcDbEntity
  8
姿図
100
AcDbLine
 10
5071.100957634336
 20
-7005.57697816461
 30
0.0000000000000013
 11
5071.204338913535
 21
-7005.650982244609
 31
0.0000000000000013
  0
LINE
  5
16D642
330
18
100
AcDbEntity
  8
姿図
100
AcDbLine
 10
5071.100957634336
 20
-7006.866152318222
 30
0.0000000000000013
 11
5071.254424973011
 21
-7006.976009821397
 31
0.0000000000000013
  0
LINE
  5
16D643
330
18
100
AcDbEntity
  8
姿図
100
AcDbLine
 10
5071.082852074839
 20
-7004.856375412302
 30
0.0000000000000013
 11
5071.290884418514
 21
-7004.375402664007
 31
0.0000000000000013
  0
LINE
  5
16D644
330
18
100
AcDbEntity
  8
姿図
100
AcDbLine
 10
5071.233935647795
 20
-7004.933778053196
 30
0.0000000000000013
 11
5071.139800845559
 21
-7004.942587099918
 31
0.0000000000000013
  0
LINE
  5
16D645
330
18
100
AcDbEntity
  8
姿図
100
AcDbLine
 10
5071.100957634336
 20
-7004.932391087809
 30
0.0000000000000013
 11
5071.27491337839
 21
-7005.056914936797
 31
0.0000000000000013
  0
LINE
  5
16D646
330
18
100
AcDbEntity
  8
姿図
100
AcDbLine
 10
5071.233935647795
 20
-7004.289190976391
 30
0.0000000000000013
 11
5071.139800845559
 21
-7004.298000023119
 31
0.0000000000000013
  0
LINE
  5
16D647
330
18
100
AcDbEntity
  8
姿図
100
AcDbLine
 10
5071.100957634336
 20
-7004.287804011008
 30
0.0000000000000013
 11
5071.27491337839
 21
-7004.412327859995
 31
0.0000000000000013
  0
LINE
  5
16D648
330
18
100
AcDbEntity
  8
姿図
100
AcDbLine
 10
5070.843688047853
 20
-7009.082032219159
 30
0.0000000000000013
 11
5070.796058256478
 21
-7001.911310374618
 31
0.0000000000000013
  0
ELLIPSE
  5
16D649
330
18
100
AcDbEntity
  8
姿図
100
AcDbEllipse
 10
5090.649101178
 20
-6996.254413684261
 30
0.0000000000000013
 11
11.52422002329554
 21
32.58550975387643
 31
3.837299372999473E-15
210
-3.701743464227736E-17
220
-1.046692943349816E-16
230
1.0
 40
0.5306015190202691
 41
2.132850903174913
 42
2.178852095897546
  0
LINE
  5
16D64A
330
18
100
AcDbEntity
  8
姿図
100
AcDbLine
 10
5069.87747326938
 20
-7008.445988750621
 30
0.0000000000000013
 11
5069.388258600758
 21
-7008.491769001604
 31
0.0000000000000013
  0
LINE
  5
16D64B
330
18
100
AcDbEntity
  8
姿図
100
AcDbLine
 10
5069.063409860815
 20
-7008.567481835569
 30
0.0000000000000013
 11
5069.27144220449
 21
-7008.086509087277
 31
0.0000000000000013
  0
ELLIPSE
  5
16D64C
330
18
100
AcDbEntity
  8
姿図
100
AcDbEllipse
 10
5090.344223621089
 20
-7008.091833388407
 30
0.0000000000000013
 11
-20.51244147060166
 21
-4.156142728178665E-14
 31
-1.138669240596894E-15
210
-5.551115123125783E-17
220
-1.124743087522146E-31
230
1.0
 40
0.2588190451025202
 41
0.0667579305343701
 42
0.1004537543484347
  0
LINE
  5
16D64D
330
18
100
AcDbEntity
  8
姿図
100
AcDbLine
 10
5069.081515420312
 20
-7009.28808458788
 30
0.0000000000000013
 11
5069.255471164365
 21
-7009.412608436865
 31
0.0000000000000013
  0
LINE
  5
16D64E
330
18
100
AcDbEntity
  8
姿図
100
AcDbLine
 10
5069.063409860815
 20
-7009.856655989172
 30
0.0000000000000013
 11
5069.27144220449
 21
-7009.375683240877
 31
0.0000000000000013
  0
LINE
  5
16D64F
330
18
100
AcDbEntity
  8
姿図
100
AcDbLine
 10
5069.214493433771
 20
-7009.93405863007
 30
0.0000000000000013
 11
5069.120358631534
 21
-7009.942867676788
 31
0.0000000000000013
  0
LINE
  5
16D650
330
18
100
AcDbEntity
  8
姿図
100
AcDbLine
 10
5069.214493433771
 20
-7008.64488447646
 30
0.0000000000000013
 11
5069.120358631534
 21
-7008.653693523184
 31
0.0000000000000013
  0
LINE
  5
16D651
330
18
100
AcDbEntity
  8
姿図
100
AcDbLine
 10
5069.063409860815
 20
-7009.212068912371
 30
0.0000000000000013
 11
5069.27144220449
 21
-7008.731096164076
 31
0.0000000000000013
  0
LINE
  5
16D652
330
18
100
AcDbEntity
  8
姿図
100
AcDbLine
 10
5069.214493433771
 20
-7009.289471553269
 30
0.0000000000000013
 11
5069.120358631534
 21
-7009.298280599987
 31
0.0000000000000013
  0
LINE
  5
16D653
330
18
100
AcDbEntity
  8
姿図
100
AcDbLine
 10
5069.081515420312
 20
-7008.643497511079
 30
0.0000000000000013
 11
5069.255471164365
 21
-7008.768021360064
 31
0.0000000000000013
  0
LINE
  5
16D654
330
18
100
AcDbEntity
  8
姿図
100
AcDbLine
 10
5069.063409860815
 20
-7010.501243065974
 30
0.0000000000000013
 11
5069.27144220449
 21
-7010.020270317683
 31
0.0000000000000013
  0
LINE
  5
16D655
330
18
100
AcDbEntity
  8
姿図
100
AcDbLine
 10
5069.214493433771
 20
-7010.578645706872
 30
0.0000000000000013
 11
5069.120358631534
 21
-7010.58745475359
 31
0.0000000000000013
  0
LINE
  5
16D656
330
18
100
AcDbEntity
  8
姿図
100
AcDbLine
 10
5069.081515420312
 20
-7010.577258741485
 30
0.0000000000000013
 11
5069.255471164365
 21
-7010.701782590476
 31
0.0000000000000013
  0
LINE
  5
16D657
330
18
100
AcDbEntity
  8
姿図
100
AcDbLine
 10
5069.081515420312
 20
-7009.932671664679
 30
0.0000000000000013
 11
5069.255471164365
 21
-7010.057195513669
 31
0.0000000000000013
  0
LINE
  5
16D658
330
18
100
AcDbEntity
  8
姿図
100
AcDbLine
 10
5069.214493433771
 20
-7011.223232783671
 30
0.0000000000000013
 11
5069.120358631534
 21
-7011.232041830395
 31
0.0000000000000013
  0
LINE
  5
16D659
330
18
100
AcDbEntity
  8
姿図
100
AcDbLine
 10
5069.063409860815
 20
-7011.145830142777
 30
0.0000000000000013
 11
5069.27144220449
 21
-7010.664857394488
 31
0.0000000000000013
  0
ELLIPSE
  5
16D65A
330
18
100
AcDbEntity
  8
姿図
100
AcDbEllipse
 10
5069.120358631532
 20
-7008.589234815502
 30
0.0000000000000013
 11
0.0388432112209595
 21
0.05426269557437422
 31
0.0
210
0.0
220
0.0
230
1.0
 40
0.9083744652357209
 41
1.804594242940603
 42
3.808998900156939
  0
ELLIPSE
  5
16D65B
330
18
100
AcDbEntity
  8
姿図
100
AcDbEllipse
 10
5069.120358631532
 20
-7009.233821892304
 30
0.0000000000000013
 11
0.0388432112209595
 21
0.05426269557437422
 31
0.0
210
0.0
220
0.0
230
1.0
 40
0.9083744652357209
 41
1.804594242940676
 42
3.80899890015725
  0
ELLIPSE
  5
16D65C
330
18
100
AcDbEntity
  8
姿図
100
AcDbEllipse
 10
5069.120358631532
 20
-7009.878408969113
 30
0.0000000000000013
 11
0.0388432112209595
 21
0.05426269557437422
 31
0.0
210
0.0
220
0.0
230
1.0
 40
0.9083744652357209
 41
1.804594242940915
 42
3.808998900157249
  0
ELLIPSE
  5
16D65D
330
18
100
AcDbEntity
  8
姿図
100
AcDbEllipse
 10
5069.120358631532
 20
-7010.522996045915
 30
0.0000000000000013
 11
0.03884321122095826
 21
0.05426269557437244
 31
0.0
210
0.0
220
0.0
230
1.0
 40
0.9083744652357212
 41
1.804594242940485
 42
3.808998900156777
  0
ELLIPSE
  5
16D65E
330
18
100
AcDbEntity
  8
姿図
100
AcDbEllipse
 10
5069.120358631532
 20
-7011.167583122716
 30
0.0000000000000013
 11
0.03884321122095826
 21
0.05426269557437244
 31
0.0
210
0.0
220
0.0
230
1.0
 40
0.9083744652357212
 41
1.804594242940884
 42
3.808998900157218
  0
ELLIPSE
  5
16D65F
330
18
100
AcDbEntity
  8
姿図
100
AcDbEllipse
 10
5071.139800845559
 20
-7008.745650853055
 30
0.0000000000000013
 11
0.03884321122095925
 21
0.05426269557437442
 31
-3.704401490077249E-18
210
3.231153159914906E-17
220
4.513815278383431E-17
230
1.0
 40
0.908374465235718
 41
1.804594242940764
 42
3.808998900157057
  0
ELLIPSE
  5
16D660
330
18
100
AcDbEntity
  8
姿図
100
AcDbEllipse
 10
5069.214493433773
 20
-7009.353930260944
 30
0.0000000000000013
 11
0.03884321122095625
 21
0.05426269557438044
 31
3.704401490077421E-18
210
-3.231153159914511E-17
220
-4.513815278383709E-17
230
1.0
 40
0.9083744652357209
 41
4.946186896530127
 42
6.950591553746752
  0
ELLIPSE
  5
16D661
330
18
100
AcDbEntity
  8
姿図
100
AcDbEllipse
 10
5069.214493433773
 20
-7009.998517337745
 30
0.0000000000000013
 11
0.03884321122095625
 21
0.05426269557438044
 31
3.704401490077421E-18
210
-3.231153159914511E-17
220
-4.513815278383709E-17
230
1.0
 40
0.9083744652357209
 41
4.946186896530643
 42
6.950591553746944
  0
ELLIPSE
  5
16D662
330
18
100
AcDbEntity
  8
姿図
100
AcDbEllipse
 10
5069.214493433773
 20
-7010.643104414555
 30
0.0000000000000013
 11
0.03884321122095625
 21
0.05426269557438044
 31
3.704401490077421E-18
210
-3.231153159914511E-17
220
-4.513815278383709E-17
230
1.0
 40
0.9083744652357209
 41
4.946186896530488
 42
6.950591553746789
  0
ELLIPSE
  5
16D663
330
18
100
AcDbEntity
  8
姿図
100
AcDbEllipse
 10
5069.214493433773
 20
-7008.709343184143
 30
0.0000000000000013
 11
0.03884321122095625
 21
0.05426269557438044
 31
3.704401490077421E-18
210
-3.231153159914511E-17
220
-4.513815278383709E-17
230
1.0
 40
0.9083744652357209
 41
4.946186896530451
 42
6.950591553746752
  0
ELLIPSE
  5
16D664
330
18
100
AcDbEntity
  8
姿図
100
AcDbEllipse
 10
5069.214493433773
 20
-7011.287691491357
 30
0.0000000000000013
 11
0.03884321122095625
 21
0.05426269557438044
 31
3.704401490077421E-18
210
-3.231153159914511E-17
220
-4.513815278383709E-17
230
1.0
 40
0.9083744652357209
 41
6.074134062573671
 42
6.95059155374682
  0
ELLIPSE
  5
16D665
330
18
100
AcDbEntity
  8
姿図
100
AcDbEllipse
 10
5090.062474987088
 20
-6999.000808352682
 30
0.0000000000000013
 11
11.53937528561558
 21
32.62347191877432
 31
0.0
210
0.0
220
0.0
230
1.0
 40
0.5306663220532383
 41
2.04631906000344
 42
2.129635835717337
  0
LINE
  5
16D666
330
18
100
AcDbEntity
  8
姿図
100
AcDbLine
 10
5069.081515420312
 20
-7003.486800896657
 30
0.0000000000000013
 11
5069.255471164365
 21
-7003.611324745641
 31
0.0000000000000013
  0
LINE
  5
16D667
330
18
100
AcDbEntity
  8
姿図
100
AcDbLine
 10
5069.063409860815
 20
-7004.055372297948
 30
0.0000000000000013
 11
5069.27144220449
 21
-7003.574399549654
 31
0.0000000000000013
  0
LINE
  5
16D668
330
18
100
AcDbEntity
  8
姿図
100
AcDbLine
 10
5069.214493433771
 20
-7004.132774938847
 30
0.0000000000000013
 11
5069.120358631534
 21
-7004.141583985565
 31
0.0000000000000013
  0
LINE
  5
16D669
330
18
100
AcDbEntity
  8
姿図
100
AcDbLine
 10
5069.081515420312
 20
-7004.13138797346
 30
0.0000000000000013
 11
5069.255471164365
 21
-7004.255911822447
 31
0.0000000000000013
  0
LINE
  5
16D66A
330
18
100
AcDbEntity
  8
姿図
100
AcDbLine
 10
5069.063409860815
 20
-7002.121611067545
 30
0.0000000000000013
 11
5069.281497119094
 21
-7001.617391261483
 31
0.0000000000000013
  0
LINE
  5
16D66B
330
18
100
AcDbEntity
  8
姿図
100
AcDbLine
 10
5069.214493433771
 20
-7002.199013708435
 30
0.0000000000000013
 11
5069.120358631534
 21
-7002.207822755159
 31
0.0000000000000013
  0
LINE
  5
16D66C
330
18
100
AcDbEntity
  8
姿図
100
AcDbLine
 10
5069.063409860815
 20
-7002.766198144346
 30
0.0000000000000013
 11
5069.27144220449
 21
-7002.285225396054
 31
0.0000000000000013
  0
LINE
  5
16D66D
330
18
100
AcDbEntity
  8
姿図
100
AcDbLine
 10
5069.214493433771
 20
-7002.84360078524
 30
0.0000000000000013
 11
5069.120358631534
 21
-7002.852409831965
 31
0.0000000000000013
  0
LINE
  5
16D66E
330
18
100
AcDbEntity
  8
姿図
100
AcDbLine
 10
5069.063409860815
 20
-7003.410785221147
 30
0.0000000000000013
 11
5069.27144220449
 21
-7002.929812472852
 31
0.0000000000000013
  0
LINE
  5
16D66F
330
18
100
AcDbEntity
  8
姿図
100
AcDbLine
 10
5069.214493433771
 20
-7003.488187862045
 30
0.0000000000000013
 11
5069.120358631534
 21
-7003.496996908763
 31
0.0000000000000013
  0
LINE
  5
16D670
330
18
100
AcDbEntity
  8
姿図
100
AcDbLine
 10
5069.081515420312
 20
-7002.197626743054
 30
0.0000000000000013
 11
5069.255471164365
 21
-7002.322150592039
 31
0.0000000000000013
  0
LINE
  5
16D671
330
18
100
AcDbEntity
  8
姿図
100
AcDbLine
 10
5069.081515420312
 20
-7002.842213819856
 30
0.0000000000000013
 11
5069.255471164365
 21
-7002.96673766884
 31
0.0000000000000013
  0
LINE
  5
16D672
330
18
100
AcDbEntity
  8
姿図
100
AcDbLine
 10
5069.081515420312
 20
-7007.354323357472
 30
0.0000000000000013
 11
5069.255471164365
 21
-7007.478847206462
 31
0.0000000000000013
  0
LINE
  5
16D673
330
18
100
AcDbEntity
  8
姿図
100
AcDbLine
 10
5069.063409860815
 20
-7007.922894758766
 30
0.0000000000000013
 11
5069.27144220449
 21
-7007.441922010476
 31
0.0000000000000013
  0
LINE
  5
16D674
330
18
100
AcDbEntity
  8
姿図
100
AcDbLine
 10
5069.214493433771
 20
-7008.000297399658
 30
0.0000000000000013
 11
5069.120358631534
 21
-7008.009106446379
 31
0.0000000000000013
  0
LINE
  5
16D675
330
18
100
AcDbEntity
  8
姿図
100
AcDbLine
 10
5069.081515420312
 20
-7007.998910434278
 30
0.0000000000000013
 11
5069.255471164365
 21
-7008.123434283263
 31
0.0000000000000013
  0
LINE
  5
16D676
330
18
100
AcDbEntity
  8
姿図
100
AcDbLine
 10
5069.081515420312
 20
-7005.420562127067
 30
0.0000000000000013
 11
5069.255471164365
 21
-7005.545085976052
 31
0.0000000000000013
  0
LINE
  5
16D677
330
18
100
AcDbEntity
  8
姿図
100
AcDbLine
 10
5069.063409860815
 20
-7005.989133528358
 30
0.0000000000000013
 11
5069.27144220449
 21
-7005.508160780066
 31
0.0000000000000013
  0
LINE
  5
16D678
330
18
100
AcDbEntity
  8
姿図
100
AcDbLine
 10
5069.214493433771
 20
-7006.066536169248
 30
0.0000000000000013
 11
5069.120358631534
 21
-7006.075345215977
 31
0.0000000000000013
  0
LINE
  5
16D679
330
18
100
AcDbEntity
  8
姿図
100
AcDbLine
 10
5069.063409860815
 20
-7006.633720605159
 30
0.0000000000000013
 11
5069.27144220449
 21
-7006.152747856867
 31
0.0000000000000013
  0
LINE
  5
16D67A
330
18
100
AcDbEntity
  8
姿図
100
AcDbLine
 10
5069.214493433771
 20
-7006.711123246057
 30
0.0000000000000013
 11
5069.120358631534
 21
-7006.719932292778
 31
0.0000000000000013
  0
LINE
  5
16D67B
330
18
100
AcDbEntity
  8
姿図
100
AcDbLine
 10
5069.063409860815
 20
-7007.278307681961
 30
0.0000000000000013
 11
5069.27144220449
 21
-7006.79733493367
 31
0.0000000000000013
  0
LINE
  5
16D67C
330
18
100
AcDbEntity
  8
姿図
100
AcDbLine
 10
5069.214493433771
 20
-7007.355710322857
 30
0.0000000000000013
 11
5069.120358631534
 21
-7007.364519369577
 31
0.0000000000000013
  0
LINE
  5
16D67D
330
18
100
AcDbEntity
  8
姿図
100
AcDbLine
 10
5069.081515420312
 20
-7006.065149203866
 30
0.0000000000000013
 11
5069.255471164365
 21
-7006.189673052853
 31
0.0000000000000013
  0
LINE
  5
16D67E
330
18
100
AcDbEntity
  8
姿図
100
AcDbLine
 10
5069.081515420312
 20
-7006.709736280673
 30
0.0000000000000013
 11
5069.255471164365
 21
-7006.834260129658
 31
0.0000000000000013
  0
LINE
  5
16D67F
330
18
100
AcDbEntity
  8
姿図
100
AcDbLine
 10
5069.214493433771
 20
-7004.777362015648
 30
0.0000000000000013
 11
5069.120358631534
 21
-7004.786171062367
 31
0.0000000000000013
  0
LINE
  5
16D680
330
18
100
AcDbEntity
  8
姿図
100
AcDbLine
 10
5069.063409860815
 20
-7005.344546451559
 30
0.0000000000000013
 11
5069.27144220449
 21
-7004.863573703265
 31
0.0000000000000013
  0
LINE
  5
16D681
330
18
100
AcDbEntity
  8
姿図
100
AcDbLine
 10
5069.214493433771
 20
-7005.421949092447
 30
0.0000000000000013
 11
5069.120358631534
 21
-7005.430758139171
 31
0.0000000000000013
  0
LINE
  5
16D682
330
18
100
AcDbEntity
  8
姿図
100
AcDbLine
 10
5069.081515420312
 20
-7004.775975050266
 30
0.0000000000000013
 11
5069.255471164365
 21
-7004.900498899253
 31
0.0000000000000013
  0
LINE
  5
16D683
330
18
100
AcDbEntity
  8
姿図
100
AcDbLine
 10
5069.063409860815
 20
-7004.699959374758
 30
0.0000000000000013
 11
5069.27144220449
 21
-7004.218986626459
 31
0.0000000000000013
  0
ELLIPSE
  5
16D684
330
18
100
AcDbEntity
  8
姿図
100
AcDbEllipse
 10
5069.120358631532
 20
-7007.300060661902
 30
0.0000000000000013
 11
0.0388432112209595
 21
0.05426269557437422
 31
0.0
210
0.0
220
0.0
230
1.0
 40
0.9083744652357209
 41
1.804594242940693
 42
3.808998900156747
  0
ELLIPSE
  5
16D685
330
18
100
AcDbEntity
  8
姿図
100
AcDbEllipse
 10
5069.120358631532
 20
-7007.944647738704
 30
0.0000000000000013
 11
0.0388432112209595
 21
0.05426269557437422
 31
0.0
210
0.0
220
0.0
230
1.0
 40
0.9083744652357209
 41
1.804594242940521
 42
3.808998900156814
  0
ELLIPSE
  5
16D686
330
18
100
AcDbEntity
  8
姿図
100
AcDbEllipse
 10
5069.120358631532
 20
-7003.432538201087
 30
0.0000000000000013
 11
0.03884321122096079
 21
0.05426269557437596
 31
3.704401490077366E-18
210
-3.231153159914927E-17
220
-4.513815278383414E-17
230
1.0
 40
0.9083744652357206
 41
1.804594242940522
 42
3.808998900156824
  0
ELLIPSE
  5
16D687
330
18
100
AcDbEntity
  8
姿図
100
AcDbEllipse
 10
5069.120358631532
 20
-7005.366299431496
 30
0.0000000000000013
 11
0.0388432112209595
 21
0.05426269557437422
 31
0.0
210
0.0
220
0.0
230
1.0
 40
0.9083744652357209
 41
1.804594242940334
 42
3.80899890015687
  0
ELLIPSE
  5
16D688
330
18
100
AcDbEntity
  8
姿図
100
AcDbEllipse
 10
5069.120358631532
 20
-7006.010886508296
 30
0.0000000000000013
 11
0.0388432112209595
 21
0.05426269557437422
 31
0.0
210
0.0
220
0.0
230
1.0
 40
0.9083744652357209
 41
1.804594242940608
 42
3.808998900156902
  0
ELLIPSE
  5
16D689
330
18
100
AcDbEntity
  8
姿図
100
AcDbEllipse
 10
5069.120358631532
 20
-7006.6554735851
 30
0.0000000000000013
 11
0.0388432112209595
 21
0.05426269557437422
 31
0.0
210
0.0
220
0.0
230
1.0
 40
0.9083744652357209
 41
1.804594242940608
 42
3.808998900156902
  0
ELLIPSE
  5
16D68A
330
18
100
AcDbEntity
  8
姿図
100
AcDbEllipse
 10
5069.120358631532
 20
-7004.077125277886
 30
0.0000000000000013
 11
0.03884321122096079
 21
0.05426269557437596
 31
3.704401490077366E-18
210
-3.231153159914927E-17
220
-4.513815278383414E-17
230
1.0
 40
0.9083744652357206
 41
1.804594242940522
 42
3.808998900156824
  0
ELLIPSE
  5
16D68B
330
18
100
AcDbEntity
  8
姿図
100
AcDbEllipse
 10
5069.120358631532
 20
-7004.721712354691
 30
0.0000000000000013
 11
0.0388432112209595
 21
0.05426269557437422
 31
0.0
210
0.0
220
0.0
230
1.0
 40
0.9083744652357209
 41
1.804594242940453
 42
3.808998900157027
  0
ELLIPSE
  5
16D68C
330
18
100
AcDbEntity
  8
姿図
100
AcDbEllipse
 10
5069.120358631532
 20
-7002.14336404748
 30
0.0000000000000013
 11
0.03884321122096079
 21
0.05426269557437596
 31
3.704401490077366E-18
210
-3.231153159914927E-17
220
-4.513815278383414E-17
230
1.0
 40
0.9083744652357206
 41
1.804594242940792
 42
3.808998900157135
  0
ELLIPSE
  5
16D68D
330
18
100
AcDbEntity
  8
姿図
100
AcDbEllipse
 10
5069.120358631532
 20
-7002.787951124285
 30
0.0000000000000013
 11
0.03884321122096079
 21
0.05426269557437596
 31
3.704401490077366E-18
210
-3.231153159914927E-17
220
-4.513815278383414E-17
230
1.0
 40
0.9083744652357206
 41
1.804594242940609
 42
3.808998900156911
  0
LINE
  5
16D68E
330
18
100
AcDbEntity
  8
姿図
100
AcDbLine
 10
5071.164942523619
 20
-7006.22940851881
 30
0.0000000000000013
 11
5071.139800845559
 21
-7006.231761253522
 31
0.0000000000000013
  0
LINE
  5
16D68F
330
18
100
AcDbEntity
  8
姿図
100
AcDbLine
 10
5071.082852074839
 20
-7006.790136642712
 30
0.0000000000000013
 11
5071.316026096572
 21
-7006.306811159702
 31
0.0000000000000013
  0
LINE
  5
16D690
330
18
100
AcDbEntity
  8
姿図
100
AcDbLine
 10
5071.100957634336
 20
-7006.221565241414
 30
0.0000000000000013
 11
5071.163933021868
 21
-7006.266645314453
 31
0.0000000000000013
  0
ELLIPSE
  5
16D691
330
18
100
AcDbEntity
  8
姿図
100
AcDbEllipse
 10
5071.139800845559
 20
-7007.456476699446
 30
0.0000000000000013
 11
0.03884321122095925
 21
0.05426269557437442
 31
-3.704401490077249E-18
210
3.231153159914906E-17
220
4.513815278383431E-17
230
1.0
 40
0.908374465235718
 41
1.804594242940832
 42
3.808998900156845
  0
ELLIPSE
  5
16D692
330
18
100
AcDbEntity
  8
姿図
100
AcDbEllipse
 10
5071.139800845559
 20
-7008.101063776254
 30
0.0000000000000013
 11
0.03884321122095925
 21
0.05426269557437442
 31
-3.704401490077249E-18
210
3.231153159914906E-17
220
4.513815278383431E-17
230
1.0
 40
0.908374465235718
 41
1.804594242940847
 42
3.8089989001569
  0
ELLIPSE
  5
16D693
330
18
100
AcDbEntity
  8
姿図
100
AcDbEllipse
 10
5071.139800845559
 20
-7005.522715469036
 30
0.0000000000000013
 11
0.03884321122096051
 21
0.05426269557437609
 31
3.704401490077339E-18
210
-3.231153159914885E-17
220
-4.513815278383398E-17
230
1.0
 40
0.9083744652357179
 41
1.804594242940848
 42
3.808998900156912
  0
ELLIPSE
  5
16D694
330
18
100
AcDbEntity
  8
姿図
100
AcDbEllipse
 10
5071.139800845559
 20
-7006.167302545844
 30
0.0000000000000013
 11
0.03884321122095925
 21
0.05426269557437442
 31
-3.704401490077249E-18
210
3.231153159914906E-17
220
4.513815278383431E-17
230
1.0
 40
0.908374465235718
 41
1.804594242940723
 42
3.808998900156777
  0
ELLIPSE
  5
16D695
330
18
100
AcDbEntity
  8
姿図
100
AcDbEllipse
 10
5071.139800845559
 20
-7006.811889622645
 30
0.0000000000000013
 11
0.03884321122095925
 21
0.05426269557437442
 31
-3.704401490077249E-18
210
3.231153159914906E-17
220
4.513815278383431E-17
230
1.0
 40
0.908374465235718
 41
1.804594242940692
 42
3.808998900156467
  0
ELLIPSE
  5
16D696
330
18
100
AcDbEntity
  8
姿図
100
AcDbEllipse
 10
5071.139800845559
 20
-7003.588954238635
 30
0.0000000000000013
 11
0.03884321122096051
 21
0.05426269557437609
 31
3.704401490077339E-18
210
-3.231153159914885E-17
220
-4.513815278383398E-17
230
1.0
 40
0.9083744652357179
 41
1.804594242940803
 42
3.808998900156824
  0
ELLIPSE
  5
16D697
330
18
100
AcDbEntity
  8
姿図
100
AcDbEllipse
 10
5071.139800845559
 20
-7004.233541315434
 30
0.0000000000000013
 11
0.03884321122096051
 21
0.05426269557437609
 31
3.704401490077339E-18
210
-3.231153159914885E-17
220
-4.513815278383398E-17
230
1.0
 40
0.9083744652357179
 41
1.804594242940766
 42
3.808998900156787
  0
ELLIPSE
  5
16D698
330
18
100
AcDbEntity
  8
姿図
100
AcDbEllipse
 10
5071.139800845559
 20
-7004.878128392235
 30
0.0000000000000013
 11
0.03884321122096051
 21
0.05426269557437609
 31
3.704401490077339E-18
210
-3.231153159914885E-17
220
-4.513815278383398E-17
230
1.0
 40
0.9083744652357179
 41
1.804594242940876
 42
3.808998900156855
  0
ELLIPSE
  5
16D699
330
18
100
AcDbEntity
  8
姿図
100
AcDbEllipse
 10
5069.214493433773
 20
-7007.420169030543
 30
0.0000000000000013
 11
0.03884321122095625
 21
0.05426269557438044
 31
3.704401490077421E-18
210
-3.231153159914511E-17
220
-4.513815278383709E-17
230
1.0
 40
0.9083744652357209
 41
4.946186896530419
 42
6.950591553746441
  0
ELLIPSE
  5
16D69A
330
18
100
AcDbEntity
  8
姿図
100
AcDbEllipse
 10
5069.214493433773
 20
-7008.064756107342
 30
0.0000000000000013
 11
0.03884321122095625
 21
0.05426269557438044
 31
3.704401490077421E-18
210
-3.231153159914511E-17
220
-4.513815278383709E-17
230
1.0
 40
0.9083744652357209
 41
4.946186896530518
 42
6.95059155374682
  0
ELLIPSE
  5
16D69B
330
18
100
AcDbEntity
  8
姿図
100
AcDbEllipse
 10
5069.214493433773
 20
-7003.552646569721
 30
0.0000000000000013
 11
0.03884321122096729
 21
0.05426269557439575
 31
3.704401490078444E-18
210
-3.231153159914488E-17
220
-4.513815278383681E-17
230
1.0
 40
0.908374465235721
 41
4.946186896530406
 42
6.950591553746625
  0
ELLIPSE
  5
16D69C
330
18
100
AcDbEntity
  8
姿図
100
AcDbEllipse
 10
5069.214493433773
 20
-7005.486407800133
 30
0.0000000000000013
 11
0.03884321122095625
 21
0.05426269557438044
 31
3.704401490077421E-18
210
-3.231153159914511E-17
220
-4.513815278383709E-17
230
1.0
 40
0.9083744652357209
 41
4.946186896530169
 42
6.950591553746752
  0
ELLIPSE
  5
16D69D
330
18
100
AcDbEntity
  8
姿図
100
AcDbEllipse
 10
5069.214493433773
 20
-7006.130994876936
 30
0.0000000000000013
 11
0.03884321122095625
 21
0.05426269557438044
 31
3.704401490077421E-18
210
-3.231153159914511E-17
220
-4.513815278383709E-17
230
1.0
 40
0.9083744652357209
 41
4.946186896530518
 42
6.95059155374654
  0
ELLIPSE
  5
16D69E
330
18
100
AcDbEntity
  8
姿図
100
AcDbEllipse
 10
5069.214493433773
 20
-7006.775581953737
 30
0.0000000000000013
 11
0.03884321122095625
 21
0.05426269557438044
 31
3.704401490077421E-18
210
-3.231153159914511E-17
220
-4.513815278383709E-17
230
1.0
 40
0.9083744652357209
 41
4.946186896530611
 42
6.950591553746913
  0
ELLIPSE
  5
16D69F
330
18
100
AcDbEntity
  8
姿図
100
AcDbEllipse
 10
5069.214493433773
 20
-7004.197233646526
 30
0.0000000000000013
 11
0.03884321122095625
 21
0.05426269557438044
 31
3.704401490077421E-18
210
-3.231153159914511E-17
220
-4.513815278383709E-17
230
1.0
 40
0.9083744652357209
 41
4.946186896530611
 42
6.950591553747201
  0
ELLIPSE
  5
16D6A0
330
18
100
AcDbEntity
  8
姿図
100
AcDbEllipse
 10
5069.214493433773
 20
-7004.841820723327
 30
0.0000000000000013
 11
0.03884321122095625
 21
0.05426269557438044
 31
3.704401490077421E-18
210
-3.231153159914511E-17
220
-4.513815278383709E-17
230
1.0
 40
0.9083744652357209
 41
4.946186896530643
 42
6.950591553746944
  0
ELLIPSE
  5
16D6A1
330
18
100
AcDbEntity
  8
姿図
100
AcDbEllipse
 10
5069.214493433773
 20
-7002.263472416118
 30
0.0000000000000013
 11
0.03884321122096729
 21
0.05426269557439575
 31
3.704401490078444E-18
210
-3.231153159914488E-17
220
-4.513815278383681E-17
230
1.0
 40
0.908374465235721
 41
4.946186896530376
 42
6.950591553746025
  0
ELLIPSE
  5
16D6A2
330
18
100
AcDbEntity
  8
姿図
100
AcDbEllipse
 10
5069.214493433773
 20
-7002.908059492919
 30
0.0000000000000013
 11
0.03884321122096729
 21
0.05426269557439575
 31
3.704401490078444E-18
210
-3.231153159914488E-17
220
-4.513815278383681E-17
230
1.0
 40
0.908374465235721
 41
4.946186896530474
 42
6.950591553746981
  0
ELLIPSE
  5
16D6A3
330
18
100
AcDbEntity
  8
姿図
100
AcDbEllipse
 10
5071.233935647795
 20
-7008.865759221696
 30
0.0000000000000013
 11
0.03884321122095603
 21
0.05426269557438058
 31
3.704401490077424E-18
210
-3.231153159914461E-17
220
-4.513815278383751E-17
230
1.0
 40
0.9083744652357181
 41
6.006282980254767
 42
6.950591553746565
  0
ELLIPSE
  5
16D6A4
330
18
100
AcDbEntity
  8
姿図
100
AcDbEllipse
 10
5071.506040065796
 20
-7003.075388201592
 30
0.0000000000000013
 11
0.05180155529088811
 21
-0.5983679293381278
 31
-1.333613243433624E-16
210
1.915108353182198E-17
220
-2.212171841785135E-16
230
1.0
 40
0.3301839125655835
 41
3.143887870131871
 42
4.437113948144754
  0
LINE
  5
16D6A5
330
18
100
AcDbEntity
  8
姿図
100
AcDbLine
 10
5071.300939333119
 20
-7003.062981452632
 30
0.0000000000000013
 11
5071.301826808198
 21
-7002.929204923837
 31
0.0000000000000013
  0
ELLIPSE
  5
16D6A6
330
18
100
AcDbEntity
  8
姿図
100
AcDbEllipse
 10
5071.233935647795
 20
-7007.576585068087
 30
0.0000000000000013
 11
0.03884321122095603
 21
0.05426269557438058
 31
3.704401490077424E-18
210
-3.231153159914461E-17
220
-4.513815278383751E-17
230
1.0
 40
0.9083744652357181
 41
4.946186896530421
 42
6.950591553746442
  0
ELLIPSE
  5
16D6A7
330
18
100
AcDbEntity
  8
姿図
100
AcDbEllipse
 10
5071.233935647795
 20
-7008.221172144888
 30
0.0000000000000013
 11
0.03884321122095603
 21
0.05426269557438058
 31
3.704401490077424E-18
210
-3.231153159914461E-17
220
-4.513815278383751E-17
230
1.0
 40
0.9083744652357181
 41
4.946186896530445
 42
6.950591553746509
  0
ELLIPSE
  5
16D6A8
330
18
100
AcDbEntity
  8
姿図
100
AcDbEllipse
 10
5071.233935647795
 20
-7003.709062607273
 30
0.0000000000000013
 11
0.03884321122096699
 21
0.054262695574396
 31
3.704401490078473E-18
210
-3.231153159914480E-17
220
-4.513815278383737E-17
230
1.0
 40
0.9083744652357179
 41
4.946186896530444
 42
6.950591553746381
  0
ELLIPSE
  5
16D6A9
330
18
100
AcDbEntity
  8
姿図
100
AcDbEllipse
 10
5071.233935647795
 20
-7004.353649684074
 30
0.0000000000000013
 11
0.03884321122096699
 21
0.054262695574396
 31
3.704401490078473E-18
210
-3.231153159914480E-17
220
-4.513815278383737E-17
230
1.0
 40
0.9083744652357179
 41
4.946186896530483
 42
6.950591553746505
  0
ELLIPSE
  5
16D6AA
330
18
100
AcDbEntity
  8
姿図
100
AcDbEllipse
 10
5071.233935647795
 20
-7004.998236760875
 30
0.0000000000000013
 11
0.03884321122096699
 21
0.054262695574396
 31
3.704401490078473E-18
210
-3.231153159914480E-17
220
-4.513815278383737E-17
230
1.0
 40
0.9083744652357179
 41
4.946186896530291
 42
6.950591553746593
  0
LINE
  5
16D6AB
330
18
100
AcDbEntity
  8
姿図
100
AcDbLine
 10
5072.820668135664
 20
-7004.13489871395
 30
0.0000000000000013
 11
5072.815500470503
 21
-7003.356900565773
 31
0.0000000000000013
  0
LINE
  5
16D6AC
330
18
100
AcDbEntity
  8
姿図
100
AcDbLine
 10
5072.256650480186
 20
-7002.401929721984
 30
0.0000000000000013
 11
5071.453785178056
 21
-7002.4770611058
 31
0.0000000000000013
  0
LINE
  5
16D6AD
330
18
100
AcDbEntity
  8
姿図
100
AcDbLine
 10
5072.312461538301
 20
-7002.419795665555
 30
0.0000000000000013
 11
5072.607436243722
 21
-7002.630949288982
 31
0.0000000000000013
  0
LINE
  5
16D6AE
330
18
100
AcDbEntity
  8
姿図
100
AcDbLine
 10
5072.112099249886
 20
-7002.853380386827
 30
0.0000000000000013
 11
5072.129024750692
 21
-7005.401534700343
 31
0.0000000000000013
  0
ELLIPSE
  5
16D6AF
330
18
100
AcDbEntity
  8
姿図
100
AcDbEllipse
 10
5072.316312507483
 20
-7002.999563664585
 30
0.0000000000000013
 11
0.06010428184121636
 21
-0.5975910098000781
 31
0.0
210
0.0
220
0.0
230
1.0
 40
0.3266547503873695
 41
2.861757613225559
 42
4.432553940020501
  0
ELLIPSE
  5
16D6B0
330
18
100
AcDbEntity
  8
姿図
100
AcDbEllipse
 10
5072.611287212905
 20
-7003.210717288012
 30
0.0000000000000013
 11
0.06010428184121636
 21
-0.5975910098000781
 31
0.0
210
0.0
220
0.0
230
1.0
 40
0.3266547503873695
 41
1.290961286430781
 42
2.861757613225615
  0
ELLIPSE
  5
16D6B1
330
18
100
AcDbEntity
  8
姿図
100
AcDbEllipse
 10
5090.344223621089
 20
-7011.153622003218
 30
0.0000000000000013
 11
-21.07925606939019
 21
-7.851597606834300E-13
 31
0.0
210
0.0
220
0.0
230
1.0
 40
0.2588190451024983
 41
5.241510706344444
 42
6.274432771330732
  0
ELLIPSE
  5
16D6B2
330
18
100
AcDbEntity
  8
姿図
100
AcDbEllipse
 10
5082.17725693106
 20
-7101.997092335293
 30
0.0000000000000013
 11
-21.57253626674573
 21
-402.5222387923091
 31
2.237653934931361E-14
210
2.970768119157228E-18
220
5.543160152658210E-17
230
1.0
 40
0.0186593157869327
 41
4.459498662982783
 42
4.472829220484885
  0
LINE
  5
16D6B3
330
18
100
AcDbEntity
  8
姿図
100
AcDbLine
 10
5081.428618278228
 20
-7002.686666592367
 30
0.0000000000000013
 11
5081.445323625308
 21
-7000.442570118633
 31
0.0000000000000013
  0
LINE
  5
16D6B4
330
18
100
AcDbEntity
  8
姿図
100
AcDbLine
 10
5085.053824377769
 20
-7000.10488999431
 30
0.0000000000000013
 11
5085.037119030688
 21
-7002.348986468046
 31
0.0000000000000013
  0
ELLIPSE
  5
16D6B5
330
18
100
AcDbEntity
  8
姿図
100
AcDbEllipse
 10
5080.25987251436
 20
-6764.742106935817
 30
0.0000000000000013
 11
-24.79760649923187
 21
454.1582205366506
 31
0.0
210
0.0
220
0.0
230
1.0
 40
0.0171889472793754
 41
2.115486356435118
 42
2.128957736158343
  0
ELLIPSE
  5
16D6B6
330
18
100
AcDbEntity
  8
姿図
100
AcDbEllipse
 10
5098.511190311117
 20
-7100.468578131521
 30
0.0000000000000013
 11
-21.7596940972245
 21
398.4686830473768
 31
-2.215241160701605E-14
210
-3.026859354980778E-18
220
5.542856694399325E-17
230
1.0
 40
0.0174416807856973
 41
1.315822296819269
 42
1.32915285432137
  0
LINE
  5
16D6B7
330
18
100
AcDbEntity
  8
姿図
100
AcDbLine
 10
5081.622115090578
 20
-7000.569123880014
 30
0.0000000000000013
 11
5081.638734883571
 21
-7002.661534374722
 31
0.0000000000000013
  0
ELLIPSE
  5
16D6B8
330
18
100
AcDbEntity
  8
姿図
100
AcDbEllipse
 10
5069.486597851771
 20
-7001.629798010444
 30
0.0000000000000013
 11
0.05180155529088811
 21
-0.5983679293381278
 31
-1.333613243433624E-16
210
1.915108353182198E-17
220
-2.212171841785135E-16
230
1.0
 40
0.3301839125655835
 41
3.143887870131944
 42
4.437113948144803
  0
ELLIPSE
  5
16D6B9
330
18
100
AcDbEntity
  8
姿図
100
AcDbEllipse
 10
5070.29687029346
 20
-7001.553973473432
 30
0.0000000000000013
 11
0.06010428184121636
 21
-0.5975910098000781
 31
0.0
210
0.0
220
0.0
230
1.0
 40
0.3266547503873695
 41
2.861757613225725
 42
4.43255394002059
  0
LINE
  5
16D6BA
330
18
100
AcDbEntity
  8
姿図
100
AcDbLine
 10
5070.293019324277
 20
-7000.974205474402
 30
0.0000000000000013
 11
5070.587994029698
 21
-7001.185359097828
 31
0.0000000000000013
  0
ELLIPSE
  5
16D6BB
330
18
100
AcDbEntity
  8
姿図
100
AcDbEllipse
 10
5090.344223621089
 20
-7011.153622003218
 30
0.0000000000000013
 11
-21.07925606939019
 21
-3.615713353966917E-13
 31
-2.340267543020656E-15
210
-1.110223024625157E-16
220
-1.904359529010101E-30
230
1.0
 40
0.2588190451025165
 41
3.844220094436217
 42
4.877142159422503
  0
LINE
  5
16D6BC
330
18
100
AcDbEntity
  8
姿図
100
AcDbLine
 10
5114.33789527637
 20
-7016.310318617636
 30
0.0000000000000013
 11
5114.33789527637
 21
-7016.694830176871
 31
0.0000000000000013
  0
LINE
  5
16D6BD
330
18
100
AcDbEntity
  8
姿図
100
AcDbLine
 10
5069.063409860815
 20
-7012.435004296383
 30
0.0000000000000013
 11
5069.246002065067
 21
-7012.012849391312
 31
0.0000000000000013
  0
LINE
  5
16D6BE
330
18
100
AcDbEntity
  8
姿図
100
AcDbLine
 10
5069.214493433771
 20
-7011.867819860472
 30
0.0000000000000013
 11
5069.120358631534
 21
-7011.876628907195
 31
0.0000000000000013
  0
LINE
  5
16D6BF
330
18
100
AcDbEntity
  8
姿図
100
AcDbLine
 10
5069.063409860815
 20
-7011.790417219582
 30
0.0000000000000013
 11
5069.260718637601
 21
-7011.334237459469
 31
0.0000000000000013
  0
LINE
  5
16D6C0
330
18
100
AcDbEntity
  8
姿図
100
AcDbLine
 10
5069.081515420312
 20
-7011.866432895089
 30
0.0000000000000013
 11
5069.246614327332
 21
-7011.984616697975
 31
0.0000000000000013
  0
LINE
  5
16D6C1
330
18
100
AcDbEntity
  8
姿図
100
AcDbLine
 10
5069.057602096708
 20
-7013.477952110536
 30
0.0000000000000013
 11
5069.057602096708
 21
-7012.462629974136
 31
0.0000000000000013
  0
ELLIPSE
  5
16D6C2
330
18
100
AcDbEntity
  8
姿図
100
AcDbEllipse
 10
5069.120358631532
 20
-7012.45675727632
 30
0.0000000000000013
 11
0.03884321122096079
 21
0.05426269557437596
 31
3.704401490077366E-18
210
-3.231153159914927E-17
220
-4.513815278383414E-17
230
1.0
 40
0.9083744652357206
 41
1.804594242940401
 42
2.238202573361832
  0
ELLIPSE
  5
16D6C3
330
18
100
AcDbEntity
  8
姿図
100
AcDbEllipse
 10
5069.120358631532
 20
-7011.812170199517
 30
0.0000000000000013
 11
0.03884321122095826
 21
0.05426269557437244
 31
0.0
210
0.0
220
0.0
230
1.0
 40
0.9083744652357212
 41
1.804594242940566
 42
3.808998900156902
  0
ELLIPSE
  5
16D6C4
330
18
100
AcDbEntity
  8
姿図
100
AcDbEllipse
 10
5069.214493433773
 20
-7011.932278568155
 30
0.0000000000000013
 11
0.03884321122095625
 21
0.05426269557438044
 31
3.704401490077421E-18
210
-3.231153159914511E-17
220
-4.513815278383709E-17
230
1.0
 40
0.9083744652357209
 41
0.0854693314817033
 42
0.6674062465672337
  0
LINE
  5
16D6C5
330
18
100
AcDbEntity
  8
姿図
100
AcDbLine
 10
5066.35055196581
 20
-7016.310318617636
 30
0.0000000000000013
 11
5066.35055196581
 21
-7016.694830176871
 31
0.0000000000000013
  0
ELLIPSE
  5
16D6C6
330
18
100
AcDbEntity
  8
姿図
100
AcDbEllipse
 10
5090.344223621087
 20
-7016.310318617636
 30
0.0000000000000013
 11
23.99367165528037
 21
0.0
 31
0.0
210
0.0
220
0.0
230
1.0
 40
0.2673555525296203
 41
6.253210353381123
 42
9.42477796076938
  0
LINE
  5
16D6C7
330
18
100
AcDbEntity
  8
姿図
100
AcDbLine
 10
5069.081515420312
 20
-7011.221845818291
 30
0.0000000000000013
 11
5069.255471164365
 21
-7011.346369667275
 31
0.0000000000000013
  0
LINE
  5
16D6C8
330
18
100
AcDbEntity
  8
姿図
100
AcDbLine
 10
5069.26780460778
 20
-7011.007488557799
 30
0.0000000000000013
 11
5069.216028676127
 21
-7013.394985029521
 31
0.0000000000000013
  0
LINE
  5
16D6C9
330
18
100
AcDbEntity
  8
姿図
100
AcDbLine
 10
5108.908001710831
 20
-7008.733466862045
 30
0.0000000000000013
 11
5108.908001710831
 21
-7012.353916207285
 31
0.0000000000000013
  0
LINE
  5
16D6CA
330
18
100
AcDbEntity
  8
姿図
100
AcDbLine
 10
5111.630845145471
 20
-7013.477952110536
 30
0.0000000000000013
 11
5111.630845145471
 21
-7010.682577232142
 31
0.0000000000000013
  0
SPLINE
  5
16D6CB
330
18
100
AcDbEntity
  8
姿図
100
AcDbSpline
210
0.0
220
0.0
230
1.0
 70
     8
 71
     3
 72
    26
 73
    22
 74
     0
 42
0.000000001
 43
0.0000000001
 40
5.061336783911485
 40
5.061336783911485
 40
5.061336783911485
 40
5.061336783911485
 40
5.424423750909746
 40
5.424423750909746
 40
5.597379662847512
 40
5.597379662847512
 40
5.659540508070473
 40
5.659540508070473
 40
5.681680215509581
 40
5.681680215509581
 40
5.695637545270647
 40
5.695637545270647
 40
5.707793438358563
 40
5.707793438358563
 40
5.722098011649362
 40
5.722098011649362
 40
5.746604578651288
 40
5.746604578651288
 40
5.804790417739905
 40
5.804790417739905
 40
5.95015367802265
 40
5.95015367802265
 40
5.95015367802265
 40
5.95015367802265
 10
5109.409699253065
 20
-7008.050479431308
 30
0.0000000000000179
 10
5109.384125947142
 20
-7008.041666664419
 30
-0.0000000000000011
 10
5109.364182108043
 20
-7008.03695125829
 30
0.0000000000000084
 10
5109.342851937592
 20
-7008.035194966252
 30
0.0000000000000369
 10
5109.334688804863
 20
-7008.03522147707
 30
-0.0000000000000011
 10
5109.326827016519
 20
-7008.038557967875
 30
0.0000000000000084
 10
5109.324659452539
 20
-7008.039918643717
 30
-0.0000000000000011
 10
5109.322707174349
 20
-7008.042886757539
 30
0.0000000000000084
 10
5109.322223497196
 20
-7008.043868139704
 30
0.0000000000000179
 10
5109.321714760395
 20
-7008.045865243603
 30
0.0000000000000084
 10
5109.321586285043
 20
-7008.046733576297
 30
0.0000000000000274
 10
5109.321537181127
 20
-7008.04856123326
 30
0.0000000000000084
 10
5109.321593323906
 20
-7008.049439788402
 30
0.0000000000000084
 10
5109.32187025415
 20
-7008.051401266566
 30
0.0000000000000084
 10
5109.32211096353
 20
-7008.052440050384
 30
0.0000000000000179
 10
5109.322889350359
 20
-7008.055109663742
 30
0.0000000000000084
 10
5109.32354134744
 20
-7008.056718801618
 30
-0.0000000000000011
 10
5109.325742260559
 20
-7008.061475502276
 30
0.0000000000000084
 10
5109.327777025983
 20
-7008.064747827085
 30
0.0000000000000084
 10
5109.334719243712
 20
-7008.074750070141
 30
0.0000000000000179
 10
5109.341077767303
 20
-7008.081764616646
 30
-0.0000000000000011
 10
5109.346229317343
 20
-7008.087077061572
 30
-0.0000000000000011
  0
SPLINE
  5
16D6CC
330
18
100
AcDbEntity
  8
姿図
100
AcDbSpline
210
0.0
220
0.0
230
1.0
 70
     8
 71
     3
 72
    10
 73
     6
 74
     0
 42
0.000000001
 43
0.0000000001
 40
1.049331515521564
 40
1.049331515521564
 40
1.049331515521564
 40
1.049331515521564
 40
1.060416395005242
 40
1.060416395005242
 40
1.145877108045186
 40
1.145877108045186
 40
1.145877108045186
 40
1.145877108045186
 10
5110.916071459898
 20
-7010.148534930437
 30
0.0000000000000179
 10
5110.916366347899
 20
-7010.149409761633
 30
0.0000000000000179
 10
5110.916625409393
 20
-7010.150290726669
 30
0.0000000000000179
 10
5110.918569430741
 20
-7010.157991270584
 30
-0.0000000000000106
 10
5110.918037878389
 20
-7010.164978946851
 30
0.0000000000000084
 10
5110.916098743876
 20
-7010.170935759991
 30
-0.0000000000000011
  0
SPLINE
  5
16D6CD
330
18
100
AcDbEntity
  8
姿図
100
AcDbSpline
210
0.0
220
0.0
230
1.0
 70
    11
 71
     3
 72
    38
 73
    34
 74
     0
 42
0.000000001
 43
0.0000000001
 40
0.0
 40
0.0
 40
0.0
 40
0.0
 40
0.4899871145494815
 40
0.4899871145494815
 40
0.979974229098963
 40
0.979974229098963
 40
1.469880324151053
 40
1.469880324151053
 40
1.959786419203144
 40
1.959786419203144
 40
2.449692514255234
 40
2.449692514255234
 40
2.939598609307323
 40
2.939598609307323
 40
3.429585723856796
 40
3.429585723856796
 40
3.919572838406268
 40
3.919572838406268
 40
4.409171093943909
 40
4.409171093943909
 40
4.898769349481551
 40
4.898769349481551
 40
5.388322667025809
 40
5.388322667025809
 40
5.877875984570069
 40
5.877875984570069
 40
6.367429302114321
 40
6.367429302114321
 40
6.856982619658574
 40
6.856982619658574
 40
7.346580875196199
 40
7.346580875196199
 40
7.836179130733825
 40
7.836179130733825
 40
7.836179130733825
 40
7.836179130733825
 10
5104.279378529259
 20
-7008.659376598821
 30
-0.0000000000000011
 10
5104.280131772583
 20
-7008.711783029415
 30
0.0000000000000084
 10
5104.272755911728
 20
-7008.765818222708
 30
0.0000000000000084
 10
5104.240907970083
 20
-7008.861096403314
 30
-0.0000000000000011
 10
5104.216428264038
 20
-7008.902342215085
 30
0.0000000000000084
 10
5104.159292051619
 20
-7008.96338533207
 30
0.0000000000000084
 10
5104.122827111277
 20
-7008.987254406704
 30
0.0000000000000084
 10
5104.042228436514
 20
-7009.011860500043
 30
0.0000000000000084
 10
5103.998086683005
 20
-7009.012599544942
 30
0.0000000000000179
 10
5103.914755783592
 20
-7008.994423794386
 30
-0.0000000000000011
 10
5103.870020263163
 20
-7008.974299249363
 30
0.0000000000000179
 10
5103.787142702895
 20
-7008.914036475375
 30
0.0000000000000084
 10
5103.749008178139
 20
-7008.87389611027
 30
-0.0000000000000011
 10
5103.688349378748
 20
-7008.787160089863
 30
0.0000000000000179
 10
5103.661784380491
 20
-7008.734780643161
 30
0.0000000000000274
 10
5103.625967193487
 20
-7008.624743657501
 30
-0.0000000000000011
 10
5103.616722911668
 20
-7008.567083355518
 30
0.0000000000000179
 10
5103.615288709557
 20
-7008.462327720623
 30
0.0000000000000084
 10
5103.62299040327
 20
-7008.408247247279
 30
-0.0000000000000011
 10
5103.655955833763
 20
-7008.312721504337
 30
0.0000000000000084
 10
5103.681211932853
 20
-7008.271278857424
 30
0.0000000000000179
 10
5103.739789964424
 20
-7008.20985802527
 30
0.0000000000000179
 10
5103.777014473355
 20
-7008.185783925124
 30
0.0000000000000084
 10
5103.858661093134
 20
-7008.160885527554
 30
0.0000000000000179
 10
5103.903075432964
 20
-7008.160063606527
 30
0.0000000000000179
 10
5103.986346326455
 20
-7008.178226268866
 30
0.0000000000000274
 10
5104.030754864498
 20
-7008.198421825395
 30
0.0000000000000179
 10
5104.11251318461
 20
-7008.258961353059
 30
0.0000000000000179
 10
5104.149870718788
 20
-7008.299302943663
 30
0.0000000000000084
 10
5104.209085139422
 20
-7008.386416120955
 30
0.0000000000000084
 10
5104.234889664584
 20
-7008.438995875186
 30
0.0000000000000179
 10
5104.269656099093
 20
-7008.549294979411
 30
0.0000000000000274
 10
5104.278625883719
 20
-7008.607011758536
 30
0.0000000000000084
 10
5104.279378529259
 20
-7008.659376598821
 30
-0.0000000000000011
  0
SPLINE
  5
16D6CE
330
18
100
AcDbEntity
  8
姿図
100
AcDbSpline
210
0.0
220
0.0
230
1.0
 70
     8
 71
     3
 72
    24
 73
    20
 74
     0
 42
0.000000001
 43
0.0000000001
 40
9.158211213992672
 40
9.158211213992672
 40
9.158211213992672
 40
9.158211213992672
 40
9.170191443583112
 40
9.170191443583112
 40
9.737477062085201
 40
9.737477062085201
 40
10.30476268058729
 40
10.30476268058729
 40
10.87204829908938
 40
10.87204829908938
 40
11.43933391759147
 40
11.43933391759147
 40
12.01567227050256
 40
12.01567227050256
 40
12.59201062341365
 40
12.59201062341365
 40
13.16834897632474
 40
13.16834897632474
 40
13.72927459805347
 40
13.72927459805347
 40
13.72927459805347
 40
13.72927459805347
 10
5108.361534189784
 20
-7004.336953951462
 30
0.0000000000000274
 10
5108.361560960353
 20
-7004.338240024457
 30
0.0000000000000179
 10
5108.361586318262
 20
-7004.339524602091
 30
0.0000000000000179
 10
5108.362744375072
 20
-7004.401562969479
 30
0.0000000000000369
 10
5108.360751270774
 20
-7004.462975183781
 30
0.0000000000000179
 10
5108.349735104863
 20
-7004.581956333002
 30
0.0000000000000179
 10
5108.34071432335
 20
-7004.639527580982
 30
-0.0000000000000011
 10
5108.315944418813
 20
-7004.746596947778
 30
0.0000000000000084
 10
5108.300172524303
 20
-7004.796185172769
 30
0.0000000000000084
 10
5108.263094888707
 20
-7004.884413373165
 30
0.0000000000000369
 10
5108.241784044839
 20
-7004.923050101245
 30
-0.0000000000000011
 10
5108.195509015533
 20
-7004.988458996827
 30
-0.0000000000000011
 10
5108.168908461753
 20
-7005.01727756798
 30
0.0000000000000179
 10
5108.11035252789
 20
-7005.063122387223
 30
0.0000000000000179
 10
5108.078396561235
 20
-7005.080155086025
 30
0.0000000000000179
 10
5108.011071395032
 20
-7005.100974940759
 30
0.0000000000000084
 10
5107.975648107667
 20
-7005.104779868239
 30
0.0000000000000084
 10
5107.904722232107
 20
-7005.099683703635
 30
-0.0000000000000011
 10
5107.869246500819
 20
-7005.091120457201
 30
0.0000000000000179
 10
5107.834605246933
 20
-7005.077655145243
 30
0.0000000000000084
  0
SPLINE
  5
16D6CF
330
18
100
AcDbEntity
  8
姿図
100
AcDbSpline
210
0.0
220
0.0
230
1.0
 70
     8
 71
     3
 72
    10
 73
     6
 74
     0
 42
0.000000001
 43
0.0000000001
 40
0.0588189760599532
 40
0.0588189760599532
 40
0.0588189760599532
 40
0.0588189760599532
 40
0.3767108973350863
 40
0.3767108973350863
 40
0.456659258613309
 40
0.456659258613309
 40
0.456659258613309
 40
0.456659258613309
 10
5086.77165659943
 20
-7005.638364342497
 30
0.0000000000000179
 10
5086.773933496411
 20
-7005.673194093519
 30
-0.0000000000000011
 10
5086.782364868554
 20
-7005.70894382726
 30
0.0000000000000084
 10
5086.800406978348
 20
-7005.750224625996
 30
0.0000000000000274
 10
5086.804417355095
 20
-7005.758344852214
 30
-0.0000000000000106
 10
5086.808731799306
 20
-7005.7662720777
 30
-0.0000000000000011
  0
SPLINE
  5
16D6D0
330
18
100
AcDbEntity
  8
姿図
100
AcDbSpline
210
0.0
220
0.0
230
1.0
 70
    11
 71
     3
 72
    38
 73
    34
 74
     0
 42
0.000000001
 43
0.0000000001
 40
0.0
 40
0.0
 40
0.0
 40
0.0
 40
0.4899871145494814
 40
0.4899871145494814
 40
0.9799742290989628
 40
0.9799742290989628
 40
1.469880324151052
 40
1.469880324151052
 40
1.959786419203141
 40
1.959786419203141
 40
2.44969251425523
 40
2.44969251425523
 40
2.939598609307319
 40
2.939598609307319
 40
3.429585723856792
 40
3.429585723856792
 40
3.919572838406264
 40
3.919572838406264
 40
4.409171093943907
 40
4.409171093943907
 40
4.898769349481549
 40
4.898769349481549
 40
5.388322667025805
 40
5.388322667025805
 40
5.877875984570061
 40
5.877875984570061
 40
6.367429302114317
 40
6.367429302114317
 40
6.856982619658573
 40
6.856982619658573
 40
7.346580875196197
 40
7.346580875196197
 40
7.836179130733821
 40
7.836179130733821
 40
7.836179130733821
 40
7.836179130733821
 10
5083.574420593298
 20
-7007.588663474591
 30
0.0000000000000274
 10
5083.574054662025
 20
-7007.641012029433
 30
0.0000000000000084
 10
5083.563341775435
 20
-7007.697750210608
 30
0.0000000000000084
 10
5083.520686366845
 20
-7007.804161370619
 30
0.0000000000000084
 10
5083.48874811574
 20
-7007.853837675145
 30
0.0000000000000084
 10
5083.415384970444
 20
-7007.934381212674
 30
0.0000000000000084
 10
5083.369072235731
 20
-7007.970619692824
 30
0.0000000000000084
 10
5083.267947173126
 20
-7008.022380627103
 30
0.0000000000000179
 10
5083.21313863353
 20
-7008.037905739626
 30
0.0000000000000084
 10
5083.110655937146
 20
-7008.047495974475
 30
0.0000000000000179
 10
5083.056160692135
 20
-7008.042199407849
 30
0.0000000000000084
 10
5082.956238058398
 20
-7008.009252328899
 30
0.0000000000000084
 10
5082.910806261535
 20
-7007.981599216175
 30
0.0000000000000274
 10
5082.839301770506
 20
-7007.914612256515
 30
0.0000000000000084
 10
5082.8084638009
 20
-7007.870810491988
 30
0.0000000000000274
 10
5082.767902720964
 20
-7007.772186653117
 30
0.0000000000000274
 10
5082.758175686136
 20
-7007.717361220665
 30
0.0000000000000179
 10
5082.758995420669
 20
-7007.612697405191
 30
0.0000000000000179
 10
5082.769581495512
 20
-7007.5558842044
 30
-0.0000000000000106
 10
5082.811705916884
 20
-7007.449137841557
 30
-0.0000000000000011
 10
5082.843248502129
 20
-7007.399207810106
 30
0.0000000000000084
 10
5082.915848638203
 20
-7007.318185123353
 30
0.0000000000000179
 10
5082.961745285616
 20
-7007.281690291541
 30
0.0000000000000179
 10
5083.062254762124
 20
-7007.22957244596
 30
0.0000000000000179
 10
5083.116871674893
 20
-7007.213952359592
 30
0.0000000000000084
 10
5083.219280574295
 20
-7007.2043690306
 30
0.0000000000000084
 10
5083.273900548316
 20
-7007.209766831304
 30
-0.0000000000000011
 10
5083.374351087373
 20
-7007.243079026643
 30
0.0000000000000179
 10
5083.420177545479
 20
-7007.270990496056
 30
-0.0000000000000011
 10
5083.492441897862
 20
-7007.33845689951
 30
-0.0000000000000011
 10
5083.523695112121
 20
-7007.382510558801
 30
0.0000000000000179
 10
5083.564869253536
 20
-7007.481461920072
 30
0.0000000000000274
 10
5083.57478623416
 20
-7007.536356464117
 30
0.0000000000000084
 10
5083.574420593298
 20
-7007.588663474591
 30
0.0000000000000274
  0
SPLINE
  5
16D6D1
330
18
100
AcDbEntity
  8
姿図
100
AcDbSpline
210
0.0
220
0.0
230
1.0
 70
     8
 71
     3
 72
    14
 73
    10
 74
     0
 42
0.000000001
 43
0.0000000001
 40
1.516995086374685
 40
1.516995086374685
 40
1.516995086374685
 40
1.516995086374685
 40
1.894466177168912
 40
1.894466177168912
 40
2.274814964391462
 40
2.274814964391462
 40
2.651000233863917
 40
2.651000233863917
 40
2.975314369919599
 40
2.975314369919599
 40
2.975314369919599
 40
2.975314369919599
 10
5080.60194965143
 20
-7000.551017224998
 30
0.0000000000000084
 10
5080.564743081833
 20
-7000.556074443052
 30
0.0000000000000084
 10
5080.525059187366
 20
-7000.569435212502
 30
0.0000000000000084
 10
5080.451572931147
 20
-7000.612011160236
 30
0.0000000000000274
 10
5080.417815173641
 20
-7000.641353786963
 30
0.0000000000000084
 10
5080.364616549346
 20
-7000.705601013585
 30
0.0000000000000274
 10
5080.341531272646
 20
-7000.744674469741
 30
-0.0000000000000011
 10
5080.312717785095
 20
-7000.82193275694
 30
0.0000000000000084
 10
5080.304952963027
 20
-7000.859503548796
 30
0.0000000000000179
 10
5080.302882426431
 20
-7000.894939436987
 30
-0.0000000000000011
  0
SPLINE
  5
16D6D2
330
18
100
AcDbEntity
  8
姿図
100
AcDbSpline
210
6.199782509224964E-9
220
1.399419345956019E-10
230
1.0
 70
    12
 71
     2
 72
     6
 73
     3
 74
     0
 42
0.000000001
 43
0.0000000001
 40
18.67224162152367
 40
18.67224162152367
 40
18.67224162152367
 40
24.03177626439027
 40
24.03177626439027
 40
24.03177626439027
 10
5070.080807455796
 20
-7009.650487047478
 30
-0.0000000000000106
 41
1.000007196260523
 10
5070.061326636539
 20
-7008.787572894475
 30
0.0000000000000084
 41
1.000006449331705
 10
5070.041807155383
 20
-7007.922878155611
 30
0.0000000000000179
 41
1.000004680735829
  0
SPLINE
  5
16D6D3
330
18
100
AcDbEntity
  8
姿図
100
AcDbSpline
210
0.0
220
0.0
230
1.0
 70
     8
 71
     3
 72
    24
 73
    20
 74
     0
 42
0.000000001
 43
0.0000000001
 40
0.0132670700154636
 40
0.0132670700154636
 40
0.0132670700154636
 40
0.0132670700154636
 40
0.5643354427835523
 40
0.5643354427835523
 40
1.128670885567105
 40
1.128670885567105
 40
1.693006328350657
 40
1.693006328350657
 40
2.257341771134209
 40
2.257341771134209
 40
2.838611106649443
 40
2.838611106649443
 40
3.419880442164678
 40
3.419880442164678
 40
4.001149777679912
 40
4.001149777679912
 40
4.582419113195146
 40
4.582419113195146
 40
4.599511058232551
 40
4.599511058232551
 40
4.599511058232551
 40
4.599511058232551
 10
5070.041807155385
 20
-7007.922878155623
 30
0.0000000000000179
 10
5070.043142482327
 20
-7007.982031888784
 30
0.0000000000000084
 10
5070.043640298103
 20
-7008.041570197873
 30
-0.0000000000000011
 10
5070.042713179419
 20
-7008.158039518805
 30
0.0000000000000274
 10
5070.041242265843
 20
-7008.214874491984
 30
0.0000000000000274
 10
5070.036442511121
 20
-7008.320201387259
 30
0.0000000000000084
 10
5070.033111939899
 20
-7008.368779134083
 30
-0.0000000000000011
 10
5070.025057416184
 20
-7008.4548156113
 30
0.0000000000000084
 10
5070.020336126278
 20
-7008.492270595184
 30
0.0000000000000179
 10
5070.010067185539
 20
-7008.555699429732
 30
-0.0000000000000011
 10
5070.004135147199
 20
-7008.583531654027
 30
0.0000000000000084
 10
5069.99133089257
 20
-7008.626978048993
 30
-0.0000000000000011
 10
5069.984462378612
 20
-7008.642598307049
 30
0.0000000000000274
 10
5069.970418034844
 20
-7008.660202254179
 30
-0.0000000000000011
 10
5069.963233647118
 20
-7008.662200483888
 30
0.0000000000000084
 10
5069.949152582018
 20
-7008.653109051749
 30
0.0000000000000179
 10
5069.942256500955
 20
-7008.642014886389
 30
0.0000000000000369
 10
5069.935572239034
 20
-7008.625222554224
 30
0.0000000000000179
 10
5069.935381255641
 20
-7008.624737466526
 30
0.0000000000000274
 10
5069.935190229381
 20
-7008.624246944105
 30
0.0000000000000084
  0
SPLINE
  5
16D6D4
330
18
100
AcDbEntity
  8
姿図
100
AcDbSpline
210
0.0
220
0.0
230
1.0
 70
    11
 71
     3
 72
    38
 73
    34
 74
     0
 42
0.000000001
 43
0.0000000001
 40
0.0
 40
0.0
 40
0.0
 40
0.0
 40
0.4899871145494816
 40
0.4899871145494816
 40
0.9799742290989633
 40
0.9799742290989633
 40
1.469880324151052
 40
1.469880324151052
 40
1.959786419203141
 40
1.959786419203141
 40
2.44969251425523
 40
2.44969251425523
 40
2.939598609307319
 40
2.939598609307319
 40
3.429585723856792
 40
3.429585723856792
 40
3.919572838406264
 40
3.919572838406264
 40
4.409171093943907
 40
4.409171093943907
 40
4.898769349481552
 40
4.898769349481552
 40
5.388322667025808
 40
5.388322667025808
 40
5.877875984570063
 40
5.877875984570063
 40
6.367429302114317
 40
6.367429302114317
 40
6.856982619658572
 40
6.856982619658572
 40
7.346580875196196
 40
7.346580875196196
 40
7.83617913073382
 40
7.83617913073382
 40
7.83617913073382
 40
7.83617913073382
 10
5069.639265685122
 20
-7011.694196271883
 30
0.0000000000000179
 10
5069.638146510532
 20
-7011.746766744976
 30
0.0000000000000084
 10
5069.634809484793
 20
-7011.80560439395
 30
0.0000000000000084
 10
5069.624002017851
 20
-7011.920004471106
 30
0.0000000000000179
 10
5069.616543472794
 20
-7011.975567809159
 30
0.0000000000000179
 10
5069.600316539913
 20
-7012.069498724457
 30
0.0000000000000084
 10
5069.590468745544
 20
-7012.114129230086
 30
-0.0000000000000011
 10
5069.569942357701
 20
-7012.184068448804
 30
0.0000000000000084
 10
5069.559275571614
 20
-7012.209377489831
 30
-0.0000000000000106
 10
5069.540123774643
 20
-7012.237143475236
 30
0.0000000000000084
 10
5069.530364050058
 20
-7012.241448480222
 30
0.0000000000000179
 10
5069.513318976591
 20
-7012.225979797493
 30
0.0000000000000084
 10
5069.506021704484
 20
-7012.206205949755
 30
0.0000000000000084
 10
5069.495176012847
 20
-7012.151524515744
 30
-0.0000000000000011
 10
5069.490903041502
 20
-7012.112969352627
 30
0.0000000000000179
 10
5069.486159148565
 20
-7012.02111540167
 30
0.0000000000000274
 10
5069.485676395556
 20
-7011.967815610104
 30
0.0000000000000179
 10
5069.4879303322
 20
-7011.862692498271
 30
0.0000000000000274
 10
5069.490814713331
 20
-7011.803866417404
 30
0.0000000000000179
 10
5069.499973704211
 20
-7011.689456812971
 30
0.0000000000000179
 10
5069.506260190366
 20
-7011.633874011923
 30
0.0000000000000084
 10
5069.520282294866
 20
-7011.539907429132
 30
0.0000000000000179
 10
5069.528954433349
 20
-7011.495258424824
 30
0.0000000000000179
 10
5069.547817290077
 20
-7011.425302861574
 30
-0.0000000000000011
 10
5069.558019863018
 20
-7011.399996848366
 30
0.0000000000000179
 10
5069.577157868932
 20
-7011.372250857041
 30
-0.0000000000000011
 10
5069.587369304909
 20
-7011.36796094907
 30
0.0000000000000179
 10
5069.606061523852
 20
-7011.383469731991
 30
0.0000000000000084
 10
5069.614530447777
 20
-7011.403267883443
 30
-0.0000000000000011
 10
5069.627580379526
 20
-7011.457985837803
 30
0.0000000000000179
 10
5069.633029068629
 20
-7011.496555159365
 30
-0.0000000000000011
 10
5069.639436775532
 20
-7011.588396400951
 30
0.0000000000000084
 10
5069.640383971531
 20
-7011.641667519283
 30
0.0000000000000274
 10
5069.639265685122
 20
-7011.694196271883
 30
0.0000000000000179
  0
ELLIPSE
  5
16D6D5
330
18
100
AcDbEntity
  8
姿図
100
AcDbEllipse
 10
5090.344223621087
 20
-7016.928584091337
 30
0.0000000000000013
 11
18.65778692755066
 21
0.0
 31
0.0
210
0.0
220
0.0
230
1.0
 40
0.267355552529607
 41
0.0
 42
6.283185307179586
  0
ELLIPSE
  5
16D6D6
330
18
100
AcDbEntity
  8
姿図
100
AcDbEllipse
 10
5090.344223621087
 20
-7016.943189613063
 30
0.0000000000000013
 11
-19.82357152159238
 21
0.0
 31
0.0
210
0.0
220
0.0
230
1.0
 40
0.2673555525296134
 41
0.0
 42
6.283185307179586
  0
ELLIPSE
  5
16D6D7
330
18
100
AcDbEntity
  8
姿図
100
AcDbEllipse
 10
5090.344223621089
 20
-7016.694830176871
 30
0.0000000000000013
 11
-23.99367165527838
 21
0.0
 31
0.0
210
0.0
220
0.0
230
1.0
 40
0.2673555525296482
 41
0.0
 42
6.283185307179586
  0
LINE
  5
16D6D8
330
18
100
AcDbEntity
  8
姿図
100
AcDbLine
 10
5071.316174053108
 20
-7005.57066933697
 30
0.0000000000000013
 11
5071.222039250872
 21
-7005.579478383693
 31
0.0000000000000013
  0
ELLIPSE
  5
16D6D9
330
18
100
AcDbEntity
  8
姿図
100
AcDbEllipse
 10
5071.316174053108
 20
-7005.63512804465
 30
0.0000000000000013
 11
0.03884321122096699
 21
0.054262695574396
 31
3.704401490078473E-18
210
-3.231153159914480E-17
220
-4.513815278383737E-17
230
1.0
 40
0.9083744652357179
 41
4.946186896530291
 42
6.950591553746593
  0
LINE
  5
16D6DA
330
18
100
AcDbEntity
  8
姿図
100
AcDbLine
 10
5071.259077325854
 20
-7006.220599472088
 30
0.0000000000000013
 11
5071.164942523618
 21
-7006.22940851881
 31
0.0000000000000013
  0
ELLIPSE
  5
16D6DB
330
18
100
AcDbEntity
  8
姿図
100
AcDbEllipse
 10
5071.259077325854
 20
-7006.285058179767
 30
0.0000000000000013
 11
0.03884321122096699
 21
0.054262695574396
 31
3.704401490078473E-18
210
-3.231153159914480E-17
220
-4.513815278383737E-17
230
1.0
 40
0.9083744652357179
 41
4.946186896530291
 42
6.950591553746593
  0
ELLIPSE
  5
16D6DC
330
18
100
AcDbEntity
  8
姿図
100
AcDbEllipse
 10
5071.234070590251
 20
-7006.93296488947
 30
0.0
 11
0.03884321122095603
 21
0.05426269557438058
 31
3.704401490077424E-18
210
-3.231153159914461E-17
220
-4.513815278383751E-17
230
1.0
 40
0.9083744652357182
 41
4.946186896530421
 42
6.950591553746442
  0
ENDSEC
  0
SECTION
  2
OBJECTS
  0
DICTIONARY
  5
C
330
0
100
AcDbDictionary
281
     1
  3
ACAD_GROUP
350
D
  3
ACAD_IMAGE_VARS
350
16D947
  3
ACAD_LAYOUT
350
617
  3
ACAD_MLINESTYLE
350
E
  3
ACAD_PLOTSETTINGS
350
618
  3
ACAD_PLOTSTYLENAME
350
615
  3
ACAD_SCALELIST
350
A36
  3
AcadDim
350
AB4
  3
AcDbVariableDictionary
350
6DE
  3
APPDATA
350
16D946
  3
DWGPROPS
350
16D96B
  0
DICTIONARY
  5
8BF
330
2
100
AcDbDictionary
280
     1
281
     1
  3
ACAD_LAYERSTATES
360
8C0
  0
DICTIONARY
  5
A60
330
F
100
AcDbDictionary
280
     1
281
     1
  3
ADSK_XREC_LAYER_RECONCILED
360
A61
  0
DICTIONARY
  5
A66
330
34
100
AcDbDictionary
280
     1
281
     1
  3
ADSK_XREC_LAYER_RECONCILED
360
A67
  0
DICTIONARY
  5
A6E
330
2F4
100
AcDbDictionary
280
     1
281
     1
  3
ADSK_XREC_LAYER_RECONCILED
360
A6F
  0
DICTIONARY
  5
A72
330
305
100
AcDbDictionary
280
     1
281
     1
  3
ADSK_XREC_LAYER_RECONCILED
360
A73
  0
DICTIONARY
  5
143F
330
18
100
AcDbDictionary
280
     1
281
     1
  3
ACAD_SORTENTS
360
1440
  0
DICTIONARY
  5
D
102
{ACAD_REACTORS
330
C
102
}
330
C
100
AcDbDictionary
281
     1
  0
RASTERVARIABLES
  5
16D947
102
{ACAD_REACTORS
330
C
102
}
330
C
100
AcDbRasterVariables
 90
        0
 70
     1
 71
     1
 72
     0
  0
DICTIONARY
  5
617
102
{ACAD_REACTORS
330
C
102
}
330
C
100
AcDbDictionary
281
     1
  3
Model
350
619
  3
ﾚｲｱｳﾄ1
350
61A
  0
DICTIONARY
  5
E
102
{ACAD_REACTORS
330
C
102
}
330
C
100
AcDbDictionary
281
     1
  3
STANDARD
350
1B
  0
DICTIONARY
  5
618
102
{ACAD_REACTORS
330
C
102
}
330
C
100
AcDbDictionary
281
     1
  0
ACDBDICTIONARYWDFLT
  5
615
102
{ACAD_REACTORS
330
C
102
}
330
C
100
AcDbDictionary
281
     1
  3
Normal
350
616
100
AcDbDictionaryWithDefault
340
616
  0
DICTIONARY
  5
A36
102
{ACAD_REACTORS
330
C
102
}
330
C
100
AcDbDictionary
281
     1
  3
A0
350
A37
  3
A1
350
A38
  3
A2
350
A39
  3
A3
350
A3A
  3
A4
350
A3B
  3
A5
350
A3C
  3
A6
350
A3D
  3
A7
350
A3E
  3
A8
350
A3F
  3
A9
350
A40
  3
B0
350
A41
  3
B1
350
A42
  3
B2
350
A43
  3
B3
350
A44
  3
B4
350
A45
  3
B5
350
A46
  3
B6
350
A47
  3
B7
350
A48
  3
B8
350
A49
  3
B9
350
A4A
  3
C0
350
A4B
  3
C1
350
A4C
  3
C2
350
A4D
  3
C3
350
A4E
  3
C4
350
A4F
  3
C5
350
A50
  3
C6
350
A51
  3
C7
350
A52
  3
C8
350
A53
  3
C9
350
A54
  3
D0
350
A55
  3
D1
350
A56
  3
D2
350
A57
  0
XRECORD
  5
AB4
102
{ACAD_REACTORS
330
C
102
}
330
C
100
AcDbXrecord
280
     1
 90
   990106
  3
OPEN
 60
     0
 61
     0
 62
     1
 63
     3
 64
     1
 65
     0
 66
     0
 67
     3
 68
     1
 69
     0
 70
     0
 71
     0
 72
     0
 40
0.0
170
     2
  0
DICTIONARY
  5
6DE
102
{ACAD_REACTORS
330
C
102
}
330
C
100
AcDbDictionary
281
     1
  3
DIMASSOC
350
6DF
  3
INDEXCTL
350
A93
  3
PROJECTNAME
350
6E0
  3
SORTENTS
350
A92
  0
DICTIONARY
  5
16D946
102
{ACAD_REACTORS
330
C
102
}
330
C
100
AcDbDictionary
281
     1
  0
XRECORD
  5
16D96B
102
{ACAD_REACTORS
330
C
102
}
330
C
100
AcDbXrecord
280
     1
  1
DWGPROPS COOKIE
  2

  3

  4

  6

  7

  8
SPAX
  9

300
=
301
=
302
=
303
=
304
=
305
=
306
=
307
=
308
=
309
=
 40
0.0
 41
2448636.244629629
 42
2456821.204389386
  1

 90
        0
  0
DICTIONARY
  5
8C0
102
{ACAD_REACTORS
330
8BF
102
}
330
8BF
100
AcDbDictionary
281
     1
  0
XRECORD
  5
A61
102
{ACAD_REACTORS
330
A60
102
}
330
A60
100
AcDbXrecord
280
     1
290
     1
  0
XRECORD
  5
A67
102
{ACAD_REACTORS
330
A66
102
}
330
A66
100
AcDbXrecord
280
     1
290
     1
  0
XRECORD
  5
A6F
102
{ACAD_REACTORS
330
A6E
102
}
330
A6E
100
AcDbXrecord
280
     1
290
     1
  0
XRECORD
  5
A73
102
{ACAD_REACTORS
330
A72
102
}
330
A72
100
AcDbXrecord
280
     1
290
     1
  0
SORTENTSTABLE
  5
1440
102
{ACAD_REACTORS
330
143F
102
}
330
143F
100
AcDbSortentsTable
330
18
331
0
  5
150837
331
D0CC6
  5
D0CC6
331
F6D77
  5
F6D77
331
F6D78
  5
F6D78
  0
LAYOUT
  5
619
102
{ACAD_REACTORS
330
617
102
}
330
617
100
AcDbPlotSettings
  1

  2
JUST PDF 2
  4
A4
  6

 40
3.174999952316284
 41
3.174999952316284
 42
3.175003051757812
 43
3.17498779296875
 44
209.8886566162109
 45
297.0530090332031
 46
14.27171755861536
 47
9.855173074625782
 48
5039.111731023307
 49
-7434.392105331577
140
5389.102168013119
141
-6892.406755054244
142
1.0
143
2.0
 70
  3748
 72
     1
 73
     0
 74
     4
  7
spax form.ctb
 75
    16
147
1.0
148
-5039.111731023307
149
7434.392105331577
100
AcDbLayout
  1
Model
 70
     1
 71
     0
 10
0.0
 20
0.0
 11
12.0
 21
9.0
 12
0.0
 22
0.0
 32
0.0
 14
5039.721646800705
 24
-7047.545959956495
 34
-0.0000000000000125
 15
5135.054980134038
 25
-6956.208167724942
 35
0.0000000000000274
146
0.0
 13
0.0
 23
0.0
 33
0.0
 16
1.0
 26
0.0
 36
0.0
 17
0.0
 27
1.0
 37
0.0
 76
     0
330
18
331
16A8C7
1001
ACAD_PSEXT
1000
JUST PDF 2
1000
JUST PDF 2
1000
JUST PDF 2 Port:
1000

1070
     0
  0
LAYOUT
  5
61A
102
{ACAD_REACTORS
330
617
102
}
330
617
100
AcDbPlotSettings
  1

  2
Canon LASER SHOT LBP-750
  4

  6

 40
0.0
 41
0.0
 42
0.0
 43
0.0
 44
0.0
 45
0.0
 46
0.0
 47
0.0
 48
0.0
 49
0.0
140
0.0
141
0.0
142
1.0
143
1.0
 70
   688
 72
     0
 73
     0
 74
     5
  7
spax form.ctb
 75
    16
147
1.0
148
0.0
149
0.0
100
AcDbLayout
  1
ﾚｲｱｳﾄ1
 70
     0
 71
     1
 10
0.0
 20
0.0
 11
12.0
 21
9.0
 12
0.0
 22
0.0
 32
0.0
 14
1.000000000000000E+20
 24
1.000000000000000E+20
 34
1.000000000000000E+20
 15
-1.000000000000000E+20
 25
-1.000000000000000E+20
 35
-1.000000000000000E+20
146
0.0
 13
0.0
 23
0.0
 33
0.0
 16
1.0
 26
0.0
 36
0.0
 17
0.0
 27
1.0
 37
0.0
 76
     0
330
15
  0
MLINESTYLE
  5
1B
102
{ACAD_REACTORS
330
E
102
}
330
E
100
AcDbMlineStyle
  2
STANDARD
 70
     0
  3

 62
     0
 51
90.0
 52
90.0
 71
     2
 49
0.5
 62
   256
  6
BYLAYER
 49
-0.5
 62
   256
  6
BYLAYER
  0
ACDBPLACEHOLDER
  5
616
102
{ACAD_REACTORS
330
615
102
}
330
615
  0
SCALE
  5
A37
102
{ACAD_REACTORS
330
A36
102
}
330
A36
100
AcDbScale
 70
     0
300
1:1
140
1.0
141
1.0
290
     1
  0
SCALE
  5
A38
102
{ACAD_REACTORS
330
A36
102
}
330
A36
100
AcDbScale
 70
     0
300
1:2
140
1.0
141
2.0
290
     0
  0
SCALE
  5
A39
102
{ACAD_REACTORS
330
A36
102
}
330
A36
100
AcDbScale
 70
     0
300
1:4
140
1.0
141
4.0
290
     0
  0
SCALE
  5
A3A
102
{ACAD_REACTORS
330
A36
102
}
330
A36
100
AcDbScale
 70
     0
300
1:5
140
1.0
141
5.0
290
     0
  0
SCALE
  5
A3B
102
{ACAD_REACTORS
330
A36
102
}
330
A36
100
AcDbScale
 70
     0
300
1:8
140
1.0
141
8.0
290
     0
  0
SCALE
  5
A3C
102
{ACAD_REACTORS
330
A36
102
}
330
A36
100
AcDbScale
 70
     0
300
1:10
140
1.0
141
10.0
290
     0
  0
SCALE
  5
A3D
102
{ACAD_REACTORS
330
A36
102
}
330
A36
100
AcDbScale
 70
     0
300
1:16
140
1.0
141
16.0
290
     0
  0
SCALE
  5
A3E
102
{ACAD_REACTORS
330
A36
102
}
330
A36
100
AcDbScale
 70
     0
300
1:20
140
1.0
141
20.0
290
     0
  0
SCALE
  5
A3F
102
{ACAD_REACTORS
330
A36
102
}
330
A36
100
AcDbScale
 70
     0
300
1:30
140
1.0
141
30.0
290
     0
  0
SCALE
  5
A40
102
{ACAD_REACTORS
330
A36
102
}
330
A36
100
AcDbScale
 70
     0
300
1:40
140
1.0
141
40.0
290
     0
  0
SCALE
  5
A41
102
{ACAD_REACTORS
330
A36
102
}
330
A36
100
AcDbScale
 70
     0
300
1:50
140
1.0
141
50.0
290
     0
  0
SCALE
  5
A42
102
{ACAD_REACTORS
330
A36
102
}
330
A36
100
AcDbScale
 70
     0
300
1:100
140
1.0
141
100.0
290
     0
  0
SCALE
  5
A43
102
{ACAD_REACTORS
330
A36
102
}
330
A36
100
AcDbScale
 70
     0
300
2:1
140
2.0
141
1.0
290
     0
  0
SCALE
  5
A44
102
{ACAD_REACTORS
330
A36
102
}
330
A36
100
AcDbScale
 70
     0
300
4:1
140
4.0
141
1.0
290
     0
  0
SCALE
  5
A45
102
{ACAD_REACTORS
330
A36
102
}
330
A36
100
AcDbScale
 70
     0
300
8:1
140
8.0
141
1.0
290
     0
  0
SCALE
  5
A46
102
{ACAD_REACTORS
330
A36
102
}
330
A36
100
AcDbScale
 70
     0
300
10:1
140
10.0
141
1.0
290
     0
  0
SCALE
  5
A47
102
{ACAD_REACTORS
330
A36
102
}
330
A36
100
AcDbScale
 70
     0
300
100:1
140
100.0
141
1.0
290
     0
  0
SCALE
  5
A48
102
{ACAD_REACTORS
330
A36
102
}
330
A36
100
AcDbScale
 70
     0
300
1/128" = 1'-0"
140
0.0078125
141
12.0
290
     0
  0
SCALE
  5
A49
102
{ACAD_REACTORS
330
A36
102
}
330
A36
100
AcDbScale
 70
     0
300
1/64" = 1'-0"
140
0.015625
141
12.0
290
     0
  0
SCALE
  5
A4A
102
{ACAD_REACTORS
330
A36
102
}
330
A36
100
AcDbScale
 70
     0
300
1/32" = 1'-0"
140
0.03125
141
12.0
290
     0
  0
SCALE
  5
A4B
102
{ACAD_REACTORS
330
A36
102
}
330
A36
100
AcDbScale
 70
     0
300
1/16" = 1'-0"
140
0.0625
141
12.0
290
     0
  0
SCALE
  5
A4C
102
{ACAD_REACTORS
330
A36
102
}
330
A36
100
AcDbScale
 70
     0
300
3/32" = 1'-0"
140
0.09375
141
12.0
290
     0
  0
SCALE
  5
A4D
102
{ACAD_REACTORS
330
A36
102
}
330
A36
100
AcDbScale
 70
     0
300
1/8" = 1'-0"
140
0.125
141
12.0
290
     0
  0
SCALE
  5
A4E
102
{ACAD_REACTORS
330
A36
102
}
330
A36
100
AcDbScale
 70
     0
300
3/16" = 1'-0"
140
0.1875
141
12.0
290
     0
  0
SCALE
  5
A4F
102
{ACAD_REACTORS
330
A36
102
}
330
A36
100
AcDbScale
 70
     0
300
1/4" = 1'-0"
140
0.25
141
12.0
290
     0
  0
SCALE
  5
A50
102
{ACAD_REACTORS
330
A36
102
}
330
A36
100
AcDbScale
 70
     0
300
3/8" = 1'-0"
140
0.375
141
12.0
290
     0
  0
SCALE
  5
A51
102
{ACAD_REACTORS
330
A36
102
}
330
A36
100
AcDbScale
 70
     0
300
1/2" = 1'-0"
140
0.5
141
12.0
290
     0
  0
SCALE
  5
A52
102
{ACAD_REACTORS
330
A36
102
}
330
A36
100
AcDbScale
 70
     0
300
3/4" = 1'-0"
140
0.75
141
12.0
290
     0
  0
SCALE
  5
A53
102
{ACAD_REACTORS
330
A36
102
}
330
A36
100
AcDbScale
 70
     0
300
1" = 1'-0"
140
1.0
141
12.0
290
     0
  0
SCALE
  5
A54
102
{ACAD_REACTORS
330
A36
102
}
330
A36
100
AcDbScale
 70
     0
300
1-1/2" = 1'-0"
140
1.5
141
12.0
290
     0
  0
SCALE
  5
A55
102
{ACAD_REACTORS
330
A36
102
}
330
A36
100
AcDbScale
 70
     0
300
3" = 1'-0"
140
3.0
141
12.0
290
     0
  0
SCALE
  5
A56
102
{ACAD_REACTORS
330
A36
102
}
330
A36
100
AcDbScale
 70
     0
300
6" = 1'-0"
140
6.0
141
12.0
290
     0
  0
SCALE
  5
A57
102
{ACAD_REACTORS
330
A36
102
}
330
A36
100
AcDbScale
 70
     0
300
1'-0" = 1'-0"
140
12.0
141
12.0
290
     0
  0
DICTIONARYVAR
  5
6DF
102
{ACAD_REACTORS
330
6DE
102
}
330
6DE
100
DictionaryVariables
280
     0
  1
1
  0
DICTIONARYVAR
  5
A93
102
{ACAD_REACTORS
330
6DE
102
}
330
6DE
100
DictionaryVariables
280
     0
  1
0
  0
DICTIONARYVAR
  5
6E0
102
{ACAD_REACTORS
330
6DE
102
}
330
6DE
100
DictionaryVariables
280
     0
  1

  0
DICTIONARYVAR
  5
A92
102
{ACAD_REACTORS
330
6DE
102
}
330
6DE
100
DictionaryVariables
280
     0
  1
127
  0
ENDSEC
  0
EOF
