  0
SECTION
  2
HEADER
  9
$ACADVER
  1
AC1015
  9
$ACADMAINTVER
 70
     6
  9
$DWGCODEPAGE
  3
ANSI_932
  9
$INSBASE
 10
0.0
 20
0.0
 30
0.0
  9
$EXTMIN
 10
14714.35077530947
 20
-3408.050666857726
 30
0.0
  9
$EXTMAX
 10
14828.10077530947
 20
-3289.056946956736
 30
0.0
  9
$LIMMIN
 10
0.0
 20
0.0
  9
$LIMMAX
 10
420.0
 20
297.0
  9
$ORTHOMODE
 70
     1
  9
$REGENMODE
 70
     1
  9
$FILLMODE
 70
     1
  9
$QTEXTMODE
 70
     0
  9
$MIRRTEXT
 70
     1
  9
$LTSCALE
 40
5.0
  9
$ATTMODE
 70
     0
  9
$TEXTSIZE
 40
3.5
  9
$TRACEWID
 40
1.0
  9
$TEXTSTYLE
  7
STANDARD
  9
$CLAYER
  8
寸法線
  9
$CELTYPE
  6
BYLAYER
  9
$CECOLOR
 62
   256
  9
$CELTSCALE
 40
1.0
  9
$DISPSILH
 70
     0
  9
$DIMSCALE
 40
1.0
  9
$DIMASZ
 40
2.5
  9
$DIMEXO
 40
1.5
  9
$DIMDLI
 40
7.0
  9
$DIMRND
 40
0.0
  9
$DIMDLE
 40
0.0
  9
$DIMEXE
 40
1.0
  9
$DIMTP
 40
0.0
  9
$DIMTM
 40
0.0
  9
$DIMTXT
 40
3.0
  9
$DIMCEN
 40
0.0
  9
$DIMTSZ
 40
0.0
  9
$DIMTOL
 70
     0
  9
$DIMLIM
 70
     0
  9
$DIMTIH
 70
     0
  9
$DIMTOH
 70
     0
  9
$DIMSE1
 70
     0
  9
$DIMSE2
 70
     0
  9
$DIMTAD
 70
     3
  9
$DIMZIN
 70
     9
  9
$DIMBLK
  1
OPEN30
  9
$DIMASO
 70
     1
  9
$DIMSHO
 70
     0
  9
$DIMPOST
  1

  9
$DIMAPOST
  1

  9
$DIMALT
 70
     0
  9
$DIMALTD
 70
     0
  9
$DIMALTF
 40
25.4
  9
$DIMLFAC
 40
1.0
  9
$DIMTOFL
 70
     1
  9
$DIMTVP
 40
0.0
  9
$DIMTIX
 70
     0
  9
$DIMSOXD
 70
     0
  9
$DIMSAH
 70
     0
  9
$DIMBLK1
  1

  9
$DIMBLK2
  1

  9
$DIMSTYLE
  2
STANDARD
  9
$DIMCLRD
 70
     8
  9
$DIMCLRE
 70
     8
  9
$DIMCLRT
 70
   256
  9
$DIMTFAC
 40
0.6
  9
$DIMGAP
 40
1.0
  9
$DIMJUST
 70
     0
  9
$DIMSD1
 70
     0
  9
$DIMSD2
 70
     0
  9
$DIMTOLJ
 70
     1
  9
$DIMTZIN
 70
     9
  9
$DIMALTZ
 70
     9
  9
$DIMALTTZ
 70
     9
  9
$DIMUPT
 70
     0
  9
$DIMDEC
 70
     3
  9
$DIMTDEC
 70
     3
  9
$DIMALTU
 70
     2
  9
$DIMALTTD
 70
     0
  9
$DIMTXSTY
  7
STANDARD
  9
$DIMAUNIT
 70
     0
  9
$DIMADEC
 70
     3
  9
$DIMALTRND
 40
0.0
  9
$DIMAZIN
 70
     2
  9
$DIMDSEP
 70
    46
  9
$DIMATFIT
 70
     0
  9
$DIMFRAC
 70
     0
  9
$DIMLDRBLK
  1
OPEN30
  9
$DIMLUNIT
 70
     2
  9
$DIMLWD
 70
    -2
  9
$DIMLWE
 70
    -2
  9
$DIMTMOVE
 70
     0
  9
$LUNITS
 70
     2
  9
$LUPREC
 70
     2
  9
$SKETCHINC
 40
0.1
  9
$FILLETRAD
 40
1.0
  9
$AUNITS
 70
     0
  9
$AUPREC
 70
     1
  9
$MENU
  1
FM
  9
$ELEVATION
 40
0.0
  9
$PELEVATION
 40
0.0
  9
$THICKNESS
 40
0.0
  9
$LIMCHECK
 70
     0
  9
$CHAMFERA
 40
0.0
  9
$CHAMFERB
 40
0.0
  9
$CHAMFERC
 40
0.0
  9
$CHAMFERD
 40
0.0
  9
$SKPOLY
 70
     0
  9
$TDCREATE
 40
2448636.619629629
  9
$TDUCREATE
 40
2448636.244629629
  9
$TDUPDATE
 40
2456821.628522014
  9
$TDUUPDATE
 40
2456821.253522014
  9
$TDINDWG
 40
100.645940162
  9
$TDUSRTIMER
 40
2456821.25335331
  9
$USRTIMER
 70
     1
  9
$ANGBASE
 50
0.0
  9
$ANGDIR
 70
     0
  9
$PDMODE
 70
     3
  9
$PDSIZE
 40
0.0
  9
$PLINEWID
 40
0.0
  9
$SPLFRAME
 70
     0
  9
$SPLINETYPE
 70
     6
  9
$SPLINESEGS
 70
     8
  9
$HANDSEED
  5
3537D9
  9
$SURFTAB1
 70
     6
  9
$SURFTAB2
 70
     6
  9
$SURFTYPE
 70
     6
  9
$SURFU
 70
     6
  9
$SURFV
 70
     6
  9
$UCSBASE
  2

  9
$UCSNAME
  2

  9
$UCSORG
 10
0.0
 20
0.0
 30
0.0
  9
$UCSXDIR
 10
1.0
 20
0.0
 30
0.0
  9
$UCSYDIR
 10
0.0
 20
1.0
 30
0.0
  9
$UCSORTHOREF
  2

  9
$UCSORTHOVIEW
 70
     0
  9
$UCSORGTOP
 10
0.0
 20
0.0
 30
0.0
  9
$UCSORGBOTTOM
 10
0.0
 20
0.0
 30
0.0
  9
$UCSORGLEFT
 10
0.0
 20
0.0
 30
0.0
  9
$UCSORGRIGHT
 10
0.0
 20
0.0
 30
0.0
  9
$UCSORGFRONT
 10
0.0
 20
0.0
 30
0.0
  9
$UCSORGBACK
 10
0.0
 20
0.0
 30
0.0
  9
$PUCSBASE
  2

  9
$PUCSNAME
  2

  9
$PUCSORG
 10
0.0
 20
0.0
 30
0.0
  9
$PUCSXDIR
 10
1.0
 20
0.0
 30
0.0
  9
$PUCSYDIR
 10
0.0
 20
1.0
 30
0.0
  9
$PUCSORTHOREF
  2

  9
$PUCSORTHOVIEW
 70
     0
  9
$PUCSORGTOP
 10
0.0
 20
0.0
 30
0.0
  9
$PUCSORGBOTTOM
 10
0.0
 20
0.0
 30
0.0
  9
$PUCSORGLEFT
 10
0.0
 20
0.0
 30
0.0
  9
$PUCSORGRIGHT
 10
0.0
 20
0.0
 30
0.0
  9
$PUCSORGFRONT
 10
0.0
 20
0.0
 30
0.0
  9
$PUCSORGBACK
 10
0.0
 20
0.0
 30
0.0
  9
$USERI1
 70
     0
  9
$USERI2
 70
     0
  9
$USERI3
 70
     0
  9
$USERI4
 70
     0
  9
$USERI5
 70
     0
  9
$USERR1
 40
0.0
  9
$USERR2
 40
0.0
  9
$USERR3
 40
0.0
  9
$USERR4
 40
0.0
  9
$USERR5
 40
0.0
  9
$WORLDVIEW
 70
     0
  9
$SHADEDGE
 70
     3
  9
$SHADEDIF
 70
    70
  9
$TILEMODE
 70
     1
  9
$MAXACTVP
 70
    16
  9
$PINSBASE
 10
0.0
 20
0.0
 30
0.0
  9
$PLIMCHECK
 70
     0
  9
$PEXTMIN
 10
1.000000000000000E+20
 20
1.000000000000000E+20
 30
1.000000000000000E+20
  9
$PEXTMAX
 10
-1.000000000000000E+20
 20
-1.000000000000000E+20
 30
-1.000000000000000E+20
  9
$PLIMMIN
 10
0.0
 20
0.0
  9
$PLIMMAX
 10
0.0
 20
0.0
  9
$UNITMODE
 70
     0
  9
$VISRETAIN
 70
     0
  9
$PLINEGEN
 70
     0
  9
$PSLTSCALE
 70
     0
  9
$TREEDEPTH
 70
  3020
  9
$CMLSTYLE
  2
STANDARD
  9
$CMLJUST
 70
     0
  9
$CMLSCALE
 40
1.0
  9
$PROXYGRAPHICS
 70
     1
  9
$MEASUREMENT
 70
     0
  9
$CELWEIGHT
370
    -1
  9
$ENDCAPS
280
     0
  9
$JOINSTYLE
280
     0
  9
$LWDISPLAY
290
     1
  9
$INSUNITS
 70
     0
  9
$HYPERLINKBASE
  1

  9
$STYLESHEET
  1
spax form.ctb
  9
$XEDIT
290
     1
  9
$CEPSNTYPE
380
     0
  9
$PSTYLEMODE
290
     1
  9
$FINGERPRINTGUID
  2
{E5B35D22-A717-11D3-9160-00E0294F7E09}
  9
$VERSIONGUID
  2
{84F7956F-31FE-4191-97FB-B9D89E4B3784}
  9
$EXTNAMES
290
     1
  9
$PSVPSCALE
 40
0.0
  9
$OLESTARTUP
290
     0
  0
ENDSEC
  0
SECTION
  2
CLASSES
  0
CLASS
  1
LWPOLYLINE
  2
AcDbPolyline
  3
ObjectDBX Classes
 90
        0
280
     0
281
     1
  0
CLASS
  1
ACDBDICTIONARYWDFLT
  2
AcDbDictionaryWithDefault
  3
ObjectDBX Classes
 90
        0
280
     0
281
     0
  0
CLASS
  1
ACDBPLACEHOLDER
  2
AcDbPlaceHolder
  3
ObjectDBX Classes
 90
        0
280
     0
281
     0
  0
CLASS
  1
LAYOUT
  2
AcDbLayout
  3
ObjectDBX Classes
 90
        0
280
     0
281
     0
  0
CLASS
  1
DICTIONARYVAR
  2
AcDbDictionaryVar
  3
ObjectDBX Classes
 90
        0
280
     0
281
     0
  0
CLASS
  1
MATERIAL
  2
AcDbMaterial
  3
ObjectDBX Classes
 90
     1153
280
     0
281
     0
  0
CLASS
  1
SORTENTSTABLE
  2
AcDbSortentsTable
  3
ObjectDBX Classes
 90
        0
280
     0
281
     0
  0
CLASS
  1
VISUALSTYLE
  2
AcDbVisualStyle
  3
ObjectDBX Classes
 90
     4095
280
     0
281
     0
  0
CLASS
  1
TABLESTYLE
  2
AcDbTableStyle
  3
ObjectDBX Classes
 90
     4095
280
     0
281
     0
  0
CLASS
  1
SCALE
  2
AcDbScale
  3
ObjectDBX Classes
 90
     1153
280
     0
281
     0
  0
CLASS
  1
MLEADERSTYLE
  2
AcDbMLeaderStyle
  3
ACDB_MLEADERSTYLE_CLASS
 90
     4095
280
     0
281
     0
  0
CLASS
  1
CELLSTYLEMAP
  2
AcDbCellStyleMap
  3
ObjectDBX Classes
 90
     1152
280
     0
281
     0
  0
CLASS
  1
MULTILEADER
  2
AcDbMLeader
  3
ACDB_MLEADER_CLASS
 90
     1025
280
     0
281
     1
  0
CLASS
  1
DIMASSOC
  2
AcDbDimAssoc
  3
"AcDbDimAssoc|Product Desc:     AcDim ARX App For Dimension|Company:          Autodesk, Inc.|WEB Address:      www.autodesk.com"
 90
        0
280
     0
281
     0
  0
CLASS
  1
LARGE_RADIAL_DIMENSION
  2
AcDbRadialDimensionLarge
  3
ObjectDBX Classes
 90
     1025
280
     0
281
     1
  0
CLASS
  1
RASTERVARIABLES
  2
AcDbRasterVariables
  3
ISM
 90
        0
280
     0
281
     0
  0
CLASS
  1
AEC_VARS_DWG_SETUP
  2
AecDbVarsDwgSetup
  3
AecBase60
 90
      129
280
     0
281
     0
  0
CLASS
  1
AEC_DISP_REP_2D_SECTION
  2
AecDbDispRep2dSection
  3
AecBase60
 90
      129
280
     0
281
     0
  0
CLASS
  1
AEC_DISP_PROPS_2D_SECTION
  2
AecDbDispProps2dSection
  3
AecBase60
 90
      129
280
     0
281
     0
  0
CLASS
  1
AEC_DISP_REP_CLIP_VOLUME_MODEL
  2
AecDbDispRepClipVolModel
  3
AecBase60
 90
      129
280
     0
281
     0
  0
CLASS
  1
AEC_DISP_PROPS_CLIP_VOLUME
  2
AecDbDispPropsClipVol
  3
AecBase60
 90
      129
280
     0
281
     0
  0
CLASS
  1
AEC_DISP_REP_CLIP_VOLUME_PLAN
  2
AecDbDispRepClipVolPlan
  3
AecBase60
 90
      129
280
     0
281
     0
  0
CLASS
  1
AEC_DISP_REP_CLIP_VOLUME_RESULT
  2
AecDbDispRepClipVolResult
  3
AecBase60
 90
      129
280
     0
281
     0
  0
CLASS
  1
AEC_DISP_REP_CLIP_VOLUME_RESULT_SUBDIV
  2
AecDbDispRepClipVolResSubDiv
  3
AecBase60
 90
      129
280
     0
281
     0
  0
CLASS
  1
AEC_DISP_PROPS_CLIP_VOLUME_RESULT
  2
AecDbDispPropsClipVolResSubDiv
  3
AecBase60
 90
      129
280
     0
281
     0
  0
CLASS
  1
AEC_DISP_REP_DISPLAYTHEME
  2
AecDbDispRepDisplayTheme
  3
AecBase60
 90
      129
280
     0
281
     0
  0
CLASS
  1
AEC_DISP_PROPS_DISPLAYTHEME
  2
AecDbDispPropsDisplayTheme
  3
AecBase60
 90
      129
280
     0
281
     0
  0
CLASS
  1
AEC_DISP_REP_ENT_REF
  2
AecDbDispRepEntRef
  3
AecBase60
 90
      129
280
     0
281
     0
  0
CLASS
  1
AEC_DISP_PROPS_ENT_REF
  2
AecDbDispPropsEntRef
  3
AecBase60
 90
      129
280
     0
281
     0
  0
CLASS
  1
AEC_DISP_REP_LAYOUT_CURVE
  2
AecDbDispRepLayoutCurve
  3
AecBase60
 90
      129
280
     0
281
     0
  0
CLASS
  1
AEC_DISP_PROPS_LAYOUT_CURVE
  2
AecDbDispPropsLayoutCurve
  3
AecBase60
 90
      129
280
     0
281
     0
  0
CLASS
  1
AEC_DISP_REP_LAYOUT_GRID2D
  2
AecDbDispRepLayoutGrid2d
  3
AecBase60
 90
      129
280
     0
281
     0
  0
CLASS
  1
AEC_DISP_PROPS_LAYOUT_GRID2D
  2
AecDbDispPropsLayoutGrid2d
  3
AecBase60
 90
      129
280
     0
281
     0
  0
CLASS
  1
AEC_DISP_REP_LAYOUT_GRID3D
  2
AecDbDispRepLayoutGrid3d
  3
AecBase60
 90
      129
280
     0
281
     0
  0
CLASS
  1
AEC_DISP_PROPS_LAYOUT_GRID3D
  2
AecDbDispPropsLayoutGrid3d
  3
AecBase60
 90
      129
280
     0
281
     0
  0
CLASS
  1
AEC_DISP_REP_MASKBLOCK_REF
  2
AecDbDispRepMaskBlockRef
  3
AecBase60
 90
      129
280
     0
281
     0
  0
CLASS
  1
AEC_DISP_PROPS_MASKBLOCK
  2
AecDbDispPropsMaskBlock
  3
AecBase60
 90
      129
280
     0
281
     0
  0
CLASS
  1
AEC_DISP_REP_MASKBLOCK_REF_RCP
  2
AecDbDispRepMaskBlockRefRcp
  3
AecArchBase60
 90
      129
280
     0
281
     0
  0
CLASS
  1
AEC_DISP_REP_MASS_ELEM_MODEL
  2
AecDbDispRepMassElemModel
  3
AecBase60
 90
      129
280
     0
281
     0
  0
CLASS
  1
AEC_DISP_PROPS_MASS_ELEM_MODEL
  2
AecDbDispPropsMassElem
  3
AecBase60
 90
      129
280
     0
281
     0
  0
CLASS
  1
AEC_DISP_REP_MASS_ELEM_SCHEM
  2
AecDbDispRepMassElemSchem
  3
AecBase60
 90
      129
280
     0
281
     0
  0
CLASS
  1
AEC_DISPREPAECDBDISPREPMASSELEMPLAN50
  2
AecDbDispRepMassElemPlan50
  3
AecArchDACHBase60
 90
      129
280
     0
281
     0
  0
CLASS
  1
AEC_DISPROPSMASSELEMPLANCOMMON
  2
AecDbDispPropsMassElemPlanCommon
  3
AecArchDACHBase60
 90
      129
280
     0
281
     0
  0
CLASS
  1
AEC_DISPREPAECDBDISPREPMASSELEMPLAN100
  2
AecDbDispRepMassElemPlan100
  3
AecArchDACHBase60
 90
      129
280
     0
281
     0
  0
CLASS
  1
AEC_DISP_REP_MASS_ELEM_RCP
  2
AecDbDispRepMassElemRcp
  3
AecArchBase60
 90
      129
280
     0
281
     0
  0
CLASS
  1
AEC_DISP_REP_MASS_GROUP_MODEL
  2
AecDbDispRepMassGroupModel
  3
AecBase60
 90
      129
280
     0
281
     0
  0
CLASS
  1
AEC_DISP_PROPS_MASS_GROUP
  2
AecDbDispPropsMassGroup
  3
AecBase60
 90
      129
280
     0
281
     0
  0
CLASS
  1
AEC_DISP_REP_MASS_GROUP_PLAN
  2
AecDbDispRepMassGroupPlan
  3
AecBase60
 90
      129
280
     0
281
     0
  0
CLASS
  1
AEC_DISPREPAECDBDISPREPMASSGROUPPLAN50
  2
AecDbDispRepMassGroupPlan50
  3
AecArchDACHBase60
 90
      129
280
     0
281
     0
  0
CLASS
  1
AEC_DISPROPSMASSGROUPPLANCOMMON
  2
AecDbDispPropsMassGroupPlanCommon
  3
AecArchDACHBase60
 90
      129
280
     0
281
     0
  0
CLASS
  1
AEC_DISPREPAECDBDISPREPMASSGROUPPLAN100
  2
AecDbDispRepMassGroupPlan100
  3
AecArchDACHBase60
 90
      129
280
     0
281
     0
  0
CLASS
  1
AEC_DISP_REP_MASS_GROUP_RCP
  2
AecDbDispRepMassGroupRcp
  3
AecArchBase60
 90
      129
280
     0
281
     0
  0
CLASS
  1
AEC_DISP_REP_MVBLOCK_REF
  2
AecDbDispRepMvBlockRef
  3
AecBase60
 90
      129
280
     0
281
     0
  0
CLASS
  1
AEC_DISP_REP_MVBLOCK_REF_MODEL
  2
AecDbDispRepMvBlockRefModel
  3
AecBase60
 90
      129
280
     0
281
     0
  0
CLASS
  1
AEC_AECDBDISPREPMVBLOCKREFPLAN100
  2
AecDbDispRepMvBlockRefPlan100
  3
AecBase60
 90
      129
280
     0
281
     0
  0
CLASS
  1
AEC_AECDBDISPREPMVBLOCKREFPLAN50
  2
AecDbDispRepMvBlockRefPlan50
  3
AecBase60
 90
      129
280
     0
281
     0
  0
CLASS
  1
AEC_DISP_REP_POLYGON_MODEL
  2
AecDbDispRepPolygonModel
  3
AecBase60
 90
      129
280
     0
281
     0
  0
CLASS
  1
AEC_DISP_PROPS_POLYGON_MODEL
  2
AecDbDispPropsPolygonModel
  3
AecBase60
 90
      129
280
     0
281
     0
  0
CLASS
  1
AEC_DISP_REP_POLYGON_TRUECOLOUR
  2
AecDbDispRepPolygonTrueColour
  3
AecBase60
 90
      129
280
     0
281
     0
  0
CLASS
  1
AEC_DISP_PROPS_POLYGON_TRUECOLOUR
  2
AecDbDispPropsPolygonTrueColour
  3
AecBase60
 90
      129
280
     0
281
     0
  0
CLASS
  1
AEC_DISP_REP_SLICE
  2
AecDbDispRepSlice
  3
AecBase60
 90
      129
280
     0
281
     0
  0
CLASS
  1
AEC_DISP_PROPS_SLICE
  2
AecDbDispPropsSlice
  3
AecBase60
 90
      129
280
     0
281
     0
  0
CLASS
  1
AEC_DISP_REP_ANCHOR
  2
AecDbDispRepAnchor
  3
AecBase60
 90
      129
280
     0
281
     0
  0
CLASS
  1
AEC_DISP_REP_ANCHOR_ENT_TO_NODE
  2
AecDbDispRepAnchorEntToNode
  3
AecBase60
 90
      129
280
     0
281
     0
  0
CLASS
  1
AEC_DISP_PROPS_ENT
  2
AecDbDispPropsEnt
  3
AecBase60
 90
      129
280
     0
281
     0
  0
CLASS
  1
AEC_DISP_REP_MATERIAL
  2
AecDbDispRepMaterial
  3
AecBase60
 90
      129
280
     0
281
     0
  0
CLASS
  1
AEC_DISP_PROPS_MATERIAL
  2
AecDbDispPropsMaterial
  3
AecBase60
 90
      129
280
     0
281
     0
  0
CLASS
  1
AEC_DISP_REP_EDITINPLACEPROFILE
  2
AecDbDispRepEditInPlaceProfile
  3
AecBase60
 90
      129
280
     0
281
     0
  0
CLASS
  1
AEC_DISP_PROPS_EDITINPLACEPROFILE_MODEL
  2
AecDbDispPropsEditInPlaceProfile
  3
AecBase60
 90
      129
280
     0
281
     0
  0
CLASS
  1
SUN
  2
AcDbSun
  3
SCENEOE
 90
     1153
280
     0
281
     0
  0
ENDSEC
  0
SECTION
  2
TABLES
  0
TABLE
  2
VPORT
  5
8
330
0
100
AcDbSymbolTable
 70
     1
  0
VPORT
  5
3523F0
330
8
100
AcDbSymbolTableRecord
100
AcDbViewportTableRecord
  2
*Active
 70
     0
 10
0.0
 20
0.0
 11
1.0
 21
1.0
 12
14771.22577530947
 22
-3348.553806907231
 13
0.0
 23
0.0
 14
1.0
 24
1.0
 15
20.0
 25
20.0
 16
0.0
 26
0.0
 36
1.0
 17
0.0
 27
0.0
 37
0.0
 40
121.3735942990099
 41
1.731829573934837
 42
50.0
 43
0.0
 44
0.0
 50
0.0
 51
0.0
 71
    16
 72
   100
 73
     1
 74
     0
 75
     0
 76
     0
 77
     0
 78
     0
281
     0
 65
     1
110
0.0
120
0.0
130
0.0
111
1.0
121
0.0
131
0.0
112
0.0
122
1.0
132
0.0
 79
     0
146
0.0
  0
ENDTAB
  0
TABLE
  2
LTYPE
  5
5
330
0
100
AcDbSymbolTable
 70
     4
  0
LTYPE
  5
12
330
5
100
AcDbSymbolTableRecord
100
AcDbLinetypeTableRecord
  2
BYBLOCK
 70
     0
  3

 72
    65
 73
     0
 40
0.0
  0
LTYPE
  5
13
330
5
100
AcDbSymbolTableRecord
100
AcDbLinetypeTableRecord
  2
BYLAYER
 70
     0
  3

 72
    65
 73
     0
 40
0.0
  0
LTYPE
  5
14
330
5
100
AcDbSymbolTableRecord
100
AcDbLinetypeTableRecord
  2
CONTINUOUS
 70
     0
  3
Solid line
 72
    65
 73
     0
 40
0.0
  0
LTYPE
  5
25
330
5
100
AcDbSymbolTableRecord
100
AcDbLinetypeTableRecord
  2
CENTER
 70
     0
  3
____ _ ____ _ ____ _ ____ _ ____ _ ____ _ ____
 72
    65
 73
     4
 40
2.0
 49
1.25
 74
     0
 49
-0.25
 74
     0
 49
0.25
 74
     0
 49
-0.25
 74
     0
  0
LTYPE
  5
26
330
5
100
AcDbSymbolTableRecord
100
AcDbLinetypeTableRecord
  2
PHANTOM
 70
     0
  3
_____ _ _ _____ _ _ _____ _ _ _____ _ _ ____
 72
    65
 73
     6
 40
2.5
 49
1.25
 74
     0
 49
-0.25
 74
     0
 49
0.25
 74
     0
 49
-0.25
 74
     0
 49
0.25
 74
     0
 49
-0.25
 74
     0
  0
LTYPE
  5
27
330
5
100
AcDbSymbolTableRecord
100
AcDbLinetypeTableRecord
  2
HIDDEN
 70
     0
  3
_ _ _ _ _ _ _ _ _ _ _ _ _ _ _ _ _ _ _ _ _ _ _
 72
    65
 73
     2
 40
0.375
 49
0.25
 74
     0
 49
-0.125
 74
     0
  0
ENDTAB
  0
TABLE
  2
LAYER
  5
2
102
{ACAD_XDICTIONARY
360
559E
102
}
330
0
100
AcDbSymbolTable
 70
    19
  0
LAYER
  5
F
102
{ACAD_XDICTIONARY
360
CD7F
102
}
330
2
100
AcDbSymbolTableRecord
100
AcDbLayerTableRecord
  2
0
 70
     0
 62
     7
  6
CONTINUOUS
370
    -3
390
352
  0
LAYER
  5
34
102
{ACAD_XDICTIONARY
360
CD85
102
}
330
2
100
AcDbSymbolTableRecord
100
AcDbLayerTableRecord
  2
寸法線
 70
     0
 62
     7
  6
CONTINUOUS
370
    -3
390
352
  0
LAYER
  5
2F4
102
{ACAD_XDICTIONARY
360
CD8D
102
}
330
2
100
AcDbSymbolTableRecord
100
AcDbLayerTableRecord
  2
文字
 70
     0
 62
     7
  6
CONTINUOUS
370
    -3
390
352
  0
LAYER
  5
306B15
330
2
100
AcDbSymbolTableRecord
100
AcDbLayerTableRecord
  2
C-SUNPO
 70
     0
 62
     7
  6
CONTINUOUS
370
    -3
390
352
  0
LAYER
  5
31D3CB
330
2
100
AcDbSymbolTableRecord
100
AcDbLayerTableRecord
  2
姿図
 70
     0
 62
     8
  6
CONTINUOUS
370
    -3
390
352
  0
ENDTAB
  0
TABLE
  2
STYLE
  5
3
330
0
100
AcDbSymbolTable
 70
     1
  0
STYLE
  5
10
330
3
100
AcDbSymbolTableRecord
100
AcDbTextStyleTableRecord
  2
STANDARD
 70
     0
 40
0.0
 41
1.0
 50
0.0
 71
     0
 42
3.5
  3
MONOTXT
  4
BIGFONT
  0
ENDTAB
  0
TABLE
  2
VIEW
  5
6
330
0
100
AcDbSymbolTable
 70
     0
  0
ENDTAB
  0
TABLE
  2
UCS
  5
7
330
0
100
AcDbSymbolTable
 70
     0
  0
ENDTAB
  0
TABLE
  2
APPID
  5
9
330
0
100
AcDbSymbolTable
 70
    21
  0
APPID
  5
11
330
9
100
AcDbSymbolTableRecord
100
AcDbRegAppTableRecord
  2
ACAD
 70
     0
  0
APPID
  5
C058
330
9
100
AcDbSymbolTableRecord
100
AcDbRegAppTableRecord
  2
AcAecLayerStandard
 70
     0
  0
APPID
  5
CD77
330
9
100
AcDbSymbolTableRecord
100
AcDbRegAppTableRecord
  2
ACAD_MLEADERVER
 70
     0
  0
APPID
  5
D036
330
9
100
AcDbSymbolTableRecord
100
AcDbRegAppTableRecord
  2
ACAD_PSEXT
 70
     0
  0
APPID
  5
D28E
330
9
100
AcDbSymbolTableRecord
100
AcDbRegAppTableRecord
  2
ACAD_DSTYLE_DIMJAG
 70
     0
  0
APPID
  5
D28F
330
9
100
AcDbSymbolTableRecord
100
AcDbRegAppTableRecord
  2
ACAD_DSTYLE_DIMTALN
 70
     0
  0
APPID
  5
10E35
330
9
100
AcDbSymbolTableRecord
100
AcDbRegAppTableRecord
  2
ACAD_EXEMPT_FROM_CAD_STANDARDS
 70
     0
  0
APPID
  5
36B90
330
9
100
AcDbSymbolTableRecord
100
AcDbRegAppTableRecord
  2
ACAD_DSTYLE_DIMRADIAL_EXTENSION
 70
     0
  0
APPID
  5
4CBB9
330
9
100
AcDbSymbolTableRecord
100
AcDbRegAppTableRecord
  2
WACOM_STRING
 70
     0
  0
APPID
  5
4CBBA
330
9
100
AcDbSymbolTableRecord
100
AcDbRegAppTableRecord
  2
WACOM_DRSYM_ARROW
 70
     0
  0
APPID
  5
83B4C
330
9
100
AcDbSymbolTableRecord
100
AcDbRegAppTableRecord
  2
ACAD_DSTYLE_DIMRADIAL_EXTE
 70
     0
  0
APPID
  5
83B4D
330
9
100
AcDbSymbolTableRecord
100
AcDbRegAppTableRecord
  2
ACAD_DSTYLE_DIMBREAK
 70
     0
  0
APPID
  5
83B4E
330
9
100
AcDbSymbolTableRecord
100
AcDbRegAppTableRecord
  2
ACAD_DSTYLE_DIMARC_LENGTH_
 70
     0
  0
APPID
  5
8B472
330
9
100
AcDbSymbolTableRecord
100
AcDbRegAppTableRecord
  2
LAYER_SCALE
 70
     0
  0
APPID
  5
8B473
330
9
100
AcDbSymbolTableRecord
100
AcDbRegAppTableRecord
  2
KCAD_DIM_EXT
 70
     0
  0
APPID
  5
16ECBA
330
9
100
AcDbSymbolTableRecord
100
AcDbRegAppTableRecord
  2
GENIUS_GENDTOL_13
 70
     0
  0
APPID
  5
23CCFB
330
9
100
AcDbSymbolTableRecord
100
AcDbRegAppTableRecord
  2
AcadAnnotative
 70
     0
  0
APPID
  5
31A28D
330
9
100
AcDbSymbolTableRecord
100
AcDbRegAppTableRecord
  2
ACAD_DSTYLE_DIMFLIPARROW_WHICH_SYMBOL
 70
     0
  0
APPID
  5
353775
330
9
100
AcDbSymbolTableRecord
100
AcDbRegAppTableRecord
  2
AECBASE
 70
     0
  0
APPID
  5
353776
330
9
100
AcDbSymbolTableRecord
100
AcDbRegAppTableRecord
  2
AEC_2DSECTION_XDATA
 70
     0
  0
APPID
  5
353777
330
9
100
AcDbSymbolTableRecord
100
AcDbRegAppTableRecord
  2
AEC_MASSGROUP_XDADA
 70
     0
  0
ENDTAB
  0
TABLE
  2
DIMSTYLE
  5
A
330
0
100
AcDbSymbolTable
 70
     3
100
AcDbDimStyleTable
  0
DIMSTYLE
105
1CC
330
A
100
AcDbSymbolTableRecord
100
AcDbDimStyleTableRecord
  2
STANDARD
 70
     0
 41
2.5
 42
1.5
 43
7.0
 44
1.0
 45
0.0
 73
     0
 74
     0
 77
     3
 78
     8
 79
     2
140
3.0
141
0.0
146
0.6
147
1.0
171
     0
172
     1
176
     8
177
     8
271
     3
178
   256
179
     3
271
     3
272
     3
274
     0
289
     0
340
10
341
265D
342
265D
1001
ACAD_DSTYLE_DIMJAG
1070
   388
1040
1.5
1001
ACAD_DSTYLE_DIMTALN
1070
   392
1070
     0
  0
ENDTAB
  0
TABLE
  2
BLOCK_RECORD
  5
1
330
0
100
AcDbSymbolTable
 70
    12
  0
BLOCK_RECORD
  5
18
102
{ACAD_XDICTIONARY
360
D25F
102
}
330
1
100
AcDbSymbolTableRecord
100
AcDbBlockTableRecord
  2
*MODEL_SPACE
340
355
  0
BLOCK_RECORD
  5
15
330
1
100
AcDbSymbolTableRecord
100
AcDbBlockTableRecord
  2
*PAPER_SPACE
340
356
  0
BLOCK_RECORD
  5
33F
330
1
100
AcDbSymbolTableRecord
100
AcDbBlockTableRecord
  2
_OPEN
340
0
102
{BLKREFS
331
33B380
331
33B381
331
33B38B
331
33B38C
331
33B396
331
33B397
331
33B39F
331
33B3A0
331
35363B
331
35363C
331
353646
331
353647
331
353651
331
353652
331
35365A
331
35365B
102
}
  0
BLOCK_RECORD
  5
416
330
1
100
AcDbSymbolTableRecord
100
AcDbBlockTableRecord
  2
SUN
340
0
  0
BLOCK_RECORD
  5
265D
330
1
100
AcDbSymbolTableRecord
100
AcDbBlockTableRecord
  2
_OPEN30
340
0
  0
ENDTAB
  0
ENDSEC
  0
SECTION
  2
BLOCKS
  0
BLOCK
  5
39
330
18
100
AcDbEntity
  8
0
100
AcDbBlockBegin
  2
*MODEL_SPACE
 70
     0
 10
0.0
 20
0.0
 30
0.0
  3
*MODEL_SPACE
  1
*MODEL_SPACE
  0
ENDBLK
  5
3A
330
18
100
AcDbEntity
  8
0
100
AcDbBlockEnd
  0
BLOCK
  5
37
330
15
100
AcDbEntity
 67
     1
  8
0
100
AcDbBlockBegin
  2
*PAPER_SPACE
 70
     0
 10
0.0
 20
0.0
 30
0.0
  3
*PAPER_SPACE
  1
*PAPER_SPACE
  0
ENDBLK
  5
38
330
15
100
AcDbEntity
 67
     1
  8
0
100
AcDbBlockEnd
  0
BLOCK
  5
340
330
33F
100
AcDbEntity
  8
0
100
AcDbBlockBegin
  2
_OPEN
 70
     0
 10
0.0
 20
0.0
 30
0.0
  3
_OPEN
  1
_OPEN
  0
LINE
  5
341
330
33F
100
AcDbEntity
  8
0
  6
ByBlock
 62
     0
100
AcDbLine
 10
-1.0
 20
0.1666666666666667
 30
0.0
 11
0.0
 21
0.0
 31
0.0
  0
LINE
  5
342
330
33F
100
AcDbEntity
  8
0
  6
ByBlock
 62
     0
100
AcDbLine
 10
0.0
 20
0.0
 30
0.0
 11
-1.0
 21
-0.1666666666666667
 31
0.0
  0
LINE
  5
343
330
33F
100
AcDbEntity
  8
0
  6
ByBlock
 62
     0
100
AcDbLine
 10
0.0
 20
0.0
 30
0.0
 11
-1.0
 21
0.0
 31
0.0
  0
ENDBLK
  5
344
330
33F
100
AcDbEntity
  8
0
100
AcDbBlockEnd
  0
BLOCK
  5
41A
330
416
100
AcDbEntity
  8
0
100
AcDbBlockBegin
  2
SUN
 70
     0
 10
0.0
 20
0.0
 30
0.0
  3
SUN
  1
SUN
  0
LINE
  5
417
330
416
100
AcDbEntity
  8
0
100
AcDbLine
 10
-0.0000000000000568
 20
0.0
 30
0.0
 11
-1.500000000000057
 21
0.0
 31
0.0
  0
LINE
  5
418
330
416
100
AcDbEntity
  8
0
100
AcDbLine
 10
-0.0000000000000568
 20
0.0000000000000284
 30
0.0
 11
-1.500000000000057
 21
0.401923788646684
 31
0.0
  0
LINE
  5
419
330
416
100
AcDbEntity
  8
0
100
AcDbLine
 10
-0.0000000000000568
 20
0.0000000000000284
 30
0.0
 11
-1.500000000000057
 21
-0.4019237886466556
 31
0.0
  0
ENDBLK
  5
41B
330
416
100
AcDbEntity
  8
0
100
AcDbBlockEnd
  0
BLOCK
  5
265E
330
265D
100
AcDbEntity
  8
0
100
AcDbBlockBegin
  2
_OPEN30
 70
     0
 10
0.0
 20
0.0
 30
0.0
  3
_OPEN30
  1
_OPEN30
  0
LINE
  5
265F
330
265D
100
AcDbEntity
  8
0
  6
ByBlock
 62
     0
100
AcDbLine
 10
-1.0
 20
0.26794919
 30
0.0
 11
0.0
 21
0.0
 31
0.0
  0
LINE
  5
2660
330
265D
100
AcDbEntity
  8
0
  6
ByBlock
 62
     0
100
AcDbLine
 10
0.0
 20
0.0
 30
0.0
 11
-1.0
 21
-0.26794919
 31
0.0
  0
LINE
  5
2661
330
265D
100
AcDbEntity
  8
0
  6
ByBlock
 62
     0
100
AcDbLine
 10
0.0
 20
0.0
 30
0.0
 11
-1.0
 21
0.0
 31
0.0
  0
ENDBLK
  5
2662
330
265D
100
AcDbEntity
  8
0
100
AcDbBlockEnd
  0
ENDSEC
  0
SECTION
  2
ENTITIES
  0
MTEXT
  5
8182F
330
18
100
AcDbEntity
  8
0
100
AcDbMText
 10
5598.734167156057
 20
-2635.335630549191
 30
0.0
 40
3.0
 41
0.0
 71
     7
 72
     1
  1
\A1;
 73
     1
 44
1.0
  0
MTEXT
  5
3073B9
330
18
100
AcDbEntity
  8
C-SUNPO
 62
     7
100
AcDbMText
 10
8897.245354628265
 20
-2466.345110988794
 30
0.0
 40
2.0
 41
0.0
 71
     5
 72
     1
  1
\A1;\P\P 
 11
0.999998667560571
 21
0.001632445123950444
 31
0.0
 73
     1
 44
1.0
  0
TEXT
  5
352B91
330
18
100
AcDbEntity
  8
文字
100
AcDbText
 10
14714.35077530947
 20
-3408.050666857726
 30
0.0
 40
9.75
  1
SX-B9351D/NC
100
AcDbText
  0
SPLINE
  5
353517
330
18
100
AcDbEntity
  8
姿図
100
AcDbSpline
210
0.0
220
0.0
230
1.0
 70
     8
 71
     3
 72
     8
 73
     4
 74
     0
 42
0.000000001
 43
0.0000000001
 40
0.0
 40
0.0
 40
0.0
 40
0.0
 40
1.0
 40
1.0
 40
1.0
 40
1.0
 10
14777.03258936477
 20
-3304.743844591057
 30
0.0
 10
14775.92133863196
 20
-3305.317039956027
 30
0.0
 10
14775.44860231761
 20
-3305.693244631196
 30
0.0
 10
14774.49093404286
 20
-3306.629415495945
 30
0.0
  0
SPLINE
  5
353518
330
18
100
AcDbEntity
  8
姿図
100
AcDbSpline
210
0.0
220
0.0
230
1.0
 70
     8
 71
     3
 72
     8
 73
     4
 74
     0
 42
0.000000001
 43
0.0000000001
 40
0.0
 40
0.0
 40
0.0
 40
0.0
 40
1.0
 40
1.0
 40
1.0
 40
1.0
 10
14782.53489279792
 20
-3303.033146848364
 30
0.0
 10
14781.27832784168
 20
-3303.22021565662
 30
0.0
 10
14780.12614934751
 20
-3303.459581048844
 30
0.0
 10
14778.73625910804
 20
-3303.98812794687
 30
0.0
  0
SPLINE
  5
353519
330
18
100
AcDbEntity
  8
姿図
100
AcDbSpline
210
0.0
220
0.0
230
1.0
 70
     8
 71
     3
 72
     8
 73
     4
 74
     0
 42
0.000000001
 43
0.0000000001
 40
0.0
 40
0.0
 40
0.0
 40
0.0
 40
1.0
 40
1.0
 40
1.0
 40
1.0
 10
14786.47656694672
 20
-3302.748306165735
 30
0.0
 10
14786.47656694672
 20
-3302.748306165735
 30
0.0
 10
14785.53068090629
 20
-3302.710065580622
 30
0.0
 10
14783.96943150434
 20
-3302.866541920788
 30
0.0
  0
SPLINE
  5
35351A
330
18
100
AcDbEntity
  8
姿図
100
AcDbSpline
210
0.0
220
0.0
230
1.0
 70
     8
 71
     3
 72
    11
 73
     7
 74
     0
 42
0.000000001
 43
0.0000000001
 40
0.0
 40
0.0
 40
0.0
 40
0.0
 40
1.0
 40
1.0
 40
1.0
 40
2.0
 40
2.0
 40
2.0
 40
2.0
 10
14786.30500107837
 20
-3294.838912929096
 30
0.0
 10
14786.30500107837
 20
-3294.838912929096
 30
0.0
 10
14784.98539083316
 20
-3294.893689983448
 30
0.0
 10
14784.69124838659
 20
-3295.081585615168
 30
0.0
 10
14784.69124838659
 20
-3295.081585615168
 30
0.0
 10
14784.85847343176
 20
-3302.78509980979
 30
0.0
 10
14784.85847343176
 20
-3302.78509980979
 30
0.0
  0
POLYLINE
  5
35351B
330
18
100
AcDbEntity
  8
姿図
100
AcDb2dPolyline
 66
     1
 10
0.0
 20
0.0
 30
0.0
  0
VERTEX
  5
35351C
330
35351B
100
AcDbEntity
  8
姿図
100
AcDbVertex
100
AcDb2dVertex
 10
14783.74040140539
 20
-3304.057581117671
 30
0.0
  0
VERTEX
  5
35351D
330
35351B
100
AcDbEntity
  8
姿図
100
AcDbVertex
100
AcDb2dVertex
 10
14784.00932573637
 20
-3302.665417113678
 30
0.0
  0
VERTEX
  5
35351E
330
35351B
100
AcDbEntity
  8
姿図
100
AcDbVertex
100
AcDb2dVertex
 10
14784.54407381036
 20
-3302.814452042689
 30
0.0
  0
SEQEND
  5
35351F
330
35351B
100
AcDbEntity
  8
姿図
  0
SPLINE
  5
353520
330
18
100
AcDbEntity
  8
姿図
100
AcDbSpline
210
0.0
220
0.0
230
1.0
 70
     8
 71
     3
 72
    26
 73
    22
 74
     0
 42
0.000000001
 43
0.0000000001
 40
0.0
 40
0.0
 40
0.0
 40
0.0
 40
1.0
 40
1.0
 40
1.0
 40
2.0
 40
2.0
 40
2.0
 40
3.0
 40
3.0
 40
3.0
 40
4.0
 40
4.0
 40
4.0
 40
5.0
 40
5.0
 40
5.0
 40
6.0
 40
6.0
 40
6.0
 40
7.0
 40
7.0
 40
7.0
 40
7.0
 10
14785.84322017489
 20
-3294.868058456128
 30
0.0
 10
14785.84322017489
 20
-3294.868058456128
 30
0.0
 10
14783.00370170083
 20
-3289.409369960594
 30
0.0
 10
14783.00370170083
 20
-3289.409369960594
 30
0.0
 10
14782.52042338734
 20
-3288.943041528076
 30
0.0
 10
14782.3984669267
 20
-3289.440995958012
 30
0.0
 10
14782.3984669267
 20
-3289.440995958012
 30
0.0
 10
14782.3984669267
 20
-3289.440995958012
 30
0.0
 10
14782.49603209521
 20
-3302.970514971124
 30
0.0
 10
14782.49603209521
 20
-3302.970514971124
 30
0.0
 10
14782.49603209521
 20
-3302.970514971124
 30
0.0
 10
14783.23128485871
 20
-3304.165894991182
 30
0.0
 10
14783.23128485871
 20
-3304.165894991182
 30
0.0
 10
14783.23128485871
 20
-3304.165894991182
 30
0.0
 10
14783.79393822455
 20
-3304.238035338233
 30
0.0
 10
14783.74040140539
 20
-3304.057581117671
 30
0.0
 10
14783.6858310569
 20
-3303.876920191244
 30
0.0
 10
14783.14178121896
 20
-3302.888246036664
 30
0.0
 10
14783.14178121896
 20
-3302.888246036664
 30
0.0
 10
14783.14178121896
 20
-3302.888246036664
 30
0.0
 10
14783.00370170083
 20
-3289.409369960594
 30
0.0
 10
14783.00370170083
 20
-3289.409369960594
 30
0.0
  0
SPLINE
  5
353521
330
18
100
AcDbEntity
  8
姿図
100
AcDbSpline
210
0.0
220
0.0
230
1.0
 70
     8
 71
     3
 72
     8
 73
     4
 74
     0
 42
0.000000001
 43
0.0000000001
 40
0.0
 40
0.0
 40
0.0
 40
0.0
 40
1.0
 40
1.0
 40
1.0
 40
1.0
 10
14782.49603209521
 20
-3302.970514971124
 30
0.0
 10
14782.49603209521
 20
-3302.970514971124
 30
0.0
 10
14782.58966985227
 20
-3302.69600958177
 30
0.0
 10
14783.14178121896
 20
-3302.888246036664
 30
0.0
  0
SPLINE
  5
353522
330
18
100
AcDbEntity
  8
姿図
100
AcDbSpline
210
0.0
220
0.0
230
1.0
 70
     8
 71
     3
 72
    11
 73
     7
 74
     0
 42
0.000000001
 43
0.0000000001
 40
0.0
 40
0.0
 40
0.0
 40
0.0
 40
1.0
 40
1.0
 40
1.0
 40
2.0
 40
2.0
 40
2.0
 40
2.0
 10
14782.44249527605
 20
-3295.448075114659
 30
0.0
 10
14782.44249527605
 20
-3295.448075114659
 30
0.0
 10
14781.5650288771
 20
-3295.626668982432
 30
0.0
 10
14781.4201280654
 20
-3295.856939316574
 30
0.0
 10
14781.4201280654
 20
-3295.856939316574
 30
0.0
 10
14781.57970499355
 20
-3303.201198716997
 30
0.0
 10
14781.57970499355
 20
-3303.201198716997
 30
0.0
  0
SPLINE
  5
353523
330
18
100
AcDbEntity
  8
姿図
100
AcDbSpline
210
0.0
220
0.0
230
1.0
 70
     8
 71
     3
 72
    17
 73
    13
 74
     0
 42
0.000000001
 43
0.0000000001
 40
0.0
 40
0.0
 40
0.0
 40
0.0
 40
1.0
 40
1.0
 40
1.0
 40
2.0
 40
2.0
 40
2.0
 40
3.0
 40
3.0
 40
3.0
 40
4.0
 40
4.0
 40
4.0
 40
4.0
 10
14782.40818210238
 20
-3293.903775593675
 30
0.0
 10
14782.40818210238
 20
-3293.903775593675
 30
0.0
 10
14777.54046567625
 20
-3290.817657022093
 30
0.0
 10
14777.54046567625
 20
-3290.817657022093
 30
0.0
 10
14777.54046567625
 20
-3290.817657022093
 30
0.0
 10
14776.87404596595
 20
-3290.388949057092
 30
0.0
 10
14776.83187796939
 20
-3291.163889346769
 30
0.0
 10
14776.83187796939
 20
-3291.163889346769
 30
0.0
 10
14776.74568162349
 20
-3303.095365313872
 30
0.0
 10
14776.74568162349
 20
-3303.095365313872
 30
0.0
 10
14776.74568162349
 20
-3303.095365313872
 30
0.0
 10
14777.03258936477
 20
-3304.743844591057
 30
0.0
 10
14777.03258936477
 20
-3304.743844591057
 30
0.0
  0
SPLINE
  5
353524
330
18
100
AcDbEntity
  8
姿図
100
AcDbSpline
210
0.0
220
0.0
230
1.0
 70
     8
 71
     3
 72
    17
 73
    13
 74
     0
 42
0.000000001
 43
0.0000000001
 40
0.0
 40
0.0
 40
0.0
 40
0.0
 40
1.0
 40
1.0
 40
1.0
 40
2.0
 40
2.0
 40
2.0
 40
3.0
 40
3.0
 40
3.0
 40
4.0
 40
4.0
 40
4.0
 40
4.0
 10
14779.83118007747
 20
-3303.627219505746
 30
0.0
 10
14779.83118007747
 20
-3303.627219505746
 30
0.0
 10
14778.92022732831
 20
-3303.468882812791
 30
0.0
 10
14778.92022732831
 20
-3303.468882812791
 30
0.0
 10
14778.92022732831
 20
-3303.468882812791
 30
0.0
 10
14778.38113843115
 20
-3304.992511747227
 30
0.0
 10
14778.38113843115
 20
-3304.992511747227
 30
0.0
 10
14778.38113843115
 20
-3304.992511747227
 30
0.0
 10
14778.08761610217
 20
-3305.248413608688
 30
0.0
 10
14777.83688188735
 20
-3305.162837380381
 30
0.0
 10
14777.58573426079
 20
-3305.077261152072
 30
0.0
 10
14777.06256171527
 20
-3304.91148304796
 30
0.0
 10
14777.03279607064
 20
-3304.743844591057
 30
0.0
  0
SPLINE
  5
353525
330
18
100
AcDbEntity
  8
姿図
100
AcDbSpline
210
0.0
220
0.0
230
1.0
 70
     8
 71
     3
 72
    11
 73
     7
 74
     0
 42
0.000000001
 43
0.0000000001
 40
0.0
 40
0.0
 40
0.0
 40
0.0
 40
1.0
 40
1.0
 40
1.0
 40
2.0
 40
2.0
 40
2.0
 40
2.0
 10
14777.03258936477
 20
-3304.743844591057
 30
0.0
 10
14777.03258936477
 20
-3304.743844591057
 30
0.0
 10
14777.07992500797
 20
-3304.406500618597
 30
0.0
 10
14777.60392437695
 20
-3304.622508248022
 30
0.0
 10
14778.12833715767
 20
-3304.838515877445
 30
0.0
 10
14778.48077065831
 20
-3304.954271162113
 30
0.0
 10
14778.30713773131
 20
-3305.047495507443
 30
0.0
  0
SPLINE
  5
353526
330
18
100
AcDbEntity
  8
姿図
100
AcDbSpline
210
0.0
220
0.0
230
1.0
 70
     8
 71
     3
 72
    14
 73
    10
 74
     0
 42
0.000000001
 43
0.0000000001
 40
0.0
 40
0.0
 40
0.0
 40
0.0
 40
1.0
 40
1.0
 40
1.0
 40
2.0
 40
2.0
 40
2.0
 40
3.0
 40
3.0
 40
3.0
 40
3.0
 10
14777.42574392091
 20
-3290.758952556298
 30
0.0
 10
14777.42574392091
 20
-3290.758952556298
 30
0.0
 10
14777.28663087344
 20
-3290.969379127353
 30
0.0
 10
14777.32363122336
 20
-3291.695743538643
 30
0.0
 10
14777.36063157328
 20
-3292.421901244066
 30
0.0
 10
14777.38357592435
 20
-3302.929793915624
 30
0.0
 10
14777.38357592435
 20
-3302.929793915624
 30
0.0
 10
14777.38357592435
 20
-3302.929793915624
 30
0.0
 10
14777.41871592148
 20
-3304.563597076361
 30
0.0
 10
14777.41871592148
 20
-3304.563597076361
 30
0.0
  0
SPLINE
  5
353527
330
18
100
AcDbEntity
  8
姿図
100
AcDbSpline
210
0.0
220
0.0
230
1.0
 70
     8
 71
     3
 72
    32
 73
    28
 74
     0
 42
0.000000001
 43
0.0000000001
 40
0.0
 40
0.0
 40
0.0
 40
0.0
 40
1.0
 40
1.0
 40
1.0
 40
2.0
 40
2.0
 40
2.0
 40
3.0
 40
3.0
 40
3.0
 40
4.0
 40
4.0
 40
4.0
 40
5.0
 40
5.0
 40
5.0
 40
6.0
 40
6.0
 40
6.0
 40
7.0
 40
7.0
 40
7.0
 40
8.0
 40
8.0
 40
8.0
 40
9.0
 40
9.0
 40
9.0
 40
9.0
 10
14776.81182750044
 20
-3293.934161355901
 30
0.0
 10
14776.81182750044
 20
-3293.934161355901
 30
0.0
 10
14773.45017001018
 20
-3292.971945552103
 30
0.0
 10
14773.45017001018
 20
-3292.971945552103
 30
0.0
 10
14773.45017001018
 20
-3292.971945552103
 30
0.0
 10
14772.95552287409
 20
-3292.782189567594
 30
0.0
 10
14772.91872923003
 20
-3293.477754804926
 30
0.0
 10
14772.91872923003
 20
-3293.477754804926
 30
0.0
 10
14772.50614432254
 20
-3304.670464008813
 30
0.0
 10
14772.50614432254
 20
-3304.670464008813
 30
0.0
 10
14772.50614432254
 20
-3304.670464008813
 30
0.0
 10
14772.92141640628
 20
-3307.064738048641
 30
0.0
 10
14772.92141640628
 20
-3307.064738048641
 30
0.0
 10
14772.92141640628
 20
-3307.064738048641
 30
0.0
 10
14772.95097534505
 20
-3307.269376855464
 30
0.0
 10
14773.27612367144
 20
-3307.352886025117
 30
0.0
 10
14773.27612367144
 20
-3307.352886025117
 30
0.0
 10
14773.80260351082
 20
-3307.462646839685
 30
0.0
 10
14773.80260351082
 20
-3307.462646839685
 30
0.0
 10
14773.80260351082
 20
-3307.462646839685
 30
0.0
 10
14774.07545525325
 20
-3307.449004252564
 30
0.0
 10
14774.19596477282
 20
-3307.265242738154
 30
0.0
 10
14774.19596477282
 20
-3307.265242738154
 30
0.0
 10
14774.93349130084
 20
-3305.676088044362
 30
0.0
 10
14774.93349130084
 20
-3305.676088044362
 30
0.0
 10
14774.93349130084
 20
-3305.676088044362
 30
0.0
 10
14775.43041220145
 20
-3305.77902756537
 30
0.0
 10
14775.43041220145
 20
-3305.77902756537
 30
0.0
  0
SPLINE
  5
353528
330
18
100
AcDbEntity
  8
姿図
100
AcDbSpline
210
0.0
220
0.0
230
1.0
 70
     8
 71
     3
 72
    14
 73
    10
 74
     0
 42
0.000000001
 43
0.0000000001
 40
0.0
 40
0.0
 40
0.0
 40
0.0
 40
1.0
 40
1.0
 40
1.0
 40
2.0
 40
2.0
 40
2.0
 40
3.0
 40
3.0
 40
3.0
 40
3.0
 10
14773.67589281528
 20
-3293.036231076265
 30
0.0
 10
14773.67589281528
 20
-3293.036231076265
 30
0.0
 10
14773.21121802969
 20
-3292.875620618789
 30
0.0
 10
14773.19964250121
 20
-3293.489950450989
 30
0.0
 10
14773.18786026688
 20
-3294.103660165592
 30
0.0
 10
14773.11241262599
 20
-3304.404846971674
 30
0.0
 10
14773.11241262599
 20
-3304.404846971674
 30
0.0
 10
14773.11241262599
 20
-3304.404846971674
 30
0.0
 10
14773.29245343482
 20
-3306.901647120779
 30
0.0
 10
14773.29245343482
 20
-3306.901647120779
 30
0.0
  0
SPLINE
  5
353529
330
18
100
AcDbEntity
  8
姿図
100
AcDbSpline
210
0.0
220
0.0
230
1.0
 70
     8
 71
     3
 72
    20
 73
    16
 74
     0
 42
0.000000001
 43
0.0000000001
 40
0.0
 40
0.0
 40
0.0
 40
0.0
 40
1.0
 40
1.0
 40
1.0
 40
2.0
 40
2.0
 40
2.0
 40
3.0
 40
3.0
 40
3.0
 40
4.0
 40
4.0
 40
4.0
 40
5.0
 40
5.0
 40
5.0
 40
5.0
 10
14772.83129264893
 20
-3295.861486845614
 30
0.0
 10
14772.83129264893
 20
-3295.861486845614
 30
0.0
 10
14771.45897240803
 20
-3295.891045784378
 30
0.0
 10
14771.45897240803
 20
-3295.891045784378
 30
0.0
 10
14771.45897240803
 20
-3295.891045784378
 30
0.0
 10
14771.11315349509
 20
-3295.900967665921
 30
0.0
 10
14771.10405843701
 20
-3296.353446805451
 30
0.0
 10
14771.09454996719
 20
-3296.805512533251
 30
0.0
 10
14770.92773833375
 20
-3307.525072011059
 30
0.0
 10
14770.92773833375
 20
-3307.525072011059
 30
0.0
 10
14770.92773833375
 20
-3307.525072011059
 30
0.0
 10
14771.24627207245
 20
-3309.527638435807
 30
0.0
 10
14771.27707124641
 20
-3309.552443139665
 30
0.0
 10
14771.28595959862
 20
-3309.560091256687
 30
0.0
 10
14771.36409441577
 20
-3309.579935019773
 30
0.0
 10
14771.47302840688
 20
-3309.604119606034
 30
0.0
  0
SPLINE
  5
35352A
330
18
100
AcDbEntity
  8
姿図
100
AcDbSpline
210
0.0
220
0.0
230
1.0
 70
     8
 71
     3
 72
    11
 73
     7
 74
     0
 42
0.000000001
 43
0.0000000001
 40
0.0
 40
0.0
 40
0.0
 40
0.0
 40
1.0
 40
1.0
 40
1.0
 40
2.0
 40
2.0
 40
2.0
 40
2.0
 10
14771.27707124641
 20
-3309.552443139665
 30
0.0
 10
14771.27707124641
 20
-3309.552443139665
 30
0.0
 10
14771.08380126219
 20
-3309.059656356366
 30
0.0
 10
14771.62847121772
 20
-3309.161975759778
 30
0.0
 10
14771.69916462371
 20
-3309.175204935168
 30
0.0
 10
14771.76055626576
 20
-3309.186780463635
 30
0.0
 10
14771.81409308492
 20
-3309.196702345178
 30
0.0
  0
POLYLINE
  5
35352B
330
18
100
AcDbEntity
  8
姿図
100
AcDb2dPolyline
 66
     1
 10
0.0
 20
0.0
 30
0.0
  0
VERTEX
  5
35352C
330
35352B
100
AcDbEntity
  8
姿図
100
AcDbVertex
100
AcDb2dVertex
 10
14771.45897240803
 20
-3295.891045784378
 30
0.0
  0
VERTEX
  5
35352D
330
35352B
100
AcDbEntity
  8
姿図
100
AcDbVertex
100
AcDb2dVertex
 10
14771.1507739626
 20
-3307.520524482019
 30
0.0
  0
VERTEX
  5
35352E
330
35352B
100
AcDbEntity
  8
姿図
100
AcDbVertex
100
AcDb2dVertex
 10
14771.33060806557
 20
-3309.188020698828
 30
0.0
  0
SEQEND
  5
35352F
330
35352B
100
AcDbEntity
  8
姿図
  0
SPLINE
  5
353530
330
18
100
AcDbEntity
  8
姿図
100
AcDbSpline
210
0.0
220
0.0
230
1.0
 70
     8
 71
     3
 72
    11
 73
     7
 74
     0
 42
0.000000001
 43
0.0000000001
 40
0.0
 40
0.0
 40
0.0
 40
0.0
 40
1.0
 40
1.0
 40
1.0
 40
2.0
 40
2.0
 40
2.0
 40
2.0
 10
14773.01794804546
 20
-3307.221834506403
 30
0.0
 10
14773.01794804546
 20
-3307.221834506403
 30
0.0
 10
14772.94126016937
 20
-3306.815037363143
 30
0.0
 10
14773.41647695411
 20
-3306.918183590016
 30
0.0
 10
14773.89169373883
 20
-3307.021329816891
 30
0.0
 10
14774.36691052357
 20
-3307.124269337898
 30
0.0
 10
14774.19596477282
 20
-3307.265242738154
 30
0.0
  0
SPLINE
  5
353531
330
18
100
AcDbEntity
  8
姿図
100
AcDbSpline
210
0.0
220
0.0
230
1.0
 70
     8
 71
     3
 72
     8
 73
     4
 74
     0
 42
0.000000001
 43
0.0000000001
 40
0.0
 40
0.0
 40
0.0
 40
0.0
 40
1.0
 40
1.0
 40
1.0
 40
1.0
 10
14795.99826593408
 20
-3304.332086507025
 30
0.0
 10
14797.13390795901
 20
-3304.856499287742
 30
0.0
 10
14797.622560625
 20
-3305.21224008223
 30
0.0
 10
14798.6188828966
 20
-3306.10582953869
 30
0.0
  0
SPLINE
  5
353532
330
18
100
AcDbEntity
  8
姿図
100
AcDbSpline
210
0.0
220
0.0
230
1.0
 70
     8
 71
     3
 72
     8
 73
     4
 74
     0
 42
0.000000001
 43
0.0000000001
 40
0.0
 40
0.0
 40
0.0
 40
0.0
 40
1.0
 40
1.0
 40
1.0
 40
1.0
 10
14790.426716036
 20
-3302.861580980017
 30
0.0
 10
14791.6901022858
 20
-3302.994286145654
 30
0.0
 10
14792.85178924978
 20
-3303.183422012566
 30
0.0
 10
14794.26276348753
 20
-3303.650990680276
 30
0.0
  0
SPLINE
  5
353533
330
18
100
AcDbEntity
  8
姿図
100
AcDbSpline
210
0.0
220
0.0
230
1.0
 70
     8
 71
     3
 72
     8
 73
     4
 74
     0
 42
0.000000001
 43
0.0000000001
 40
0.0
 40
0.0
 40
0.0
 40
0.0
 40
1.0
 40
1.0
 40
1.0
 40
1.0
 10
14786.47656694672
 20
-3302.748306165735
 30
0.0
 10
14786.47656694672
 20
-3302.748306165735
 30
0.0
 10
14787.41997251676
 20
-3302.668931113391
 30
0.0
 10
14788.98597615361
 20
-3302.757814635547
 30
0.0
  0
SPLINE
  5
353534
330
18
100
AcDbEntity
  8
姿図
100
AcDbSpline
210
0.0
220
0.0
230
1.0
 70
     8
 71
     3
 72
    11
 73
     7
 74
     0
 42
0.000000001
 43
0.0000000001
 40
0.0
 40
0.0
 40
0.0
 40
0.0
 40
1.0
 40
1.0
 40
1.0
 40
2.0
 40
2.0
 40
2.0
 40
2.0
 10
14786.30500107837
 20
-3294.838912929096
 30
0.0
 10
14786.30500107837
 20
-3294.838912929096
 30
0.0
 10
14787.62543814704
 20
-3294.836225752846
 30
0.0
 10
14787.9280555341
 20
-3295.011512326771
 30
0.0
 10
14787.9280555341
 20
-3295.011512326771
 30
0.0
 10
14788.09466046168
 20
-3302.715233227259
 30
0.0
 10
14788.09466046168
 20
-3302.715233227259
 30
0.0
  0
POLYLINE
  5
353535
330
18
100
AcDbEntity
  8
姿図
100
AcDb2dPolyline
 66
     1
 10
0.0
 20
0.0
 30
0.0
  0
VERTEX
  5
353536
330
353535
100
AcDbEntity
  8
姿図
100
AcDbVertex
100
AcDb2dVertex
 10
14789.26668271894
 20
-3303.937691715694
 30
0.0
  0
VERTEX
  5
353537
330
353535
100
AcDbEntity
  8
姿図
100
AcDbVertex
100
AcDb2dVertex
 10
14788.93802039282
 20
-3302.558550181226
 30
0.0
  0
VERTEX
  5
353538
330
353535
100
AcDbEntity
  8
姿図
100
AcDbVertex
100
AcDb2dVertex
 10
14788.41050702412
 20
-3302.73073616717
 30
0.0
  0
SEQEND
  5
353539
330
353535
100
AcDbEntity
  8
姿図
  0
SPLINE
  5
35353A
330
18
100
AcDbEntity
  8
姿図
100
AcDbSpline
210
0.0
220
0.0
230
1.0
 70
     8
 71
     3
 72
    26
 73
    22
 74
     0
 42
0.000000001
 43
0.0000000001
 40
0.0
 40
0.0
 40
0.0
 40
0.0
 40
1.0
 40
1.0
 40
1.0
 40
2.0
 40
2.0
 40
2.0
 40
3.0
 40
3.0
 40
3.0
 40
4.0
 40
4.0
 40
4.0
 40
5.0
 40
5.0
 40
5.0
 40
6.0
 40
6.0
 40
6.0
 40
7.0
 40
7.0
 40
7.0
 40
7.0
 10
14786.76719539358
 20
-3294.848007987177
 30
0.0
 10
14786.76719539358
 20
-3294.848007987177
 30
0.0
 10
14789.36796859302
 20
-3289.27149714832
 30
0.0
 10
14789.36796859302
 20
-3289.27149714832
 30
0.0
 10
14789.83057631996
 20
-3288.784498129255
 30
0.0
 10
14789.9740301906
 20
-3289.276871500822
 30
0.0
 10
14789.9740301906
 20
-3289.276871500822
 30
0.0
 10
14789.9740301906
 20
-3289.276871500822
 30
0.0
 10
14790.46226944486
 20
-3302.79791557345
 30
0.0
 10
14790.46226944486
 20
-3302.79791557345
 30
0.0
 10
14790.46226944486
 20
-3302.79791557345
 30
0.0
 10
14789.78014008878
 20
-3304.024094767464
 30
0.0
 10
14789.78014008878
 20
-3304.024094767464
 30
0.0
 10
14789.78014008878
 20
-3304.024094767464
 30
0.0
 10
14789.22120742853
 20
-3304.120212994911
 30
0.0
 10
14789.26668271894
 20
-3303.937691715694
 30
0.0
 10
14789.31257142107
 20
-3303.754963730611
 30
0.0
 10
14789.81445326245
 20
-3302.743551930829
 30
0.0
 10
14789.81445326245
 20
-3302.743551930829
 30
0.0
 10
14789.81445326245
 20
-3302.743551930829
 30
0.0
 10
14789.36796859302
 20
-3289.27149714832
 30
0.0
 10
14789.36796859302
 20
-3289.27149714832
 30
0.0
  0
SPLINE
  5
35353B
330
18
100
AcDbEntity
  8
姿図
100
AcDbSpline
210
0.0
220
0.0
230
1.0
 70
     8
 71
     3
 72
     8
 73
     4
 74
     0
 42
0.000000001
 43
0.0000000001
 40
0.0
 40
0.0
 40
0.0
 40
0.0
 40
1.0
 40
1.0
 40
1.0
 40
1.0
 10
14790.46226944486
 20
-3302.79791557345
 30
0.0
 10
14790.46226944486
 20
-3302.79791557345
 30
0.0
 10
14790.35767627693
 20
-3302.527751007271
 30
0.0
 10
14789.81445326245
 20
-3302.743551930829
 30
0.0
  0
SPLINE
  5
35353C
330
18
100
AcDbEntity
  8
姿図
100
AcDbSpline
210
0.0
220
0.0
230
1.0
 70
     8
 71
     3
 72
    11
 73
     7
 74
     0
 42
0.000000001
 43
0.0000000001
 40
0.0
 40
0.0
 40
0.0
 40
0.0
 40
1.0
 40
1.0
 40
1.0
 40
2.0
 40
2.0
 40
2.0
 40
2.0
 10
14790.18983111416
 20
-3295.280229951892
 30
0.0
 10
14790.18983111416
 20
-3295.280229951892
 30
0.0
 10
14791.07535904186
 20
-3295.420376528685
 30
0.0
 10
14791.22956161751
 20
-3295.644238980998
 30
0.0
 10
14791.22956161751
 20
-3295.644238980998
 30
0.0
 10
14791.3883117222
 20
-3302.988498381421
 30
0.0
 10
14791.3883117222
 20
-3302.988498381421
 30
0.0
  0
SPLINE
  5
35353D
330
18
100
AcDbEntity
  8
姿図
100
AcDbSpline
210
0.0
220
0.0
230
1.0
 70
     8
 71
     3
 72
    17
 73
    13
 74
     0
 42
0.000000001
 43
0.0000000001
 40
0.0
 40
0.0
 40
0.0
 40
0.0
 40
1.0
 40
1.0
 40
1.0
 40
2.0
 40
2.0
 40
2.0
 40
3.0
 40
3.0
 40
3.0
 40
4.0
 40
4.0
 40
4.0
 40
4.0
 10
14790.15717158741
 20
-3293.735517019177
 30
0.0
 10
14790.15717158741
 20
-3293.735517019177
 30
0.0
 10
14794.88577496608
 20
-3290.441452346924
 30
0.0
 10
14794.88577496608
 20
-3290.441452346924
 30
0.0
 10
14794.88577496608
 20
-3290.441452346924
 30
0.0
 10
14795.53359114849
 20
-3289.984218972488
 30
0.0
 10
14795.61007231872
 20
-3290.756472085912
 30
0.0
 10
14795.61007231872
 20
-3290.756472085912
 30
0.0
 10
14796.21365344591
 20
-3302.672858524836
 30
0.0
 10
14796.21365344591
 20
-3302.672858524836
 30
0.0
 10
14796.21365344591
 20
-3302.672858524836
 30
0.0
 10
14795.99826593408
 20
-3304.332086507025
 30
0.0
 10
14795.99826593408
 20
-3304.332086507025
 30
0.0
  0
SPLINE
  5
35353E
330
18
100
AcDbEntity
  8
姿図
100
AcDbSpline
210
0.0
220
0.0
230
1.0
 70
     8
 71
     3
 72
    17
 73
    13
 74
     0
 42
0.000000001
 43
0.0000000001
 40
0.0
 40
0.0
 40
0.0
 40
0.0
 40
1.0
 40
1.0
 40
1.0
 40
2.0
 40
2.0
 40
2.0
 40
3.0
 40
3.0
 40
3.0
 40
4.0
 40
4.0
 40
4.0
 40
4.0
 10
14793.15482004857
 20
-3303.338244705808
 30
0.0
 10
14793.15482004857
 20
-3303.338244705808
 30
0.0
 10
14794.05647103378
 20
-3303.140633898412
 30
0.0
 10
14794.05647103378
 20
-3303.140633898412
 30
0.0
 10
14794.05647103378
 20
-3303.140633898412
 30
0.0
 10
14794.66129239617
 20
-3304.639044717259
 30
0.0
 10
14794.66129239617
 20
-3304.639044717259
 30
0.0
 10
14794.66129239617
 20
-3304.639044717259
 30
0.0
 10
14794.96597684189
 20
-3304.882337520927
 30
0.0
 10
14795.21237023353
 20
-3304.785805881749
 30
0.0
 10
14795.45917703692
 20
-3304.68927424257
 30
0.0
 10
14795.97594170061
 20
-3304.501171904986
 30
0.0
 10
14795.99743911062
 20
-3304.332293212891
 30
0.0
  0
SPLINE
  5
35353F
330
18
100
AcDbEntity
  8
姿図
100
AcDbSpline
210
0.0
220
0.0
230
1.0
 70
     8
 71
     3
 72
    11
 73
     7
 74
     0
 42
0.000000001
 43
0.0000000001
 40
0.0
 40
0.0
 40
0.0
 40
0.0
 40
1.0
 40
1.0
 40
1.0
 40
2.0
 40
2.0
 40
2.0
 40
2.0
 10
14795.99826593408
 20
-3304.332086507025
 30
0.0
 10
14795.99826593408
 20
-3304.332086507025
 30
0.0
 10
14795.93666758617
 20
-3303.997016299086
 30
0.0
 10
14795.4215565694
 20
-3304.235968279578
 30
0.0
 10
14794.90768578782
 20
-3304.474300142474
 30
0.0
 10
14794.56041993382
 20
-3304.605351661186
 30
0.0
 10
14794.73818697813
 20
-3304.691341301225
 30
0.0
  0
SPLINE
  5
353540
330
18
100
AcDbEntity
  8
姿図
100
AcDbSpline
210
0.0
220
0.0
230
1.0
 70
     8
 71
     3
 72
    14
 73
    10
 74
     0
 42
0.000000001
 43
0.0000000001
 40
0.0
 40
0.0
 40
0.0
 40
0.0
 40
1.0
 40
1.0
 40
1.0
 40
2.0
 40
2.0
 40
2.0
 40
3.0
 40
3.0
 40
3.0
 40
3.0
 10
14794.9982229569
 20
-3290.377580234491
 30
0.0
 10
14794.9982229569
 20
-3290.377580234491
 30
0.0
 10
14795.14622435658
 20
-3290.581805629583
 30
0.0
 10
14795.14043659235
 20
-3291.309203570199
 30
0.0
 10
14795.13506223985
 20
-3292.036394804949
 30
0.0
 10
14795.56914455735
 20
-3302.535192418428
 30
0.0
 10
14795.56914455735
 20
-3302.535192418428
 30
0.0
 10
14795.56914455735
 20
-3302.535192418428
 30
0.0
 10
14795.60428455448
 20
-3304.169202285029
 30
0.0
 10
14795.60428455448
 20
-3304.169202285029
 30
0.0
  0
SPLINE
  5
353541
330
18
100
AcDbEntity
  8
姿図
100
AcDbSpline
210
0.0
220
0.0
230
1.0
 70
     8
 71
     3
 72
    32
 73
    28
 74
     0
 42
0.000000001
 43
0.0000000001
 40
0.0
 40
0.0
 40
0.0
 40
0.0
 40
1.0
 40
1.0
 40
1.0
 40
2.0
 40
2.0
 40
2.0
 40
3.0
 40
3.0
 40
3.0
 40
4.0
 40
4.0
 40
4.0
 40
5.0
 40
5.0
 40
5.0
 40
6.0
 40
6.0
 40
6.0
 40
7.0
 40
7.0
 40
7.0
 40
8.0
 40
8.0
 40
8.0
 40
9.0
 40
9.0
 40
9.0
 40
9.0
 10
14795.74897866031
 20
-3293.523436801197
 30
0.0
 10
14795.74897866031
 20
-3293.523436801197
 30
0.0
 10
14799.06536756604
 20
-3292.415906773967
 30
0.0
 10
14799.06536756604
 20
-3292.415906773967
 30
0.0
 10
14799.06536756604
 20
-3292.415906773967
 30
0.0
 10
14799.55195317337
 20
-3292.205273497046
 30
0.0
 10
14799.61892587379
 20
-3292.898564969857
 30
0.0
 10
14799.61892587379
 20
-3292.898564969857
 30
0.0
 10
14800.51726956515
 20
-3304.062748764308
 30
0.0
 10
14800.51726956515
 20
-3304.062748764308
 30
0.0
 10
14800.51726956515
 20
-3304.062748764308
 30
0.0
 10
14800.20597053174
 20
-3306.472732449912
 30
0.0
 10
14800.20597053174
 20
-3306.472732449912
 30
0.0
 10
14800.20597053174
 20
-3306.472732449912
 30
0.0
 10
14800.18447312174
 20
-3306.678198080197
 30
0.0
 10
14799.86325220678
 20
-3306.776176660434
 30
0.0
 10
14799.86325220678
 20
-3306.776176660434
 30
0.0
 10
14799.34318024924
 20
-3306.908675120205
 30
0.0
 10
14799.34318024924
 20
-3306.908675120205
 30
0.0
 10
14799.34318024924
 20
-3306.908675120205
 30
0.0
 10
14799.06950168335
 20
-3306.907021473281
 30
0.0
 10
14798.94175745848
 20
-3306.728220899643
 30
0.0
 10
14798.94175745848
 20
-3306.728220899643
 30
0.0
 10
14798.13601799485
 20
-3305.172552556057
 30
0.0
 10
14798.13601799485
 20
-3305.172552556057
 30
0.0
 10
14798.13601799485
 20
-3305.172552556057
 30
0.0
 10
14797.64364462328
 20
-3305.296989487075
 30
0.0
 10
14797.64364462328
 20
-3305.296989487075
 30
0.0
  0
SPLINE
  5
353542
330
18
100
AcDbEntity
  8
姿図
100
AcDbSpline
210
0.0
220
0.0
230
1.0
 70
     8
 71
     3
 72
    14
 73
    10
 74
     0
 42
0.000000001
 43
0.0000000001
 40
0.0
 40
0.0
 40
0.0
 40
0.0
 40
1.0
 40
1.0
 40
1.0
 40
2.0
 40
2.0
 40
2.0
 40
3.0
 40
3.0
 40
3.0
 40
3.0
 10
14798.84295205478
 20
-3292.490114179674
 30
0.0
 10
14798.84295205478
 20
-3292.490114179674
 30
0.0
 10
14799.30101225268
 20
-3292.309659959111
 30
0.0
 10
14799.33945954366
 20
-3292.922749556118
 30
0.0
 10
14799.37790683464
 20
-3293.53563244726
 30
0.0
 10
14799.90045926257
 20
-3303.823796783816
 30
0.0
 10
14799.90045926257
 20
-3303.823796783816
 30
0.0
 10
14799.90045926257
 20
-3303.823796783816
 30
0.0
 10
14799.82893903311
 20
-3306.325764579558
 30
0.0
 10
14799.82893903311
 20
-3306.325764579558
 30
0.0
  0
SPLINE
  5
353543
330
18
100
AcDbEntity
  8
姿図
100
AcDbSpline
210
0.0
220
0.0
230
1.0
 70
     8
 71
     3
 72
    11
 73
     7
 74
     0
 42
0.000000001
 43
0.0000000001
 40
0.3992620324060756
 40
0.3992620324060756
 40
0.3992620324060756
 40
0.3992620324060756
 40
1.0
 40
1.0
 40
1.0
 40
2.0
 40
2.0
 40
2.0
 40
2.0
 10
14800.23480852541
 20
-3307.700071221303
 30
0.0
 10
14800.17509040546
 20
-3307.563952057239
 30
0.0
 10
14800.13734418441
 20
-3307.47525589748
 30
0.0
 10
14800.13734418441
 20
-3307.47525589748
 30
0.0
 10
14800.13734418441
 20
-3307.47525589748
 30
0.0
 10
14799.79255880079
 20
-3307.5469828328
 30
0.0
 10
14799.79255880079
 20
-3307.5469828328
 30
0.0
  0
SPLINE
  5
353544
330
18
100
AcDbEntity
  8
姿図
100
AcDbSpline
210
0.0
220
0.0
230
1.0
 70
     8
 71
     3
 72
    20
 73
    16
 74
     0
 42
0.000000001
 43
0.0000000001
 40
0.0
 40
0.0
 40
0.0
 40
0.0
 40
1.0
 40
1.0
 40
1.0
 40
2.0
 40
2.0
 40
2.0
 40
3.0
 40
3.0
 40
3.0
 40
4.0
 40
4.0
 40
4.0
 40
4.350547551466185
 40
4.350547551466185
 40
4.350547551466185
 40
4.350547551466185
 10
14799.81074891695
 20
-3295.276095834582
 30
0.0
 10
14799.81074891695
 20
-3295.276095834582
 30
0.0
 10
14801.18327586372
 20
-3295.246330189953
 30
0.0
 10
14801.18327586372
 20
-3295.246330189953
 30
0.0
 10
14801.18327586372
 20
-3295.246330189953
 30
0.0
 10
14801.52806124734
 20
-3295.241162543316
 30
0.0
 10
14801.55741348024
 20
-3295.692401447654
 30
0.0
 10
14801.58676571313
 20
-3296.144053763723
 30
0.0
 10
14802.21721860284
 20
-3306.846663360561
 30
0.0
 10
14802.21721860284
 20
-3306.846663360561
 30
0.0
 10
14802.21721860284
 20
-3306.846663360561
 30
0.0
 10
14801.98653485697
 20
-3308.860598607911
 30
0.0
 10
14801.95676921234
 20
-3308.887056958692
 30
0.0
 10
14801.95271143918
 20
-3308.890607510208
 30
0.0
 10
14801.93473405065
 20
-3308.897282354953
 30
0.0
 10
14801.90629186609
 20
-3308.906182171404
 30
0.0
  0
SPLINE
  5
353545
330
18
100
AcDbEntity
  8
姿図
100
AcDbSpline
210
0.0
220
0.0
230
1.0
 70
     8
 71
     3
 72
    11
 73
     7
 74
     0
 42
0.000000001
 43
0.0000000001
 40
0.0
 40
0.0
 40
0.0
 40
0.0
 40
1.0
 40
1.0
 40
1.0
 40
1.31927336622654
 40
1.31927336622654
 40
1.31927336622654
 40
1.31927336622654
 10
14801.95676921234
 20
-3308.887056958692
 30
0.0
 10
14801.95676921234
 20
-3308.887056958692
 30
0.0
 10
14802.12750825722
 20
-3308.38620864664
 30
0.0
 10
14801.58841936006
 20
-3308.51188581285
 30
0.0
 10
14801.53813065381
 20
-3308.523567047766
 30
0.0
 10
14801.49256177588
 20
-3308.534152608252
 30
0.0
 10
14801.45125526977
 20
-3308.543750131128
 30
0.0
  0
POLYLINE
  5
353546
330
18
100
AcDbEntity
  8
姿図
100
AcDb2dPolyline
 66
     1
 10
0.0
 20
0.0
 30
0.0
  0
VERTEX
  5
353547
330
353546
100
AcDbEntity
  8
姿図
100
AcDbVertex
100
AcDb2dVertex
 10
14801.18327586372
 20
-3295.246330189953
 30
0.0
  0
VERTEX
  5
353548
330
353546
100
AcDbEntity
  8
姿図
100
AcDbVertex
100
AcDb2dVertex
 10
14801.99397626812
 20
-3306.851210889602
 30
0.0
  0
VERTEX
  5
353549
330
353546
100
AcDbEntity
  8
姿図
100
AcDbVertex
100
AcDb2dVertex
 10
14801.88772945327
 20
-3308.524908282375
 30
0.0
  0
SEQEND
  5
35354A
330
353546
100
AcDbEntity
  8
姿図
  0
SPLINE
  5
35354B
330
18
100
AcDbEntity
  8
姿図
100
AcDbSpline
210
0.0
220
0.0
230
1.0
 70
     8
 71
     3
 72
    11
 73
     7
 74
     0
 42
0.000000001
 43
0.0000000001
 40
0.0
 40
0.0
 40
0.0
 40
0.0
 40
1.0
 40
1.0
 40
1.0
 40
2.0
 40
2.0
 40
2.0
 40
2.0
 10
14800.11501995094
 20
-3306.633963024985
 30
0.0
 10
14800.11501995094
 20
-3306.633963024985
 30
0.0
 10
14800.17537806365
 20
-3306.224065293743
 30
0.0
 10
14799.70574233729
 20
-3306.347468695433
 30
0.0
 10
14799.234452964
 20
-3306.471285508854
 30
0.0
 10
14798.76399041417
 20
-3306.594688910545
 30
0.0
 10
14798.94175745848
 20
-3306.728220899643
 30
0.0
  0
POLYLINE
  5
35354C
330
18
100
AcDbEntity
  8
姿図
100
AcDb2dPolyline
 66
     1
 10
0.0
 20
0.0
 30
0.0
  0
VERTEX
  5
35354D
330
35354C
100
AcDbEntity
  8
姿図
100
AcDbVertex
100
AcDb2dVertex
 10
14799.56890305434
 20
-3307.210465683802
 30
0.0
  0
VERTEX
  5
35354E
330
35354C
100
AcDbEntity
  8
姿図
100
AcDbVertex
100
AcDb2dVertex
 10
14799.97239290375
 20
-3307.11455416222
 30
0.0
  0
VERTEX
  5
35354F
330
35354C
100
AcDbEntity
  8
姿図
100
AcDbVertex
100
AcDb2dVertex
 10
14800.13734418441
 20
-3307.47525589748
 30
0.0
  0
SEQEND
  5
353550
330
35354C
100
AcDbEntity
  8
姿図
  0
SPLINE
  5
353551
330
18
100
AcDbEntity
  8
姿図
100
AcDbSpline
210
0.0
220
0.0
230
1.0
 70
     8
 71
     3
 72
    17
 73
    13
 74
     0
 42
0.000000001
 43
0.0000000001
 40
0.0
 40
0.0
 40
0.0
 40
0.0
 40
1.0
 40
1.0
 40
1.0
 40
2.0
 40
2.0
 40
2.0
 40
3.0
 40
3.0
 40
3.0
 40
4.0
 40
4.0
 40
4.0
 40
4.0
 10
14804.97219437793
 20
-3333.193599680215
 30
0.0
 10
14804.97219437793
 20
-3333.193599680215
 30
0.0
 10
14804.6526271099
 20
-3329.012146727466
 30
0.0
 10
14804.6526271099
 20
-3329.012146727466
 30
0.0
 10
14804.6526271099
 20
-3329.012146727466
 30
0.0
 10
14803.94693328516
 20
-3328.51832641484
 30
0.0
 10
14803.94693328516
 20
-3328.51832641484
 30
0.0
 10
14803.94693328516
 20
-3328.51832641484
 30
0.0
 10
14801.25603632837
 20
-3323.508603059122
 30
0.0
 10
14789.26668271894
 20
-3323.367629658867
 30
0.0
 10
14789.26668271894
 20
-3323.367629658867
 30
0.0
 10
14788.75363876082
 20
-3323.926355613254
 30
0.0
 10
14788.75363876082
 20
-3323.926355613254
 30
0.0
  0
SPLINE
  5
353552
330
18
100
AcDbEntity
  8
姿図
100
AcDbSpline
210
0.0
220
0.0
230
1.0
 70
     8
 71
     3
 72
    11
 73
     7
 74
     0
 42
0.000000001
 43
0.0000000001
 40
0.0
 40
0.0
 40
0.0
 40
0.0
 40
1.0
 40
1.0
 40
1.0
 40
2.0
 40
2.0
 40
2.0
 40
2.0
 10
14788.83880157739
 20
-3322.724981123096
 30
0.0
 10
14788.83880157739
 20
-3322.724981123096
 30
0.0
 10
14798.65567654066
 20
-3322.732629240119
 30
0.0
 10
14804.2999869034
 20
-3327.318812277473
 30
0.0
 10
14804.2999869034
 20
-3327.318812277473
 30
0.0
 10
14804.93498732214
 20
-3327.953812696221
 30
0.0
 10
14804.6526271099
 20
-3329.012146727466
 30
0.0
  0
SPLINE
  5
353553
330
18
100
AcDbEntity
  8
姿図
100
AcDbSpline
210
0.0
220
0.0
230
1.0
 70
     8
 71
     3
 72
    23
 73
    19
 74
     0
 42
0.000000001
 43
0.0000000001
 40
0.0
 40
0.0
 40
0.0
 40
0.0
 40
1.0
 40
1.0
 40
1.0
 40
2.0
 40
2.0
 40
2.0
 40
3.0
 40
3.0
 40
3.0
 40
4.0
 40
4.0
 40
4.0
 40
5.0
 40
5.0
 40
5.0
 40
6.0
 40
6.0
 40
6.0
 40
6.0
 10
14807.24513207472
 20
-3335.430157144683
 30
0.0
 10
14803.13499264556
 20
-3329.289339293073
 30
0.0
 10
14788.41050702412
 20
-3329.153326833588
 30
0.0
 10
14788.41050702412
 20
-3329.153326833588
 30
0.0
 10
14787.62006379454
 20
-3328.941660027338
 30
0.0
 10
14787.73127155016
 20
-3328.094992802342
 30
0.0
 10
14787.73127155016
 20
-3328.094992802342
 30
0.0
 10
14787.73127155016
 20
-3328.094992802342
 30
0.0
 10
14788.83880157739
 20
-3323.579296465116
 30
0.0
 10
14788.83880157739
 20
-3323.579296465116
 30
0.0
 10
14788.83880157739
 20
-3323.579296465116
 30
0.0
 10
14788.61473241922
 20
-3305.218854669925
 30
0.0
 10
14788.61473241922
 20
-3305.218854669925
 30
0.0
 10
14788.61473241922
 20
-3305.218854669925
 30
0.0
 10
14785.83949946932
 20
-3304.112771583754
 30
0.0
 10
14785.83949946932
 20
-3304.112771583754
 30
0.0
 10
14785.83949946932
 20
-3304.112771583754
 30
0.0
 10
14785.87348779861
 20
-3330.380803387555
 30
0.0
 10
14785.87348779861
 20
-3330.380803387555
 30
0.0
  0
SPLINE
  5
353554
330
18
100
AcDbEntity
  8
姿図
100
AcDbSpline
210
0.0
220
0.0
230
1.0
 70
     8
 71
     3
 72
    29
 73
    25
 74
     0
 42
0.000000001
 43
0.0000000001
 40
0.0
 40
0.0
 40
0.0
 40
0.0
 40
1.0
 40
1.0
 40
1.0
 40
2.0
 40
2.0
 40
2.0
 40
3.0
 40
3.0
 40
3.0
 40
4.0
 40
4.0
 40
4.0
 40
5.0
 40
5.0
 40
5.0
 40
6.0
 40
6.0
 40
6.0
 40
7.0
 40
7.0
 40
7.0
 40
8.0
 40
8.0
 40
8.0
 40
8.0
 10
14788.83880157739
 20
-3322.724981123096
 30
0.0
 10
14788.83880157739
 20
-3322.724981123096
 30
0.0
 10
14789.26668271894
 20
-3304.808543526951
 30
0.0
 10
14789.26668271894
 20
-3304.808543526951
 30
0.0
 10
14789.26668271894
 20
-3304.808543526951
 30
0.0
 10
14797.33978700103
 20
-3304.364332622039
 30
0.0
 10
14802.83072161158
 20
-3309.738478418594
 30
0.0
 10
14802.83072161158
 20
-3309.738478418594
 30
0.0
 10
14804.72497416282
 20
-3323.08547615249
 30
0.0
 10
14804.72497416282
 20
-3323.08547615249
 30
0.0
 10
14804.72497416282
 20
-3323.08547615249
 30
0.0
 10
14804.44509442096
 20
-3326.401658352348
 30
0.0
 10
14804.97219437793
 20
-3327.318812277473
 30
0.0
 10
14804.97219437793
 20
-3327.318812277473
 30
0.0
 10
14804.72497416282
 20
-3328.280614669541
 30
0.0
 10
14804.72497416282
 20
-3328.280614669541
 30
0.0
 10
14804.72497416282
 20
-3328.280614669541
 30
0.0
 10
14805.28307999961
 20
-3328.982587788703
 30
0.0
 10
14806.90820151399
 20
-3330.090944639395
 30
0.0
 10
14806.90820151399
 20
-3330.090944639395
 30
0.0
 10
14806.92887210054
 20
-3330.417953318581
 30
0.0
 10
14806.92887210054
 20
-3330.417953318581
 30
0.0
 10
14806.92887210054
 20
-3330.417953318581
 30
0.0
 10
14808.10213459299
 20
-3346.227644733777
 30
0.0
 10
14808.10213459299
 20
-3346.227644733777
 30
0.0
  0
POLYLINE
  5
353555
330
18
100
AcDbEntity
  8
姿図
100
AcDb2dPolyline
 66
     1
 10
0.0
 20
0.0
 30
0.0
  0
VERTEX
  5
353556
330
353555
100
AcDbEntity
  8
姿図
100
AcDbVertex
100
AcDb2dVertex
 10
14804.72497416282
 20
-3323.08547615249
 30
0.0
  0
VERTEX
  5
353557
330
353555
100
AcDbEntity
  8
姿図
100
AcDbVertex
100
AcDb2dVertex
 10
14805.73659266847
 20
-3322.666276657301
 30
0.0
  0
VERTEX
  5
353558
330
353555
100
AcDbEntity
  8
姿図
100
AcDbVertex
100
AcDb2dVertex
 10
14807.42083206038
 20
-3322.73945053368
 30
0.0
  0
VERTEX
  5
353559
330
353555
100
AcDbEntity
  8
姿図
100
AcDbVertex
100
AcDb2dVertex
 10
14807.64076710125
 20
-3330.054357701205
 30
0.0
  0
VERTEX
  5
35355A
330
353555
100
AcDbEntity
  8
姿図
100
AcDbVertex
100
AcDb2dVertex
 10
14806.90820151399
 20
-3330.090944639395
 30
0.0
  0
SEQEND
  5
35355B
330
353555
100
AcDbEntity
  8
姿図
  0
POLYLINE
  5
35355C
330
18
100
AcDbEntity
  8
姿図
100
AcDb2dPolyline
 66
     1
 10
0.0
 20
0.0
 30
0.0
  0
VERTEX
  5
35355D
330
35355C
100
AcDbEntity
  8
姿図
100
AcDbVertex
100
AcDb2dVertex
 10
14805.73659266847
 20
-3322.666276657301
 30
0.0
  0
VERTEX
  5
35355E
330
35355C
100
AcDbEntity
  8
姿図
100
AcDbVertex
100
AcDb2dVertex
 10
14803.03412018321
 20
-3311.171156772221
 30
0.0
  0
SEQEND
  5
35355F
330
35355C
100
AcDbEntity
  8
姿図
  0
SPLINE
  5
353560
330
18
100
AcDbEntity
  8
姿図
100
AcDbSpline
210
0.0
220
0.0
230
1.0
 70
     8
 71
     3
 72
    17
 73
    13
 74
     0
 42
0.000000001
 43
0.0000000001
 40
0.0
 40
0.0
 40
0.0
 40
0.0
 40
1.0
 40
1.0
 40
1.0
 40
2.0
 40
2.0
 40
2.0
 40
3.0
 40
3.0
 40
3.0
 40
4.0
 40
4.0
 40
4.0
 40
4.0
 10
14769.33320928746
 20
-3333.586754236354
 30
0.0
 10
14769.33320928746
 20
-3333.586754236354
 30
0.0
 10
14769.61184879412
 20
-3329.348663876464
 30
0.0
 10
14769.61184879412
 20
-3329.348663876464
 30
0.0
 10
14769.61184879412
 20
-3329.348663876464
 30
0.0
 10
14770.22803897911
 20
-3328.848022270277
 30
0.0
 10
14770.22803897911
 20
-3328.848022270277
 30
0.0
 10
14770.22803897911
 20
-3328.848022270277
 30
0.0
 10
14772.57725114026
 20
-3323.770499390683
 30
0.0
 10
14783.04380263873
 20
-3323.627665637638
 30
0.0
 10
14783.04380263873
 20
-3323.627665637638
 30
0.0
 10
14783.22790906874
 20
-3323.855127494906
 30
0.0
 10
14783.22790906874
 20
-3323.855127494906
 30
0.0
  0
SPLINE
  5
353561
330
18
100
AcDbEntity
  8
姿図
100
AcDbSpline
210
0.0
220
0.0
230
1.0
 70
     8
 71
     3
 72
    11
 73
     7
 74
     0
 42
0.000000001
 43
0.0000000001
 40
0.0
 40
0.0
 40
0.0
 40
0.0
 40
1.0
 40
1.0
 40
1.0
 40
2.0
 40
2.0
 40
2.0
 40
2.0
 10
14783.23022331384
 20
-3322.979578376769
 30
0.0
 10
14783.23022331384
 20
-3322.979578376769
 30
0.0
 10
14774.84729495494
 20
-3322.984190278406
 30
0.0
 10
14769.91984053368
 20
-3327.632385075403
 30
0.0
 10
14769.91984053368
 20
-3327.632385075403
 30
0.0
 10
14769.36545540247
 20
-3328.276067140501
 30
0.0
 10
14769.61184879412
 20
-3329.348663876464
 30
0.0
  0
SPLINE
  5
353562
330
18
100
AcDbEntity
  8
姿図
100
AcDbSpline
210
0.0
220
0.0
230
1.0
 70
     8
 71
     3
 72
    20
 73
    16
 74
     0
 42
0.000000001
 43
0.0000000001
 40
0.0
 40
0.0
 40
0.0
 40
0.0
 40
1.0
 40
1.0
 40
1.0
 40
2.0
 40
2.0
 40
2.0
 40
3.0
 40
3.0
 40
3.0
 40
4.0
 40
4.0
 40
4.0
 40
5.0
 40
5.0
 40
5.0
 40
5.0
 10
14767.15266911253
 20
-3335.853490757182
 30
0.0
 10
14770.74066952549
 20
-3329.629577147648
 30
0.0
 10
14783.59508718196
 20
-3329.491704335375
 30
0.0
 10
14783.59508718196
 20
-3329.491704335375
 30
0.0
 10
14784.28527806679
 20
-3329.277350352875
 30
0.0
 10
14784.18791960415
 20
-3328.419107599411
 30
0.0
 10
14784.18791960415
 20
-3328.419107599411
 30
0.0
 10
14784.18791960415
 20
-3328.419107599411
 30
0.0
 10
14783.22115627131
 20
-3323.842433031868
 30
0.0
 10
14783.22115627131
 20
-3323.842433031868
 30
0.0
 10
14783.22115627131
 20
-3323.842433031868
 30
0.0
 10
14783.41670002005
 20
-3305.233737492239
 30
0.0
 10
14783.41670002005
 20
-3305.233737492239
 30
0.0
 10
14783.41670002005
 20
-3305.233737492239
 30
0.0
 10
14785.83949946932
 20
-3304.112771583754
 30
0.0
 10
14785.83949946932
 20
-3304.112771583754
 30
0.0
  0
SPLINE
  5
353563
330
18
100
AcDbEntity
  8
姿図
100
AcDbSpline
210
0.0
220
0.0
230
1.0
 70
     8
 71
     3
 72
    20
 73
    16
 74
     0
 42
0.000000001
 43
0.0000000001
 40
0.0
 40
0.0
 40
0.0
 40
0.0
 40
1.0
 40
1.0
 40
1.0
 40
2.0
 40
2.0
 40
2.0
 40
3.0
 40
3.0
 40
3.0
 40
4.0
 40
4.0
 40
4.0
 40
5.0
 40
5.0
 40
5.0
 40
5.0
 10
14772.96709840255
 20
-3307.97755115059
 30
0.0
 10
14772.28910316379
 20
-3308.499690166786
 30
0.0
 10
14771.62888462945
 20
-3309.107405411291
 30
0.0
 10
14771.0064932685
 20
-3309.81454617709
 30
0.0
 10
14771.0064932685
 20
-3309.81454617709
 30
0.0
 10
14769.35263963881
 20
-3323.341998131547
 30
0.0
 10
14769.35263963881
 20
-3323.341998131547
 30
0.0
 10
14769.35263963881
 20
-3323.341998131547
 30
0.0
 10
14769.59696597181
 20
-3326.703035504215
 30
0.0
 10
14769.13704542112
 20
-3327.632591781268
 30
0.0
 10
14769.13704542112
 20
-3327.632591781268
 30
0.0
 10
14769.35263963881
 20
-3328.607209936995
 30
0.0
 10
14769.35263963881
 20
-3328.607209936995
 30
0.0
 10
14769.35263963881
 20
-3328.607209936995
 30
0.0
 10
14768.86543391388
 20
-3329.31869152597
 30
0.0
 10
14767.44660485324
 20
-3330.441931198975
 30
0.0
  0
SPLINE
  5
353564
330
18
100
AcDbEntity
  8
姿図
100
AcDbSpline
210
0.0
220
0.0
230
1.0
 70
     8
 71
     3
 72
    11
 73
     7
 74
     0
 42
0.000000001
 43
0.0000000001
 40
0.0
 40
0.0
 40
0.0
 40
0.0
 40
1.0
 40
1.0
 40
1.0
 40
2.0
 40
2.0
 40
2.0
 40
2.0
 10
14783.23022331384
 20
-3322.979578376769
 30
0.0
 10
14783.23022331384
 20
-3322.979578376769
 30
0.0
 10
14782.84763877239
 20
-3304.818051996764
 30
0.0
 10
14782.84763877239
 20
-3304.818051996764
 30
0.0
 10
14782.84763877239
 20
-3304.818051996764
 30
0.0
 10
14777.51111344335
 20
-3304.476987318725
 30
0.0
 10
14772.96709840255
 20
-3307.97755115059
 30
0.0
  0
POLYLINE
  5
353565
330
18
100
AcDbEntity
  8
姿図
100
AcDb2dPolyline
 66
     1
 10
0.0
 20
0.0
 30
0.0
  0
VERTEX
  5
353566
330
353565
100
AcDbEntity
  8
姿図
100
AcDbVertex
100
AcDb2dVertex
 10
14767.4474316767
 20
-3330.43076908224
 30
0.0
  0
VERTEX
  5
353567
330
353565
100
AcDbEntity
  8
姿図
100
AcDbVertex
100
AcDb2dVertex
 10
14767.64276871958
 20
-3330.441931198975
 30
0.0
  0
SEQEND
  5
353568
330
353565
100
AcDbEntity
  8
姿図
  0
POLYLINE
  5
353569
330
18
100
AcDbEntity
  8
姿図
100
AcDb2dPolyline
 66
     1
 10
0.0
 20
0.0
 30
0.0
  0
VERTEX
  5
35356A
330
353569
100
AcDbEntity
  8
姿図
100
AcDbVertex
100
AcDb2dVertex
 10
14769.54880350515
 20
-3323.341791425682
 30
0.0
  0
VERTEX
  5
35356B
330
353569
100
AcDbEntity
  8
姿図
100
AcDbVertex
100
AcDb2dVertex
 10
14768.66575604783
 20
-3322.91680416626
 30
0.0
  0
VERTEX
  5
35356C
330
353569
100
AcDbEntity
  8
姿図
100
AcDbVertex
100
AcDb2dVertex
 10
14767.19545722669
 20
-3322.991011571967
 30
0.0
  0
VERTEX
  5
35356D
330
353569
100
AcDbEntity
  8
姿図
100
AcDbVertex
100
AcDb2dVertex
 10
14767.00342747766
 20
-3330.40472414319
 30
0.0
  0
VERTEX
  5
35356E
330
353569
100
AcDbEntity
  8
姿図
100
AcDbVertex
100
AcDb2dVertex
 10
14767.4474316767
 20
-3330.43076908224
 30
0.0
  0
VERTEX
  5
35356F
330
353569
100
AcDbEntity
  8
姿図
100
AcDbVertex
100
AcDb2dVertex
 10
14766.27044847867
 20
-3346.227644733777
 30
0.0
  0
SEQEND
  5
353570
330
353569
100
AcDbEntity
  8
姿図
  0
POLYLINE
  5
353571
330
18
100
AcDbEntity
  8
姿図
100
AcDb2dPolyline
 66
     1
 10
0.0
 20
0.0
 30
0.0
  0
VERTEX
  5
353572
330
353571
100
AcDbEntity
  8
姿図
100
AcDbVertex
100
AcDb2dVertex
 10
14768.66575604783
 20
-3322.91680416626
 30
0.0
  0
VERTEX
  5
353573
330
353571
100
AcDbEntity
  8
姿図
100
AcDbVertex
100
AcDb2dVertex
 10
14771.02509679639
 20
-3311.266448176206
 30
0.0
  0
SEQEND
  5
353574
330
353571
100
AcDbEntity
  8
姿図
  0
SPLINE
  5
353575
330
18
100
AcDbEntity
  8
姿図
100
AcDbSpline
210
0.0
220
0.0
230
1.0
 70
     8
 71
     3
 72
    17
 73
    13
 74
     0
 42
0.000000001
 43
0.0000000001
 40
0.0
 40
0.0
 40
0.0
 40
0.0
 40
1.0
 40
1.0
 40
1.0
 40
2.0
 40
2.0
 40
2.0
 40
3.0
 40
3.0
 40
3.0
 40
4.0
 40
4.0
 40
4.0
 40
4.0
 10
14805.55303785992
 20
-3350.084776183591
 30
0.0
 10
14808.05748612605
 20
-3348.544404074051
 30
0.0
 10
14808.13396729627
 20
-3346.677850108788
 30
0.0
 10
14808.13396729627
 20
-3346.677850108788
 30
0.0
 10
14808.13396729627
 20
-3342.181170711186
 30
0.0
 10
14798.82600217381
 20
-3338.537359714544
 30
0.0
 10
14787.34514499345
 20
-3338.537359714544
 30
0.0
 10
14775.86470122482
 20
-3338.537359714544
 30
0.0
 10
14768.2761154914
 20
-3341.24851384615
 30
0.0
 10
14766.27044847867
 20
-3346.227644733777
 30
0.0
 10
14766.27044847867
 20
-3346.227644733777
 30
0.0
 10
14765.5469779495
 20
-3349.121526850465
 30
0.0
 10
14769.07627389667
 20
-3350.084776183591
 30
0.0
  0
SPLINE
  5
353576
330
18
100
AcDbEntity
  8
姿図
100
AcDbSpline
210
0.0
220
0.0
230
1.0
 70
     8
 71
     3
 72
    11
 73
     7
 74
     0
 42
0.000000001
 43
0.0000000001
 40
0.0
 40
0.0
 40
0.0
 40
0.0
 40
1.0
 40
1.0
 40
1.0
 40
2.0
 40
2.0
 40
2.0
 40
2.0
 10
14807.32285348014
 20
-3337.622066142209
 30
0.0
 10
14807.32285348014
 20
-3333.777337044325
 30
0.0
 10
14798.40432220824
 20
-3330.352634265089
 30
0.0
 10
14787.14732748019
 20
-3330.352634265089
 30
0.0
 10
14775.89095286974
 20
-3330.352634265089
 30
0.0
 10
14769.33320928746
 20
-3333.586754236354
 30
0.0
 10
14766.97180148024
 20
-3336.814673031653
 30
0.0
  0
SPLINE
  5
353577
330
18
100
AcDbEntity
  8
姿図
100
AcDbSpline
210
0.0
220
0.0
230
1.0
 70
     8
 71
     3
 72
    29
 73
    25
 74
     0
 42
0.000000001
 43
0.0000000001
 40
0.0
 40
0.0
 40
0.0
 40
0.0
 40
1.0
 40
1.0
 40
1.0
 40
2.0
 40
2.0
 40
2.0
 40
3.0
 40
3.0
 40
3.0
 40
4.0
 40
4.0
 40
4.0
 40
5.0
 40
5.0
 40
5.0
 40
6.0
 40
6.0
 40
6.0
 40
7.0
 40
7.0
 40
7.0
 40
7.161209560026494
 40
7.161209560026494
 40
7.161209560026494
 40
7.161209560026494
 10
14806.12861287677
 20
-3349.488500440955
 30
0.0
 10
14806.32153735467
 20
-3348.91334928819
 30
0.0
 10
14806.1733246531
 20
-3348.518361778868
 30
0.0
 10
14805.75229462436
 20
-3347.665638526744
 30
0.0
 10
14805.75229462436
 20
-3347.665638526744
 30
0.0
 10
14806.33180998666
 20
-3346.806873466571
 30
0.0
 10
14806.33180998666
 20
-3346.806873466571
 30
0.0
 10
14806.33180998666
 20
-3346.806873466571
 30
0.0
 10
14807.1860141972
 20
-3341.570974996295
 30
0.0
 10
14788.98597615361
 20
-3340.3009741588
 30
0.0
 10
14788.98597615361
 20
-3340.3009741588
 30
0.0
 10
14788.35428302872
 20
-3341.92402861453
 30
0.0
 10
14788.35428302872
 20
-3341.92402861453
 30
0.0
 10
14788.35428302872
 20
-3341.92402861453
 30
0.0
 10
14785.67330795347
 20
-3341.641668402288
 30
0.0
 10
14781.22830502224
 20
-3342.065002014787
 30
0.0
 10
14781.22830502224
 20
-3342.065002014787
 30
0.0
 10
14780.38163779724
 20
-3340.935974577547
 30
0.0
 10
14780.38163779724
 20
-3340.935974577547
 30
0.0
 10
14780.38163779724
 20
-3340.935974577547
 30
0.0
 10
14766.01227285269
 20
-3342.84097583379
 30
0.0
 10
14767.44660485324
 20
-3348.555979602517
 30
0.0
 10
14767.44660485324
 20
-3348.555979602517
 30
0.0
 10
14767.4597124844
 20
-3348.575941880134
 30
0.0
 10
14767.48749263497
 20
-3348.61181175534
 30
0.0
  0
SPLINE
  5
353578
330
18
100
AcDbEntity
  8
姿図
100
AcDbSpline
210
0.0
220
0.0
230
1.0
 70
    11
 71
     3
 72
    17
 73
    13
 74
     0
 42
0.000000001
 43
0.0000000001
 40
0.0
 40
0.0
 40
0.0
 40
0.0
 40
1.0
 40
1.0
 40
1.0
 40
2.0
 40
2.0
 40
2.0
 40
3.0
 40
3.0
 40
3.0
 40
4.0
 40
4.0
 40
4.0
 40
4.0
 10
14814.75640981445
 20
-3366.392215322857
 30
0.0
 10
14814.75640981445
 20
-3369.935980680607
 30
0.0
 10
14802.42681835044
 20
-3372.809605622479
 30
0.0
 10
14787.21822759205
 20
-3372.809605622479
 30
0.0
 10
14772.00963683366
 20
-3372.809605622479
 30
0.0
 10
14759.68025207551
 20
-3369.935980680607
 30
0.0
 10
14759.68025207551
 20
-3366.392215322857
 30
0.0
 10
14759.68025207551
 20
-3362.848036553377
 30
0.0
 10
14772.00963683366
 20
-3359.974411611505
 30
0.0
 10
14787.21822759205
 20
-3359.974411611505
 30
0.0
 10
14802.42681835044
 20
-3359.974411611505
 30
0.0
 10
14814.75640981445
 20
-3362.848036553377
 30
0.0
 10
14814.75640981445
 20
-3366.392215322857
 30
0.0
  0
SPLINE
  5
353579
330
18
100
AcDbEntity
  8
姿図
100
AcDbSpline
210
0.0
220
0.0
230
1.0
 70
     8
 71
     3
 72
    11
 73
     7
 74
     0
 42
0.000000001
 43
0.0000000001
 40
0.0
 40
0.0
 40
0.0
 40
0.0
 40
1.0
 40
1.0
 40
1.0
 40
2.0
 40
2.0
 40
2.0
 40
2.0
 10
14759.68025207551
 20
-3366.105720993306
 30
0.0
 10
14759.68025207551
 20
-3362.358143652194
 30
0.0
 10
14772.00963683366
 20
-3359.319154017941
 30
0.0
 10
14787.21822759205
 20
-3359.319154017941
 30
0.0
 10
14802.42681835044
 20
-3359.319154017941
 30
0.0
 10
14814.75640981445
 20
-3362.358143652194
 30
0.0
 10
14814.75640981445
 20
-3366.105720993306
 30
0.0
  0
POLYLINE
  5
35357A
330
18
100
AcDbEntity
  8
姿図
100
AcDb2dPolyline
 66
     1
 10
0.0
 20
0.0
 30
0.0
  0
VERTEX
  5
35357B
330
35357A
100
AcDbEntity
  8
姿図
100
AcDbVertex
100
AcDb2dVertex
 10
14759.68025207551
 20
-3366.761805410331
 30
0.0
  0
VERTEX
  5
35357C
330
35357A
100
AcDbEntity
  8
姿図
100
AcDbVertex
100
AcDb2dVertex
 10
14759.68025207551
 20
-3366.105720993306
 30
0.0
  0
SEQEND
  5
35357D
330
35357A
100
AcDbEntity
  8
姿図
  0
POLYLINE
  5
35357E
330
18
100
AcDbEntity
  8
姿図
100
AcDb2dPolyline
 66
     1
 10
0.0
 20
0.0
 30
0.0
  0
VERTEX
  5
35357F
330
35357E
100
AcDbEntity
  8
姿図
100
AcDbVertex
100
AcDb2dVertex
 10
14814.75640981445
 20
-3366.761805410331
 30
0.0
  0
VERTEX
  5
353580
330
35357E
100
AcDbEntity
  8
姿図
100
AcDbVertex
100
AcDb2dVertex
 10
14814.75640981445
 20
-3366.105720993306
 30
0.0
  0
SEQEND
  5
353581
330
35357E
100
AcDbEntity
  8
姿図
  0
SPLINE
  5
353582
330
18
100
AcDbEntity
  8
姿図
100
AcDbSpline
210
0.0
220
0.0
230
1.0
 70
     8
 71
     3
 72
     8
 73
     4
 74
     0
 42
0.000000001
 43
0.0000000001
 40
0.0
 40
0.0
 40
0.0
 40
0.0
 40
1.0
 40
1.0
 40
1.0
 40
1.0
 10
14787.35610040432
 20
-3361.775646523278
 30
0.0
 10
14775.31569044611
 20
-3361.775646523278
 30
0.0
 10
14765.55503947825
 20
-3363.962181168301
 30
0.0
 10
14765.55503947825
 20
-3366.660106124516
 30
0.0
  0
SPLINE
  5
353583
330
18
100
AcDbEntity
  8
姿図
100
AcDbSpline
210
0.0
220
0.0
230
1.0
 70
     8
 71
     3
 72
    11
 73
     7
 74
     0
 42
0.000000001
 43
0.0000000001
 40
0.0
 40
0.0
 40
0.0
 40
0.0
 40
1.0
 40
1.0
 40
1.0
 40
2.0
 40
2.0
 40
2.0
 40
2.0
 10
14787.35610040432
 20
-3371.847183112814
 30
0.0
 10
14799.39651036253
 20
-3371.847183112814
 30
0.0
 10
14809.15716133039
 20
-3369.592848943914
 30
0.0
 10
14809.15716133039
 20
-3366.811414818047
 30
0.0
 10
14809.15716133039
 20
-3364.029980692178
 30
0.0
 10
14799.39651036253
 20
-3361.775646523278
 30
0.0
 10
14787.35610040432
 20
-3361.775646523278
 30
0.0
  0
SPLINE
  5
353584
330
18
100
AcDbEntity
  8
姿図
100
AcDbSpline
210
0.0
220
0.0
230
1.0
 70
     8
 71
     3
 72
     8
 73
     4
 74
     0
 42
0.000000001
 43
0.0000000001
 40
0.0
 40
0.0
 40
0.0
 40
0.0
 40
1.0
 40
1.0
 40
1.0
 40
1.0
 10
14765.55503947825
 20
-3366.703927767998
 30
0.0
 10
14765.55503947825
 20
-3369.529596949078
 30
0.0
 10
14775.31569044611
 20
-3371.820724762033
 30
0.0
 10
14787.35610040432
 20
-3371.820724762033
 30
0.0
  0
SPLINE
  5
353585
330
18
100
AcDbEntity
  8
姿図
100
AcDbSpline
210
0.0
220
0.0
230
1.0
 70
     8
 71
     3
 72
     8
 73
     4
 74
     0
 42
0.000000001
 43
0.0000000001
 40
0.0
 40
0.0
 40
0.0
 40
0.0
 40
1.0
 40
1.0
 40
1.0
 40
1.0
 10
14787.35610040432
 20
-3361.185707983206
 30
0.0
 10
14774.55521956702
 20
-3361.185707983206
 30
0.0
 10
14764.17817170831
 20
-3363.617809196416
 30
0.0
 10
14764.17817170831
 20
-3366.61835153969
 30
0.0
  0
SPLINE
  5
353586
330
18
100
AcDbEntity
  8
姿図
100
AcDbSpline
210
0.0
220
0.0
230
1.0
 70
     8
 71
     3
 72
    11
 73
     7
 74
     0
 42
0.000000001
 43
0.0000000001
 40
0.0
 40
0.0
 40
0.0
 40
0.0
 40
1.0
 40
1.0
 40
1.0
 40
2.0
 40
2.0
 40
2.0
 40
2.0
 10
14787.35610040432
 20
-3372.35154542458
 30
0.0
 10
14800.15677453576
 20
-3372.35154542458
 30
0.0
 10
14810.53382239447
 20
-3369.851231275761
 30
0.0
 10
14810.53382239447
 20
-3366.768833409758
 30
0.0
 10
14810.53382239447
 20
-3363.685195308562
 30
0.0
 10
14800.15677453576
 20
-3361.185707983206
 30
0.0
 10
14787.35610040432
 20
-3361.185707983206
 30
0.0
  0
SPLINE
  5
353587
330
18
100
AcDbEntity
  8
姿図
100
AcDbSpline
210
0.0
220
0.0
230
1.0
 70
     8
 71
     3
 72
     8
 73
     4
 74
     0
 42
0.000000001
 43
0.0000000001
 40
0.0
 40
0.0
 40
0.0
 40
0.0
 40
1.0
 40
1.0
 40
1.0
 40
1.0
 10
14764.17817170831
 20
-3366.661759771441
 30
0.0
 10
14764.17817170831
 20
-3369.857432451726
 30
0.0
 10
14774.55521956702
 20
-3372.449937416548
 30
0.0
 10
14787.35610040432
 20
-3372.449937416548
 30
0.0
  0
POLYLINE
  5
353588
330
18
100
AcDbEntity
  8
姿図
100
AcDb2dPolyline
 66
     1
 10
0.0
 20
0.0
 30
0.0
  0
VERTEX
  5
353589
330
353588
100
AcDbEntity
  8
姿図
100
AcDbVertex
100
AcDb2dVertex
 10
14763.00925003903
 20
-3362.568983634982
 30
0.0
  0
VERTEX
  5
35358A
330
353588
100
AcDbEntity
  8
姿図
100
AcDbVertex
100
AcDb2dVertex
 10
14763.00925003903
 20
-3362.568983634982
 30
0.0
  0
SEQEND
  5
35358B
330
353588
100
AcDbEntity
  8
姿図
  0
SPLINE
  5
35358C
330
18
100
AcDbEntity
  8
姿図
100
AcDbSpline
210
0.0
220
0.0
230
1.0
 70
     8
 71
     3
 72
    32
 73
    28
 74
     0
 42
0.000000001
 43
0.0000000001
 40
0.0
 40
0.0
 40
0.0
 40
0.0
 40
1.0
 40
1.0
 40
1.0
 40
2.0
 40
2.0
 40
2.0
 40
3.0
 40
3.0
 40
3.0
 40
4.0
 40
4.0
 40
4.0
 40
5.0
 40
5.0
 40
5.0
 40
6.0
 40
6.0
 40
6.0
 40
7.0
 40
7.0
 40
7.0
 40
8.0
 40
8.0
 40
8.0
 40
9.0
 40
9.0
 40
9.0
 40
9.0
 10
14789.13067025945
 20
-3353.353622740256
 30
0.0
 10
14789.13067025945
 20
-3353.353622740256
 30
0.0
 10
14784.37165028439
 20
-3353.270957004293
 30
0.0
 10
14784.37165028439
 20
-3353.270957004293
 30
0.0
 10
14784.37165028439
 20
-3353.270957004293
 30
0.0
 10
14784.60567215828
 20
-3346.227644733777
 30
0.0
 10
14784.60567215828
 20
-3346.227644733777
 30
0.0
 10
14784.60567215828
 20
-3346.227644733777
 30
0.0
 10
14785.03830753472
 20
-3345.629851370816
 30
0.0
 10
14785.03830753472
 20
-3345.629851370816
 30
0.0
 10
14785.03830753472
 20
-3345.629851370816
 30
0.0
 10
14788.21330962846
 20
-3345.629851370816
 30
0.0
 10
14788.21330962846
 20
-3345.629851370816
 30
0.0
 10
14788.21330962846
 20
-3345.629851370816
 30
0.0
 10
14788.75363876082
 20
-3346.227644733777
 30
0.0
 10
14788.75363876082
 20
-3346.227644733777
 30
0.0
 10
14788.75363876082
 20
-3346.227644733777
 30
0.0
 10
14789.13067025945
 20
-3353.353622740256
 30
0.0
 10
14789.13067025945
 20
-3353.353622740256
 30
0.0
 10
14789.13067025945
 20
-3353.353622740256
 30
0.0
 10
14789.48331046596
 20
-3350.743341071003
 30
0.0
 10
14789.48331046596
 20
-3350.743341071003
 30
0.0
 10
14808.39234962812
 20
-3350.955007877252
 30
0.0
 10
14810.86165789712
 20
-3356.952371858222
 30
0.0
 10
14810.86165789712
 20
-3356.952371858222
 30
0.0
 10
14810.86165789712
 20
-3356.952371858222
 30
0.0
 10
14811.22876751421
 20
-3362.495809758602
 30
0.0
 10
14811.22876751421
 20
-3362.495809758602
 30
0.0
  0
POLYLINE
  5
35358D
330
18
100
AcDbEntity
  8
姿図
100
AcDb2dPolyline
 66
     1
 10
0.0
 20
0.0
 30
0.0
  0
VERTEX
  5
35358E
330
35358D
100
AcDbEntity
  8
姿図
100
AcDbVertex
100
AcDb2dVertex
 10
14809.5780144725
 20
-3355.439698334656
 30
0.0
  0
VERTEX
  5
35358F
330
35358D
100
AcDbEntity
  8
姿図
100
AcDbVertex
100
AcDb2dVertex
 10
14809.06869121997
 20
-3342.599543382913
 30
0.0
  0
VERTEX
  5
353590
330
35358D
100
AcDbEntity
  8
姿図
100
AcDbVertex
100
AcDb2dVertex
 10
14810.02036502463
 20
-3342.526369506533
 30
0.0
  0
VERTEX
  5
353591
330
35358D
100
AcDbEntity
  8
姿図
100
AcDbVertex
100
AcDb2dVertex
 10
14810.53382239447
 20
-3356.431059665487
 30
0.0
  0
SEQEND
  5
353592
330
35358D
100
AcDbEntity
  8
姿図
  0
POLYLINE
  5
353593
330
18
100
AcDbEntity
  8
姿図
100
AcDb2dPolyline
 66
     1
 10
0.0
 20
0.0
 30
0.0
  0
VERTEX
  5
353594
330
353593
100
AcDbEntity
  8
姿図
100
AcDbVertex
100
AcDb2dVertex
 10
14809.19891591522
 20
-3345.879552056312
 30
0.0
  0
VERTEX
  5
353595
330
353593
100
AcDbEntity
  8
姿図
100
AcDbVertex
100
AcDb2dVertex
 10
14808.74044230559
 20
-3345.629851370816
 30
0.0
  0
VERTEX
  5
353596
330
353593
100
AcDbEntity
  8
姿図
100
AcDbVertex
100
AcDb2dVertex
 10
14808.2571639921
 20
-3345.754701713563
 30
0.0
  0
SEQEND
  5
353597
330
353593
100
AcDbEntity
  8
姿図
  0
POLYLINE
  5
353598
330
18
100
AcDbEntity
  8
姿図
100
AcDb2dPolyline
 66
     1
 10
0.0
 20
0.0
 30
0.0
  0
VERTEX
  5
353599
330
353598
100
AcDbEntity
  8
姿図
100
AcDbVertex
100
AcDb2dVertex
 10
14808.72803995366
 20
-3354.790641917056
 30
0.0
  0
VERTEX
  5
35359A
330
353598
100
AcDbEntity
  8
姿図
100
AcDbVertex
100
AcDb2dVertex
 10
14808.25468272023
 20
-3345.765611083435
 30
0.0
  0
SEQEND
  5
35359B
330
353598
100
AcDbEntity
  8
姿図
  0
SPLINE
  5
35359C
330
18
100
AcDbEntity
  8
姿図
100
AcDbSpline
210
0.0
220
0.0
230
1.0
 70
     8
 71
     3
 72
     8
 73
     4
 74
     0
 42
0.000000001
 43
0.0000000001
 40
0.0
 40
0.0
 40
0.0
 40
0.0
 40
1.0
 40
1.0
 40
1.0
 40
1.0
 10
14808.65651972421
 20
-3353.492115670126
 30
0.0
 10
14808.65651972421
 20
-3353.492115670126
 30
0.0
 10
14807.9913402491
 20
-3347.269028884053
 30
0.0
 10
14788.75363876082
 20
-3346.677850108788
 30
0.0
  0
SPLINE
  5
35359D
330
18
100
AcDbEntity
  8
姿図
100
AcDbSpline
210
0.0
220
0.0
230
1.0
 70
     8
 71
     3
 72
     8
 73
     4
 74
     0
 42
0.000000001
 43
0.0000000001
 40
0.0
 40
0.0
 40
0.0
 40
0.0
 40
1.0
 40
1.0
 40
1.0
 40
1.0
 10
14804.97219437793
 20
-3352.945585361802
 30
0.0
 10
14804.97219437793
 20
-3352.945585361802
 30
0.0
 10
14800.93564223688
 20
-3348.767646408767
 30
0.0
 10
14788.90135623786
 20
-3348.806921444261
 30
0.0
  0
SPLINE
  5
35359E
330
18
100
AcDbEntity
  8
姿図
100
AcDbSpline
210
0.0
220
0.0
230
1.0
 70
     8
 71
     3
 72
     8
 73
     4
 74
     0
 42
0.000000001
 43
0.0000000001
 40
0.0
 40
0.0
 40
0.0
 40
0.0
 40
1.0
 40
1.0
 40
1.0
 40
1.0
 10
14788.75363876082
 20
-3347.497645571272
 30
0.0
 10
14788.75363876082
 20
-3347.497645571272
 30
0.0
 10
14806.82427893261
 20
-3347.596037563239
 30
0.0
 10
14808.10213459299
 20
-3354.390872773222
 30
0.0
  0
POLYLINE
  5
35359F
330
18
100
AcDbEntity
  8
姿図
100
AcDb2dPolyline
 66
     1
 10
0.0
 20
0.0
 30
0.0
  0
VERTEX
  5
3535A0
330
35359F
100
AcDbEntity
  8
姿図
100
AcDbVertex
100
AcDb2dVertex
 10
14803.03412018321
 20
-3348.91192710287
 30
0.0
  0
VERTEX
  5
3535A1
330
35359F
100
AcDbEntity
  8
姿図
100
AcDbVertex
100
AcDb2dVertex
 10
14803.03412018321
 20
-3348.91192710287
 30
0.0
  0
SEQEND
  5
3535A2
330
35359F
100
AcDbEntity
  8
姿図
  0
SPLINE
  5
3535A3
330
18
100
AcDbEntity
  8
姿図
100
AcDbSpline
210
0.0
220
0.0
230
1.0
 70
     8
 71
     3
 72
    11
 73
     7
 74
     0
 42
0.000000001
 43
0.0000000001
 40
0.0
 40
0.0
 40
0.0
 40
0.0
 40
1.0
 40
1.0
 40
1.0
 40
2.0
 40
2.0
 40
2.0
 40
2.0
 10
14805.77215158305
 20
-3347.685482893865
 30
0.0
 10
14805.77215158305
 20
-3347.685482893865
 30
0.0
 10
14804.14924455764
 20
-3347.841253046418
 30
0.0
 10
14802.79054496859
 20
-3347.852115994927
 30
0.0
 10
14802.79054496859
 20
-3347.852115994927
 30
0.0
 10
14803.03412018321
 20
-3348.91192710287
 30
0.0
 10
14803.03412018321
 20
-3348.91192710287
 30
0.0
  0
POLYLINE
  5
3535A4
330
18
100
AcDbEntity
  8
姿図
100
AcDb2dPolyline
 66
     1
 10
0.0
 20
0.0
 30
0.0
  0
VERTEX
  5
3535A5
330
3535A4
100
AcDbEntity
  8
姿図
100
AcDbVertex
100
AcDb2dVertex
 10
14806.33180998666
 20
-3346.806873466571
 30
0.0
  0
VERTEX
  5
3535A6
330
3535A4
100
AcDbEntity
  8
姿図
100
AcDbVertex
100
AcDb2dVertex
 10
14803.03412018321
 20
-3347.004031964511
 30
0.0
  0
VERTEX
  5
3535A7
330
3535A4
100
AcDbEntity
  8
姿図
100
AcDbVertex
100
AcDb2dVertex
 10
14802.79054496859
 20
-3347.852115994927
 30
0.0
  0
SEQEND
  5
3535A8
330
3535A4
100
AcDbEntity
  8
姿図
  0
SPLINE
  5
3535A9
330
18
100
AcDbEntity
  8
姿図
100
AcDbSpline
210
0.0
220
0.0
230
1.0
 70
     8
 71
     3
 72
     8
 73
     4
 74
     0
 42
0.000000001
 43
0.0000000001
 40
0.0
 40
0.0
 40
0.0
 40
0.0
 40
1.0
 40
1.0
 40
1.0
 40
1.0
 10
14803.03412018321
 20
-3347.004031964511
 30
0.0
 10
14803.03412018321
 20
-3347.004031964511
 30
0.0
 10
14799.29067695941
 20
-3342.282043173538
 30
0.0
 10
14788.8638588898
 20
-3342.494983103165
 30
0.0
  0
POLYLINE
  5
3535AA
330
18
100
AcDbEntity
  8
姿図
100
AcDb2dPolyline
 66
     1
 10
0.0
 20
0.0
 30
0.0
  0
VERTEX
  5
3535AB
330
3535AA
100
AcDbEntity
  8
姿図
100
AcDbVertex
100
AcDb2dVertex
 10
14810.04516972848
 20
-3343.194029452026
 30
0.0
  0
VERTEX
  5
3535AC
330
3535AA
100
AcDbEntity
  8
姿図
100
AcDbVertex
100
AcDb2dVertex
 10
14810.53382239447
 20
-3343.475976252538
 30
0.0
  0
VERTEX
  5
3535AD
330
3535AA
100
AcDbEntity
  8
姿図
100
AcDbVertex
100
AcDb2dVertex
 10
14810.96914494717
 20
-3358.577079960877
 30
0.0
  0
SEQEND
  5
3535AE
330
3535AA
100
AcDbEntity
  8
姿図
  0
SPLINE
  5
3535AF
330
18
100
AcDbEntity
  8
姿図
100
AcDbSpline
210
0.0
220
0.0
230
1.0
 70
     8
 71
     3
 72
    14
 73
    10
 74
     0
 42
0.000000001
 43
0.0000000001
 40
0.0
 40
0.0
 40
0.0
 40
0.0
 40
1.0
 40
1.0
 40
1.0
 40
2.0
 40
2.0
 40
2.0
 40
3.0
 40
3.0
 40
3.0
 40
3.0
 10
14781.22830502224
 20
-3342.065002014787
 30
0.0
 10
14781.22830502224
 20
-3342.065002014787
 30
0.0
 10
14781.79261203499
 20
-3343.617363064525
 30
0.0
 10
14781.79261203499
 20
-3343.617363064525
 30
0.0
 10
14781.79261203499
 20
-3343.617363064525
 30
0.0
 10
14785.18226727863
 20
-3343.252479583914
 30
0.0
 10
14788.50606790585
 20
-3343.512213948708
 30
0.0
 10
14788.50606790585
 20
-3343.512213948708
 30
0.0
 10
14788.35428302872
 20
-3341.92402861453
 30
0.0
 10
14788.35428302872
 20
-3341.92402861453
 30
0.0
  0
SPLINE
  5
3535B0
330
18
100
AcDbEntity
  8
姿図
100
AcDbSpline
210
0.0
220
0.0
230
1.0
 70
     8
 71
     3
 72
    20
 73
    16
 74
     0
 42
0.000000001
 43
0.0000000001
 40
0.0
 40
0.0
 40
0.0
 40
0.0
 40
1.0
 40
1.0
 40
1.0
 40
2.0
 40
2.0
 40
2.0
 40
3.0
 40
3.0
 40
3.0
 40
4.0
 40
4.0
 40
4.0
 40
5.0
 40
5.0
 40
5.0
 40
5.0
 10
14781.12248326777
 20
-3342.728637455778
 30
0.0
 10
14781.06307242375
 20
-3342.491670418892
 30
0.0
 10
14771.02509679639
 20
-3344.311067949067
 30
0.0
 10
14771.02509679639
 20
-3348.132645990019
 30
0.0
 10
14771.02509679639
 20
-3348.132645990019
 30
0.0
 10
14767.37055886928
 20
-3348.158116661662
 30
0.0
 10
14767.37055886928
 20
-3348.158116661662
 30
0.0
 10
14767.37055886928
 20
-3348.158116661662
 30
0.0
 10
14767.56040000753
 20
-3348.894687424543
 30
0.0
 10
14767.56040000753
 20
-3348.894687424543
 30
0.0
 10
14767.56040000753
 20
-3348.894687424543
 30
0.0
 10
14771.02509679639
 20
-3348.91192710287
 30
0.0
 10
14771.02509679639
 20
-3348.91192710287
 30
0.0
 10
14771.02509679639
 20
-3348.91192710287
 30
0.0
 10
14771.05568926448
 20
-3347.777111901397
 30
0.0
 10
14771.05568926448
 20
-3347.777111901397
 30
0.0
  0
SPLINE
  5
3535B1
330
18
100
AcDbEntity
  8
姿図
100
AcDbSpline
210
0.0
220
0.0
230
1.0
 70
     8
 71
     3
 72
     8
 73
     4
 74
     0
 42
0.000000001
 43
0.0000000001
 40
0.0
 40
0.0
 40
0.0
 40
0.0
 40
1.0
 40
1.0
 40
1.0
 40
1.0
 10
14784.57862004316
 20
-3346.682128988479
 30
0.0
 10
14784.57862004316
 20
-3346.682128988479
 30
0.0
 10
14767.44660485324
 20
-3346.677850108788
 30
0.0
 10
14765.02525234504
 20
-3355.143695535291
 30
0.0
  0
SPLINE
  5
3535B2
330
18
100
AcDbEntity
  8
姿図
100
AcDbSpline
210
0.0
220
0.0
230
1.0
 70
     8
 71
     3
 72
     8
 73
     4
 74
     0
 42
0.000000001
 43
0.0000000001
 40
0.0
 40
0.0
 40
0.0
 40
0.0
 40
1.0
 40
1.0
 40
1.0
 40
1.0
 10
14784.60567215828
 20
-3347.497645571272
 30
0.0
 10
14784.60567215828
 20
-3347.497645571272
 30
0.0
 10
14769.54880350515
 20
-3347.497645571272
 30
0.0
 10
14766.31240976937
 20
-3354.390872773222
 30
0.0
  0
SPLINE
  5
3535B3
330
18
100
AcDbEntity
  8
姿図
100
AcDbSpline
210
0.0
220
0.0
230
1.0
 70
     8
 71
     3
 72
    14
 73
    10
 74
     0
 42
0.000000001
 43
0.0000000001
 40
0.0
 40
0.0
 40
0.0
 40
0.0
 40
1.0
 40
1.0
 40
1.0
 40
2.0
 40
2.0
 40
2.0
 40
3.0
 40
3.0
 40
3.0
 40
3.0
 10
14784.3241096262
 20
-3353.275197064528
 30
0.0
 10
14784.3241096262
 20
-3353.275197064528
 30
0.0
 10
14784.14802537211
 20
-3351.177836800236
 30
0.0
 10
14784.14802537211
 20
-3351.177836800236
 30
0.0
 10
14765.23898620994
 20
-3351.389503606486
 30
0.0
 10
14762.76967794094
 20
-3357.386867587456
 30
0.0
 10
14762.76967794094
 20
-3357.386867587456
 30
0.0
 10
14762.76967794094
 20
-3357.386867587456
 30
0.0
 10
14762.40256832385
 20
-3362.930305487837
 30
0.0
 10
14762.40256832385
 20
-3362.930305487837
 30
0.0
  0
POLYLINE
  5
3535B4
330
18
100
AcDbEntity
  8
姿図
100
AcDb2dPolyline
 66
     1
 10
0.0
 20
0.0
 30
0.0
  0
VERTEX
  5
3535B5
330
3535B4
100
AcDbEntity
  8
姿図
100
AcDbVertex
100
AcDb2dVertex
 10
14764.05332136556
 20
-3355.87419406389
 30
0.0
  0
VERTEX
  5
3535B6
330
3535B4
100
AcDbEntity
  8
姿図
100
AcDbVertex
100
AcDb2dVertex
 10
14764.5626446181
 20
-3343.034039112146
 30
0.0
  0
VERTEX
  5
3535B7
330
3535B4
100
AcDbEntity
  8
姿図
100
AcDbVertex
100
AcDb2dVertex
 10
14763.61097081344
 20
-3342.960865235767
 30
0.0
  0
VERTEX
  5
3535B8
330
3535B4
100
AcDbEntity
  8
姿図
100
AcDbVertex
100
AcDb2dVertex
 10
14763.09751344359
 20
-3356.865555394721
 30
0.0
  0
SEQEND
  5
3535B9
330
3535B4
100
AcDbEntity
  8
姿図
  0
POLYLINE
  5
3535BA
330
18
100
AcDbEntity
  8
姿図
100
AcDb2dPolyline
 66
     1
 10
0.0
 20
0.0
 30
0.0
  0
VERTEX
  5
3535BB
330
3535BA
100
AcDbEntity
  8
姿図
100
AcDbVertex
100
AcDb2dVertex
 10
14763.58616610958
 20
-3343.628525181261
 30
0.0
  0
VERTEX
  5
3535BC
330
3535BA
100
AcDbEntity
  8
姿図
100
AcDbVertex
100
AcDb2dVertex
 10
14763.09751344359
 20
-3343.910471981771
 30
0.0
  0
VERTEX
  5
3535BD
330
3535BA
100
AcDbEntity
  8
姿図
100
AcDbVertex
100
AcDb2dVertex
 10
14762.6621908909
 20
-3359.011575690111
 30
0.0
  0
SEQEND
  5
3535BE
330
3535BA
100
AcDbEntity
  8
姿図
  0
SPLINE
  5
3535BF
330
18
100
AcDbEntity
  8
姿図
100
AcDbSpline
210
0.0
220
0.0
230
1.0
 70
     8
 71
     3
 72
     8
 73
     4
 74
     0
 42
0.000000001
 43
0.0000000001
 40
0.0
 40
0.0
 40
0.0
 40
0.0
 40
1.0
 40
1.0
 40
1.0
 40
1.0
 10
14784.60567215828
 20
-3348.91192710287
 30
0.0
 10
14784.60567215828
 20
-3348.91192710287
 30
0.0
 10
14772.96048381486
 20
-3348.92474286653
 30
0.0
 10
14769.33320928746
 20
-3353.150224168625
 30
0.0
  0
POLYLINE
  5
3535C0
330
18
100
AcDbEntity
  8
姿図
100
AcDb2dPolyline
 66
     1
 10
0.0
 20
0.0
 30
0.0
  0
VERTEX
  5
3535C1
330
3535C0
100
AcDbEntity
  8
姿図
100
AcDbVertex
100
AcDb2dVertex
 10
14775.70647280985
 20
-3324.960477925178
 30
0.0
  0
VERTEX
  5
3535C2
330
3535C0
100
AcDbEntity
  8
姿図
100
AcDbVertex
100
AcDb2dVertex
 10
14774.20132331936
 20
-3331.195931584607
 30
0.0
  0
SEQEND
  5
3535C3
330
3535C0
100
AcDbEntity
  8
姿図
  0
SPLINE
  5
3535C4
330
18
100
AcDbEntity
  8
姿図
100
AcDbSpline
210
0.0
220
0.0
230
1.0
 70
     8
 71
     3
 72
     8
 73
     4
 74
     0
 42
0.000000001
 43
0.0000000001
 40
0.0
 40
0.0
 40
0.0
 40
0.0
 40
1.0
 40
1.0
 40
1.0
 40
1.0
 10
14798.9033101675
 20
-3324.952443529484
 30
0.0
 10
14798.9033101675
 20
-3324.952443529484
 30
0.0
 10
14799.71401057191
 20
-3328.631601229122
 30
0.0
 10
14800.13734418441
 20
-3331.009132093846
 30
0.0
  0
LINE
  5
3535C5
330
18
100
AcDbEntity
  8
姿図
100
AcDbLine
 10
14788.99287656754
 20
-3340.352645459167
 30
0.0
 11
14788.82657765398
 21
-3342.568583002248
 31
0.0
  0
LINE
  5
3535C6
330
18
100
AcDbEntity
  8
姿図
100
AcDbLine
 10
14788.82657765398
 20
-3342.568583002248
 30
0.0
 11
14788.51245762148
 21
-3343.602687071078
 31
0.0
  0
LINE
  5
3535C7
330
18
100
AcDbEntity
  8
姿図
100
AcDbLine
 10
14780.41924300325
 20
-3340.980494301937
 30
0.0
 11
14781.3061705422
 21
-3343.159499641089
 31
0.0
  0
LINE
  5
3535C8
330
18
100
AcDbEntity
  8
姿図
100
AcDbLine
 10
14781.3061705422
 20
-3343.159499641089
 30
0.0
 11
14781.76811210629
 21
-3343.658085475256
 31
0.0
  0
LINE
  5
3535C9
330
18
100
AcDbEntity
  8
姿図
100
AcDbLine
 10
14771.0260136136
 20
-3348.92136258723
 30
0.0
 11
14771.15191102319
 21
-3349.173000857009
 31
0.0
  0
CIRCLE
  5
3535CA
330
18
100
AcDbEntity
  8
姿図
100
AcDbCircle
 10
14786.68316792185
 20
-3355.494808380465
 30
0.0
 40
0.8062981244031148
  0
LINE
  5
3535CB
330
18
100
AcDbEntity
  8
姿図
100
AcDbLine
 10
14767.55637365191
 20
-3348.904653711024
 30
0.0
 11
14769.37172170767
 21
-3350.114131426679
 31
0.0
  0
LINE
  5
3535CC
330
18
100
AcDbEntity
  8
姿図
100
AcDbLine
 10
14806.12388690468
 20
-3349.496715072364
 30
0.0
 11
14806.59298351735
 21
-3349.288949426216
 31
0.0
  0
LINE
  5
3535CD
330
18
100
AcDbEntity
  8
姿図
100
AcDbLine
 10
14804.56508904587
 20
-3349.52830503055
 30
0.0
 11
14806.13539957545
 21
-3349.52830503055
 31
0.0
  0
LINE
  5
3535CE
330
18
100
AcDbEntity
  8
姿図
100
AcDbLine
 10
14784.51460052802
 20
-3348.63486728619
 30
0.0
 11
14788.87208671462
 21
-3348.611070596411
 31
0.0
  0
LINE
  5
3535CF
330
18
100
AcDbEntity
  8
姿図
100
AcDbLine
 10
14784.37173214219
 20
-3352.204351671153
 30
0.0
 11
14789.06257803536
 21
-3352.180555176088
 31
0.0
  0
ENDSEC
  0
SECTION
  2
OBJECTS
  0
DICTIONARY
  5
C
330
0
100
AcDbDictionary
281
     1
  3
ACAD_GROUP
350
D
  3
ACAD_IMAGE_VARS
350
2F1759
  3
ACAD_LAYOUT
350
353
  3
ACAD_MLINESTYLE
350
E
  3
ACAD_PLOTSETTINGS
350
354
  3
ACAD_PLOTSTYLENAME
350
351
  3
ACAD_SCALELIST
350
CD53
  3
AcadDim
350
5182D
  3
AcDbVariableDictionary
350
E0D
  3
AEC_DISP_REPS
350
35377A
  3
AEC_DISPLAY_PROPS_DEFAULTS
350
35377C
  3
AEC_VARS
350
353778
  3
APPDATA
350
2F1758
  3
DWGPROPS
350
3537D8
  0
DICTIONARY
  5
559E
330
2
100
AcDbDictionary
280
     1
281
     1
  3
ACAD_LAYERFILTERS
360
29A509
  3
ACAD_LAYERSTATES
360
559F
  3
ACLYDICTIONARY
360
29A508
  0
DICTIONARY
  5
CD7F
330
F
100
AcDbDictionary
280
     1
281
     1
  3
ADSK_XREC_LAYER_RECONCILED
360
CD80
  0
DICTIONARY
  5
CD85
330
34
100
AcDbDictionary
280
     1
281
     1
  3
ADSK_XREC_LAYER_RECONCILED
360
CD86
  0
DICTIONARY
  5
CD8D
330
2F4
100
AcDbDictionary
280
     1
281
     1
  3
ADSK_XREC_LAYER_RECONCILED
360
CD8E
  0
DICTIONARY
  5
D25F
330
18
100
AcDbDictionary
280
     1
281
     1
  3
ACAD_SORTENTS
360
D260
  0
DICTIONARY
  5
D
102
{ACAD_REACTORS
330
C
102
}
330
C
100
AcDbDictionary
281
     1
  0
RASTERVARIABLES
  5
2F1759
102
{ACAD_REACTORS
330
C
102
}
330
C
100
AcDbRasterVariables
 90
        0
 70
     1
 71
     1
 72
     0
  0
DICTIONARY
  5
353
102
{ACAD_REACTORS
330
C
102
}
330
C
100
AcDbDictionary
281
     1
  3
Model
350
355
  3
ﾚｲｱｳﾄ1
350
356
  0
DICTIONARY
  5
E
102
{ACAD_REACTORS
330
C
102
}
330
C
100
AcDbDictionary
281
     1
  3
STANDARD
350
1B
  0
DICTIONARY
  5
354
102
{ACAD_REACTORS
330
C
102
}
330
C
100
AcDbDictionary
281
     1
  0
ACDBDICTIONARYWDFLT
  5
351
102
{ACAD_REACTORS
330
C
102
}
330
C
100
AcDbDictionary
281
     1
  3
Normal
350
352
100
AcDbDictionaryWithDefault
340
352
  0
DICTIONARY
  5
CD53
102
{ACAD_REACTORS
330
C
102
}
330
C
100
AcDbDictionary
281
     1
  3
A0
350
CD54
  3
A1
350
35DF8
  3
A2
350
35DF9
  3
A3
350
35DFA
  3
A4
350
35DFB
  3
A5
350
35DFC
  3
A6
350
35DFD
  3
A7
350
35DFE
  3
A8
350
35DFF
  3
A9
350
35E00
  3
B0
350
35E01
  3
B1
350
35E02
  3
B2
350
35E03
  3
B3
350
35E04
  3
B4
350
35E05
  3
B5
350
35E06
  3
B6
350
35E07
  3
B7
350
35E08
  3
B8
350
35E09
  3
B9
350
35E0A
  3
C0
350
35E0B
  3
C1
350
35E0C
  3
C2
350
35E0D
  3
C3
350
35E0E
  3
C4
350
35E0F
  3
C5
350
35E10
  3
C6
350
35E11
  3
C7
350
35E12
  3
C8
350
35E13
  3
C9
350
35E14
  3
D0
350
35E15
  3
D1
350
35E16
  3
D2
350
35E17
  0
XRECORD
  5
5182D
102
{ACAD_REACTORS
330
C
102
}
330
C
100
AcDbXrecord
280
     1
 90
   990106
  3
OPEN30
 60
     0
 61
     0
 62
     4
 63
     4
 64
     1
 65
     0
 66
     0
 67
     3
 68
     1
 69
     0
 70
     0
 71
     0
 72
     0
 40
0.0
170
     0
340
0
  0
DICTIONARY
  5
E0D
102
{ACAD_REACTORS
330
C
102
}
330
C
100
AcDbDictionary
281
     1
  3
DIMASSOC
350
E0E
  3
INDEXCTL
350
D04A
  3
PROJECTNAME
350
E0F
  3
SORTENTS
350
D049
  0
DICTIONARY
  5
35377A
102
{ACAD_REACTORS
330
C
102
}
330
C
100
AcDbDictionary
281
     1
  3
AecDbDispRep2dSection
350
35377B
  3
AecDbDispRepAnchor
350
3537B5
  3
AecDbDispRepAnchorEntToNode
350
3537B6
  3
AecDbDispRepClipVolModel
350
353782
  3
AecDbDispRepClipVolPlan
350
353784
  3
AecDbDispRepClipVolResSubDiv
350
353787
  3
AecDbDispRepClipVolResult
350
353786
  3
AecDbDispRepDisplayTheme
350
353789
  3
AecDbDispRepEditInPlaceProfile
350
3537BA
  3
AecDbDispRepEntRef
350
35378B
  3
AecDbDispRepLayoutCurve
350
35378D
  3
AecDbDispRepLayoutGrid2d
350
35378F
  3
AecDbDispRepLayoutGrid3d
350
353791
  3
AecDbDispRepMaskBlockRef
350
353793
  3
AecDbDispRepMaskBlockRefRcp
350
353795
  3
AecDbDispRepMassElemModel
350
353797
  3
AecDbDispRepMassElemPlan100
350
35379D
  3
AecDbDispRepMassElemPlan50
350
35379B
  3
AecDbDispRepMassElemRcp
350
35379F
  3
AecDbDispRepMassElemSchem
350
353799
  3
AecDbDispRepMassGroupModel
350
3537A1
  3
AecDbDispRepMassGroupPlan
350
3537A3
  3
AecDbDispRepMassGroupPlan100
350
3537A7
  3
AecDbDispRepMassGroupPlan50
350
3537A5
  3
AecDbDispRepMassGroupRcp
350
3537A9
  3
AecDbDispRepMaterial
350
3537B8
  3
AecDbDispRepMvBlockRef
350
3537AB
  3
AecDbDispRepMvBlockRefModel
350
3537AC
  3
AecDbDispRepMvBlockRefPlan100
350
3537AD
  3
AecDbDispRepMvBlockRefPlan50
350
3537AE
  3
AecDbDispRepPolygonModel
350
3537AF
  3
AecDbDispRepPolygonTrueColour
350
3537B1
  3
AecDbDispRepSlice
350
3537B3
  0
DICTIONARY
  5
35377C
102
{ACAD_REACTORS
330
C
102
}
330
C
100
AcDbDictionary
281
     1
  3
*A1
350
35377D
  3
*A10
350
353794
  3
*A11
350
353796
  3
*A12
350
353798
  3
*A13
350
35379A
  3
*A14
350
35379C
  3
*A15
350
35379E
  3
*A16
350
3537A0
  3
*A17
350
3537A2
  3
*A18
350
3537A4
  3
*A19
350
3537A6
  3
*A2
350
353783
  3
*A20
350
3537A8
  3
*A21
350
3537AA
  3
*A22
350
3537B0
  3
*A23
350
3537B2
  3
*A24
350
3537B4
  3
*A25
350
3537B7
  3
*A26
350
3537B9
  3
*A27
350
3537BB
  3
*A3
350
353785
  3
*A4
350
353788
  3
*A5
350
35378A
  3
*A6
350
35378C
  3
*A7
350
35378E
  3
*A8
350
353790
  3
*A9
350
353792
  0
DICTIONARY
  5
353778
102
{ACAD_REACTORS
330
C
102
}
330
C
100
AcDbDictionary
281
     1
  3
AEC_VARS_DWG_SETUP
350
353779
  0
DICTIONARY
  5
2F1758
102
{ACAD_REACTORS
330
C
102
}
330
C
100
AcDbDictionary
281
     1
  0
XRECORD
  5
3537D8
102
{ACAD_REACTORS
330
C
102
}
330
C
100
AcDbXrecord
280
     1
  1
DWGPROPS COOKIE
  2

  3

  4

  6

  7

  8
SPAX
  9

300
=
301
=
302
=
303
=
304
=
305
=
306
=
307
=
308
=
309
=
 40
0.0
 41
2448636.244629629
 42
2456821.253522014
  1

 90
        0
  0
DICTIONARY
  5
29A509
102
{ACAD_REACTORS
330
559E
102
}
330
559E
100
AcDbDictionary
281
     1
  0
DICTIONARY
  5
559F
102
{ACAD_REACTORS
330
559E
102
}
330
559E
100
AcDbDictionary
281
     1
  0
DICTIONARY
  5
29A508
102
{ACAD_REACTORS
330
559E
102
}
330
559E
100
AcDbDictionary
281
     1
1001
ACAD
1000
<All
  0
XRECORD
  5
CD80
102
{ACAD_REACTORS
330
CD7F
102
}
330
CD7F
100
AcDbXrecord
280
     1
290
     1
  0
XRECORD
  5
CD86
102
{ACAD_REACTORS
330
CD85
102
}
330
CD85
100
AcDbXrecord
280
     1
290
     1
  0
XRECORD
  5
CD8E
102
{ACAD_REACTORS
330
CD8D
102
}
330
CD8D
100
AcDbXrecord
280
     1
290
     1
  0
SORTENTSTABLE
  5
D260
102
{ACAD_REACTORS
330
D25F
102
}
330
D25F
100
AcDbSortentsTable
330
18
331
0
  5
3536CC
331
8182F
  5
2FEC53
331
3073B9
  5
307455
331
0
  5
352A6F
331
352B91
  5
352B91
331
353517
  5
353518
331
353518
  5
353519
331
353519
  5
35351A
331
35351A
  5
35351B
331
35351B
  5
353520
331
353520
  5
353521
331
353521
  5
353522
331
353522
  5
353523
331
353523
  5
353524
331
353524
  5
353525
331
353525
  5
353526
331
353526
  5
353527
331
353527
  5
353528
331
353528
  5
353529
331
353529
  5
35352A
331
35352A
  5
35352B
331
35352B
  5
353530
331
353530
  5
353531
331
353531
  5
353532
331
353532
  5
353533
331
353533
  5
353534
331
353534
  5
353535
331
353535
  5
35353A
331
35353A
  5
35353B
331
35353B
  5
35353C
331
35353C
  5
35353D
331
35353D
  5
35353E
331
35353E
  5
35353F
331
35353F
  5
353540
331
353540
  5
353541
331
353541
  5
353542
331
353542
  5
353543
331
353543
  5
353544
331
353544
  5
353545
331
353545
  5
353546
331
353546
  5
35354B
331
35354B
  5
35354C
331
35354C
  5
353551
331
353551
  5
353552
331
353552
  5
353553
331
353553
  5
353554
331
353554
  5
353555
331
353555
  5
35355C
331
35355C
  5
353560
331
353560
  5
353561
331
353561
  5
353562
331
353562
  5
353563
331
353563
  5
353564
331
353564
  5
353565
331
353565
  5
353569
331
353569
  5
353571
331
353571
  5
353575
331
353575
  5
353576
331
353576
  5
353577
331
353577
  5
353578
331
353578
  5
353579
331
353579
  5
35357A
331
35357A
  5
35357E
331
35357E
  5
353582
331
353582
  5
353583
331
353583
  5
353584
331
353584
  5
353585
331
353585
  5
353586
331
353586
  5
353587
331
353587
  5
353588
331
353588
  5
35358C
331
35358C
  5
35358D
331
35358D
  5
353593
331
353593
  5
353598
331
353598
  5
35359C
331
35359C
  5
35359D
331
35359D
  5
35359E
331
35359E
  5
35359F
331
35359F
  5
3535A3
331
3535A3
  5
3535A4
331
3535A4
  5
3535A9
331
3535A9
  5
3535AA
331
3535AA
  5
3535AF
331
3535AF
  5
3535B0
331
3535B0
  5
3535B1
331
3535B1
  5
3535B2
331
3535B2
  5
3535B3
331
3535B3
  5
3535B4
331
3535B4
  5
3535BA
331
3535BA
  5
3535BF
331
3535BF
  5
3535C0
331
3535C0
  5
3535C4
331
3535C4
  5
3535C5
331
3535C5
  5
3535C6
331
3535C6
  5
3535C7
331
3535C7
  5
3535C8
331
3535C8
  5
3535C9
331
3535C9
  5
3535CA
331
3535CA
  5
3535CB
331
3535CB
  5
3535CC
331
3535CC
  5
3535CD
331
3535CD
  5
3535CE
331
3535CE
  5
3535CF
331
3535CF
  5
35362F
  0
LAYOUT
  5
355
102
{ACAD_REACTORS
330
353
102
}
330
353
100
AcDbPlotSettings
  1

  2
JUST PDF 2
  4
A4
  6

 40
3.174999952316284
 41
3.174999952316284
 42
3.175003051757812
 43
3.17498779296875
 44
209.8886566162109
 45
297.0530090332031
 46
14.27171755861522
 47
9.85517307462564
 48
14707.59459432893
 49
-4024.1026677304
140
15232.58024981365
141
-3211.124642314399
142
1.0
143
3.0
 70
  3748
 72
     1
 73
     0
 74
     4
  7
spax form.ctb
 75
     0
147
0.547045008312821
148
-14707.59459432893
149
4024.1026677304
100
AcDbLayout
  1
Model
 70
     1
 71
     0
 10
0.0
 20
0.0
 11
12.0
 21
9.0
 12
0.0
 22
0.0
 32
0.0
 14
14714.35077530947
 24
-3408.050666857726
 34
0.0
 15
14828.10077530947
 25
-3289.056946956736
 35
0.0
146
0.0
 13
0.0
 23
0.0
 33
0.0
 16
1.0
 26
0.0
 36
0.0
 17
0.0
 27
1.0
 37
0.0
 76
     0
330
18
331
3523F0
1001
ACAD_PSEXT
1000
JUST PDF 2
1000
JUST PDF 2
1000
JUST PDF 2 Port:
1000

1070
     0
  0
LAYOUT
  5
356
102
{ACAD_REACTORS
330
353
102
}
330
353
100
AcDbPlotSettings
  1

  2
Canon LASER SHOT LBP-750
  4

  6

 40
0.0
 41
0.0
 42
0.0
 43
0.0
 44
0.0
 45
0.0
 46
0.0
 47
0.0
 48
0.0
 49
0.0
140
0.0
141
0.0
142
1.0
143
1.0
 70
   688
 72
     0
 73
     0
 74
     5
  7
spax form.ctb
 75
    16
147
1.0
148
0.0
149
0.0
100
AcDbLayout
  1
ﾚｲｱｳﾄ1
 70
     0
 71
     1
 10
0.0
 20
0.0
 11
12.0
 21
9.0
 12
0.0
 22
0.0
 32
0.0
 14
1.000000000000000E+20
 24
1.000000000000000E+20
 34
1.000000000000000E+20
 15
-1.000000000000000E+20
 25
-1.000000000000000E+20
 35
-1.000000000000000E+20
146
0.0
 13
0.0
 23
0.0
 33
0.0
 16
1.0
 26
0.0
 36
0.0
 17
0.0
 27
1.0
 37
0.0
 76
     0
330
15
  0
MLINESTYLE
  5
1B
102
{ACAD_REACTORS
330
E
102
}
330
E
100
AcDbMlineStyle
  2
STANDARD
 70
     0
  3

 62
     0
 51
90.0
 52
90.0
 71
     2
 49
0.5
 62
   256
  6
BYLAYER
 49
-0.5
 62
   256
  6
BYLAYER
  0
ACDBPLACEHOLDER
  5
352
102
{ACAD_REACTORS
330
351
102
}
330
351
  0
SCALE
  5
CD54
102
{ACAD_REACTORS
330
CD53
102
}
330
CD53
100
AcDbScale
 70
     0
300
1:1
140
1.0
141
1.0
290
     1
1001
ACAD
1000
AcRTDxfName
1000
SCALE
1000
AcRTDxfName
1000
SCALE
  0
SCALE
  5
35DF8
102
{ACAD_REACTORS
330
CD53
102
}
330
CD53
100
AcDbScale
 70
     0
300
1:2
140
1.0
141
2.0
290
     0
1001
ACAD
1000
AcRTDxfName
1000
SCALE
1000
AcRTDxfName
1000
SCALE
  0
SCALE
  5
35DF9
102
{ACAD_REACTORS
330
CD53
102
}
330
CD53
100
AcDbScale
 70
     0
300
1:4
140
1.0
141
4.0
290
     0
1001
ACAD
1000
AcRTDxfName
1000
SCALE
1000
AcRTDxfName
1000
SCALE
  0
SCALE
  5
35DFA
102
{ACAD_REACTORS
330
CD53
102
}
330
CD53
100
AcDbScale
 70
     0
300
1:5
140
1.0
141
5.0
290
     0
1001
ACAD
1000
AcRTDxfName
1000
SCALE
1000
AcRTDxfName
1000
SCALE
  0
SCALE
  5
35DFB
102
{ACAD_REACTORS
330
CD53
102
}
330
CD53
100
AcDbScale
 70
     0
300
1:8
140
1.0
141
8.0
290
     0
1001
ACAD
1000
AcRTDxfName
1000
SCALE
1000
AcRTDxfName
1000
SCALE
  0
SCALE
  5
35DFC
102
{ACAD_REACTORS
330
CD53
102
}
330
CD53
100
AcDbScale
 70
     0
300
1:10
140
1.0
141
10.0
290
     0
1001
ACAD
1000
AcRTDxfName
1000
SCALE
1000
AcRTDxfName
1000
SCALE
  0
SCALE
  5
35DFD
102
{ACAD_REACTORS
330
CD53
102
}
330
CD53
100
AcDbScale
 70
     0
300
1:16
140
1.0
141
16.0
290
     0
1001
ACAD
1000
AcRTDxfName
1000
SCALE
1000
AcRTDxfName
1000
SCALE
  0
SCALE
  5
35DFE
102
{ACAD_REACTORS
330
CD53
102
}
330
CD53
100
AcDbScale
 70
     0
300
1:20
140
1.0
141
20.0
290
     0
1001
ACAD
1000
AcRTDxfName
1000
SCALE
1000
AcRTDxfName
1000
SCALE
  0
SCALE
  5
35DFF
102
{ACAD_REACTORS
330
CD53
102
}
330
CD53
100
AcDbScale
 70
     0
300
1:30
140
1.0
141
30.0
290
     0
1001
ACAD
1000
AcRTDxfName
1000
SCALE
1000
AcRTDxfName
1000
SCALE
  0
SCALE
  5
35E00
102
{ACAD_REACTORS
330
CD53
102
}
330
CD53
100
AcDbScale
 70
     0
300
1:40
140
1.0
141
40.0
290
     0
1001
ACAD
1000
AcRTDxfName
1000
SCALE
1000
AcRTDxfName
1000
SCALE
  0
SCALE
  5
35E01
102
{ACAD_REACTORS
330
CD53
102
}
330
CD53
100
AcDbScale
 70
     0
300
1:50
140
1.0
141
50.0
290
     0
1001
ACAD
1000
AcRTDxfName
1000
SCALE
1000
AcRTDxfName
1000
SCALE
  0
SCALE
  5
35E02
102
{ACAD_REACTORS
330
CD53
102
}
330
CD53
100
AcDbScale
 70
     0
300
1:100
140
1.0
141
100.0
290
     0
1001
ACAD
1000
AcRTDxfName
1000
SCALE
1000
AcRTDxfName
1000
SCALE
  0
SCALE
  5
35E03
102
{ACAD_REACTORS
330
CD53
102
}
330
CD53
100
AcDbScale
 70
     0
300
2:1
140
2.0
141
1.0
290
     0
1001
ACAD
1000
AcRTDxfName
1000
SCALE
1000
AcRTDxfName
1000
SCALE
  0
SCALE
  5
35E04
102
{ACAD_REACTORS
330
CD53
102
}
330
CD53
100
AcDbScale
 70
     0
300
4:1
140
4.0
141
1.0
290
     0
1001
ACAD
1000
AcRTDxfName
1000
SCALE
1000
AcRTDxfName
1000
SCALE
  0
SCALE
  5
35E05
102
{ACAD_REACTORS
330
CD53
102
}
330
CD53
100
AcDbScale
 70
     0
300
8:1
140
8.0
141
1.0
290
     0
1001
ACAD
1000
AcRTDxfName
1000
SCALE
1000
AcRTDxfName
1000
SCALE
  0
SCALE
  5
35E06
102
{ACAD_REACTORS
330
CD53
102
}
330
CD53
100
AcDbScale
 70
     0
300
10:1
140
10.0
141
1.0
290
     0
1001
ACAD
1000
AcRTDxfName
1000
SCALE
1000
AcRTDxfName
1000
SCALE
  0
SCALE
  5
35E07
102
{ACAD_REACTORS
330
CD53
102
}
330
CD53
100
AcDbScale
 70
     0
300
100:1
140
100.0
141
1.0
290
     0
1001
ACAD
1000
AcRTDxfName
1000
SCALE
1000
AcRTDxfName
1000
SCALE
  0
SCALE
  5
35E08
102
{ACAD_REACTORS
330
CD53
102
}
330
CD53
100
AcDbScale
 70
     0
300
1/128" = 1'-0"
140
0.0078125
141
12.0
290
     0
1001
ACAD
1000
AcRTDxfName
1000
SCALE
1000
AcRTDxfName
1000
SCALE
  0
SCALE
  5
35E09
102
{ACAD_REACTORS
330
CD53
102
}
330
CD53
100
AcDbScale
 70
     0
300
1/64" = 1'-0"
140
0.015625
141
12.0
290
     0
1001
ACAD
1000
AcRTDxfName
1000
SCALE
1000
AcRTDxfName
1000
SCALE
  0
SCALE
  5
35E0A
102
{ACAD_REACTORS
330
CD53
102
}
330
CD53
100
AcDbScale
 70
     0
300
1/32" = 1'-0"
140
0.03125
141
12.0
290
     0
1001
ACAD
1000
AcRTDxfName
1000
SCALE
1000
AcRTDxfName
1000
SCALE
  0
SCALE
  5
35E0B
102
{ACAD_REACTORS
330
CD53
102
}
330
CD53
100
AcDbScale
 70
     0
300
1/16" = 1'-0"
140
0.0625
141
12.0
290
     0
1001
ACAD
1000
AcRTDxfName
1000
SCALE
1000
AcRTDxfName
1000
SCALE
  0
SCALE
  5
35E0C
102
{ACAD_REACTORS
330
CD53
102
}
330
CD53
100
AcDbScale
 70
     0
300
3/32" = 1'-0"
140
0.09375
141
12.0
290
     0
1001
ACAD
1000
AcRTDxfName
1000
SCALE
1000
AcRTDxfName
1000
SCALE
  0
SCALE
  5
35E0D
102
{ACAD_REACTORS
330
CD53
102
}
330
CD53
100
AcDbScale
 70
     0
300
1/8" = 1'-0"
140
0.125
141
12.0
290
     0
1001
ACAD
1000
AcRTDxfName
1000
SCALE
1000
AcRTDxfName
1000
SCALE
  0
SCALE
  5
35E0E
102
{ACAD_REACTORS
330
CD53
102
}
330
CD53
100
AcDbScale
 70
     0
300
3/16" = 1'-0"
140
0.1875
141
12.0
290
     0
1001
ACAD
1000
AcRTDxfName
1000
SCALE
1000
AcRTDxfName
1000
SCALE
  0
SCALE
  5
35E0F
102
{ACAD_REACTORS
330
CD53
102
}
330
CD53
100
AcDbScale
 70
     0
300
1/4" = 1'-0"
140
0.25
141
12.0
290
     0
1001
ACAD
1000
AcRTDxfName
1000
SCALE
1000
AcRTDxfName
1000
SCALE
  0
SCALE
  5
35E10
102
{ACAD_REACTORS
330
CD53
102
}
330
CD53
100
AcDbScale
 70
     0
300
3/8" = 1'-0"
140
0.375
141
12.0
290
     0
1001
ACAD
1000
AcRTDxfName
1000
SCALE
1000
AcRTDxfName
1000
SCALE
  0
SCALE
  5
35E11
102
{ACAD_REACTORS
330
CD53
102
}
330
CD53
100
AcDbScale
 70
     0
300
1/2" = 1'-0"
140
0.5
141
12.0
290
     0
1001
ACAD
1000
AcRTDxfName
1000
SCALE
1000
AcRTDxfName
1000
SCALE
  0
SCALE
  5
35E12
102
{ACAD_REACTORS
330
CD53
102
}
330
CD53
100
AcDbScale
 70
     0
300
3/4" = 1'-0"
140
0.75
141
12.0
290
     0
1001
ACAD
1000
AcRTDxfName
1000
SCALE
1000
AcRTDxfName
1000
SCALE
  0
SCALE
  5
35E13
102
{ACAD_REACTORS
330
CD53
102
}
330
CD53
100
AcDbScale
 70
     0
300
1" = 1'-0"
140
1.0
141
12.0
290
     0
1001
ACAD
1000
AcRTDxfName
1000
SCALE
1000
AcRTDxfName
1000
SCALE
  0
SCALE
  5
35E14
102
{ACAD_REACTORS
330
CD53
102
}
330
CD53
100
AcDbScale
 70
     0
300
1-1/2" = 1'-0"
140
1.5
141
12.0
290
     0
1001
ACAD
1000
AcRTDxfName
1000
SCALE
1000
AcRTDxfName
1000
SCALE
  0
SCALE
  5
35E15
102
{ACAD_REACTORS
330
CD53
102
}
330
CD53
100
AcDbScale
 70
     0
300
3" = 1'-0"
140
3.0
141
12.0
290
     0
1001
ACAD
1000
AcRTDxfName
1000
SCALE
1000
AcRTDxfName
1000
SCALE
  0
SCALE
  5
35E16
102
{ACAD_REACTORS
330
CD53
102
}
330
CD53
100
AcDbScale
 70
     0
300
6" = 1'-0"
140
6.0
141
12.0
290
     0
1001
ACAD
1000
AcRTDxfName
1000
SCALE
1000
AcRTDxfName
1000
SCALE
  0
SCALE
  5
35E17
102
{ACAD_REACTORS
330
CD53
102
}
330
CD53
100
AcDbScale
 70
     0
300
1'-0" = 1'-0"
140
12.0
141
12.0
290
     0
1001
ACAD
1000
AcRTDxfName
1000
SCALE
1000
AcRTDxfName
1000
SCALE
  0
DICTIONARYVAR
  5
E0E
102
{ACAD_REACTORS
330
E0D
102
}
330
E0D
100
DictionaryVariables
280
     0
  1
1
  0
DICTIONARYVAR
  5
D04A
102
{ACAD_REACTORS
330
E0D
102
}
330
E0D
100
DictionaryVariables
280
     0
  1
0
  0
DICTIONARYVAR
  5
E0F
102
{ACAD_REACTORS
330
E0D
102
}
330
E0D
100
DictionaryVariables
280
     0
  1

  0
DICTIONARYVAR
  5
D049
102
{ACAD_REACTORS
330
E0D
102
}
330
E0D
100
DictionaryVariables
280
     0
  1
127
  0
ENDSEC
  0
EOF
