  0
SECTION
  2
HEADER
  9
$ACADVER
  1
AC1015
  9
$ACADMAINTVER
 70
     6
  9
$DWGCODEPAGE
  3
ANSI_932
  9
$INSBASE
 10
0.0
 20
0.0
 30
0.0
  9
$EXTMIN
 10
2358.019531113161
 20
-1269.358626368256
 30
0.0
  9
$EXTMAX
 10
2468.269531113161
 20
-1160.724689670175
 30
0.0
  9
$LIMMIN
 10
0.0
 20
0.0
  9
$LIMMAX
 10
420.0
 20
297.0
  9
$ORTHOMODE
 70
     0
  9
$REGENMODE
 70
     1
  9
$FILLMODE
 70
     1
  9
$QTEXTMODE
 70
     0
  9
$MIRRTEXT
 70
     1
  9
$LTSCALE
 40
5.0
  9
$ATTMODE
 70
     0
  9
$TEXTSIZE
 40
4.8
  9
$TRACEWID
 40
1.0
  9
$TEXTSTYLE
  7
STANDARD
  9
$CLAYER
  8
0
  9
$CELTYPE
  6
BYLAYER
  9
$CECOLOR
 62
   256
  9
$CELTSCALE
 40
1.0
  9
$DISPSILH
 70
     0
  9
$DIMSCALE
 40
1.0
  9
$DIMASZ
 40
1.0
  9
$DIMEXO
 40
1.5
  9
$DIMDLI
 40
0.38
  9
$DIMRND
 40
0.0
  9
$DIMDLE
 40
0.0
  9
$DIMEXE
 40
1.0
  9
$DIMTP
 40
0.0
  9
$DIMTM
 40
0.0
  9
$DIMTXT
 40
3.5
  9
$DIMCEN
 40
0.09
  9
$DIMTSZ
 40
0.0
  9
$DIMTOL
 70
     0
  9
$DIMLIM
 70
     0
  9
$DIMTIH
 70
     0
  9
$DIMTOH
 70
     0
  9
$DIMSE1
 70
     0
  9
$DIMSE2
 70
     0
  9
$DIMTAD
 70
     3
  9
$DIMZIN
 70
     8
  9
$DIMBLK
  1

  9
$DIMASO
 70
     1
  9
$DIMSHO
 70
     0
  9
$DIMPOST
  1

  9
$DIMAPOST
  1

  9
$DIMALT
 70
     0
  9
$DIMALTD
 70
     0
  9
$DIMALTF
 40
25.4
  9
$DIMLFAC
 40
1.0
  9
$DIMTOFL
 70
     0
  9
$DIMTVP
 40
0.0
  9
$DIMTIX
 70
     0
  9
$DIMSOXD
 70
     0
  9
$DIMSAH
 70
     0
  9
$DIMBLK1
  1

  9
$DIMBLK2
  1

  9
$DIMSTYLE
  2
STANDARD
  9
$DIMCLRD
 70
     0
  9
$DIMCLRE
 70
     0
  9
$DIMCLRT
 70
     0
  9
$DIMTFAC
 40
1.0
  9
$DIMGAP
 40
1.0
  9
$DIMJUST
 70
     0
  9
$DIMSD1
 70
     0
  9
$DIMSD2
 70
     0
  9
$DIMTOLJ
 70
     1
  9
$DIMTZIN
 70
     0
  9
$DIMALTZ
 70
     0
  9
$DIMALTTZ
 70
     0
  9
$DIMUPT
 70
     0
  9
$DIMDEC
 70
     2
  9
$DIMTDEC
 70
     4
  9
$DIMALTU
 70
     2
  9
$DIMALTTD
 70
     2
  9
$DIMTXSTY
  7
STANDARD
  9
$DIMAUNIT
 70
     0
  9
$DIMADEC
 70
     0
  9
$DIMALTRND
 40
0.0
  9
$DIMAZIN
 70
     0
  9
$DIMDSEP
 70
    46
  9
$DIMATFIT
 70
     3
  9
$DIMFRAC
 70
     0
  9
$DIMLDRBLK
  1

  9
$DIMLUNIT
 70
     2
  9
$DIMLWD
 70
    -2
  9
$DIMLWE
 70
    -2
  9
$DIMTMOVE
 70
     0
  9
$LUNITS
 70
     2
  9
$LUPREC
 70
     2
  9
$SKETCHINC
 40
0.1
  9
$FILLETRAD
 40
0.5
  9
$AUNITS
 70
     0
  9
$AUPREC
 70
     1
  9
$MENU
  1
FM
  9
$ELEVATION
 40
0.0
  9
$PELEVATION
 40
0.0
  9
$THICKNESS
 40
0.0
  9
$LIMCHECK
 70
     0
  9
$CHAMFERA
 40
0.0
  9
$CHAMFERB
 40
0.0
  9
$CHAMFERC
 40
0.0
  9
$CHAMFERD
 40
0.0
  9
$SKPOLY
 70
     0
  9
$TDCREATE
 40
2448636.619629629
  9
$TDUCREATE
 40
2448636.244629629
  9
$TDUPDATE
 40
2456822.449335359
  9
$TDUUPDATE
 40
2456822.074335359
  9
$TDINDWG
 40
3.7949373611
  9
$TDUSRTIMER
 40
2456822.074191667
  9
$USRTIMER
 70
     1
  9
$ANGBASE
 50
0.0
  9
$ANGDIR
 70
     0
  9
$PDMODE
 70
     3
  9
$PDSIZE
 40
0.0
  9
$PLINEWID
 40
0.0
  9
$SPLFRAME
 70
     0
  9
$SPLINETYPE
 70
     6
  9
$SPLINESEGS
 70
     8
  9
$HANDSEED
  5
16164
  9
$SURFTAB1
 70
     6
  9
$SURFTAB2
 70
     6
  9
$SURFTYPE
 70
     6
  9
$SURFU
 70
     6
  9
$SURFV
 70
     6
  9
$UCSBASE
  2

  9
$UCSNAME
  2

  9
$UCSORG
 10
0.0
 20
0.0
 30
0.0
  9
$UCSXDIR
 10
1.0
 20
0.0
 30
0.0
  9
$UCSYDIR
 10
0.0
 20
1.0
 30
0.0
  9
$UCSORTHOREF
  2

  9
$UCSORTHOVIEW
 70
     0
  9
$UCSORGTOP
 10
0.0
 20
0.0
 30
0.0
  9
$UCSORGBOTTOM
 10
0.0
 20
0.0
 30
0.0
  9
$UCSORGLEFT
 10
0.0
 20
0.0
 30
0.0
  9
$UCSORGRIGHT
 10
0.0
 20
0.0
 30
0.0
  9
$UCSORGFRONT
 10
0.0
 20
0.0
 30
0.0
  9
$UCSORGBACK
 10
0.0
 20
0.0
 30
0.0
  9
$PUCSBASE
  2

  9
$PUCSNAME
  2

  9
$PUCSORG
 10
0.0
 20
0.0
 30
0.0
  9
$PUCSXDIR
 10
1.0
 20
0.0
 30
0.0
  9
$PUCSYDIR
 10
0.0
 20
1.0
 30
0.0
  9
$PUCSORTHOREF
  2

  9
$PUCSORTHOVIEW
 70
     0
  9
$PUCSORGTOP
 10
0.0
 20
0.0
 30
0.0
  9
$PUCSORGBOTTOM
 10
0.0
 20
0.0
 30
0.0
  9
$PUCSORGLEFT
 10
0.0
 20
0.0
 30
0.0
  9
$PUCSORGRIGHT
 10
0.0
 20
0.0
 30
0.0
  9
$PUCSORGFRONT
 10
0.0
 20
0.0
 30
0.0
  9
$PUCSORGBACK
 10
0.0
 20
0.0
 30
0.0
  9
$USERI1
 70
     0
  9
$USERI2
 70
     0
  9
$USERI3
 70
     0
  9
$USERI4
 70
     0
  9
$USERI5
 70
     0
  9
$USERR1
 40
0.0
  9
$USERR2
 40
0.0
  9
$USERR3
 40
0.0
  9
$USERR4
 40
0.0
  9
$USERR5
 40
0.0
  9
$WORLDVIEW
 70
     0
  9
$SHADEDGE
 70
     3
  9
$SHADEDIF
 70
    70
  9
$TILEMODE
 70
     1
  9
$MAXACTVP
 70
    16
  9
$PINSBASE
 10
0.0
 20
0.0
 30
0.0
  9
$PLIMCHECK
 70
     0
  9
$PEXTMIN
 10
1.000000000000000E+20
 20
1.000000000000000E+20
 30
1.000000000000000E+20
  9
$PEXTMAX
 10
-1.000000000000000E+20
 20
-1.000000000000000E+20
 30
-1.000000000000000E+20
  9
$PLIMMIN
 10
0.0
 20
0.0
  9
$PLIMMAX
 10
0.0
 20
0.0
  9
$UNITMODE
 70
     0
  9
$VISRETAIN
 70
     0
  9
$PLINEGEN
 70
     0
  9
$PSLTSCALE
 70
     0
  9
$TREEDEPTH
 70
  3020
  9
$CMLSTYLE
  2
STANDARD
  9
$CMLJUST
 70
     0
  9
$CMLSCALE
 40
1.0
  9
$PROXYGRAPHICS
 70
     1
  9
$MEASUREMENT
 70
     0
  9
$CELWEIGHT
370
    -1
  9
$ENDCAPS
280
     0
  9
$JOINSTYLE
280
     0
  9
$LWDISPLAY
290
     0
  9
$INSUNITS
 70
     0
  9
$HYPERLINKBASE
  1

  9
$STYLESHEET
  1
spax form.ctb
  9
$XEDIT
290
     1
  9
$CEPSNTYPE
380
     0
  9
$PSTYLEMODE
290
     1
  9
$FINGERPRINTGUID
  2
{910FE9C4-8E0B-11D3-9160-00E0294F7D7F}
  9
$VERSIONGUID
  2
{83FFDB47-BBBA-4638-A6BA-D1AAB724B448}
  9
$EXTNAMES
290
     1
  9
$PSVPSCALE
 40
0.0
  9
$OLESTARTUP
290
     0
  0
ENDSEC
  0
SECTION
  2
CLASSES
  0
CLASS
  1
LWPOLYLINE
  2
AcDbPolyline
  3
ObjectDBX Classes
 90
        0
280
     0
281
     1
  0
CLASS
  1
HATCH
  2
AcDbHatch
  3
ObjectDBX Classes
 90
        0
280
     0
281
     1
  0
CLASS
  1
DICTIONARYVAR
  2
AcDbDictionaryVar
  3
ObjectDBX Classes
 90
        0
280
     0
281
     0
  0
CLASS
  1
ACDBDICTIONARYWDFLT
  2
AcDbDictionaryWithDefault
  3
ObjectDBX Classes
 90
        0
280
     0
281
     0
  0
CLASS
  1
ACDBPLACEHOLDER
  2
AcDbPlaceHolder
  3
ObjectDBX Classes
 90
        0
280
     0
281
     0
  0
CLASS
  1
LAYOUT
  2
AcDbLayout
  3
ObjectDBX Classes
 90
        0
280
     0
281
     0
  0
CLASS
  1
MATERIAL
  2
AcDbMaterial
  3
ObjectDBX Classes
 90
     1153
280
     0
281
     0
  0
CLASS
  1
VISUALSTYLE
  2
AcDbVisualStyle
  3
ObjectDBX Classes
 90
     4095
280
     0
281
     0
  0
CLASS
  1
TABLESTYLE
  2
AcDbTableStyle
  3
ObjectDBX Classes
 90
     4095
280
     0
281
     0
  0
CLASS
  1
SCALE
  2
AcDbScale
  3
ObjectDBX Classes
 90
     1153
280
     0
281
     0
  0
CLASS
  1
MLEADERSTYLE
  2
AcDbMLeaderStyle
  3
ACDB_MLEADERSTYLE_CLASS
 90
     4095
280
     0
281
     0
  0
CLASS
  1
CELLSTYLEMAP
  2
AcDbCellStyleMap
  3
ObjectDBX Classes
 90
     1152
280
     0
281
     0
  0
CLASS
  1
SORTENTSTABLE
  2
AcDbSortentsTable
  3
ObjectDBX Classes
 90
        0
280
     0
281
     0
  0
CLASS
  1
AEC_VARS_DWG_SETUP
  2
AecDbVarsDwgSetup
  3
AecBase60
 90
      129
280
     0
281
     0
  0
CLASS
  1
SUN
  2
AcDbSun
  3
SCENEOE
 90
     1153
280
     0
281
     0
  0
CLASS
  1
RASTERVARIABLES
  2
AcDbRasterVariables
  3
ISM
 90
        0
280
     0
281
     0
  0
ENDSEC
  0
SECTION
  2
TABLES
  0
TABLE
  2
VPORT
  5
8
330
0
100
AcDbSymbolTable
 70
     5
  0
VPORT
  5
1612C
330
8
100
AcDbSymbolTableRecord
100
AcDbViewportTableRecord
  2
*Active
 70
     0
 10
0.0
 20
0.0
 11
1.0
 21
1.0
 12
2413.144531113161
 22
-1215.041658019216
 13
0.0
 23
0.0
 14
1.0
 24
1.0
 15
20.0
 25
20.0
 16
0.0
 26
0.0
 36
1.0
 17
0.0
 27
0.0
 37
0.0
 40
110.8066154320431
 41
1.731829573934837
 42
50.0
 43
0.0
 44
0.0
 50
0.0
 51
0.0
 71
    16
 72
   100
 73
     1
 74
     0
 75
     0
 76
     0
 77
     0
 78
     0
281
     0
 65
     1
110
0.0
120
0.0
130
0.0
111
1.0
121
0.0
131
0.0
112
0.0
122
1.0
132
0.0
 79
     0
146
0.0
  0
ENDTAB
  0
TABLE
  2
LTYPE
  5
5
330
0
100
AcDbSymbolTable
 70
     1
  0
LTYPE
  5
12
330
5
100
AcDbSymbolTableRecord
100
AcDbLinetypeTableRecord
  2
BYBLOCK
 70
     0
  3

 72
    65
 73
     0
 40
0.0
  0
LTYPE
  5
13
330
5
100
AcDbSymbolTableRecord
100
AcDbLinetypeTableRecord
  2
BYLAYER
 70
     0
  3

 72
    65
 73
     0
 40
0.0
  0
LTYPE
  5
14
330
5
100
AcDbSymbolTableRecord
100
AcDbLinetypeTableRecord
  2
CONTINUOUS
 70
     0
  3
Solid line
 72
    65
 73
     0
 40
0.0
  0
ENDTAB
  0
TABLE
  2
LAYER
  5
2
102
{ACAD_XDICTIONARY
360
A17D
102
}
330
0
100
AcDbSymbolTable
 70
    12
  0
LAYER
  5
F
102
{ACAD_XDICTIONARY
360
9B49
102
}
330
2
100
AcDbSymbolTableRecord
100
AcDbLayerTableRecord
  2
0
 70
     0
 62
     7
  6
CONTINUOUS
370
    -3
390
6F61
  0
LAYER
  5
2F4
102
{ACAD_XDICTIONARY
360
9B59
102
}
330
2
100
AcDbSymbolTableRecord
100
AcDbLayerTableRecord
  2
文字
 70
     0
 62
     7
  6
CONTINUOUS
370
    -3
390
6F61
  0
LAYER
  5
305
102
{ACAD_XDICTIONARY
360
9B5D
102
}
330
2
100
AcDbSymbolTableRecord
100
AcDbLayerTableRecord
  2
姿図
 70
     0
 62
     8
  6
CONTINUOUS
370
    -3
390
6F61
  0
ENDTAB
  0
TABLE
  2
STYLE
  5
3
330
0
100
AcDbSymbolTable
 70
     1
  0
STYLE
  5
10
330
3
100
AcDbSymbolTableRecord
100
AcDbTextStyleTableRecord
  2
STANDARD
 70
     0
 40
4.8
 41
1.0
 50
0.0
 71
     0
 42
4.8
  3
MONOTXT.shx
  4
BIGFONT.shx
  0
ENDTAB
  0
TABLE
  2
VIEW
  5
6
330
0
100
AcDbSymbolTable
 70
     0
  0
ENDTAB
  0
TABLE
  2
UCS
  5
7
330
0
100
AcDbSymbolTable
 70
     0
  0
ENDTAB
  0
TABLE
  2
APPID
  5
9
330
0
100
AcDbSymbolTable
 70
     8
  0
APPID
  5
11
330
9
100
AcDbSymbolTableRecord
100
AcDbRegAppTableRecord
  2
ACAD
 70
     0
  0
APPID
  5
9B3E
330
9
100
AcDbSymbolTableRecord
100
AcDbRegAppTableRecord
  2
ACAD_MLEADERVER
 70
     0
  0
APPID
  5
A17A
330
9
100
AcDbSymbolTableRecord
100
AcDbRegAppTableRecord
  2
ACAD_DSTYLE_DIMJAG
 70
     0
  0
APPID
  5
A17B
330
9
100
AcDbSymbolTableRecord
100
AcDbRegAppTableRecord
  2
ACAD_DSTYLE_DIMTALN
 70
     0
  0
APPID
  5
A17C
330
9
100
AcDbSymbolTableRecord
100
AcDbRegAppTableRecord
  2
ACAD_DSTYLE_DIMRADIAL_EXTENSION
 70
     0
  0
APPID
  5
D2BB
330
9
100
AcDbSymbolTableRecord
100
AcDbRegAppTableRecord
  2
ACAD_PSEXT
 70
     0
  0
APPID
  5
135A6
330
9
100
AcDbSymbolTableRecord
100
AcDbRegAppTableRecord
  2
ACAD_EXEMPT_FROM_CAD_STANDARDS
 70
     0
  0
APPID
  5
15A14
330
9
100
AcDbSymbolTableRecord
100
AcDbRegAppTableRecord
  2
AcAecLayerStandard
 70
     0
  0
ENDTAB
  0
TABLE
  2
DIMSTYLE
  5
A
330
0
100
AcDbSymbolTable
 70
     1
100
AcDbDimStyleTable
  0
DIMSTYLE
105
1CC
330
A
100
AcDbSymbolTableRecord
100
AcDbDimStyleTableRecord
  2
STANDARD
 70
     0
 41
1.0
 42
1.5
 44
1.0
 73
     0
 74
     0
 77
     3
 78
     8
140
3.5
147
1.0
171
     0
178
     0
271
     2
340
10
  0
ENDTAB
  0
TABLE
  2
BLOCK_RECORD
  5
1
330
0
100
AcDbSymbolTable
 70
     0
  0
BLOCK_RECORD
  5
18
102
{ACAD_XDICTIONARY
360
CC86
102
}
330
1
100
AcDbSymbolTableRecord
100
AcDbBlockTableRecord
  2
*MODEL_SPACE
340
6F64
  0
BLOCK_RECORD
  5
15
330
1
100
AcDbSymbolTableRecord
100
AcDbBlockTableRecord
  2
*PAPER_SPACE
340
6F65
  0
ENDTAB
  0
ENDSEC
  0
SECTION
  2
BLOCKS
  0
BLOCK
  5
39
330
18
100
AcDbEntity
  8
0
100
AcDbBlockBegin
  2
*MODEL_SPACE
 70
     0
 10
0.0
 20
0.0
 30
0.0
  3
*MODEL_SPACE
  1
*MODEL_SPACE
  0
ENDBLK
  5
3A
330
18
100
AcDbEntity
  8
0
100
AcDbBlockEnd
  0
BLOCK
  5
37
330
15
100
AcDbEntity
 67
     1
  8
0
100
AcDbBlockBegin
  2
*PAPER_SPACE
 70
     0
 10
0.0
 20
0.0
 30
0.0
  3
*PAPER_SPACE
  1
*PAPER_SPACE
  0
ENDBLK
  5
38
330
15
100
AcDbEntity
 67
     1
  8
0
100
AcDbBlockEnd
  0
ENDSEC
  0
SECTION
  2
ENTITIES
  0
LINE
  5
15B4D
330
18
100
AcDbEntity
  8
姿図
100
AcDbLine
 10
2416.022385498176
 20
-1212.728460349084
 30
0.0
 11
2392.630202429243
 21
-1202.88252054976
 31
0.0
  0
LINE
  5
15B4E
330
18
100
AcDbEntity
  8
姿図
100
AcDbLine
 10
2416.022385498176
 20
-1184.544630822847
 30
0.0
 11
2411.097666437661
 21
-1182.688089749516
 31
0.0
  0
LINE
  5
15B4F
330
18
100
AcDbEntity
  8
姿図
100
AcDbLine
 10
2400.729037121519
 20
-1178.779280746807
 30
0.0
 11
2392.630202429243
 21
-1175.726148361473
 31
0.0
  0
LINE
  5
15B50
330
18
100
AcDbEntity
  8
姿図
100
AcDbLine
 10
2425.418349177121
 20
-1226.810069213177
 30
0.0
 11
2385.690109913699
 21
-1209.712873363106
 31
0.0
  0
ARC
  5
15B51
330
18
100
AcDbEntity
  8
姿図
100
AcDbCircle
 10
2386.085411861243
 20
-1208.794322128679
 30
0.0
 40
1.0
100
AcDbArc
 50
180.0
 51
246.7151929152848
  0
LINE
  5
15B52
330
18
100
AcDbEntity
  8
姿図
100
AcDbLine
 10
2426.139214902105
 20
-1176.083999768769
 30
0.0
 11
2386.410975638682
 21
-1162.404675678207
 31
0.0
  0
ARC
  5
15B53
330
18
100
AcDbEntity
  8
姿図
100
AcDbCircle
 10
2386.085411861243
 20
-1163.350195760923
 30
0.0
 40
1.0
100
AcDbArc
 50
71.00026523482501
 51
180.0
  0
LINE
  5
15B54
330
18
100
AcDbEntity
  8
姿図
100
AcDbLine
 10
2429.634404393518
 20
-1174.350196549166
 30
0.0
 11
2390.602643561362
 21
-1160.724689670175
 31
0.0
  0
LINE
  5
15B55
330
18
100
AcDbEntity
  8
姿図
100
AcDbLine
 10
2392.630202429243
 20
-1175.726148361473
 30
0.0
 11
2392.630202429243
 21
-1202.88252054976
 31
0.0
  0
LINE
  5
15B56
330
18
100
AcDbEntity
  8
姿図
100
AcDbLine
 10
2385.085411861243
 20
-1163.350195760923
 30
0.0
 11
2385.085411861243
 21
-1208.794322128679
 31
0.0
  0
LINE
  5
15B57
330
18
100
AcDbEntity
  8
姿図
100
AcDbLine
 10
2399.501017160145
 20
-1194.615148542101
 30
0.0
 11
2399.501017160145
 21
-1203.439197747855
 31
0.0
  0
LINE
  5
15B58
330
18
100
AcDbEntity
  8
姿図
100
AcDbLine
 10
2408.713551333247
 20
-1198.612362035944
 30
0.0
 11
2399.313950685948
 21
-1194.533982532743
 31
0.0
  0
LINE
  5
15B59
330
18
100
AcDbEntity
  8
姿図
100
AcDbLine
 10
2399.313950685948
 20
-1194.533982532743
 30
0.0
 11
2399.313950685948
 21
-1203.579386891159
 31
0.0
  0
LINE
  5
15B5A
330
18
100
AcDbEntity
  8
姿図
100
AcDbLine
 10
2407.900617807444
 20
-1205.632779319996
 30
0.0
 11
2405.481098677021
 21
-1206.156135882009
 31
0.0
  0
LINE
  5
15B5B
330
18
100
AcDbEntity
  8
姿図
100
AcDbLine
 10
2407.721432986729
 20
-1199.050611125648
 30
0.0
 11
2405.481098677021
 21
-1199.651713937476
 31
0.0
  0
LINE
  5
15B5C
330
18
100
AcDbEntity
  8
姿図
100
AcDbLine
 10
2407.900617807444
 20
-1199.128357375463
 30
0.0
 11
2400.501017160145
 21
-1195.917755059025
 31
0.0
  0
LINE
  5
15B5D
330
18
100
AcDbEntity
  8
姿図
100
AcDbLine
 10
2408.713551333247
 20
-1207.534435079771
 30
0.0
 11
2405.451050668106
 21
-1206.16168023303
 31
0.0
  0
LINE
  5
15B5E
330
18
100
AcDbEntity
  8
姿図
100
AcDbLine
 10
2404.021041820391
 20
-1205.341078052752
 30
0.0
 11
2399.501017160145
 21
-1203.439197747855
 31
0.0
  0
LINE
  5
15B5F
330
18
100
AcDbEntity
  8
姿図
100
AcDbLine
 10
2404.835981094832
 20
-1205.902878833596
 30
0.0
 11
2399.313950685948
 21
-1203.579386891159
 31
0.0
  0
LINE
  5
15B60
330
18
100
AcDbEntity
  8
姿図
100
AcDbLine
 10
2399.313950685948
 20
-1203.579386891159
 30
0.0
 11
2399.501017160145
 21
-1203.439197747855
 31
0.0
  0
LINE
  5
15B61
330
18
100
AcDbEntity
  8
姿図
100
AcDbLine
 10
2405.396357353798
 20
-1200.098649000594
 30
0.0
 11
2405.396357353798
 21
-1205.620069866294
 31
0.0
  0
ARC
  5
15B62
330
18
100
AcDbEntity
  8
姿図
100
AcDbCircle
 10
2400.521537548062
 20
-1202.611513341362
 30
0.0
 40
0.1
100
AcDbArc
 50
180.0
 51
235.4184951185415
  0
ARC
  5
15B63
330
18
100
AcDbEntity
  8
姿図
100
AcDbCircle
 10
2403.169570646266
 20
-1196.672177553091
 30
0.0
 40
0.1
100
AcDbArc
 50
132.5869649786743
 51
251.1531524783431
  0
ARC
  5
15B64
330
18
100
AcDbEntity
  8
姿図
100
AcDbCircle
 10
2405.375390352614
 20
-1199.163015922183
 30
0.0
 40
0.5
100
AcDbArc
 50
235.4184951185415
 51
282.20538440793
  0
ARC
  5
15B65
330
18
100
AcDbEntity
  8
姿図
100
AcDbCircle
 10
2405.375390352614
 20
-1205.667437866716
 30
0.0
 40
0.5
100
AcDbArc
 50
235.4184951185415
 51
282.20538440793
  0
LINE
  5
15B66
330
18
100
AcDbEntity
  8
姿図
100
AcDbLine
 10
2400.464779747415
 20
-1202.693845303963
 30
0.0
 11
2405.091601349382
 21
-1206.079097679722
 31
0.0
  0
LINE
  5
15B67
330
18
100
AcDbEntity
  8
姿図
100
AcDbLine
 10
2403.370304034873
 20
-1196.351854771229
 30
0.0
 11
2403.101899797556
 21
-1196.598552447082
 31
0.0
  0
LINE
  5
15B68
330
18
100
AcDbEntity
  8
姿図
100
AcDbLine
 10
2400.421537548063
 20
-1196.283567227322
 30
0.0
 11
2400.421537548063
 21
-1202.611513341362
 31
0.0
  0
LINE
  5
15B69
330
18
100
AcDbEntity
  8
姿図
100
AcDbLine
 10
2405.143019043977
 20
-1200.130291974165
 30
0.0
 11
2405.143019043977
 21
-1205.651712839864
 31
0.0
  0
LINE
  5
15B6A
330
18
100
AcDbEntity
  8
姿図
100
AcDbLine
 10
2400.462228022995
 20
-1196.3832900318
 30
0.0
 11
2405.091601349382
 21
-1199.574675735189
 31
0.0
  0
LINE
  5
15B6B
330
18
100
AcDbEntity
  8
姿図
100
AcDbLine
 10
2403.048357274123
 20
-1196.308206759911
 30
0.0
 11
2403.124346590186
 21
-1196.577920986016
 31
0.0
  0
LINE
  5
15B6C
330
18
100
AcDbEntity
  8
姿図
100
AcDbLine
 10
2408.713551333247
 20
-1207.31553440949
 30
0.0
 11
2405.796153412432
 21
-1206.087987644991
 31
0.0
  0
LINE
  5
15B6D
330
18
100
AcDbEntity
  8
姿図
100
AcDbLine
 10
2407.900617807444
 20
-1205.888561001297
 30
0.0
 11
2407.499123163204
 21
-1205.719625029969
 31
0.0
  0
LINE
  5
15B6E
330
18
100
AcDbEntity
  8
姿図
100
AcDbLine
 10
2407.900617807444
 20
-1199.128357375463
 30
0.0
 11
2407.900617807444
 21
-1205.888561001297
 31
0.0
  0
LINE
  5
15B6F
330
18
100
AcDbEntity
  8
姿図
100
AcDbLine
 10
2408.713551333247
 20
-1198.612362035944
 30
0.0
 11
2408.713551333247
 21
-1207.534435079771
 31
0.0
  0
LINE
  5
15B70
330
18
100
AcDbEntity
  8
姿図
100
AcDbLine
 10
2442.249064873168
 20
-1180.672941582596
 30
0.0
 11
2442.249064873168
 21
-1207.047040881915
 31
0.0
  0
ARC
  5
15B71
330
18
100
AcDbEntity
  8
姿図
100
AcDbCircle
 10
2441.249064873168
 20
-1180.672941582596
 30
0.0
 40
1.0
100
AcDbArc
 50
0.0
 51
120.6291335629109
  0
ARC
  5
15B72
330
18
100
AcDbEntity
  8
姿図
100
AcDbCircle
 10
2441.249064873168
 20
-1207.047040881915
 30
0.0
 40
1.0
100
AcDbArc
 50
300.629133562911
 51
0.0
  0
LINE
  5
15B73
330
18
100
AcDbEntity
  8
姿図
100
AcDbLine
 10
2416.022385498176
 20
-1184.544630822847
 30
0.0
 11
2416.022385498176
 21
-1212.728460349084
 31
0.0
  0
LINE
  5
15B74
330
18
100
AcDbEntity
  8
姿図
100
AcDbLine
 10
2426.813651124666
 20
-1177.029519851485
 30
0.0
 11
2426.813651124666
 21
-1225.89151797875
 31
0.0
  0
ARC
  5
15B75
330
18
100
AcDbEntity
  8
姿図
100
AcDbCircle
 10
2425.813651124666
 20
-1177.029519851485
 30
0.0
 40
1.0
100
AcDbArc
 50
0.0
 51
71.00026523482501
  0
ARC
  5
15B76
330
18
100
AcDbEntity
  8
姿図
100
AcDbCircle
 10
2425.813651124666
 20
-1225.89151797875
 30
0.0
 40
1.0
100
AcDbArc
 50
246.7151929152848
 51
0.0
  0
LINE
  5
15B77
330
18
100
AcDbEntity
  8
姿図
100
AcDbLine
 10
2429.634404393518
 20
-1174.350196549166
 30
0.0
 11
2429.634404393518
 21
-1224.37360435657
 31
0.0
  0
LINE
  5
15B78
330
18
100
AcDbEntity
  8
姿図
100
AcDbLine
 10
2441.75854389027
 20
-1207.907523962012
 30
0.0
 11
2429.634404393518
 21
-1215.086043582997
 31
0.0
  0
LINE
  5
15C1B
330
18
100
AcDbEntity
  8
姿図
100
AcDbLine
 10
2416.022385498176
 20
-1201.627693784034
 30
0.0
 11
2392.906463086283
 21
-1191.898034102308
 31
0.0
  0
LINE
  5
15C1C
330
18
100
AcDbEntity
  8
姿図
100
AcDbLine
 10
2416.022385498176
 20
-1201.379822539472
 30
0.0
 11
2392.906463086283
 21
-1191.650162857746
 31
0.0
  0
ELLIPSE
  5
15C1D
330
18
100
AcDbEntity
  8
姿図
100
AcDbEllipse
 10
2403.187521280009
 20
-1186.895531287433
 30
0.0
 11
2.300517947994576
 21
-8.165390217115117
 31
0.0
210
0.0
220
0.0
230
1.0
 40
0.6012115839348537
 41
0.0
 42
6.283185307179586
  0
ELLIPSE
  5
15C1E
330
18
100
AcDbEntity
  8
姿図
100
AcDbEllipse
 10
2406.341207562217
 20
-1186.007011363503
 30
0.0
 11
2.300517947994576
 21
-8.165390217115117
 31
0.0
210
0.0
220
0.0
230
1.0
 40
0.6012115839348537
 41
6.283185307179586
 42
9.42477796076938
  0
SPLINE
  5
15C1F
330
18
100
AcDbEntity
  8
姿図
100
AcDbSpline
210
0.0
220
0.0
230
1.0
 70
     8
 71
     3
 72
    14
 73
    10
 74
     0
 42
0.000000001
 43
0.0000000001
 40
8.334375484916354
 40
8.334375484916354
 40
8.334375484916354
 40
8.334375484916354
 40
8.57612663827717
 40
8.57612663827717
 40
9.039488053043373
 40
9.039488053043373
 40
9.337484410790506
 40
9.337484410790506
 40
9.42477796076938
 40
9.42477796076938
 40
9.42477796076938
 40
9.42477796076938
 10
2411.097666437661
 20
-1182.688089749516
 30
0.0
 10
2409.687503360666
 20
-1180.178747072963
 30
0.0
 10
2409.28996263413
 20
-1179.671195924094
 30
0.0
 10
2408.053917796953
 20
-1178.375028396962
 30
0.0
 10
2407.144864713498
 20
-1177.75386701113
 30
0.0
 10
2405.610508634545
 20
-1177.247384229272
 30
0.0
 10
2404.999114763897
 20
-1177.179630391174
 30
0.0
 10
2404.240773938876
 20
-1177.278828497337
 30
0.0
 10
2404.071235845509
 20
-1177.313549579668
 30
0.0
 10
2403.905098257088
 20
-1177.360357202309
 30
0.0
  0
LINE
  5
15C20
330
18
100
AcDbEntity
  8
姿図
100
AcDbLine
 10
2405.488039228004
 20
-1195.060921504547
 30
0.0
 11
2408.641725510212
 21
-1194.172401580618
 31
0.0
  0
LINE
  5
15C21
330
18
100
AcDbEntity
  8
姿図
100
AcDbLine
 10
2400.887003332015
 20
-1178.730141070317
 30
0.0
 11
2404.040689614223
 21
-1177.841621146388
 31
0.0
  0
SPLINE
  5
15C22
330
18
100
AcDbEntity
  8
姿図
100
AcDbSpline
210
0.0
220
0.0
230
1.0
 70
     8
 71
     3
 72
    10
 73
     6
 74
     0
 42
0.000000001
 43
0.0000000001
 40
9.102409472209192
 40
9.102409472209192
 40
9.102409472209192
 40
9.102409472209192
 40
9.337484410790506
 40
9.337484410790506
 40
9.42477796076938
 40
9.42477796076938
 40
9.42477796076938
 40
9.42477796076938
 10
2402.25185067048
 20
-1178.345608829369
 30
0.0
 10
2402.599238472399
 20
-1178.00117892197
 30
0.0
 10
2402.991729035281
 20
-1177.726499591555
 30
0.0
 10
2403.576232401876
 20
-1177.466056503888
 30
0.0
 10
2403.738960668667
 20
-1177.40716482495
 30
0.0
 10
2403.905098257088
 20
-1177.360357202309
 30
0.0
  0
LINE
  5
15C23
330
18
100
AcDbEntity
  8
姿図
100
AcDbLine
 10
2385.504707021174
 20
-1162.53608158667
 30
0.0
 11
2390.328536576613
 21
-1160.822084993266
 31
0.0
  0
LINE
  5
15C24
330
18
100
AcDbEntity
  8
姿図
100
AcDbLine
 10
2426.627765298918
 20
-1176.448815011416
 30
0.0
 11
2429.66514721986
 21
-1174.328738216152
 31
0.0
  0
LINE
  5
15C25
330
18
100
AcDbEntity
  8
姿図
100
AcDbLine
 10
2426.627765298918
 20
-1226.472222818819
 30
0.0
 11
2429.634404393518
 21
-1224.37360435657
 31
0.0
  0
LINE
  5
15C26
330
18
100
AcDbEntity
  8
姿図
100
AcDbLine
 10
2416.022385498176
 20
-1184.820699502622
 30
0.0
 11
2411.097666437661
 21
-1182.964158429291
 31
0.0
  0
LINE
  5
15C27
330
18
100
AcDbEntity
  8
姿図
100
AcDbLine
 10
2400.378592821686
 20
-1178.923237476933
 30
0.0
 11
2392.906463086283
 21
-1176.106362932707
 31
0.0
  0
LINE
  5
15C28
330
18
100
AcDbEntity
  8
姿図
100
AcDbLine
 10
2415.815190005396
 20
-1184.742590084028
 30
0.0
 11
2415.815190005396
 21
-1212.339830547203
 31
0.0
  0
LINE
  5
15C29
330
18
100
AcDbEntity
  8
姿図
100
AcDbLine
 10
2392.906463086283
 20
-1176.106362932707
 30
0.0
 11
2392.906463086283
 21
-1202.697380953676
 31
0.0
  0
LINE
  5
15C2A
330
18
100
AcDbEntity
  8
姿図
100
AcDbLine
 10
2416.022385498176
 20
-1212.427040635402
 30
0.0
 11
2392.906463086283
 21
-1202.697380953676
 31
0.0
  0
ELLIPSE
  5
15C2B
330
18
100
AcDbEntity
  8
姿図
100
AcDbEllipse
 10
2406.562588976493
 20
-1185.944639339221
 30
0.0
 11
2.300517947994576
 21
-8.165390217115117
 31
0.0
210
0.0
220
0.0
230
1.0
 40
0.6012115839348537
 41
6.283185307179586
 42
8.037411798905785
  0
LINE
  5
15C2C
330
18
100
AcDbEntity
  8
姿図
100
AcDbLine
 10
2403.147413156144
 20
-1186.906831354711
 30
0.0
 11
2398.278394094131
 21
-1188.278629326817
 31
0.0
  0
ARC
  5
15C2D
330
18
100
AcDbEntity
  8
姿図
100
AcDbCircle
 10
2411.062391375091
 20
-1183.057730166267
 30
0.0
 40
0.1
100
AcDbArc
 50
69.34435174582956
 51
202.0987862177102
  0
LINE
  5
15C2E
330
18
100
AcDbEntity
  8
姿図
100
AcDbLine
 10
2403.187521280009
 20
-1187.054535303229
 30
0.0
 11
2398.320696429782
 21
-1188.425715077862
 31
0.0
  0
LINE
  5
15C2F
330
18
100
AcDbEntity
  8
姿図
100
AcDbLine
 10
2403.187521280009
 20
-1187.054535303229
 30
0.0
 11
2403.147413156144
 21
-1186.906831354711
 31
0.0
  0
LINE
  5
15C30
330
18
100
AcDbEntity
  8
姿図
100
AcDbLine
 10
2440.739585856068
 20
-1179.812458502499
 30
0.0
 11
2429.634404393518
 21
-1186.387668482957
 31
0.0
  0
LINE
  5
15C31
330
18
100
AcDbEntity
  8
姿図
100
AcDbLine
 10
2441.249064873168
 20
-1179.672941582596
 30
0.0
 11
2429.634404393518
 21
-1175.61840668874
 31
0.0
  0
TEXT
  5
15C32
330
18
100
AcDbEntity
  8
文字
100
AcDbText
 10
2358.019531113161
 20
-1269.358626368256
 30
0.0
 40
10.5
  1
SX-CD800TRI
100
AcDbText
  0
ENDSEC
  0
SECTION
  2
OBJECTS
  0
DICTIONARY
  5
C
330
0
100
AcDbDictionary
281
     1
  3
ACAD_GROUP
350
D
  3
ACAD_IMAGE_VARS
350
1613B
  3
ACAD_LAYOUT
350
6F62
  3
ACAD_MLINESTYLE
350
E
  3
ACAD_PLOTSETTINGS
350
6F63
  3
ACAD_PLOTSTYLENAME
350
6F60
  3
ACAD_SCALELIST
350
9B1A
  3
AcDbVariableDictionary
350
9AC7
  3
AEC_VARS
350
1612D
  3
APPDATA
350
16139
  3
DWGPROPS
350
16163
  0
DICTIONARY
  5
A17D
330
2
100
AcDbDictionary
280
     1
281
     1
  3
ACAD_LAYERSTATES
360
A17E
  0
DICTIONARY
  5
9B49
330
F
100
AcDbDictionary
280
     1
281
     1
  3
ADSK_XREC_LAYER_RECONCILED
360
9B4A
  0
DICTIONARY
  5
9B59
330
2F4
100
AcDbDictionary
280
     1
281
     1
  3
ADSK_XREC_LAYER_RECONCILED
360
9B5A
  0
DICTIONARY
  5
9B5D
330
305
100
AcDbDictionary
280
     1
281
     1
  3
ADSK_XREC_LAYER_RECONCILED
360
9B5E
  0
DICTIONARY
  5
CC86
330
18
100
AcDbDictionary
280
     1
281
     1
  3
ACAD_SORTENTS
360
CC87
  0
DICTIONARY
  5
D
102
{ACAD_REACTORS
330
C
102
}
330
C
100
AcDbDictionary
281
     1
  0
RASTERVARIABLES
  5
1613B
102
{ACAD_REACTORS
330
C
102
}
330
C
100
AcDbRasterVariables
 90
        0
 70
     1
 71
     1
 72
     0
  0
DICTIONARY
  5
6F62
102
{ACAD_REACTORS
330
C
102
}
330
C
100
AcDbDictionary
281
     1
  3
Model
350
6F64
  3
ﾚｲｱｳﾄ1
350
6F65
  0
DICTIONARY
  5
E
102
{ACAD_REACTORS
330
C
102
}
330
C
100
AcDbDictionary
281
     1
  3
STANDARD
350
1B
  0
DICTIONARY
  5
6F63
102
{ACAD_REACTORS
330
C
102
}
330
C
100
AcDbDictionary
281
     1
  0
ACDBDICTIONARYWDFLT
  5
6F60
102
{ACAD_REACTORS
330
C
102
}
330
C
100
AcDbDictionary
281
     1
  3
Normal
350
6F61
100
AcDbDictionaryWithDefault
340
6F61
  0
DICTIONARY
  5
9B1A
102
{ACAD_REACTORS
330
C
102
}
330
C
100
AcDbDictionary
281
     1
  3
A0
350
9B1B
  3
A1
350
9B1C
  3
A2
350
9B1D
  3
A3
350
9B1E
  3
A4
350
9B1F
  3
A5
350
9B20
  3
A6
350
9B21
  3
A7
350
9B22
  3
A8
350
9B23
  3
A9
350
9B24
  3
B0
350
9B25
  3
B1
350
9B26
  3
B2
350
9B27
  3
B3
350
9B28
  3
B4
350
9B29
  3
B5
350
9B2A
  3
B6
350
9B2B
  3
B7
350
9B2C
  3
B8
350
9B2D
  3
B9
350
9B2E
  3
C0
350
9B2F
  3
C1
350
9B30
  3
C2
350
9B31
  3
C3
350
9B32
  3
C4
350
9B33
  3
C5
350
9B34
  3
C6
350
9B35
  3
C7
350
9B36
  3
C8
350
9B37
  3
C9
350
9B38
  3
D0
350
9B39
  3
D1
350
9B3A
  3
D2
350
9B3B
  0
DICTIONARY
  5
9AC7
102
{ACAD_REACTORS
330
C
102
}
330
C
100
AcDbDictionary
281
     1
  3
DIMASSOC
350
9AC8
  3
INDEXCTL
350
CE96
  3
PROJECTNAME
350
9AC9
  3
SORTENTS
350
CE95
  0
DICTIONARY
  5
1612D
102
{ACAD_REACTORS
330
C
102
}
330
C
100
AcDbDictionary
281
     1
  3
AEC_VARS_DWG_SETUP
350
1612E
  3
AecDbVarsDwgSetup
350
1612E
  0
DICTIONARY
  5
16139
102
{ACAD_REACTORS
330
C
102
}
330
C
100
AcDbDictionary
281
     1
  0
XRECORD
  5
16163
102
{ACAD_REACTORS
330
C
102
}
330
C
100
AcDbXrecord
280
     1
  1
DWGPROPS COOKIE
  2

  3

  4

  6

  7

  8
SPAX
  9

300
=
301
=
302
=
303
=
304
=
305
=
306
=
307
=
308
=
309
=
 40
0.0
 41
2448636.244629629
 42
2456822.074335359
  1

 90
        0
  0
DICTIONARY
  5
A17E
102
{ACAD_REACTORS
330
A17D
102
}
330
A17D
100
AcDbDictionary
281
     1
  3
ARGON_LAYERP_1
350
1613C
  0
XRECORD
  5
9B4A
102
{ACAD_REACTORS
330
9B49
102
}
330
9B49
100
AcDbXrecord
280
     1
290
     1
  0
XRECORD
  5
9B5A
102
{ACAD_REACTORS
330
9B59
102
}
330
9B59
100
AcDbXrecord
280
     1
290
     1
  0
XRECORD
  5
9B5E
102
{ACAD_REACTORS
330
9B5D
102
}
330
9B5D
100
AcDbXrecord
280
     1
290
     1
  0
SORTENTSTABLE
  5
CC87
102
{ACAD_REACTORS
330
CC86
102
}
330
CC86
100
AcDbSortentsTable
330
18
  0
LAYOUT
  5
6F64
102
{ACAD_REACTORS
330
6F62
102
}
330
6F62
100
AcDbPlotSettings
  1

  2
JUST PDF 2
  4
A4
  6

 40
3.174999952316284
 41
3.174999952316284
 42
3.175003051757812
 43
3.17498779296875
 44
209.8886566162109
 45
297.0530090332031
 46
14.27171755861536
 47
9.855173074625782
 48
2347.121414154029
 49
-18.73163920169418
140
2872.107069638747
141
794.2463862143054
142
1.0
143
3.0
 70
  3748
 72
     1
 73
     0
 74
     4
  7
spax form.ctb
 75
    16
147
1.0
148
-2347.121414154029
149
18.73163920169418
100
AcDbLayout
  1
Model
 70
     1
 71
     0
 10
0.0
 20
0.0
 11
12.0
 21
9.0
 12
0.0
 22
0.0
 32
0.0
 14
2358.019531113161
 24
-1269.358626368256
 34
0.0
 15
2468.269531113161
 25
-1160.724689670175
 35
0.0
146
0.0
 13
0.0
 23
0.0
 33
0.0
 16
1.0
 26
0.0
 36
0.0
 17
0.0
 27
1.0
 37
0.0
 76
     0
330
18
331
1612C
1001
ACAD_PSEXT
1000
JUST PDF 2
1000
JUST PDF 2
1000
JUST PDF 2 Port:
1000

1070
     0
  0
LAYOUT
  5
6F65
102
{ACAD_REACTORS
330
6F62
102
}
330
6F62
100
AcDbPlotSettings
  1

  2
Canon LASER SHOT LBP-750
  4

  6

 40
0.0
 41
0.0
 42
0.0
 43
0.0
 44
0.0
 45
0.0
 46
0.0
 47
0.0
 48
0.0
 49
0.0
140
0.0
141
0.0
142
1.0
143
1.0
 70
   688
 72
     0
 73
     0
 74
     5
  7
monochrome.ctb
 75
    16
147
1.0
148
0.0
149
0.0
100
AcDbLayout
  1
ﾚｲｱｳﾄ1
 70
     0
 71
     1
 10
0.0
 20
0.0
 11
12.0
 21
9.0
 12
0.0
 22
0.0
 32
0.0
 14
1.000000000000000E+20
 24
1.000000000000000E+20
 34
1.000000000000000E+20
 15
-1.000000000000000E+20
 25
-1.000000000000000E+20
 35
-1.000000000000000E+20
146
0.0
 13
0.0
 23
0.0
 33
0.0
 16
1.0
 26
0.0
 36
0.0
 17
0.0
 27
1.0
 37
0.0
 76
     0
330
15
  0
MLINESTYLE
  5
1B
102
{ACAD_REACTORS
330
E
102
}
330
E
100
AcDbMlineStyle
  2
STANDARD
 70
     0
  3

 62
     0
 51
90.0
 52
90.0
 71
     2
 49
0.5
 62
   256
  6
BYLAYER
 49
-0.5
 62
   256
  6
BYLAYER
  0
ACDBPLACEHOLDER
  5
6F61
102
{ACAD_REACTORS
330
6F60
102
}
330
6F60
  0
SCALE
  5
9B1B
102
{ACAD_REACTORS
330
9B1A
102
}
330
9B1A
100
AcDbScale
 70
     0
300
1:1
140
1.0
141
1.0
290
     1
  0
SCALE
  5
9B1C
102
{ACAD_REACTORS
330
9B1A
102
}
330
9B1A
100
AcDbScale
 70
     0
300
1:2
140
1.0
141
2.0
290
     0
  0
SCALE
  5
9B1D
102
{ACAD_REACTORS
330
9B1A
102
}
330
9B1A
100
AcDbScale
 70
     0
300
1:4
140
1.0
141
4.0
290
     0
  0
SCALE
  5
9B1E
102
{ACAD_REACTORS
330
9B1A
102
}
330
9B1A
100
AcDbScale
 70
     0
300
1:5
140
1.0
141
5.0
290
     0
  0
SCALE
  5
9B1F
102
{ACAD_REACTORS
330
9B1A
102
}
330
9B1A
100
AcDbScale
 70
     0
300
1:8
140
1.0
141
8.0
290
     0
  0
SCALE
  5
9B20
102
{ACAD_REACTORS
330
9B1A
102
}
330
9B1A
100
AcDbScale
 70
     0
300
1:10
140
1.0
141
10.0
290
     0
  0
SCALE
  5
9B21
102
{ACAD_REACTORS
330
9B1A
102
}
330
9B1A
100
AcDbScale
 70
     0
300
1:16
140
1.0
141
16.0
290
     0
  0
SCALE
  5
9B22
102
{ACAD_REACTORS
330
9B1A
102
}
330
9B1A
100
AcDbScale
 70
     0
300
1:20
140
1.0
141
20.0
290
     0
  0
SCALE
  5
9B23
102
{ACAD_REACTORS
330
9B1A
102
}
330
9B1A
100
AcDbScale
 70
     0
300
1:30
140
1.0
141
30.0
290
     0
  0
SCALE
  5
9B24
102
{ACAD_REACTORS
330
9B1A
102
}
330
9B1A
100
AcDbScale
 70
     0
300
1:40
140
1.0
141
40.0
290
     0
  0
SCALE
  5
9B25
102
{ACAD_REACTORS
330
9B1A
102
}
330
9B1A
100
AcDbScale
 70
     0
300
1:50
140
1.0
141
50.0
290
     0
  0
SCALE
  5
9B26
102
{ACAD_REACTORS
330
9B1A
102
}
330
9B1A
100
AcDbScale
 70
     0
300
1:100
140
1.0
141
100.0
290
     0
  0
SCALE
  5
9B27
102
{ACAD_REACTORS
330
9B1A
102
}
330
9B1A
100
AcDbScale
 70
     0
300
2:1
140
2.0
141
1.0
290
     0
  0
SCALE
  5
9B28
102
{ACAD_REACTORS
330
9B1A
102
}
330
9B1A
100
AcDbScale
 70
     0
300
4:1
140
4.0
141
1.0
290
     0
  0
SCALE
  5
9B29
102
{ACAD_REACTORS
330
9B1A
102
}
330
9B1A
100
AcDbScale
 70
     0
300
8:1
140
8.0
141
1.0
290
     0
  0
SCALE
  5
9B2A
102
{ACAD_REACTORS
330
9B1A
102
}
330
9B1A
100
AcDbScale
 70
     0
300
10:1
140
10.0
141
1.0
290
     0
  0
SCALE
  5
9B2B
102
{ACAD_REACTORS
330
9B1A
102
}
330
9B1A
100
AcDbScale
 70
     0
300
100:1
140
100.0
141
1.0
290
     0
  0
SCALE
  5
9B2C
102
{ACAD_REACTORS
330
9B1A
102
}
330
9B1A
100
AcDbScale
 70
     0
300
1/128" = 1'-0"
140
0.0078125
141
12.0
290
     0
  0
SCALE
  5
9B2D
102
{ACAD_REACTORS
330
9B1A
102
}
330
9B1A
100
AcDbScale
 70
     0
300
1/64" = 1'-0"
140
0.015625
141
12.0
290
     0
  0
SCALE
  5
9B2E
102
{ACAD_REACTORS
330
9B1A
102
}
330
9B1A
100
AcDbScale
 70
     0
300
1/32" = 1'-0"
140
0.03125
141
12.0
290
     0
  0
SCALE
  5
9B2F
102
{ACAD_REACTORS
330
9B1A
102
}
330
9B1A
100
AcDbScale
 70
     0
300
1/16" = 1'-0"
140
0.0625
141
12.0
290
     0
  0
SCALE
  5
9B30
102
{ACAD_REACTORS
330
9B1A
102
}
330
9B1A
100
AcDbScale
 70
     0
300
3/32" = 1'-0"
140
0.09375
141
12.0
290
     0
  0
SCALE
  5
9B31
102
{ACAD_REACTORS
330
9B1A
102
}
330
9B1A
100
AcDbScale
 70
     0
300
1/8" = 1'-0"
140
0.125
141
12.0
290
     0
  0
SCALE
  5
9B32
102
{ACAD_REACTORS
330
9B1A
102
}
330
9B1A
100
AcDbScale
 70
     0
300
3/16" = 1'-0"
140
0.1875
141
12.0
290
     0
  0
SCALE
  5
9B33
102
{ACAD_REACTORS
330
9B1A
102
}
330
9B1A
100
AcDbScale
 70
     0
300
1/4" = 1'-0"
140
0.25
141
12.0
290
     0
  0
SCALE
  5
9B34
102
{ACAD_REACTORS
330
9B1A
102
}
330
9B1A
100
AcDbScale
 70
     0
300
3/8" = 1'-0"
140
0.375
141
12.0
290
     0
  0
SCALE
  5
9B35
102
{ACAD_REACTORS
330
9B1A
102
}
330
9B1A
100
AcDbScale
 70
     0
300
1/2" = 1'-0"
140
0.5
141
12.0
290
     0
  0
SCALE
  5
9B36
102
{ACAD_REACTORS
330
9B1A
102
}
330
9B1A
100
AcDbScale
 70
     0
300
3/4" = 1'-0"
140
0.75
141
12.0
290
     0
  0
SCALE
  5
9B37
102
{ACAD_REACTORS
330
9B1A
102
}
330
9B1A
100
AcDbScale
 70
     0
300
1" = 1'-0"
140
1.0
141
12.0
290
     0
  0
SCALE
  5
9B38
102
{ACAD_REACTORS
330
9B1A
102
}
330
9B1A
100
AcDbScale
 70
     0
300
1-1/2" = 1'-0"
140
1.5
141
12.0
290
     0
  0
SCALE
  5
9B39
102
{ACAD_REACTORS
330
9B1A
102
}
330
9B1A
100
AcDbScale
 70
     0
300
3" = 1'-0"
140
3.0
141
12.0
290
     0
  0
SCALE
  5
9B3A
102
{ACAD_REACTORS
330
9B1A
102
}
330
9B1A
100
AcDbScale
 70
     0
300
6" = 1'-0"
140
6.0
141
12.0
290
     0
  0
SCALE
  5
9B3B
102
{ACAD_REACTORS
330
9B1A
102
}
330
9B1A
100
AcDbScale
 70
     0
300
1'-0" = 1'-0"
140
12.0
141
12.0
290
     0
  0
DICTIONARYVAR
  5
9AC8
102
{ACAD_REACTORS
330
9AC7
102
}
330
9AC7
100
DictionaryVariables
280
     0
  1
1
  0
DICTIONARYVAR
  5
CE96
102
{ACAD_REACTORS
330
9AC7
102
}
330
9AC7
100
DictionaryVariables
280
     0
  1
0
  0
DICTIONARYVAR
  5
9AC9
102
{ACAD_REACTORS
330
9AC7
102
}
330
9AC7
100
DictionaryVariables
280
     0
  1

  0
DICTIONARYVAR
  5
CE95
102
{ACAD_REACTORS
330
9AC7
102
}
330
9AC7
100
DictionaryVariables
280
     0
  1
127
  0
XRECORD
  5
1613C
102
{ACAD_REACTORS
330
A17E
102
}
330
A17E
100
AcDbXrecord
280
     1
 91
     1023
301

290
     0
302
寸法線
330
F
 90
        8
 62
     7
370
    -3
331
14
  1
Color_7
330
0
 90
        8
 62
     1
370
    -3
331
0
  1
Color_1
330
0
 90
        8
 62
     3
370
    -3
331
0
  1
Color_3
330
0
 90
        8
 62
     7
370
    -3
331
14
  1
Color_7
330
0
 90
        8
 62
     3
370
    -3
331
14
  1
Color_3
330
0
 90
        0
 62
     7
370
    -3
331
14
  1
Color_7
330
0
 90
        8
 62
     4
370
    -3
331
14
  1
Color_4
330
0
 90
        8
 62
     7
370
    -3
331
14
  1
Color_7
330
0
 90
        8
 62
     6
370
    -3
331
14
  1
Color_6
330
2F4
 90
        8
 62
     7
370
    -3
331
14
  1
Color_7
330
0
 90
        8
 62
     3
370
    -3
331
0
  1
Color_3
330
305
 90
        8
 62
     8
370
    -3
331
14
  1
Color_8
330
0
 90
        8
 62
     4
370
    -3
331
14
  1
Color_4
330
0
 90
        8
 62
     7
370
    -3
331
14
  1
Color_7
330
0
 90
        8
 62
     7
370
    -3
331
14
  1
Color_7
330
0
 90
        8
 62
     1
370
    -3
331
14
  1
Color_1
330
0
 90
        8
 62
     1
370
    -3
331
14
  1
Color_1
330
0
 90
        8
 62
     1
370
    -3
331
14
  1
Color_1
330
0
 90
        8
 62
     1
370
    -3
331
14
  1
Color_1
330
0
 90
        8
 62
     8
370
    -3
331
14
  1
Color_8
330
0
 90
        8
 62
     7
370
     5
331
14
  1
Color_7
330
0
 90
        8
 62
   135
370
    20
331
14
  1
Color_135
330
0
 90
        8
 62
     8
370
    -3
331
14
  1
Color_8
  0
ENDSEC
  0
EOF
