  0
SECTION
  2
HEADER
  9
$ACADVER
  1
AC1015
  9
$ACADMAINTVER
 70
     6
  9
$DWGCODEPAGE
  3
ANSI_932
  9
$INSBASE
 10
0.0
 20
0.0
 30
0.0
  9
$EXTMIN
 10
18591.65041105046
 20
-14753.8881046554
 30
0.0
  9
$EXTMAX
 10
18883.4854395061
 20
-14476.51885673937
 30
0.0
  9
$LIMMIN
 10
0.0
 20
0.0
  9
$LIMMAX
 10
840.0
 20
594.0
  9
$ORTHOMODE
 70
     1
  9
$REGENMODE
 70
     1
  9
$FILLMODE
 70
     1
  9
$QTEXTMODE
 70
     0
  9
$MIRRTEXT
 70
     1
  9
$LTSCALE
 40
7.0
  9
$ATTMODE
 70
     0
  9
$TEXTSIZE
 40
6.0
  9
$TRACEWID
 40
1.0
  9
$TEXTSTYLE
  7
STANDARD
  9
$CLAYER
  8
寸法線
  9
$CELTYPE
  6
BYLAYER
  9
$CECOLOR
 62
   256
  9
$CELTSCALE
 40
1.0
  9
$DISPSILH
 70
     0
  9
$DIMSCALE
 40
1.0
  9
$DIMASZ
 40
10.0
  9
$DIMEXO
 40
3.0
  9
$DIMDLI
 40
7.149999999999999
  9
$DIMRND
 40
0.0
  9
$DIMDLE
 40
0.0
  9
$DIMEXE
 40
2.0
  9
$DIMTP
 40
0.0
  9
$DIMTM
 40
0.0
  9
$DIMTXT
 40
18.0
  9
$DIMCEN
 40
0.0
  9
$DIMTSZ
 40
0.0
  9
$DIMTOL
 70
     0
  9
$DIMLIM
 70
     0
  9
$DIMTIH
 70
     0
  9
$DIMTOH
 70
     0
  9
$DIMSE1
 70
     0
  9
$DIMSE2
 70
     0
  9
$DIMTAD
 70
     3
  9
$DIMZIN
 70
     8
  9
$DIMBLK
  1
OPEN
  9
$DIMASO
 70
     1
  9
$DIMSHO
 70
     0
  9
$DIMPOST
  1

  9
$DIMAPOST
  1

  9
$DIMALT
 70
     0
  9
$DIMALTD
 70
     2
  9
$DIMALTF
 40
25.4
  9
$DIMLFAC
 40
1.0
  9
$DIMTOFL
 70
     0
  9
$DIMTVP
 40
0.0
  9
$DIMTIX
 70
     0
  9
$DIMSOXD
 70
     0
  9
$DIMSAH
 70
     0
  9
$DIMBLK1
  1

  9
$DIMBLK2
  1

  9
$DIMSTYLE
  2
STANDARD
  9
$DIMCLRD
 70
     8
  9
$DIMCLRE
 70
     8
  9
$DIMCLRT
 70
     0
  9
$DIMTFAC
 40
1.0
  9
$DIMGAP
 40
4.0
  9
$DIMJUST
 70
     0
  9
$DIMSD1
 70
     0
  9
$DIMSD2
 70
     0
  9
$DIMTOLJ
 70
     1
  9
$DIMTZIN
 70
     0
  9
$DIMALTZ
 70
     0
  9
$DIMALTTZ
 70
     0
  9
$DIMUPT
 70
     1
  9
$DIMDEC
 70
     2
  9
$DIMTDEC
 70
     2
  9
$DIMALTU
 70
     2
  9
$DIMALTTD
 70
     2
  9
$DIMTXSTY
  7
STANDARD
  9
$DIMAUNIT
 70
     0
  9
$DIMADEC
 70
     2
  9
$DIMALTRND
 40
0.0
  9
$DIMAZIN
 70
     2
  9
$DIMDSEP
 70
    46
  9
$DIMATFIT
 70
     3
  9
$DIMFRAC
 70
     0
  9
$DIMLDRBLK
  1
OPEN
  9
$DIMLUNIT
 70
     2
  9
$DIMLWD
 70
    -2
  9
$DIMLWE
 70
    -2
  9
$DIMTMOVE
 70
     0
  9
$LUNITS
 70
     2
  9
$LUPREC
 70
     2
  9
$SKETCHINC
 40
0.1
  9
$FILLETRAD
 40
0.6
  9
$AUNITS
 70
     0
  9
$AUPREC
 70
     2
  9
$MENU
  1
ACAD
  9
$ELEVATION
 40
0.0
  9
$PELEVATION
 40
0.0
  9
$THICKNESS
 40
0.0
  9
$LIMCHECK
 70
     0
  9
$CHAMFERA
 40
0.0
  9
$CHAMFERB
 40
0.0
  9
$CHAMFERC
 40
0.0
  9
$CHAMFERD
 40
0.0
  9
$SKPOLY
 70
     0
  9
$TDCREATE
 40
2449505.922222222
  9
$TDUCREATE
 40
2449505.547222222
  9
$TDUPDATE
 40
2456822.494746169
  9
$TDUUPDATE
 40
2456822.119746169
  9
$TDINDWG
 40
2.2906687153
  9
$TDUSRTIMER
 40
2456822.119563299
  9
$USRTIMER
 70
     1
  9
$ANGBASE
 50
0.0
  9
$ANGDIR
 70
     0
  9
$PDMODE
 70
     3
  9
$PDSIZE
 40
0.0
  9
$PLINEWID
 40
0.0
  9
$SPLFRAME
 70
     0
  9
$SPLINETYPE
 70
     6
  9
$SPLINESEGS
 70
     8
  9
$HANDSEED
  5
6A634
  9
$SURFTAB1
 70
     6
  9
$SURFTAB2
 70
     6
  9
$SURFTYPE
 70
     6
  9
$SURFU
 70
     6
  9
$SURFV
 70
     6
  9
$UCSBASE
  2

  9
$UCSNAME
  2

  9
$UCSORG
 10
0.0
 20
0.0
 30
0.0
  9
$UCSXDIR
 10
1.0
 20
0.0
 30
0.0
  9
$UCSYDIR
 10
0.0
 20
1.0
 30
0.0
  9
$UCSORTHOREF
  2

  9
$UCSORTHOVIEW
 70
     0
  9
$UCSORGTOP
 10
0.0
 20
0.0
 30
0.0
  9
$UCSORGBOTTOM
 10
0.0
 20
0.0
 30
0.0
  9
$UCSORGLEFT
 10
0.0
 20
0.0
 30
0.0
  9
$UCSORGRIGHT
 10
0.0
 20
0.0
 30
0.0
  9
$UCSORGFRONT
 10
0.0
 20
0.0
 30
0.0
  9
$UCSORGBACK
 10
0.0
 20
0.0
 30
0.0
  9
$PUCSBASE
  2

  9
$PUCSNAME
  2

  9
$PUCSORG
 10
0.0
 20
0.0
 30
0.0
  9
$PUCSXDIR
 10
1.0
 20
0.0
 30
0.0
  9
$PUCSYDIR
 10
0.0
 20
1.0
 30
0.0
  9
$PUCSORTHOREF
  2

  9
$PUCSORTHOVIEW
 70
     0
  9
$PUCSORGTOP
 10
0.0
 20
0.0
 30
0.0
  9
$PUCSORGBOTTOM
 10
0.0
 20
0.0
 30
0.0
  9
$PUCSORGLEFT
 10
0.0
 20
0.0
 30
0.0
  9
$PUCSORGRIGHT
 10
0.0
 20
0.0
 30
0.0
  9
$PUCSORGFRONT
 10
0.0
 20
0.0
 30
0.0
  9
$PUCSORGBACK
 10
0.0
 20
0.0
 30
0.0
  9
$USERI1
 70
     0
  9
$USERI2
 70
     0
  9
$USERI3
 70
     0
  9
$USERI4
 70
     0
  9
$USERI5
 70
     0
  9
$USERR1
 40
0.0
  9
$USERR2
 40
0.0
  9
$USERR3
 40
0.0
  9
$USERR4
 40
0.0
  9
$USERR5
 40
0.0
  9
$WORLDVIEW
 70
     0
  9
$SHADEDGE
 70
     3
  9
$SHADEDIF
 70
    70
  9
$TILEMODE
 70
     1
  9
$MAXACTVP
 70
    16
  9
$PINSBASE
 10
0.0
 20
0.0
 30
0.0
  9
$PLIMCHECK
 70
     0
  9
$PEXTMIN
 10
1.000000000000000E+20
 20
1.000000000000000E+20
 30
1.000000000000000E+20
  9
$PEXTMAX
 10
-1.000000000000000E+20
 20
-1.000000000000000E+20
 30
-1.000000000000000E+20
  9
$PLIMMIN
 10
0.0
 20
0.0
  9
$PLIMMAX
 10
0.0
 20
0.0
  9
$UNITMODE
 70
     0
  9
$VISRETAIN
 70
     0
  9
$PLINEGEN
 70
     0
  9
$PSLTSCALE
 70
     0
  9
$TREEDEPTH
 70
  3020
  9
$CMLSTYLE
  2
STANDARD
  9
$CMLJUST
 70
     0
  9
$CMLSCALE
 40
1.0
  9
$PROXYGRAPHICS
 70
     1
  9
$MEASUREMENT
 70
     0
  9
$CELWEIGHT
370
    -1
  9
$ENDCAPS
280
     0
  9
$JOINSTYLE
280
     0
  9
$LWDISPLAY
290
     0
  9
$INSUNITS
 70
     0
  9
$HYPERLINKBASE
  1

  9
$STYLESHEET
  1
spax form.ctb
  9
$XEDIT
290
     1
  9
$CEPSNTYPE
380
     0
  9
$PSTYLEMODE
290
     1
  9
$FINGERPRINTGUID
  2
{C1CFCF3E-DF91-11D3-B30C-0060B0FA8DFC}
  9
$VERSIONGUID
  2
{C26C1A5A-7F08-47A2-83F9-A5647A7FF1FE}
  9
$EXTNAMES
290
     1
  9
$PSVPSCALE
 40
0.0
  9
$OLESTARTUP
290
     0
  0
ENDSEC
  0
SECTION
  2
CLASSES
  0
CLASS
  1
LWPOLYLINE
  2
AcDbPolyline
  3
ObjectDBX Classes
 90
        0
280
     0
281
     1
  0
CLASS
  1
ACDBDICTIONARYWDFLT
  2
AcDbDictionaryWithDefault
  3
ObjectDBX Classes
 90
        0
280
     0
281
     0
  0
CLASS
  1
ACDBPLACEHOLDER
  2
AcDbPlaceHolder
  3
ObjectDBX Classes
 90
        0
280
     0
281
     0
  0
CLASS
  1
LAYOUT
  2
AcDbLayout
  3
ObjectDBX Classes
 90
        0
280
     0
281
     0
  0
CLASS
  1
DICTIONARYVAR
  2
AcDbDictionaryVar
  3
ObjectDBX Classes
 90
        0
280
     0
281
     0
  0
CLASS
  1
LONG_TRANSACTION
  2
AcDbLongTransaction
  3
ObjectDBX Classes
 90
        0
280
     0
281
     0
  0
CLASS
  1
LWPOLYLINE
  2
AcDbPolyline
  3
ObjectDBX Classes
 90
        0
280
     0
281
     1
  0
CLASS
  1
HATCH
  2
AcDbHatch
  3
ObjectDBX Classes
 90
        0
280
     0
281
     1
  0
CLASS
  1
XRECORD
  2
AcDbXrecord
  3
ObjectDBX Classes
 90
        0
280
     0
281
     0
  0
CLASS
  1
SORTENTSTABLE
  2
AcDbSortentsTable
  3
ObjectDBX Classes
 90
        0
280
     0
281
     0
  0
CLASS
  1
MATERIAL
  2
AcDbMaterial
  3
ObjectDBX Classes
 90
     1153
280
     0
281
     0
  0
CLASS
  1
VISUALSTYLE
  2
AcDbVisualStyle
  3
ObjectDBX Classes
 90
     4095
280
     0
281
     0
  0
CLASS
  1
TABLESTYLE
  2
AcDbTableStyle
  3
ObjectDBX Classes
 90
     4095
280
     0
281
     0
  0
CLASS
  1
SCALE
  2
AcDbScale
  3
ObjectDBX Classes
 90
     1153
280
     0
281
     0
  0
CLASS
  1
MLEADERSTYLE
  2
AcDbMLeaderStyle
  3
ACDB_MLEADERSTYLE_CLASS
 90
     4095
280
     0
281
     0
  0
CLASS
  1
CELLSTYLEMAP
  2
AcDbCellStyleMap
  3
ObjectDBX Classes
 90
     1152
280
     0
281
     0
  0
CLASS
  1
RASTERVARIABLES
  2
AcDbRasterVariables
  3
ISM
 90
        0
280
     0
281
     0
  0
CLASS
  1
SUN
  2
AcDbSun
  3
SCENEOE
 90
     1153
280
     0
281
     0
  0
ENDSEC
  0
SECTION
  2
TABLES
  0
TABLE
  2
VPORT
  5
8
330
0
100
AcDbSymbolTable
 70
     1
  0
VPORT
  5
698BA
330
8
100
AcDbSymbolTableRecord
100
AcDbViewportTableRecord
  2
*Active
 70
     0
 10
0.0
 20
0.0
 11
1.0
 21
1.0
 12
18737.56792527828
 22
-14615.20348069738
 13
0.0
 23
0.0
 14
1.0
 24
1.0
 15
20.0
 25
20.0
 16
0.0
 26
0.0
 36
1.0
 17
0.0
 27
0.0
 37
0.0
 40
282.9166328743478
 41
2.027568922305764
 42
50.0
 43
0.0
 44
0.0
 50
0.0
 51
0.0
 71
    16
 72
  2000
 73
     1
 74
     0
 75
     0
 76
     0
 77
     0
 78
     1
281
     0
 65
     1
110
0.0
120
0.0
130
0.0
111
1.0
121
0.0
131
0.0
112
0.0
122
1.0
132
0.0
 79
     0
146
0.0
  0
ENDTAB
  0
TABLE
  2
LTYPE
  5
5
330
0
100
AcDbSymbolTable
 70
     6
  0
LTYPE
  5
12
330
5
100
AcDbSymbolTableRecord
100
AcDbLinetypeTableRecord
  2
BYBLOCK
 70
     0
  3

 72
    65
 73
     0
 40
0.0
  0
LTYPE
  5
13
330
5
100
AcDbSymbolTableRecord
100
AcDbLinetypeTableRecord
  2
BYLAYER
 70
     0
  3

 72
    65
 73
     0
 40
0.0
  0
LTYPE
  5
14
330
5
100
AcDbSymbolTableRecord
100
AcDbLinetypeTableRecord
  2
CONTINUOUS
 70
     0
  3
Solid line
 72
    65
 73
     0
 40
0.0
  0
LTYPE
  5
3D
330
5
100
AcDbSymbolTableRecord
100
AcDbLinetypeTableRecord
  2
PHANTOM
 70
     0
  3
_____ _ _ _____ _ _ _____ _ _ _____ _ _ ____
 72
    65
 73
     6
 40
2.5
 49
1.25
 74
     0
 49
-0.25
 74
     0
 49
0.25
 74
     0
 49
-0.25
 74
     0
 49
0.25
 74
     0
 49
-0.25
 74
     0
  0
LTYPE
  5
40D2
330
5
100
AcDbSymbolTableRecord
100
AcDbLinetypeTableRecord
  2
CENTER
 70
     0
  3
____ _ ____ _ ____ _ ____ _ ____ _ ____ _ ____ 
 72
    65
 73
     4
 40
2.0
 49
1.25
 74
     0
 49
-0.25
 74
     0
 49
0.25
 74
     0
 49
-0.25
 74
     0
  0
LTYPE
  5
A244
330
5
100
AcDbSymbolTableRecord
100
AcDbLinetypeTableRecord
  2
HIDDEN
 70
     0
  3
_ _ _ _ _ _ _ _ _ _ _ _ _ _ _ _ _ _ _ _ _ _ _
 72
    65
 73
     2
 40
0.375
 49
0.25
 74
     0
 49
-0.125
 74
     0
  0
ENDTAB
  0
TABLE
  2
LAYER
  5
2
102
{ACAD_XDICTIONARY
360
64066
102
}
330
0
100
AcDbSymbolTable
 70
    15
  0
LAYER
  5
F
102
{ACAD_XDICTIONARY
360
666E7
102
}
330
2
100
AcDbSymbolTableRecord
100
AcDbLayerTableRecord
  2
0
 70
     0
 62
     7
  6
CONTINUOUS
370
    -3
390
40CA
  0
LAYER
  5
4C
102
{ACAD_XDICTIONARY
360
666EF
102
}
330
2
100
AcDbSymbolTableRecord
100
AcDbLayerTableRecord
  2
寸法線
 70
     0
 62
     7
  6
CONTINUOUS
370
    -3
390
40CA
  0
LAYER
  5
4D
102
{ACAD_XDICTIONARY
360
666F1
102
}
330
2
100
AcDbSymbolTableRecord
100
AcDbLayerTableRecord
  2
姿図
 70
     0
 62
     8
  6
CONTINUOUS
370
    -3
390
40CA
  0
LAYER
  5
40D4
102
{ACAD_XDICTIONARY
360
666F5
102
}
330
2
100
AcDbSymbolTableRecord
100
AcDbLayerTableRecord
  2
文字
 70
     0
 62
     7
  6
CONTINUOUS
370
    -3
390
40CA
  0
ENDTAB
  0
TABLE
  2
STYLE
  5
3
330
0
100
AcDbSymbolTable
 70
     1
  0
STYLE
  5
10
330
3
100
AcDbSymbolTableRecord
100
AcDbTextStyleTableRecord
  2
STANDARD
 70
     0
 40
0.0
 41
1.0
 50
0.0
 71
     0
 42
6.0
  3
MONOTXT
  4
BIGFONT
  0
ENDTAB
  0
TABLE
  2
VIEW
  5
6
330
0
100
AcDbSymbolTable
 70
     1
  0
VIEW
  5
41
330
6
100
AcDbSymbolTableRecord
100
AcDbViewTableRecord
  2
CUT1
 70
     0
 40
612.7795527156796
 10
420.0000000000169
 20
306.3897763578398
 41
840.0000000000338
 11
0.0
 21
0.0
 31
1.0
 12
0.0
 22
0.0
 32
0.0
 42
50.0
 43
0.0
 44
0.0
 50
0.0
 71
     0
281
     0
 72
     0
  0
ENDTAB
  0
TABLE
  2
UCS
  5
7
330
0
100
AcDbSymbolTable
 70
     0
  0
ENDTAB
  0
TABLE
  2
APPID
  5
9
330
0
100
AcDbSymbolTable
 70
     6
  0
APPID
  5
11
330
9
100
AcDbSymbolTableRecord
100
AcDbRegAppTableRecord
  2
ACAD
 70
     0
  0
APPID
  5
6577B
330
9
100
AcDbSymbolTableRecord
100
AcDbRegAppTableRecord
  2
ACAD_MLEADERVER
 70
     0
  0
APPID
  5
66314
330
9
100
AcDbSymbolTableRecord
100
AcDbRegAppTableRecord
  2
ACAD_EXEMPT_FROM_CAD_STANDARDS
 70
     0
  0
APPID
  5
68006
330
9
100
AcDbSymbolTableRecord
100
AcDbRegAppTableRecord
  2
ACAD_PSEXT
 70
     0
  0
APPID
  5
6A48C
330
9
100
AcDbSymbolTableRecord
100
AcDbRegAppTableRecord
  2
ACAD_DSTYLE_DIMJAG
 70
     0
  0
APPID
  5
6A48D
330
9
100
AcDbSymbolTableRecord
100
AcDbRegAppTableRecord
  2
ACAD_DSTYLE_DIMTALN
 70
     0
  0
ENDTAB
  0
TABLE
  2
DIMSTYLE
  5
A
330
0
100
AcDbSymbolTable
 70
     4
100
AcDbDimStyleTable
  0
DIMSTYLE
105
1B3A
330
A
100
AcDbSymbolTableRecord
100
AcDbDimStyleTableRecord
  2
STANDARD
 70
     0
 41
10.0
 42
3.0
 43
7.149999999999999
 44
2.0
 73
     0
 74
     0
 77
     3
 78
     8
 79
     2
140
18.0
141
0.0
147
4.0
176
     8
177
     8
178
     0
179
     2
271
     2
272
     2
288
     1
340
10
341
49C3
342
49C3
  0
DIMSTYLE
105
A246
330
A
100
AcDbSymbolTableRecord
100
AcDbDimStyleTableRecord
  2
STANDERD
 70
     0
 40
0.0
 41
4.0
 42
1.5
 43
3.75
 44
1.25
 73
     0
 74
     0
 77
     3
 78
     8
140
5.0
141
0.0
147
2.5
171
     0
173
     1
178
     0
288
     1
340
10
341
49C3
343
49C3
344
49C3
  0
ENDTAB
  0
TABLE
  2
BLOCK_RECORD
  5
1
330
0
100
AcDbSymbolTable
 70
   181
  0
BLOCK_RECORD
  5
18
102
{ACAD_XDICTIONARY
360
9FD5
102
}
330
1
100
AcDbSymbolTableRecord
100
AcDbBlockTableRecord
  2
*MODEL_SPACE
340
40CD
  0
BLOCK_RECORD
  5
15
330
1
100
AcDbSymbolTableRecord
100
AcDbBlockTableRecord
  2
*PAPER_SPACE
340
40CE
  0
BLOCK_RECORD
  5
49C3
330
1
100
AcDbSymbolTableRecord
100
AcDbBlockTableRecord
  2
_OPEN
340
0
102
{BLKREFS
331
5FCCC
331
5FCCD
331
5FD88
331
5FD89
331
5FD91
331
5FD92
331
5FD9C
331
5FD9D
331
5FDA5
331
5FDA6
331
5FDAE
331
5FDAF
331
5FDB7
331
5FDB8
331
5FDC0
331
5FDC1
331
5FDCB
331
5FDCC
331
5FDDD
331
5FDDE
331
5FDE6
331
5FDE7
331
5FDEF
331
5FDF0
331
5FDF8
331
5FDF9
331
5FE01
331
5FE02
331
6196F
331
61970
331
6197A
331
6197B
331
61983
331
61984
331
619A1
331
619A2
331
61C6A
331
61C6B
331
6273D
331
6273E
331
62746
331
62747
331
62751
331
62752
331
6275C
331
6275D
331
62765
331
62766
331
6276E
331
6276F
331
62779
331
6277A
331
62782
331
62783
331
6278B
331
6278C
331
62794
331
62795
331
6279D
331
6279E
331
627A6
331
627A7
331
627AF
331
627B0
331
627B8
331
627B9
331
627C1
331
627C2
331
627CA
331
627CB
331
627D3
331
627D4
331
627DC
331
627DD
331
627E5
331
627E6
331
632CD
331
632CE
331
632D6
331
632D7
331
632DF
331
632E0
331
632E8
331
632E9
331
632F1
331
632F2
331
632FC
331
632FD
331
63305
331
63306
331
6330E
331
6330F
331
63317
331
63318
331
63320
331
63321
331
63329
331
6332A
331
63332
331
63333
331
6333B
331
6333C
331
63344
331
63345
331
6334F
331
63350
331
63358
331
63359
331
63361
331
63362
331
6336A
331
6336B
331
63375
331
63376
331
6337E
331
6337F
331
63E59
331
63E5A
331
63E62
331
63E63
331
63E6B
331
63E6C
331
63E74
331
63E75
331
63E7F
331
63E80
331
63E88
331
63E89
331
63E91
331
63E92
331
63E9A
331
63E9B
331
63EAE
331
63EAF
331
63EB9
331
63EBA
331
63EC2
331
63EC3
331
63ECB
331
63ECC
331
63ED4
331
63ED5
331
63EDD
331
63EDE
331
63EE6
331
63EE7
331
63EEF
331
63EF0
331
63EF8
331
63EF9
331
63F01
331
63F02
331
63F0A
331
63F0B
331
63F49
331
63F4A
331
67D28
331
67D29
331
67D31
331
67D32
331
67D3A
331
67D3B
331
67D43
331
67D44
331
67D4C
331
67D4D
331
67D55
331
67D56
331
67D5E
331
67D5F
331
67D67
331
67D68
331
67D70
331
67D71
331
67D79
331
67D7A
331
67D84
331
67D85
331
67D8D
331
67D8E
331
67D98
331
67D99
331
67DA1
331
67DA2
331
67DAC
331
67DAD
331
67DB5
331
67DB6
331
67DBE
331
67DBF
331
67DC9
331
67DCA
331
67DD2
331
67DD3
331
67DDB
331
67DDC
331
67EA3
331
67EA4
331
67EAC
331
67EAD
331
67EB5
331
67EB6
331
67EBE
331
67EBF
331
67EC7
331
67EC8
331
67ED0
331
67ED1
331
67ED9
331
67EDA
331
67EE2
331
67EE3
331
67EEB
331
67EEC
331
67EF6
331
67EF7
331
67EFF
331
67F00
331
67F0A
331
67F0B
331
67F13
331
67F14
331
67F1C
331
67F1D
331
67F27
331
67F28
331
67F30
331
67F31
331
67F39
331
67F3A
331
67F42
331
67F43
331
67F4D
331
67F4E
331
67F56
331
67F57
331
68B2E
331
68B2F
331
68B39
331
68B3A
331
68B42
331
68B43
331
68BFC
331
68BFD
331
68C05
331
68C06
331
68C10
331
68C11
331
68C19
331
68C1A
331
68C22
331
68C23
331
68C2B
331
68C2C
331
68C34
331
68C35
331
68C41
331
68C42
331
68C4A
331
68C4B
331
68C53
331
68C54
331
68C5C
331
68C5D
331
68C65
331
68C66
331
68C6E
331
68C6F
331
68C77
331
68C78
331
68C80
331
68C81
331
68C89
331
68C8A
331
68C92
331
68C93
331
6978A
331
6978B
331
69795
331
69796
331
6979E
331
6979F
331
697A9
331
697AA
331
697B2
331
697B3
331
697BB
331
697BC
331
697C4
331
697C5
331
697CD
331
697CE
331
697D6
331
697D7
331
697DF
331
697E0
331
697E8
331
697E9
331
697F1
331
697F2
331
697FA
331
697FB
331
69803
331
69804
331
6980E
331
6980F
331
69817
331
69818
331
69820
331
69821
331
69829
331
6982A
331
69834
331
69835
331
6983D
331
6983E
331
6A436
331
6A437
331
6A441
331
6A442
331
6A44A
331
6A44B
331
6A55D
331
6A55E
331
6A566
331
6A567
331
6A56F
331
6A570
331
6A578
331
6A579
331
6A581
331
6A582
331
6A58A
331
6A58B
331
6A593
331
6A594
331
6A59C
331
6A59D
331
6A5A5
331
6A5A6
331
6A5B0
331
6A5B1
331
6A5B9
331
6A5BA
331
6A5C4
331
6A5C5
331
6A5CD
331
6A5CE
331
6A5D6
331
6A5D7
331
6A5E1
331
6A5E2
331
6A5EA
331
6A5EB
331
6A5F3
331
6A5F4
102
}
  0
ENDTAB
  0
ENDSEC
  0
SECTION
  2
BLOCKS
  0
BLOCK
  5
52
330
18
100
AcDbEntity
  8
0
100
AcDbBlockBegin
  2
*MODEL_SPACE
 70
     0
 10
0.0
 20
0.0
 30
0.0
  3
*MODEL_SPACE
  1
*MODEL_SPACE
  0
ENDBLK
  5
53
330
18
100
AcDbEntity
  8
0
100
AcDbBlockEnd
  0
BLOCK
  5
50
330
15
100
AcDbEntity
 67
     1
  8
0
100
AcDbBlockBegin
  2
*PAPER_SPACE
 70
     0
 10
0.0
 20
0.0
 30
0.0
  3
*PAPER_SPACE
  1
*PAPER_SPACE
  0
ENDBLK
  5
51
330
15
100
AcDbEntity
 67
     1
  8
0
100
AcDbBlockEnd
  0
BLOCK
  5
49C7
330
49C3
100
AcDbEntity
  8
0
100
AcDbBlockBegin
  2
_OPEN
 70
     0
 10
0.0
 20
0.0
 30
0.0
  3
_OPEN
  1
_OPEN
  0
LINE
  5
49C4
330
49C3
100
AcDbEntity
  8
0
  6
ByBlock
 62
     0
100
AcDbLine
 10
-1.0
 20
0.1666666666666667
 30
0.0
 11
0.0
 21
0.0
 31
0.0
  0
LINE
  5
49C5
330
49C3
100
AcDbEntity
  8
0
  6
ByBlock
 62
     0
100
AcDbLine
 10
0.0
 20
0.0
 30
0.0
 11
-1.0
 21
-0.1666666666666667
 31
0.0
  0
LINE
  5
49C6
330
49C3
100
AcDbEntity
  8
0
  6
ByBlock
 62
     0
100
AcDbLine
 10
0.0
 20
0.0
 30
0.0
 11
-1.0
 21
0.0
 31
0.0
  0
ENDBLK
  5
49C8
330
49C3
100
AcDbEntity
  8
0
100
AcDbBlockEnd
  0
ENDSEC
  0
SECTION
  2
ENTITIES
  0
TEXT
  5
698E4
330
18
100
AcDbEntity
  8
文字
100
AcDbText
 10
18591.65041105046
 20
-14753.8881046554
 30
0.0
 40
29.997
  1
SX-LB101E
100
AcDbText
  0
LINE
  5
69A63
330
18
100
AcDbEntity
  8
姿図
100
AcDbLine
 10
18718.38048998462
 20
-14660.68079468998
 30
0.0
 11
18613.11942645851
 21
-14577.42895712721
 31
0.0
  0
LINE
  5
69A64
330
18
100
AcDbEntity
  8
姿図
100
AcDbLine
 10
18762.66673122454
 20
-14593.56232752654
 30
0.0
 11
18705.26401718445
 21
-14602.70009863376
 31
0.0
  0
LINE
  5
69A65
330
18
100
AcDbEntity
  8
姿図
100
AcDbLine
 10
18778.22437597999
 20
-14533.12657169947
 30
0.0
 11
18614.93819268967
 21
-14562.13537416885
 31
0.0
  0
LINE
  5
69A66
330
18
100
AcDbEntity
  8
姿図
100
AcDbLine
 10
18778.22437597999
 20
-14531.02635405885
 30
0.0
 11
18613.11942645851
 21
-14560.35827162147
 31
0.0
  0
LINE
  5
69A67
330
18
100
AcDbEntity
  8
姿図
100
AcDbLine
 10
18778.22437597999
 20
-14534.22339583196
 30
0.0
 11
18613.11942645851
 21
-14563.55531339458
 31
0.0
  0
LINE
  5
69A68
330
18
100
AcDbEntity
  8
姿図
100
AcDbLine
 10
18778.22437597999
 20
-14535.89803676073
 30
0.0
 11
18613.11942645851
 21
-14565.22995432335
 31
0.0
  0
LINE
  5
69A69
330
18
100
AcDbEntity
  8
姿図
100
AcDbLine
 10
18778.22437597999
 20
-14537.67417107912
 30
0.0
 11
18613.11942645851
 21
-14567.00608864174
 31
0.0
  0
LINE
  5
69A6A
330
18
100
AcDbEntity
  8
姿図
100
AcDbLine
 10
18778.22437597999
 20
-14540.36973075533
 30
0.0
 11
18614.22139306222
 21
-14569.50587712108
 31
0.0
  0
LINE
  5
69A6B
330
18
100
AcDbEntity
  8
姿図
100
AcDbLine
 10
18778.22437597999
 20
-14539.45030539752
 30
0.0
 11
18613.11942645851
 21
-14568.78222296014
 31
0.0
  0
LINE
  5
69A6C
330
18
100
AcDbEntity
  8
姿図
100
AcDbLine
 10
18778.22437597999
 20
-14539.45030539752
 30
0.0
 11
18613.11942645851
 21
-14568.78222296014
 31
0.0
  0
LINE
  5
69A6D
330
18
100
AcDbEntity
  8
姿図
100
AcDbLine
 10
18778.22437597999
 20
-14545.33692199562
 30
0.0
 11
18613.11942645851
 21
-14574.66883955824
 31
0.0
  0
LINE
  5
69A6E
330
18
100
AcDbEntity
  8
姿図
100
AcDbLine
 10
18778.22437597999
 20
-14548.0970395646
 30
0.0
 11
18613.11942645851
 21
-14577.42895712721
 31
0.0
  0
LINE
  5
69A6F
330
18
100
AcDbEntity
  8
姿図
100
AcDbLine
 10
18766.86353668422
 20
-14572.20459867854
 30
0.0
 11
18679.47791517625
 21
-14588.55915038591
 31
0.0
  0
LINE
  5
69A70
330
18
100
AcDbEntity
  8
姿図
100
AcDbLine
 10
18765.33866014738
 20
-14582.13187265198
 30
0.0
 11
18679.47791517625
 21
-14596.61083359741
 31
0.0
  0
LINE
  5
69A71
330
18
100
AcDbEntity
  8
姿図
100
AcDbLine
 10
18778.18645806058
 20
-14476.51885673937
 30
0.0
 11
18618.60115340914
 21
-14504.87017518141
 31
0.0
  0
LINE
  5
69A72
330
18
100
AcDbEntity
  8
姿図
100
AcDbLine
 10
18778.22437597999
 20
-14500.62412085556
 30
0.0
 11
18614.57320280503
 21
-14529.69776604006
 31
0.0
  0
LINE
  5
69A73
330
18
100
AcDbEntity
  8
姿図
100
AcDbLine
 10
18778.22437597999
 20
-14499.41116319143
 30
0.0
 11
18613.11942645851
 21
-14528.74308075405
 31
0.0
  0
LINE
  5
69A74
330
18
100
AcDbEntity
  8
姿図
100
AcDbLine
 10
18778.22437597999
 20
-14505.29777978954
 30
0.0
 11
18613.11942645851
 21
-14534.62969735216
 31
0.0
  0
LINE
  5
69A75
330
18
100
AcDbEntity
  8
姿図
100
AcDbLine
 10
18778.22437597999
 20
-14508.54060524611
 30
0.0
 11
18614.57320280503
 21
-14537.61425043062
 31
0.0
  0
LINE
  5
69A76
330
18
100
AcDbEntity
  8
姿図
100
AcDbLine
 10
18778.22437597999
 20
-14507.32764758199
 30
0.0
 11
18613.11942645851
 21
-14536.65956514461
 31
0.0
  0
LINE
  5
69A77
330
18
100
AcDbEntity
  8
姿図
100
AcDbLine
 10
18778.22437597999
 20
-14509.86498232255
 30
0.0
 11
18613.11942645851
 21
-14539.19689988517
 31
0.0
  0
LINE
  5
69A78
330
18
100
AcDbEntity
  8
姿図
100
AcDbLine
 10
18778.22437597999
 20
-14528.25488899759
 30
0.0
 11
18614.93819268967
 21
-14557.26369146697
 31
0.0
  0
LINE
  5
69A79
330
18
100
AcDbEntity
  8
姿図
100
AcDbLine
 10
18778.22437597999
 20
-14523.38320629571
 30
0.0
 11
18614.93819268967
 21
-14552.39200876509
 31
0.0
  0
LINE
  5
69A7A
330
18
100
AcDbEntity
  8
姿図
100
AcDbLine
 10
18778.22437597999
 20
-14518.51152359383
 30
0.0
 11
18614.93819268967
 21
-14547.52032606321
 31
0.0
  0
LINE
  5
69A7B
330
18
100
AcDbEntity
  8
姿図
100
AcDbLine
 10
18778.22437597999
 20
-14513.63984089194
 30
0.0
 11
18614.93819268967
 21
-14542.64864336133
 31
0.0
  0
LINE
  5
69A7C
330
18
100
AcDbEntity
  8
姿図
100
AcDbLine
 10
18778.22437597999
 20
-14511.53962325132
 30
0.0
 11
18613.11942645851
 21
-14540.87154081394
 31
0.0
  0
LINE
  5
69A7D
330
18
100
AcDbEntity
  8
姿図
100
AcDbLine
 10
18778.22437597999
 20
-14514.73666502443
 30
0.0
 11
18613.11942645851
 21
-14544.06858258705
 31
0.0
  0
LINE
  5
69A7E
330
18
100
AcDbEntity
  8
姿図
100
AcDbLine
 10
18778.22437597999
 20
-14516.4113059532
 30
0.0
 11
18613.11942645851
 21
-14545.74322351582
 31
0.0
  0
LINE
  5
69A7F
330
18
100
AcDbEntity
  8
姿図
100
AcDbLine
 10
18778.22437597999
 20
-14519.60834772631
 30
0.0
 11
18613.11942645851
 21
-14548.94026528893
 31
0.0
  0
LINE
  5
69A80
330
18
100
AcDbEntity
  8
姿図
100
AcDbLine
 10
18778.22437597999
 20
-14521.28298865509
 30
0.0
 11
18613.11942645851
 21
-14550.6149062177
 31
0.0
  0
LINE
  5
69A81
330
18
100
AcDbEntity
  8
姿図
100
AcDbLine
 10
18778.22437597999
 20
-14524.48003042819
 30
0.0
 11
18613.11942645851
 21
-14553.81194799081
 31
0.0
  0
LINE
  5
69A82
330
18
100
AcDbEntity
  8
姿図
100
AcDbLine
 10
18778.22437597999
 20
-14526.15467135697
 30
0.0
 11
18613.11942645851
 21
-14555.48658891958
 31
0.0
  0
LINE
  5
69A83
330
18
100
AcDbEntity
  8
姿図
100
AcDbLine
 10
18778.22437597999
 20
-14529.35171313008
 30
0.0
 11
18613.11942645851
 21
-14558.68363069269
 31
0.0
  0
LINE
  5
69A84
330
18
100
AcDbEntity
  8
姿図
100
AcDbLine
 10
18778.22437597999
 20
-14497.38129539898
 30
0.0
 11
18613.11942645851
 21
-14526.7132129616
 31
0.0
  0
LINE
  5
69A85
330
18
100
AcDbEntity
  8
姿図
100
AcDbLine
 10
18705.85029391575
 20
-14602.55364445907
 30
0.0
 11
18772.61796739527
 21
-14654.87480501321
 31
0.0
  0
LINE
  5
69A86
330
18
100
AcDbEntity
  8
姿図
100
AcDbLine
 10
18705.26401718445
 20
-14602.70009863376
 30
0.0
 11
18772.19795085055
 21
-14654.93656513582
 31
0.0
  0
LINE
  5
69A87
330
18
100
AcDbEntity
  8
姿図
100
AcDbLine
 10
18679.47791517625
 20
-14596.61083359741
 30
0.0
 11
18758.2316287954
 21
-14656.99020272077
 31
0.0
  0
LINE
  5
69A88
330
18
100
AcDbEntity
  8
姿図
100
AcDbLine
 10
18613.11942645851
 20
-14577.42895712721
 30
0.0
 11
18613.11942645851
 21
-14574.66883955824
 31
0.0
  0
LINE
  5
69A89
330
18
100
AcDbEntity
  8
姿図
100
AcDbLine
 10
18679.47791517625
 20
-14588.55915038591
 30
0.0
 11
18679.47791517625
 21
-14596.61083359741
 31
0.0
  0
LINE
  5
69A8A
330
18
100
AcDbEntity
  8
姿図
100
AcDbLine
 10
18679.47791517625
 20
-14588.55915038591
 30
0.0
 11
18679.47791517625
 21
-14596.61083359741
 31
0.0
  0
LINE
  5
69A8B
330
18
100
AcDbEntity
  8
姿図
100
AcDbLine
 10
18679.47791517625
 20
-14596.61083359741
 30
0.0
 11
18705.26401718445
 21
-14602.70009863376
 31
0.0
  0
LINE
  5
69A8C
330
18
100
AcDbEntity
  8
姿図
100
AcDbLine
 10
18613.11942645851
 20
-14560.35827162147
 30
0.0
 11
18613.11942645851
 21
-14558.68363069269
 31
0.0
  0
LINE
  5
69A8D
330
18
100
AcDbEntity
  8
姿図
100
AcDbLine
 10
18613.11942645851
 20
-14565.22995432335
 30
0.0
 11
18613.11942645851
 21
-14563.55531339458
 31
0.0
  0
LINE
  5
69A8E
330
18
100
AcDbEntity
  8
姿図
100
AcDbLine
 10
18614.93819268967
 20
-14562.13537416885
 30
0.0
 11
18613.11942645851
 21
-14563.55531339458
 31
0.0
  0
LINE
  5
69A8F
330
18
100
AcDbEntity
  8
姿図
100
AcDbLine
 10
18613.11942645851
 20
-14560.35827162147
 30
0.0
 11
18614.93819268967
 21
-14562.13537416885
 31
0.0
  0
LINE
  5
69A90
330
18
100
AcDbEntity
  8
姿図
100
AcDbLine
 10
18614.57320280503
 20
-14566.18463960936
 30
0.0
 11
18614.57320280503
 21
-14566.74781626363
 31
0.0
  0
LINE
  5
69A91
330
18
100
AcDbEntity
  8
姿図
100
AcDbLine
 10
18614.22139306222
 20
-14569.50587712108
 30
0.0
 11
18614.22139306222
 21
-14574.47306836137
 31
0.0
  0
LINE
  5
69A92
330
18
100
AcDbEntity
  8
姿図
100
AcDbLine
 10
18613.11942645851
 20
-14568.78222296014
 30
0.0
 11
18614.22139306222
 21
-14569.50587712108
 31
0.0
  0
LINE
  5
69A93
330
18
100
AcDbEntity
  8
姿図
100
AcDbLine
 10
18613.11942645851
 20
-14567.00608864174
 30
0.0
 11
18613.11942645851
 21
-14568.78222296014
 31
0.0
  0
LINE
  5
69A94
330
18
100
AcDbEntity
  8
姿図
100
AcDbLine
 10
18613.11942645851
 20
-14565.22995432335
 30
0.0
 11
18614.57320280503
 21
-14566.18463960936
 31
0.0
  0
LINE
  5
69A95
330
18
100
AcDbEntity
  8
姿図
100
AcDbLine
 10
18613.11942645851
 20
-14545.74322351582
 30
0.0
 11
18613.11942645851
 21
-14544.06858258705
 31
0.0
  0
LINE
  5
69A96
330
18
100
AcDbEntity
  8
姿図
100
AcDbLine
 10
18613.11942645851
 20
-14550.6149062177
 30
0.0
 11
18613.11942645851
 21
-14548.94026528893
 31
0.0
  0
LINE
  5
69A97
330
18
100
AcDbEntity
  8
姿図
100
AcDbLine
 10
18613.11942645851
 20
-14555.48658891958
 30
0.0
 11
18613.11942645851
 21
-14553.81194799081
 31
0.0
  0
LINE
  5
69A98
330
18
100
AcDbEntity
  8
姿図
100
AcDbLine
 10
18614.93819268967
 20
-14557.26369146697
 30
0.0
 11
18613.11942645851
 21
-14558.68363069269
 31
0.0
  0
LINE
  5
69A99
330
18
100
AcDbEntity
  8
姿図
100
AcDbLine
 10
18614.93819268967
 20
-14552.39200876509
 30
0.0
 11
18613.11942645851
 21
-14553.81194799081
 31
0.0
  0
LINE
  5
69A9A
330
18
100
AcDbEntity
  8
姿図
100
AcDbLine
 10
18613.11942645851
 20
-14550.6149062177
 30
0.0
 11
18614.93819268967
 21
-14552.39200876509
 31
0.0
  0
LINE
  5
69A9B
330
18
100
AcDbEntity
  8
姿図
100
AcDbLine
 10
18613.11942645851
 20
-14555.48658891958
 30
0.0
 11
18614.93819268967
 21
-14557.26369146697
 31
0.0
  0
LINE
  5
69A9C
330
18
100
AcDbEntity
  8
姿図
100
AcDbLine
 10
18614.93819268967
 20
-14547.52032606321
 30
0.0
 11
18613.11942645851
 21
-14548.94026528893
 31
0.0
  0
LINE
  5
69A9D
330
18
100
AcDbEntity
  8
姿図
100
AcDbLine
 10
18613.11942645851
 20
-14545.74322351582
 30
0.0
 11
18614.93819268967
 21
-14547.52032606321
 31
0.0
  0
LINE
  5
69A9E
330
18
100
AcDbEntity
  8
姿図
100
AcDbLine
 10
18614.57320280503
 20
-14537.61425043062
 30
0.0
 11
18614.57320280503
 21
-14538.93862750706
 31
0.0
  0
LINE
  5
69A9F
330
18
100
AcDbEntity
  8
姿図
100
AcDbLine
 10
18615.2885121815
 20
-14529.57068689602
 30
0.0
 11
18615.2885121815
 21
-14534.24434583
 31
0.0
  0
LINE
  5
69AA0
330
18
100
AcDbEntity
  8
姿図
100
AcDbLine
 10
18613.11942645851
 20
-14528.74308075405
 30
0.0
 11
18613.11942645851
 21
-14526.7132129616
 31
0.0
  0
LINE
  5
69AA1
330
18
100
AcDbEntity
  8
姿図
100
AcDbLine
 10
18613.11942645851
 20
-14540.87154081394
 30
0.0
 11
18613.11942645851
 21
-14539.19689988517
 31
0.0
  0
LINE
  5
69AA2
330
18
100
AcDbEntity
  8
姿図
100
AcDbLine
 10
18613.11942645851
 20
-14536.65956514461
 30
0.0
 11
18613.11942645851
 21
-14534.62969735216
 31
0.0
  0
LINE
  5
69AA3
330
18
100
AcDbEntity
  8
姿図
100
AcDbLine
 10
18613.11942645851
 20
-14528.74308075405
 30
0.0
 11
18614.57320280503
 21
-14529.69776604007
 31
0.0
  0
LINE
  5
69AA4
330
18
100
AcDbEntity
  8
姿図
100
AcDbLine
 10
18614.93819268967
 20
-14542.64864336133
 30
0.0
 11
18613.11942645851
 21
-14544.06858258705
 31
0.0
  0
LINE
  5
69AA5
330
18
100
AcDbEntity
  8
姿図
100
AcDbLine
 10
18613.11942645851
 20
-14536.65956514461
 30
0.0
 11
18614.57320280503
 21
-14537.61425043062
 31
0.0
  0
LINE
  5
69AA6
330
18
100
AcDbEntity
  8
姿図
100
AcDbLine
 10
18613.11942645851
 20
-14540.87154081394
 30
0.0
 11
18614.93819268967
 21
-14542.64864336133
 31
0.0
  0
LINE
  5
69AA7
330
18
100
AcDbEntity
  8
姿図
100
AcDbLine
 10
18618.60115340914
 20
-14525.73935019442
 30
0.0
 11
18618.60115340914
 21
-14504.87017518141
 31
0.0
  0
LINE
  5
69AA8
330
18
100
AcDbEntity
  8
姿図
100
AcDbLine
 10
18883.4854395061
 20
-14620.82451525227
 30
0.0
 11
18778.22437597999
 21
-14535.89803676073
 31
0.0
  0
LINE
  5
69AA9
330
18
100
AcDbEntity
  8
姿図
100
AcDbLine
 10
18882.30776953081
 20
-14622.70214296028
 30
0.0
 11
18778.22437597999
 21
-14540.36973075533
 31
0.0
  0
LINE
  5
69AAA
330
18
100
AcDbEntity
  8
姿図
100
AcDbLine
 10
18883.4854395061
 20
-14622.70214296028
 30
0.0
 11
18778.22437597999
 21
-14539.45030539752
 31
0.0
  0
LINE
  5
69AAB
330
18
100
AcDbEntity
  8
姿図
100
AcDbLine
 10
18883.4854395061
 20
-14620.92600864189
 30
0.0
 11
18778.22437597999
 21
-14537.67417107912
 31
0.0
  0
LINE
  5
69AAC
330
18
100
AcDbEntity
  8
姿図
100
AcDbLine
 10
18883.4854395061
 20
-14619.1498743235
 30
0.0
 11
18778.22437597999
 21
-14534.22339583196
 31
0.0
  0
LINE
  5
69AAD
330
18
100
AcDbEntity
  8
姿図
100
AcDbLine
 10
18883.4854395061
 20
-14617.47523339472
 30
0.0
 11
18778.22437597999
 21
-14533.12657169947
 31
0.0
  0
LINE
  5
69AAE
330
18
100
AcDbEntity
  8
姿図
100
AcDbLine
 10
18883.4854395061
 20
-14614.27819162161
 30
0.0
 11
18778.22437597999
 21
-14529.35171313008
 31
0.0
  0
LINE
  5
69AAF
330
18
100
AcDbEntity
  8
姿図
100
AcDbLine
 10
18883.4854395061
 20
-14612.60355069284
 30
0.0
 11
18778.22437597999
 21
-14528.25488899759
 31
0.0
  0
LINE
  5
69AB0
330
18
100
AcDbEntity
  8
姿図
100
AcDbLine
 10
18883.4854395061
 20
-14609.40650891973
 30
0.0
 11
18778.22437597999
 21
-14524.48003042819
 31
0.0
  0
LINE
  5
69AB1
330
18
100
AcDbEntity
  8
姿図
100
AcDbLine
 10
18883.4854395061
 20
-14607.73186799096
 30
0.0
 11
18778.22437597999
 21
-14523.38320629571
 31
0.0
  0
LINE
  5
69AB2
330
18
100
AcDbEntity
  8
姿図
100
AcDbLine
 10
18883.4854395061
 20
-14604.53482621785
 30
0.0
 11
18778.22437597999
 21
-14519.60834772631
 31
0.0
  0
LINE
  5
69AB3
330
18
100
AcDbEntity
  8
姿図
100
AcDbLine
 10
18883.4854395061
 20
-14602.86018528908
 30
0.0
 11
18778.22437597999
 21
-14518.51152359383
 31
0.0
  0
LINE
  5
69AB4
330
18
100
AcDbEntity
  8
姿図
100
AcDbLine
 10
18883.4854395061
 20
-14599.66314351597
 30
0.0
 11
18778.22437597999
 21
-14514.73666502443
 31
0.0
  0
LINE
  5
69AB5
330
18
100
AcDbEntity
  8
姿図
100
AcDbLine
 10
18883.4854395061
 20
-14597.9885025872
 30
0.0
 11
18778.22437597999
 21
-14513.63984089194
 31
0.0
  0
LINE
  5
69AB6
330
18
100
AcDbEntity
  8
姿図
100
AcDbLine
 10
18883.4854395061
 20
-14594.79146081409
 30
0.0
 11
18778.22437597999
 21
-14511.53962325132
 31
0.0
  0
LINE
  5
69AB7
330
18
100
AcDbEntity
  8
姿図
100
AcDbLine
 10
18883.4854395061
 20
-14593.11681988532
 30
0.0
 11
18778.22437597999
 21
-14509.86498232255
 31
0.0
  0
LINE
  5
69AB8
330
18
100
AcDbEntity
  8
姿図
100
AcDbLine
 10
18882.18751173892
 20
-14590.72058339173
 30
0.0
 11
18778.22437597999
 21
-14508.54060524611
 31
0.0
  0
LINE
  5
69AB9
330
18
100
AcDbEntity
  8
姿図
100
AcDbLine
 10
18883.4854395061
 20
-14590.57948514476
 30
0.0
 11
18778.03960393415
 21
-14507.36047348111
 31
0.0
  0
LINE
  5
69ABA
330
18
100
AcDbEntity
  8
姿図
100
AcDbLine
 10
18883.4854395061
 20
-14588.5496173523
 30
0.0
 11
18778.22437597999
 21
-14505.29777978954
 31
0.0
  0
LINE
  5
69ABB
330
18
100
AcDbEntity
  8
姿図
100
AcDbLine
 10
18882.42889595856
 20
-14582.6630007542
 30
0.0
 11
18778.22437597999
 21
-14500.62412085556
 31
0.0
  0
LINE
  5
69ABC
330
18
100
AcDbEntity
  8
姿図
100
AcDbLine
 10
18883.4854395061
 20
-14582.6630007542
 30
0.0
 11
18778.22437597999
 21
-14499.41116319143
 31
0.0
  0
LINE
  5
69ABD
330
18
100
AcDbEntity
  8
姿図
100
AcDbLine
 10
18883.4854395061
 20
-14580.63313296175
 30
0.0
 11
18778.22437597999
 21
-14497.38129539898
 31
0.0
  0
LINE
  5
69ABE
330
18
100
AcDbEntity
  8
姿図
100
AcDbLine
 10
18883.4854395061
 20
-14631.34887712736
 30
0.0
 11
18843.67906068013
 21
-14638.420727036
 31
0.0
  0
LINE
  5
69ABF
330
18
100
AcDbEntity
  8
姿図
100
AcDbLine
 10
18883.4854395061
 20
-14628.58875955839
 30
0.0
 11
18778.22437597999
 21
-14545.33692199562
 31
0.0
  0
LINE
  5
69AC0
330
18
100
AcDbEntity
  8
姿図
100
AcDbLine
 10
18883.4854395061
 20
-14631.34887712736
 30
0.0
 11
18778.22437597999
 21
-14548.0970395646
 31
0.0
  0
LINE
  5
69AC1
330
18
100
AcDbEntity
  8
姿図
100
AcDbLine
 10
18766.86353668422
 20
-14572.20459867854
 30
0.0
 11
18765.33866014738
 21
-14582.13187265198
 31
0.0
  0
LINE
  5
69AC2
330
18
100
AcDbEntity
  8
姿図
100
AcDbLine
 10
18766.86353668422
 20
-14572.20459867854
 30
0.0
 11
18765.33866014738
 21
-14582.13187265198
 31
0.0
  0
LINE
  5
69AC3
330
18
100
AcDbEntity
  8
姿図
100
AcDbLine
 10
18843.67906068013
 20
-14637.20209140633
 30
0.0
 11
18766.86353668422
 21
-14572.20459867854
 31
0.0
  0
LINE
  5
69AC4
330
18
100
AcDbEntity
  8
姿図
100
AcDbLine
 10
18762.66673122454
 20
-14593.56232752654
 30
0.0
 11
18828.03802181253
 21
-14646.72572279514
 31
0.0
  0
LINE
  5
69AC5
330
18
100
AcDbEntity
  8
姿図
100
AcDbLine
 10
18843.67906068013
 20
-14644.42583130192
 30
0.0
 11
18765.33866014738
 21
-14582.13187265198
 31
0.0
  0
LINE
  5
69AC6
330
18
100
AcDbEntity
  8
姿図
100
AcDbLine
 10
18754.64266511088
 20
-14654.2385945347
 30
0.0
 11
18718.38048998462
 21
-14660.68079468998
 31
0.0
  0
LINE
  5
69AC7
330
18
100
AcDbEntity
  8
姿図
100
AcDbLine
 10
18733.57233200168
 20
-14624.79242546542
 30
0.0
 11
18733.66143353697
 21
-14624.34729137657
 31
0.0
  0
LINE
  5
69AC8
330
18
100
AcDbEntity
  8
姿図
100
AcDbLine
 10
18765.33866014738
 20
-14582.13187265198
 30
0.0
 11
18762.66673122454
 21
-14593.56232752654
 31
0.0
  0
LINE
  5
69AC9
330
18
100
AcDbEntity
  8
姿図
100
AcDbLine
 10
18772.61796739527
 20
-14647.65106511762
 30
0.0
 11
18772.61796739527
 21
-14654.87480501321
 31
0.0
  0
LINE
  5
69ACA
330
18
100
AcDbEntity
  8
姿図
100
AcDbLine
 10
18772.19795085055
 20
-14654.93656513582
 30
0.0
 11
18758.2316287954
 21
-14656.99020272077
 31
0.0
  0
LINE
  5
69ACB
330
18
100
AcDbEntity
  8
姿図
100
AcDbLine
 10
18772.61796739527
 20
-14654.87480501321
 30
0.0
 11
18772.19795085055
 21
-14654.93656513582
 31
0.0
  0
LINE
  5
69ACC
330
18
100
AcDbEntity
  8
姿図
100
AcDbLine
 10
18772.61796739527
 20
-14647.65106511762
 30
0.0
 11
18717.24070175183
 21
-14600.79356504854
 31
0.0
  0
LINE
  5
69ACD
330
18
100
AcDbEntity
  8
姿図
100
AcDbLine
 10
18843.67906068013
 20
-14637.20209140633
 30
0.0
 11
18843.67906068013
 21
-14644.42583130192
 31
0.0
  0
LINE
  5
69ACE
330
18
100
AcDbEntity
  8
姿図
100
AcDbLine
 10
18828.03802181253
 20
-14646.72572279514
 30
0.0
 11
18843.67906068013
 21
-14644.42583130192
 31
0.0
  0
LINE
  5
69ACF
330
18
100
AcDbEntity
  8
姿図
100
AcDbLine
 10
18778.18645806058
 20
-14476.51885673937
 30
0.0
 11
18811.90483268208
 21
-14505.17672101625
 31
0.0
  0
LINE
  5
69AD0
330
18
100
AcDbEntity
  8
姿図
100
AcDbLine
 10
18778.22437597999
 20
-14548.0970395646
 30
0.0
 11
18778.22437597999
 21
-14476.55108387369
 31
0.0
  0
LINE
  5
69AD1
330
18
100
AcDbEntity
  8
姿図
100
AcDbLine
 10
18811.90483268207
 20
-14518.30059677354
 30
0.0
 11
18811.90483268208
 21
-14505.17672101625
 31
0.0
  0
LINE
  5
69AD2
330
18
100
AcDbEntity
  8
姿図
100
AcDbLine
 10
18883.4854395061
 20
-14599.66314351597
 30
0.0
 11
18883.4854395061
 21
-14597.9885025872
 31
0.0
  0
LINE
  5
69AD3
330
18
100
AcDbEntity
  8
姿図
100
AcDbLine
 10
18883.4854395061
 20
-14619.1498743235
 30
0.0
 11
18881.21043149041
 21
-14619.1498743235
 31
0.0
  0
LINE
  5
69AD4
330
18
100
AcDbEntity
  8
姿図
100
AcDbLine
 10
18883.4854395061
 20
-14614.27819162161
 30
0.0
 11
18881.66667327494
 21
-14616.055294169
 31
0.0
  0
LINE
  5
69AD5
330
18
100
AcDbEntity
  8
姿図
100
AcDbLine
 10
18883.4854395061
 20
-14609.40650891973
 30
0.0
 11
18881.66667327494
 21
-14611.18361146712
 31
0.0
  0
LINE
  5
69AD6
330
18
100
AcDbEntity
  8
姿図
100
AcDbLine
 10
18883.4854395061
 20
-14604.53482621785
 30
0.0
 11
18881.66667327494
 21
-14606.31192876524
 31
0.0
  0
LINE
  5
69AD7
330
18
100
AcDbEntity
  8
姿図
100
AcDbLine
 10
18883.4854395061
 20
-14599.66314351597
 30
0.0
 11
18881.66667327494
 21
-14601.44024606336
 31
0.0
  0
LINE
  5
69AD8
330
18
100
AcDbEntity
  8
姿図
100
AcDbLine
 10
18881.15569111943
 20
-14621.80269733643
 30
0.0
 11
18881.15569111943
 21
-14626.76988857672
 31
0.0
  0
LINE
  5
69AD9
330
18
100
AcDbEntity
  8
姿図
100
AcDbLine
 10
18883.4854395061
 20
-14619.1498743235
 30
0.0
 11
18883.4854395061
 21
-14617.47523339472
 31
0.0
  0
LINE
  5
69ADA
330
18
100
AcDbEntity
  8
姿図
100
AcDbLine
 10
18883.4854395061
 20
-14631.34887712736
 30
0.0
 11
18883.4854395061
 21
-14628.58875955839
 31
0.0
  0
LINE
  5
69ADB
330
18
100
AcDbEntity
  8
姿図
100
AcDbLine
 10
18883.4854395061
 20
-14622.70214296028
 30
0.0
 11
18882.30776953081
 21
-14622.70214296028
 31
0.0
  0
LINE
  5
69ADC
330
18
100
AcDbEntity
  8
姿図
100
AcDbLine
 10
18883.4854395061
 20
-14622.70214296028
 30
0.0
 11
18883.4854395061
 21
-14620.92600864189
 31
0.0
  0
LINE
  5
69ADD
330
18
100
AcDbEntity
  8
姿図
100
AcDbLine
 10
18883.4854395061
 20
-14604.53482621785
 30
0.0
 11
18883.4854395061
 21
-14602.86018528908
 31
0.0
  0
LINE
  5
69ADE
330
18
100
AcDbEntity
  8
姿図
100
AcDbLine
 10
18883.4854395061
 20
-14609.40650891973
 30
0.0
 11
18883.4854395061
 21
-14607.73186799096
 31
0.0
  0
LINE
  5
69ADF
330
18
100
AcDbEntity
  8
姿図
100
AcDbLine
 10
18883.4854395061
 20
-14614.27819162161
 30
0.0
 11
18883.4854395061
 21
-14612.60355069284
 31
0.0
  0
LINE
  5
69AE0
330
18
100
AcDbEntity
  8
姿図
100
AcDbLine
 10
18883.4854395061
 20
-14594.79146081409
 30
0.0
 11
18881.66667327494
 21
-14596.56856336148
 31
0.0
  0
LINE
  5
69AE1
330
18
100
AcDbEntity
  8
姿図
100
AcDbLine
 10
18881.15569111943
 20
-14581.66898983488
 30
0.0
 11
18881.15569111943
 21
-14586.73074637064
 31
0.0
  0
LINE
  5
69AE2
330
18
100
AcDbEntity
  8
姿図
100
AcDbLine
 10
18883.4854395061
 20
-14582.6630007542
 30
0.0
 11
18883.4854395061
 21
-14580.63313296175
 31
0.0
  0
LINE
  5
69AE3
330
18
100
AcDbEntity
  8
姿図
100
AcDbLine
 10
18883.4854395061
 20
-14582.6630007542
 30
0.0
 11
18882.42889595856
 21
-14582.6630007542
 31
0.0
  0
LINE
  5
69AE4
330
18
100
AcDbEntity
  8
姿図
100
AcDbLine
 10
18883.4854395061
 20
-14590.57948514476
 30
0.0
 11
18883.4854395061
 21
-14588.5496173523
 31
0.0
  0
LINE
  5
69AE5
330
18
100
AcDbEntity
  8
姿図
100
AcDbLine
 10
18883.4854395061
 20
-14594.79146081409
 30
0.0
 11
18883.4854395061
 21
-14593.11681988532
 31
0.0
  0
LINE
  5
69AE6
330
18
100
AcDbEntity
  8
姿図
100
AcDbLine
 10
18882.18751173892
 20
-14590.72058339173
 30
0.0
 11
18882.18751173892
 21
-14592.10350738963
 31
0.0
  0
LINE
  5
69AE7
330
18
100
AcDbEntity
  8
姿図
100
AcDbLine
 10
18883.4854395061
 20
-14590.57948514476
 30
0.0
 11
18882.18751173892
 21
-14590.72058339173
 31
0.0
  0
LINE
  5
69AE8
330
18
100
AcDbEntity
  8
姿図
100
AcDbLine
 10
18848.90074024876
 20
-14549.74409634157
 30
0.0
 11
18848.90074024875
 21
-14536.62022058426
 31
0.0
  0
LINE
  5
69AE9
330
18
100
AcDbEntity
  8
姿図
100
AcDbLine
 10
18848.90074024875
 20
-14536.62022058426
 30
0.0
 11
18843.6629028723
 21
-14537.41803694913
 31
0.0
  0
LINE
  5
69AEA
330
18
100
AcDbEntity
  8
姿図
100
AcDbLine
 10
18811.90483268208
 20
-14510.42627131916
 30
0.0
 11
18848.90074024875
 21
-14541.86977088719
 31
0.0
  0
LINE
  5
69AEB
330
18
100
AcDbEntity
  8
姿図
100
AcDbLine
 10
18811.90483268207
 20
-14518.30059677354
 30
0.0
 11
18848.90074024876
 21
-14549.74409634157
 31
0.0
  0
LINE
  5
69AEC
330
18
100
AcDbEntity
  8
姿図
100
AcDbLine
 10
18848.90074024875
 20
-14536.62022058426
 30
0.0
 11
18876.57300585563
 21
-14560.1393860511
 31
0.0
  0
LINE
  5
6A0F8
330
18
100
AcDbEntity
  8
姿図
100
AcDbLine
 10
18876.61092377504
 20
-14560.1393860511
 30
0.0
 11
18876.61092377504
 21
-14575.26609107527
 31
0.0
  0
ENDSEC
  0
SECTION
  2
OBJECTS
  0
DICTIONARY
  5
C
330
0
100
AcDbDictionary
281
     1
  3
ACAD_GROUP
350
D
  3
ACAD_IMAGE_VARS
350
6A610
  3
ACAD_LAYOUT
350
40CB
  3
ACAD_MLINESTYLE
350
E
  3
ACAD_PLOTSETTINGS
350
40CC
  3
ACAD_PLOTSTYLENAME
350
40C9
  3
ACAD_SCALELIST
350
65757
  3
AcadDim
350
FCCB
  3
AcDbVariableDictionary
350
6377
  3
APPDATA
350
6A60F
  3
DWGPROPS
350
6A633
  0
DICTIONARY
  5
64066
330
2
100
AcDbDictionary
280
     1
281
     1
  3
ACAD_LAYERSTATES
360
64067
  0
DICTIONARY
  5
666E7
330
F
100
AcDbDictionary
280
     1
281
     1
  3
ADSK_XREC_LAYER_RECONCILED
360
666E8
  0
DICTIONARY
  5
666EF
330
4C
100
AcDbDictionary
280
     1
281
     1
  3
ADSK_XREC_LAYER_RECONCILED
360
666F0
  0
DICTIONARY
  5
666F1
330
4D
100
AcDbDictionary
280
     1
281
     1
  3
ADSK_XREC_LAYER_RECONCILED
360
666F2
  0
DICTIONARY
  5
666F5
330
40D4
100
AcDbDictionary
280
     1
281
     1
  3
ADSK_XREC_LAYER_RECONCILED
360
666F6
  0
DICTIONARY
  5
9FD5
330
18
100
AcDbDictionary
280
     1
281
     1
  3
ACAD_SORTENTS
360
61C14
  0
DICTIONARY
  5
D
102
{ACAD_REACTORS
330
C
102
}
330
C
100
AcDbDictionary
281
     1
  0
RASTERVARIABLES
  5
6A610
102
{ACAD_REACTORS
330
C
102
}
330
C
100
AcDbRasterVariables
 90
        0
 70
     1
 71
     1
 72
     0
  0
DICTIONARY
  5
40CB
102
{ACAD_REACTORS
330
C
102
}
330
C
100
AcDbDictionary
281
     1
  3
Model
350
40CD
  3
ﾚｲｱｳﾄ1
350
40CE
  0
DICTIONARY
  5
E
102
{ACAD_REACTORS
330
C
102
}
330
C
100
AcDbDictionary
281
     1
  3
STANDARD
350
1B
  0
DICTIONARY
  5
40CC
102
{ACAD_REACTORS
330
C
102
}
330
C
100
AcDbDictionary
281
     1
  0
ACDBDICTIONARYWDFLT
  5
40C9
102
{ACAD_REACTORS
330
C
102
}
330
C
100
AcDbDictionary
281
     1
  3
Normal
350
40CA
100
AcDbDictionaryWithDefault
340
40CA
  0
DICTIONARY
  5
65757
102
{ACAD_REACTORS
330
C
102
}
330
C
100
AcDbDictionary
281
     1
  3
A0
350
65758
  3
A1
350
65759
  3
A2
350
6575A
  3
A3
350
6575B
  3
A4
350
6575C
  3
A5
350
6575D
  3
A6
350
6575E
  3
A7
350
6575F
  3
A8
350
65760
  3
A9
350
65761
  3
B0
350
65762
  3
B1
350
65763
  3
B2
350
65764
  3
B3
350
65765
  3
B4
350
65766
  3
B5
350
65767
  3
B6
350
65768
  3
B7
350
65769
  3
B8
350
6576A
  3
B9
350
6576B
  3
C0
350
6576C
  3
C1
350
6576D
  3
C2
350
6576E
  3
C3
350
6576F
  3
C4
350
65770
  3
C5
350
65771
  3
C6
350
65772
  3
C7
350
65773
  3
C8
350
65774
  3
C9
350
65775
  3
D0
350
65776
  3
D1
350
65777
  3
D2
350
65778
  0
XRECORD
  5
FCCB
102
{ACAD_REACTORS
330
C
102
}
330
C
100
AcDbXrecord
280
     1
 90
   990106
  3

 60
     0
 61
     0
 62
     1
 63
     3
 64
     0
 65
     0
 66
     0
 67
     3
 68
     1
 69
     0
 70
     0
 71
     0
 72
     0
 40
2.0
170
     0
  0
DICTIONARY
  5
6377
102
{ACAD_REACTORS
330
C
102
}
330
C
100
AcDbDictionary
281
     1
  3
DIMASSOC
350
73F2
  3
INDEXCTL
350
66716
  3
PROJECTNAME
350
6149B
  3
SORTENTS
350
6378
  0
DICTIONARY
  5
6A60F
102
{ACAD_REACTORS
330
C
102
}
330
C
100
AcDbDictionary
281
     1
  0
XRECORD
  5
6A633
102
{ACAD_REACTORS
330
C
102
}
330
C
100
AcDbXrecord
280
     1
  1
DWGPROPS COOKIE
  2

  3

  4

  6

  7

  8
SPAX
  9

300
=
301
=
302
=
303
=
304
=
305
=
306
=
307
=
308
=
309
=
 40
0.0
 41
2449505.547222222
 42
2456822.119746169
  1

 90
        0
  0
DICTIONARY
  5
64067
102
{ACAD_REACTORS
330
64066
102
}
330
64066
100
AcDbDictionary
281
     1
  0
XRECORD
  5
666E8
102
{ACAD_REACTORS
330
666E7
102
}
330
666E7
100
AcDbXrecord
280
     1
290
     1
  0
XRECORD
  5
666F0
102
{ACAD_REACTORS
330
666EF
102
}
330
666EF
100
AcDbXrecord
280
     1
290
     1
  0
XRECORD
  5
666F2
102
{ACAD_REACTORS
330
666F1
102
}
330
666F1
100
AcDbXrecord
280
     1
290
     1
  0
XRECORD
  5
666F6
102
{ACAD_REACTORS
330
666F5
102
}
330
666F5
100
AcDbXrecord
280
     1
290
     1
  0
SORTENTSTABLE
  5
61C14
102
{ACAD_REACTORS
330
9FD5
102
}
330
9FD5
100
AcDbSortentsTable
330
18
331
0
  5
4DAD8
  0
LAYOUT
  5
40CD
102
{ACAD_REACTORS
330
40CB
102
}
330
40CB
100
AcDbPlotSettings
  1

  2
JUST PDF 2.pc3
  4
A4
  6
CUT1
 40
3.174999952316284
 41
3.174999952316284
 42
3.175003051757812
 43
3.17498779296875
 44
209.8886566162109
 45
297.0530090332031
 46
14.27
 47
9.86
 48
18519.39958044478
 49
-13997.58905106991
140
20269.35176539385
141
-11287.66229968324
142
1.0
143
10.0
 70
 11940
 72
     1
 73
     0
 74
     4
  7
spax form.ctb
 75
     0
147
0.1
148
-18519.39958044478
149
13997.58905106991
100
AcDbLayout
  1
Model
 70
     1
 71
     0
 10
0.0
 20
0.0
 11
12.0
 21
9.0
 12
0.0
 22
0.0
 32
0.0
 14
18591.65041105046
 24
-14753.8881046554
 34
0.0
 15
18883.4854395061
 25
-14476.51885673937
 35
0.0
146
0.0
 13
0.0
 23
0.0
 33
0.0
 16
1.0
 26
0.0
 36
0.0
 17
0.0
 27
1.0
 37
0.0
 76
     0
330
18
331
698BA
1001
ACAD_PSEXT
1000
DWG To PDF.pc3
1000
PDF
1000
ファイル
1000

1070
     0
  0
LAYOUT
  5
40CE
102
{ACAD_REACTORS
330
40CB
102
}
330
40CB
100
AcDbPlotSettings
  1

  2
なし
  4

  6

 40
0.0
 41
0.0
 42
0.0
 43
0.0
 44
0.0
 45
0.0
 46
0.0
 47
0.0
 48
0.0
 49
0.0
140
0.0
141
0.0
142
1.0
143
1.0
 70
   688
 72
     0
 73
     0
 74
     5
  7
spax form.ctb
 75
    16
147
1.0
148
0.0
149
0.0
100
AcDbLayout
  1
ﾚｲｱｳﾄ1
 70
     0
 71
     1
 10
0.0
 20
0.0
 11
12.0
 21
9.0
 12
0.0
 22
0.0
 32
0.0
 14
1.000000000000000E+20
 24
1.000000000000000E+20
 34
1.000000000000000E+20
 15
-1.000000000000000E+20
 25
-1.000000000000000E+20
 35
-1.000000000000000E+20
146
0.0
 13
0.0
 23
0.0
 33
0.0
 16
1.0
 26
0.0
 36
0.0
 17
0.0
 27
1.0
 37
0.0
 76
     0
330
15
  0
MLINESTYLE
  5
1B
102
{ACAD_REACTORS
330
E
102
}
330
E
100
AcDbMlineStyle
  2
STANDARD
 70
     0
  3

 62
     0
 51
90.0
 52
90.0
 71
     2
 49
0.5
 62
   256
  6
BYLAYER
 49
-0.5
 62
   256
  6
BYLAYER
  0
ACDBPLACEHOLDER
  5
40CA
102
{ACAD_REACTORS
330
40C9
102
}
330
40C9
  0
SCALE
  5
65758
102
{ACAD_REACTORS
330
65757
102
}
330
65757
100
AcDbScale
 70
     0
300
1:1
140
1.0
141
1.0
290
     1
1001
ACAD
1000
AcRTDxfName
1000
SCALE
1000
AcRTDxfName
1000
SCALE
  0
SCALE
  5
65759
102
{ACAD_REACTORS
330
65757
102
}
330
65757
100
AcDbScale
 70
     0
300
1:2
140
1.0
141
2.0
290
     0
1001
ACAD
1000
AcRTDxfName
1000
SCALE
1000
AcRTDxfName
1000
SCALE
  0
SCALE
  5
6575A
102
{ACAD_REACTORS
330
65757
102
}
330
65757
100
AcDbScale
 70
     0
300
1:4
140
1.0
141
4.0
290
     0
1001
ACAD
1000
AcRTDxfName
1000
SCALE
1000
AcRTDxfName
1000
SCALE
  0
SCALE
  5
6575B
102
{ACAD_REACTORS
330
65757
102
}
330
65757
100
AcDbScale
 70
     0
300
1:5
140
1.0
141
5.0
290
     0
1001
ACAD
1000
AcRTDxfName
1000
SCALE
1000
AcRTDxfName
1000
SCALE
  0
SCALE
  5
6575C
102
{ACAD_REACTORS
330
65757
102
}
330
65757
100
AcDbScale
 70
     0
300
1:8
140
1.0
141
8.0
290
     0
1001
ACAD
1000
AcRTDxfName
1000
SCALE
1000
AcRTDxfName
1000
SCALE
  0
SCALE
  5
6575D
102
{ACAD_REACTORS
330
65757
102
}
330
65757
100
AcDbScale
 70
     0
300
1:10
140
1.0
141
10.0
290
     0
1001
ACAD
1000
AcRTDxfName
1000
SCALE
1000
AcRTDxfName
1000
SCALE
  0
SCALE
  5
6575E
102
{ACAD_REACTORS
330
65757
102
}
330
65757
100
AcDbScale
 70
     0
300
1:16
140
1.0
141
16.0
290
     0
1001
ACAD
1000
AcRTDxfName
1000
SCALE
1000
AcRTDxfName
1000
SCALE
  0
SCALE
  5
6575F
102
{ACAD_REACTORS
330
65757
102
}
330
65757
100
AcDbScale
 70
     0
300
1:20
140
1.0
141
20.0
290
     0
1001
ACAD
1000
AcRTDxfName
1000
SCALE
1000
AcRTDxfName
1000
SCALE
  0
SCALE
  5
65760
102
{ACAD_REACTORS
330
65757
102
}
330
65757
100
AcDbScale
 70
     0
300
1:30
140
1.0
141
30.0
290
     0
1001
ACAD
1000
AcRTDxfName
1000
SCALE
1000
AcRTDxfName
1000
SCALE
  0
SCALE
  5
65761
102
{ACAD_REACTORS
330
65757
102
}
330
65757
100
AcDbScale
 70
     0
300
1:40
140
1.0
141
40.0
290
     0
1001
ACAD
1000
AcRTDxfName
1000
SCALE
1000
AcRTDxfName
1000
SCALE
  0
SCALE
  5
65762
102
{ACAD_REACTORS
330
65757
102
}
330
65757
100
AcDbScale
 70
     0
300
1:50
140
1.0
141
50.0
290
     0
1001
ACAD
1000
AcRTDxfName
1000
SCALE
1000
AcRTDxfName
1000
SCALE
  0
SCALE
  5
65763
102
{ACAD_REACTORS
330
65757
102
}
330
65757
100
AcDbScale
 70
     0
300
1:100
140
1.0
141
100.0
290
     0
1001
ACAD
1000
AcRTDxfName
1000
SCALE
1000
AcRTDxfName
1000
SCALE
  0
SCALE
  5
65764
102
{ACAD_REACTORS
330
65757
102
}
330
65757
100
AcDbScale
 70
     0
300
2:1
140
2.0
141
1.0
290
     0
1001
ACAD
1000
AcRTDxfName
1000
SCALE
1000
AcRTDxfName
1000
SCALE
  0
SCALE
  5
65765
102
{ACAD_REACTORS
330
65757
102
}
330
65757
100
AcDbScale
 70
     0
300
4:1
140
4.0
141
1.0
290
     0
1001
ACAD
1000
AcRTDxfName
1000
SCALE
1000
AcRTDxfName
1000
SCALE
  0
SCALE
  5
65766
102
{ACAD_REACTORS
330
65757
102
}
330
65757
100
AcDbScale
 70
     0
300
8:1
140
8.0
141
1.0
290
     0
1001
ACAD
1000
AcRTDxfName
1000
SCALE
1000
AcRTDxfName
1000
SCALE
  0
SCALE
  5
65767
102
{ACAD_REACTORS
330
65757
102
}
330
65757
100
AcDbScale
 70
     0
300
10:1
140
10.0
141
1.0
290
     0
1001
ACAD
1000
AcRTDxfName
1000
SCALE
1000
AcRTDxfName
1000
SCALE
  0
SCALE
  5
65768
102
{ACAD_REACTORS
330
65757
102
}
330
65757
100
AcDbScale
 70
     0
300
100:1
140
100.0
141
1.0
290
     0
1001
ACAD
1000
AcRTDxfName
1000
SCALE
1000
AcRTDxfName
1000
SCALE
  0
SCALE
  5
65769
102
{ACAD_REACTORS
330
65757
102
}
330
65757
100
AcDbScale
 70
     0
300
1/128" = 1'-0"
140
0.0078125
141
12.0
290
     0
1001
ACAD
1000
AcRTDxfName
1000
SCALE
1000
AcRTDxfName
1000
SCALE
  0
SCALE
  5
6576A
102
{ACAD_REACTORS
330
65757
102
}
330
65757
100
AcDbScale
 70
     0
300
1/64" = 1'-0"
140
0.015625
141
12.0
290
     0
1001
ACAD
1000
AcRTDxfName
1000
SCALE
1000
AcRTDxfName
1000
SCALE
  0
SCALE
  5
6576B
102
{ACAD_REACTORS
330
65757
102
}
330
65757
100
AcDbScale
 70
     0
300
1/32" = 1'-0"
140
0.03125
141
12.0
290
     0
1001
ACAD
1000
AcRTDxfName
1000
SCALE
1000
AcRTDxfName
1000
SCALE
  0
SCALE
  5
6576C
102
{ACAD_REACTORS
330
65757
102
}
330
65757
100
AcDbScale
 70
     0
300
1/16" = 1'-0"
140
0.0625
141
12.0
290
     0
1001
ACAD
1000
AcRTDxfName
1000
SCALE
1000
AcRTDxfName
1000
SCALE
  0
SCALE
  5
6576D
102
{ACAD_REACTORS
330
65757
102
}
330
65757
100
AcDbScale
 70
     0
300
3/32" = 1'-0"
140
0.09375
141
12.0
290
     0
1001
ACAD
1000
AcRTDxfName
1000
SCALE
1000
AcRTDxfName
1000
SCALE
  0
SCALE
  5
6576E
102
{ACAD_REACTORS
330
65757
102
}
330
65757
100
AcDbScale
 70
     0
300
1/8" = 1'-0"
140
0.125
141
12.0
290
     0
1001
ACAD
1000
AcRTDxfName
1000
SCALE
1000
AcRTDxfName
1000
SCALE
  0
SCALE
  5
6576F
102
{ACAD_REACTORS
330
65757
102
}
330
65757
100
AcDbScale
 70
     0
300
3/16" = 1'-0"
140
0.1875
141
12.0
290
     0
1001
ACAD
1000
AcRTDxfName
1000
SCALE
1000
AcRTDxfName
1000
SCALE
  0
SCALE
  5
65770
102
{ACAD_REACTORS
330
65757
102
}
330
65757
100
AcDbScale
 70
     0
300
1/4" = 1'-0"
140
0.25
141
12.0
290
     0
1001
ACAD
1000
AcRTDxfName
1000
SCALE
1000
AcRTDxfName
1000
SCALE
  0
SCALE
  5
65771
102
{ACAD_REACTORS
330
65757
102
}
330
65757
100
AcDbScale
 70
     0
300
3/8" = 1'-0"
140
0.375
141
12.0
290
     0
1001
ACAD
1000
AcRTDxfName
1000
SCALE
1000
AcRTDxfName
1000
SCALE
  0
SCALE
  5
65772
102
{ACAD_REACTORS
330
65757
102
}
330
65757
100
AcDbScale
 70
     0
300
1/2" = 1'-0"
140
0.5
141
12.0
290
     0
1001
ACAD
1000
AcRTDxfName
1000
SCALE
1000
AcRTDxfName
1000
SCALE
  0
SCALE
  5
65773
102
{ACAD_REACTORS
330
65757
102
}
330
65757
100
AcDbScale
 70
     0
300
3/4" = 1'-0"
140
0.75
141
12.0
290
     0
1001
ACAD
1000
AcRTDxfName
1000
SCALE
1000
AcRTDxfName
1000
SCALE
  0
SCALE
  5
65774
102
{ACAD_REACTORS
330
65757
102
}
330
65757
100
AcDbScale
 70
     0
300
1" = 1'-0"
140
1.0
141
12.0
290
     0
1001
ACAD
1000
AcRTDxfName
1000
SCALE
1000
AcRTDxfName
1000
SCALE
  0
SCALE
  5
65775
102
{ACAD_REACTORS
330
65757
102
}
330
65757
100
AcDbScale
 70
     0
300
1-1/2" = 1'-0"
140
1.5
141
12.0
290
     0
1001
ACAD
1000
AcRTDxfName
1000
SCALE
1000
AcRTDxfName
1000
SCALE
  0
SCALE
  5
65776
102
{ACAD_REACTORS
330
65757
102
}
330
65757
100
AcDbScale
 70
     0
300
3" = 1'-0"
140
3.0
141
12.0
290
     0
1001
ACAD
1000
AcRTDxfName
1000
SCALE
1000
AcRTDxfName
1000
SCALE
  0
SCALE
  5
65777
102
{ACAD_REACTORS
330
65757
102
}
330
65757
100
AcDbScale
 70
     0
300
6" = 1'-0"
140
6.0
141
12.0
290
     0
1001
ACAD
1000
AcRTDxfName
1000
SCALE
1000
AcRTDxfName
1000
SCALE
  0
SCALE
  5
65778
102
{ACAD_REACTORS
330
65757
102
}
330
65757
100
AcDbScale
 70
     0
300
1'-0" = 1'-0"
140
12.0
141
12.0
290
     0
1001
ACAD
1000
AcRTDxfName
1000
SCALE
1000
AcRTDxfName
1000
SCALE
  0
DICTIONARYVAR
  5
73F2
102
{ACAD_REACTORS
330
6377
102
}
330
6377
100
DictionaryVariables
280
     0
  1
1
  0
DICTIONARYVAR
  5
66716
102
{ACAD_REACTORS
330
6377
102
}
330
6377
100
DictionaryVariables
280
     0
  1
0
  0
DICTIONARYVAR
  5
6149B
102
{ACAD_REACTORS
330
6377
102
}
330
6377
100
DictionaryVariables
280
     0
  1

  0
DICTIONARYVAR
  5
6378
102
{ACAD_REACTORS
330
6377
102
}
330
6377
100
DictionaryVariables
280
     0
  1
127
  0
ENDSEC
  0
EOF
