  0
SECTION
  2
HEADER
  9
$ACADVER
  1
AC1015
  9
$ACADMAINTVER
 70
     6
  9
$DWGCODEPAGE
  3
ANSI_932
  9
$INSBASE
 10
0.0
 20
0.0
 30
0.0
  9
$EXTMIN
 10
20589.42330019581
 20
-18060.11647061642
 30
0.0
  9
$EXTMAX
 10
20867.82497316342
 20
-17756.86322030213
 30
0.0
  9
$LIMMIN
 10
0.0
 20
0.0
  9
$LIMMAX
 10
840.0
 20
594.0
  9
$ORTHOMODE
 70
     1
  9
$REGENMODE
 70
     1
  9
$FILLMODE
 70
     1
  9
$QTEXTMODE
 70
     0
  9
$MIRRTEXT
 70
     1
  9
$LTSCALE
 40
7.0
  9
$ATTMODE
 70
     0
  9
$TEXTSIZE
 40
6.0
  9
$TRACEWID
 40
1.0
  9
$TEXTSTYLE
  7
STANDARD
  9
$CLAYER
  8
寸法線
  9
$CELTYPE
  6
BYLAYER
  9
$CECOLOR
 62
   256
  9
$CELTSCALE
 40
1.0
  9
$DISPSILH
 70
     0
  9
$DIMSCALE
 40
1.0
  9
$DIMASZ
 40
10.0
  9
$DIMEXO
 40
3.0
  9
$DIMDLI
 40
7.149999999999999
  9
$DIMRND
 40
0.0
  9
$DIMDLE
 40
0.0
  9
$DIMEXE
 40
2.0
  9
$DIMTP
 40
0.0
  9
$DIMTM
 40
0.0
  9
$DIMTXT
 40
18.0
  9
$DIMCEN
 40
0.0
  9
$DIMTSZ
 40
0.0
  9
$DIMTOL
 70
     0
  9
$DIMLIM
 70
     0
  9
$DIMTIH
 70
     0
  9
$DIMTOH
 70
     0
  9
$DIMSE1
 70
     0
  9
$DIMSE2
 70
     0
  9
$DIMTAD
 70
     3
  9
$DIMZIN
 70
     8
  9
$DIMBLK
  1
OPEN
  9
$DIMASO
 70
     1
  9
$DIMSHO
 70
     0
  9
$DIMPOST
  1

  9
$DIMAPOST
  1

  9
$DIMALT
 70
     0
  9
$DIMALTD
 70
     2
  9
$DIMALTF
 40
25.4
  9
$DIMLFAC
 40
1.0
  9
$DIMTOFL
 70
     0
  9
$DIMTVP
 40
0.0
  9
$DIMTIX
 70
     0
  9
$DIMSOXD
 70
     0
  9
$DIMSAH
 70
     0
  9
$DIMBLK1
  1

  9
$DIMBLK2
  1

  9
$DIMSTYLE
  2
STANDARD
  9
$DIMCLRD
 70
     8
  9
$DIMCLRE
 70
     8
  9
$DIMCLRT
 70
     0
  9
$DIMTFAC
 40
1.0
  9
$DIMGAP
 40
4.0
  9
$DIMJUST
 70
     0
  9
$DIMSD1
 70
     0
  9
$DIMSD2
 70
     0
  9
$DIMTOLJ
 70
     1
  9
$DIMTZIN
 70
     0
  9
$DIMALTZ
 70
     0
  9
$DIMALTTZ
 70
     0
  9
$DIMUPT
 70
     1
  9
$DIMDEC
 70
     2
  9
$DIMTDEC
 70
     2
  9
$DIMALTU
 70
     2
  9
$DIMALTTD
 70
     2
  9
$DIMTXSTY
  7
STANDARD
  9
$DIMAUNIT
 70
     0
  9
$DIMADEC
 70
     2
  9
$DIMALTRND
 40
0.0
  9
$DIMAZIN
 70
     2
  9
$DIMDSEP
 70
    46
  9
$DIMATFIT
 70
     3
  9
$DIMFRAC
 70
     0
  9
$DIMLDRBLK
  1
OPEN
  9
$DIMLUNIT
 70
     2
  9
$DIMLWD
 70
    -2
  9
$DIMLWE
 70
    -2
  9
$DIMTMOVE
 70
     0
  9
$LUNITS
 70
     2
  9
$LUPREC
 70
     2
  9
$SKETCHINC
 40
0.1
  9
$FILLETRAD
 40
0.6
  9
$AUNITS
 70
     0
  9
$AUPREC
 70
     2
  9
$MENU
  1
ACAD
  9
$ELEVATION
 40
0.0
  9
$PELEVATION
 40
0.0
  9
$THICKNESS
 40
0.0
  9
$LIMCHECK
 70
     0
  9
$CHAMFERA
 40
0.0
  9
$CHAMFERB
 40
0.0
  9
$CHAMFERC
 40
0.0
  9
$CHAMFERD
 40
0.0
  9
$SKPOLY
 70
     0
  9
$TDCREATE
 40
2449505.922222222
  9
$TDUCREATE
 40
2449505.547222222
  9
$TDUPDATE
 40
2456822.493430474
  9
$TDUUPDATE
 40
2456822.118430474
  9
$TDINDWG
 40
2.3511876968
  9
$TDUSRTIMER
 40
2456822.118273113
  9
$USRTIMER
 70
     1
  9
$ANGBASE
 50
0.0
  9
$ANGDIR
 70
     0
  9
$PDMODE
 70
     3
  9
$PDSIZE
 40
0.0
  9
$PLINEWID
 40
0.0
  9
$SPLFRAME
 70
     0
  9
$SPLINETYPE
 70
     6
  9
$SPLINESEGS
 70
     8
  9
$HANDSEED
  5
703AC
  9
$SURFTAB1
 70
     6
  9
$SURFTAB2
 70
     6
  9
$SURFTYPE
 70
     6
  9
$SURFU
 70
     6
  9
$SURFV
 70
     6
  9
$UCSBASE
  2

  9
$UCSNAME
  2

  9
$UCSORG
 10
0.0
 20
0.0
 30
0.0
  9
$UCSXDIR
 10
1.0
 20
0.0
 30
0.0
  9
$UCSYDIR
 10
0.0
 20
1.0
 30
0.0
  9
$UCSORTHOREF
  2

  9
$UCSORTHOVIEW
 70
     0
  9
$UCSORGTOP
 10
0.0
 20
0.0
 30
0.0
  9
$UCSORGBOTTOM
 10
0.0
 20
0.0
 30
0.0
  9
$UCSORGLEFT
 10
0.0
 20
0.0
 30
0.0
  9
$UCSORGRIGHT
 10
0.0
 20
0.0
 30
0.0
  9
$UCSORGFRONT
 10
0.0
 20
0.0
 30
0.0
  9
$UCSORGBACK
 10
0.0
 20
0.0
 30
0.0
  9
$PUCSBASE
  2

  9
$PUCSNAME
  2

  9
$PUCSORG
 10
0.0
 20
0.0
 30
0.0
  9
$PUCSXDIR
 10
1.0
 20
0.0
 30
0.0
  9
$PUCSYDIR
 10
0.0
 20
1.0
 30
0.0
  9
$PUCSORTHOREF
  2

  9
$PUCSORTHOVIEW
 70
     0
  9
$PUCSORGTOP
 10
0.0
 20
0.0
 30
0.0
  9
$PUCSORGBOTTOM
 10
0.0
 20
0.0
 30
0.0
  9
$PUCSORGLEFT
 10
0.0
 20
0.0
 30
0.0
  9
$PUCSORGRIGHT
 10
0.0
 20
0.0
 30
0.0
  9
$PUCSORGFRONT
 10
0.0
 20
0.0
 30
0.0
  9
$PUCSORGBACK
 10
0.0
 20
0.0
 30
0.0
  9
$USERI1
 70
     0
  9
$USERI2
 70
     0
  9
$USERI3
 70
     0
  9
$USERI4
 70
     0
  9
$USERI5
 70
     0
  9
$USERR1
 40
0.0
  9
$USERR2
 40
0.0
  9
$USERR3
 40
0.0
  9
$USERR4
 40
0.0
  9
$USERR5
 40
0.0
  9
$WORLDVIEW
 70
     0
  9
$SHADEDGE
 70
     3
  9
$SHADEDIF
 70
    70
  9
$TILEMODE
 70
     1
  9
$MAXACTVP
 70
    16
  9
$PINSBASE
 10
0.0
 20
0.0
 30
0.0
  9
$PLIMCHECK
 70
     0
  9
$PEXTMIN
 10
1.000000000000000E+20
 20
1.000000000000000E+20
 30
1.000000000000000E+20
  9
$PEXTMAX
 10
-1.000000000000000E+20
 20
-1.000000000000000E+20
 30
-1.000000000000000E+20
  9
$PLIMMIN
 10
0.0
 20
0.0
  9
$PLIMMAX
 10
0.0
 20
0.0
  9
$UNITMODE
 70
     0
  9
$VISRETAIN
 70
     0
  9
$PLINEGEN
 70
     0
  9
$PSLTSCALE
 70
     0
  9
$TREEDEPTH
 70
  3020
  9
$CMLSTYLE
  2
STANDARD
  9
$CMLJUST
 70
     0
  9
$CMLSCALE
 40
1.0
  9
$PROXYGRAPHICS
 70
     1
  9
$MEASUREMENT
 70
     0
  9
$CELWEIGHT
370
    -1
  9
$ENDCAPS
280
     0
  9
$JOINSTYLE
280
     0
  9
$LWDISPLAY
290
     0
  9
$INSUNITS
 70
     0
  9
$HYPERLINKBASE
  1

  9
$STYLESHEET
  1
spax form.ctb
  9
$XEDIT
290
     1
  9
$CEPSNTYPE
380
     0
  9
$PSTYLEMODE
290
     1
  9
$FINGERPRINTGUID
  2
{C1CFCF3E-DF91-11D3-B30C-0060B0FA8DFC}
  9
$VERSIONGUID
  2
{F604A47B-75C0-4E95-B684-57683AA70F77}
  9
$EXTNAMES
290
     1
  9
$PSVPSCALE
 40
0.0
  9
$OLESTARTUP
290
     0
  0
ENDSEC
  0
SECTION
  2
CLASSES
  0
CLASS
  1
LWPOLYLINE
  2
AcDbPolyline
  3
ObjectDBX Classes
 90
        0
280
     0
281
     1
  0
CLASS
  1
ACDBDICTIONARYWDFLT
  2
AcDbDictionaryWithDefault
  3
ObjectDBX Classes
 90
        0
280
     0
281
     0
  0
CLASS
  1
ACDBPLACEHOLDER
  2
AcDbPlaceHolder
  3
ObjectDBX Classes
 90
        0
280
     0
281
     0
  0
CLASS
  1
LAYOUT
  2
AcDbLayout
  3
ObjectDBX Classes
 90
        0
280
     0
281
     0
  0
CLASS
  1
DICTIONARYVAR
  2
AcDbDictionaryVar
  3
ObjectDBX Classes
 90
        0
280
     0
281
     0
  0
CLASS
  1
LONG_TRANSACTION
  2
AcDbLongTransaction
  3
ObjectDBX Classes
 90
        0
280
     0
281
     0
  0
CLASS
  1
LWPOLYLINE
  2
AcDbPolyline
  3
ObjectDBX Classes
 90
        0
280
     0
281
     1
  0
CLASS
  1
HATCH
  2
AcDbHatch
  3
ObjectDBX Classes
 90
        0
280
     0
281
     1
  0
CLASS
  1
XRECORD
  2
AcDbXrecord
  3
ObjectDBX Classes
 90
        0
280
     0
281
     0
  0
CLASS
  1
SORTENTSTABLE
  2
AcDbSortentsTable
  3
ObjectDBX Classes
 90
        0
280
     0
281
     0
  0
CLASS
  1
MATERIAL
  2
AcDbMaterial
  3
ObjectDBX Classes
 90
     1153
280
     0
281
     0
  0
CLASS
  1
VISUALSTYLE
  2
AcDbVisualStyle
  3
ObjectDBX Classes
 90
     4095
280
     0
281
     0
  0
CLASS
  1
TABLESTYLE
  2
AcDbTableStyle
  3
ObjectDBX Classes
 90
     4095
280
     0
281
     0
  0
CLASS
  1
SCALE
  2
AcDbScale
  3
ObjectDBX Classes
 90
     1153
280
     0
281
     0
  0
CLASS
  1
MLEADERSTYLE
  2
AcDbMLeaderStyle
  3
ACDB_MLEADERSTYLE_CLASS
 90
     4095
280
     0
281
     0
  0
CLASS
  1
CELLSTYLEMAP
  2
AcDbCellStyleMap
  3
ObjectDBX Classes
 90
     1152
280
     0
281
     0
  0
CLASS
  1
RASTERVARIABLES
  2
AcDbRasterVariables
  3
ISM
 90
        0
280
     0
281
     0
  0
CLASS
  1
SUN
  2
AcDbSun
  3
SCENEOE
 90
     1153
280
     0
281
     0
  0
ENDSEC
  0
SECTION
  2
TABLES
  0
TABLE
  2
VPORT
  5
8
330
0
100
AcDbSymbolTable
 70
     1
  0
VPORT
  5
6F2CC
330
8
100
AcDbSymbolTableRecord
100
AcDbViewportTableRecord
  2
*Active
 70
     0
 10
0.0
 20
0.0
 11
1.0
 21
1.0
 12
20728.62413667962
 22
-17908.48984545928
 13
0.0
 23
0.0
 14
1.0
 24
1.0
 15
20.0
 25
20.0
 16
0.0
 26
0.0
 36
1.0
 17
0.0
 27
0.0
 37
0.0
 40
309.318315320576
 41
2.027568922305764
 42
50.0
 43
0.0
 44
0.0
 50
0.0
 51
0.0
 71
    16
 72
  2000
 73
     1
 74
     0
 75
     0
 76
     0
 77
     0
 78
     1
281
     0
 65
     1
110
0.0
120
0.0
130
0.0
111
1.0
121
0.0
131
0.0
112
0.0
122
1.0
132
0.0
 79
     0
146
0.0
  0
ENDTAB
  0
TABLE
  2
LTYPE
  5
5
330
0
100
AcDbSymbolTable
 70
     6
  0
LTYPE
  5
12
330
5
100
AcDbSymbolTableRecord
100
AcDbLinetypeTableRecord
  2
BYBLOCK
 70
     0
  3

 72
    65
 73
     0
 40
0.0
  0
LTYPE
  5
13
330
5
100
AcDbSymbolTableRecord
100
AcDbLinetypeTableRecord
  2
BYLAYER
 70
     0
  3

 72
    65
 73
     0
 40
0.0
  0
LTYPE
  5
14
330
5
100
AcDbSymbolTableRecord
100
AcDbLinetypeTableRecord
  2
CONTINUOUS
 70
     0
  3
Solid line
 72
    65
 73
     0
 40
0.0
  0
LTYPE
  5
3D
330
5
100
AcDbSymbolTableRecord
100
AcDbLinetypeTableRecord
  2
PHANTOM
 70
     0
  3
_____ _ _ _____ _ _ _____ _ _ _____ _ _ ____
 72
    65
 73
     6
 40
2.5
 49
1.25
 74
     0
 49
-0.25
 74
     0
 49
0.25
 74
     0
 49
-0.25
 74
     0
 49
0.25
 74
     0
 49
-0.25
 74
     0
  0
LTYPE
  5
40D2
330
5
100
AcDbSymbolTableRecord
100
AcDbLinetypeTableRecord
  2
CENTER
 70
     0
  3
____ _ ____ _ ____ _ ____ _ ____ _ ____ _ ____ 
 72
    65
 73
     4
 40
2.0
 49
1.25
 74
     0
 49
-0.25
 74
     0
 49
0.25
 74
     0
 49
-0.25
 74
     0
  0
LTYPE
  5
A244
330
5
100
AcDbSymbolTableRecord
100
AcDbLinetypeTableRecord
  2
HIDDEN
 70
     0
  3
_ _ _ _ _ _ _ _ _ _ _ _ _ _ _ _ _ _ _ _ _ _ _
 72
    65
 73
     2
 40
0.375
 49
0.25
 74
     0
 49
-0.125
 74
     0
  0
ENDTAB
  0
TABLE
  2
LAYER
  5
2
102
{ACAD_XDICTIONARY
360
634FE
102
}
330
0
100
AcDbSymbolTable
 70
    14
  0
LAYER
  5
F
102
{ACAD_XDICTIONARY
360
65B7E
102
}
330
2
100
AcDbSymbolTableRecord
100
AcDbLayerTableRecord
  2
0
 70
     0
 62
     7
  6
CONTINUOUS
370
    -3
390
40CA
  0
LAYER
  5
4C
102
{ACAD_XDICTIONARY
360
65B86
102
}
330
2
100
AcDbSymbolTableRecord
100
AcDbLayerTableRecord
  2
寸法線
 70
     0
 62
     7
  6
CONTINUOUS
370
    -3
390
40CA
  0
LAYER
  5
4D
102
{ACAD_XDICTIONARY
360
65B88
102
}
330
2
100
AcDbSymbolTableRecord
100
AcDbLayerTableRecord
  2
姿図
 70
     0
 62
     8
  6
CONTINUOUS
370
    -3
390
40CA
  0
LAYER
  5
40D4
102
{ACAD_XDICTIONARY
360
65B8C
102
}
330
2
100
AcDbSymbolTableRecord
100
AcDbLayerTableRecord
  2
文字
 70
     0
 62
     7
  6
CONTINUOUS
370
    -3
390
40CA
  0
LAYER
  5
634FC
102
{ACAD_XDICTIONARY
360
65B96
102
}
330
2
100
AcDbSymbolTableRecord
100
AcDbLayerTableRecord
  2
C-SUNPO
 70
     0
 62
     7
  6
CONTINUOUS
370
    -3
390
40CA
  0
ENDTAB
  0
TABLE
  2
STYLE
  5
3
330
0
100
AcDbSymbolTable
 70
     1
  0
STYLE
  5
10
330
3
100
AcDbSymbolTableRecord
100
AcDbTextStyleTableRecord
  2
STANDARD
 70
     0
 40
0.0
 41
1.0
 50
0.0
 71
     0
 42
6.0
  3
MONOTXT
  4
BIGFONT
  0
ENDTAB
  0
TABLE
  2
VIEW
  5
6
330
0
100
AcDbSymbolTable
 70
     1
  0
VIEW
  5
41
330
6
100
AcDbSymbolTableRecord
100
AcDbViewTableRecord
  2
CUT1
 70
     0
 40
612.7795527156796
 10
420.0000000000169
 20
306.3897763578398
 41
840.0000000000338
 11
0.0
 21
0.0
 31
1.0
 12
0.0
 22
0.0
 32
0.0
 42
50.0
 43
0.0
 44
0.0
 50
0.0
 71
     0
281
     0
 72
     0
  0
ENDTAB
  0
TABLE
  2
UCS
  5
7
330
0
100
AcDbSymbolTable
 70
     0
  0
ENDTAB
  0
TABLE
  2
APPID
  5
9
330
0
100
AcDbSymbolTable
 70
     6
  0
APPID
  5
11
330
9
100
AcDbSymbolTableRecord
100
AcDbRegAppTableRecord
  2
ACAD
 70
     0
  0
APPID
  5
64C25
330
9
100
AcDbSymbolTableRecord
100
AcDbRegAppTableRecord
  2
ACAD_MLEADERVER
 70
     0
  0
APPID
  5
657AB
330
9
100
AcDbSymbolTableRecord
100
AcDbRegAppTableRecord
  2
ACAD_EXEMPT_FROM_CAD_STANDARDS
 70
     0
  0
APPID
  5
689F6
330
9
100
AcDbSymbolTableRecord
100
AcDbRegAppTableRecord
  2
ACAD_PSEXT
 70
     0
  0
APPID
  5
70319
330
9
100
AcDbSymbolTableRecord
100
AcDbRegAppTableRecord
  2
ACAD_DSTYLE_DIMJAG
 70
     0
  0
APPID
  5
7031A
330
9
100
AcDbSymbolTableRecord
100
AcDbRegAppTableRecord
  2
ACAD_DSTYLE_DIMTALN
 70
     0
  0
ENDTAB
  0
TABLE
  2
DIMSTYLE
  5
A
330
0
100
AcDbSymbolTable
 70
     5
100
AcDbDimStyleTable
  0
DIMSTYLE
105
1B3A
330
A
100
AcDbSymbolTableRecord
100
AcDbDimStyleTableRecord
  2
STANDARD
 70
     0
 41
10.0
 42
3.0
 43
7.149999999999999
 44
2.0
 73
     0
 74
     0
 77
     3
 78
     8
 79
     2
140
18.0
141
0.0
147
4.0
176
     8
177
     8
178
     0
179
     2
271
     2
272
     2
288
     1
340
10
341
49C3
342
49C3
  0
DIMSTYLE
105
A246
330
A
100
AcDbSymbolTableRecord
100
AcDbDimStyleTableRecord
  2
STANDERD
 70
     0
 40
0.0
 41
4.0
 42
1.5
 43
3.75
 44
1.25
 73
     0
 74
     0
 77
     3
 78
     8
140
5.0
141
0.0
147
2.5
171
     0
173
     1
178
     0
288
     1
340
10
341
49C3
343
49C3
344
49C3
  0
DIMSTYLE
105
634FD
330
A
100
AcDbSymbolTableRecord
100
AcDbDimStyleTableRecord
  2
STANDARD-5
 70
     0
 41
7.5
 42
7.5
 43
1.9
 44
5.0
 73
     0
 74
     0
 77
     1
 78
     8
 79
     2
140
8.0
141
0.0
147
3.0
171
     0
173
     1
176
     8
177
     8
271
     2
178
   256
179
     2
271
     2
272
     2
274
     0
340
10
341
49C3
343
49C3
344
49C3
  0
ENDTAB
  0
TABLE
  2
BLOCK_RECORD
  5
1
330
0
100
AcDbSymbolTable
 70
   201
  0
BLOCK_RECORD
  5
18
102
{ACAD_XDICTIONARY
360
9FD5
102
}
330
1
100
AcDbSymbolTableRecord
100
AcDbBlockTableRecord
  2
*MODEL_SPACE
340
40CD
  0
BLOCK_RECORD
  5
15
330
1
100
AcDbSymbolTableRecord
100
AcDbBlockTableRecord
  2
*PAPER_SPACE
340
40CE
  0
BLOCK_RECORD
  5
49C3
330
1
100
AcDbSymbolTableRecord
100
AcDbBlockTableRecord
  2
_OPEN
340
0
102
{BLKREFS
331
5FCD5
331
5FCD6
331
5FCE0
331
5FCE1
331
5FCE9
331
5FCEA
331
5FCF2
331
5FCF3
331
5FCFB
331
5FCFC
331
5FD06
331
5FD07
331
5FD23
331
5FD24
331
5FD2C
331
5FD2D
331
5FD35
331
5FD36
331
5FD3E
331
5FD3F
331
5FD47
331
5FD48
331
5FD64
331
5FD65
331
5FD6D
331
5FD6E
331
5FD76
331
5FD77
331
61973
331
61974
331
6197E
331
6197F
331
61987
331
61988
331
6199A
331
6199B
331
61C6F
331
61C70
331
62761
331
62762
331
6276A
331
6276B
331
62773
331
62774
331
6277C
331
6277D
331
62785
331
62786
331
6278E
331
6278F
331
62797
331
62798
331
627A0
331
627A1
331
627A9
331
627AA
331
627B2
331
627B3
331
627BB
331
627BC
331
627C4
331
627C5
331
627CD
331
627CE
331
627D8
331
627D9
331
627E1
331
627E2
331
627EA
331
627EB
331
627F5
331
627F6
331
627FE
331
627FF
331
62807
331
62808
331
632F0
331
632F1
331
632FB
331
632FC
331
63304
331
63305
331
6330D
331
6330E
331
63316
331
63317
331
63321
331
63322
331
6332A
331
6332B
331
63333
331
63334
331
6333C
331
6333D
331
63345
331
63346
331
6334E
331
6334F
331
63357
331
63358
331
63360
331
63361
331
63369
331
6336A
331
63372
331
63373
331
6337B
331
6337C
331
63384
331
63385
331
6338F
331
63390
331
63398
331
63399
331
633E2
331
633E3
331
65BB8
331
65BB9
331
65BC1
331
65BC2
331
65BCA
331
65BCB
331
65BD3
331
65BD4
331
65BDC
331
65BDD
331
65BE5
331
65BE6
331
65BEE
331
65BEF
331
65BF7
331
65BF8
331
65C00
331
65C01
331
65C09
331
65C0A
331
65C14
331
65C15
331
65C1D
331
65C1E
331
65C28
331
65C29
331
65C31
331
65C32
331
65C3A
331
65C3B
331
65C43
331
65C44
331
65C50
331
65C51
331
65C59
331
65C5A
331
65C62
331
65C63
331
65C6B
331
65C6C
331
65C74
331
65C75
331
65C7D
331
65C7E
331
65C86
331
65C87
331
65C8F
331
65C90
331
65C98
331
65C99
331
65CA1
331
65CA2
331
65CAA
331
65CAB
331
65CB3
331
65CB4
331
65CBC
331
65CBD
331
65CC7
331
65CC8
331
65CD0
331
65CD1
331
65CD9
331
65CDA
331
65CE2
331
65CE3
331
65CEF
331
65CF0
331
65CF8
331
65CF9
331
65D01
331
65D02
331
65D0A
331
65D0B
331
65D13
331
65D14
331
65D1E
331
65D1F
331
65D27
331
65D28
331
67D61
331
67D62
331
67D6E
331
67D6F
331
67D77
331
67D78
331
67D80
331
67D81
331
67D89
331
67D8A
331
67D92
331
67D93
331
67D9B
331
67D9C
331
67DA4
331
67DA5
331
67DAD
331
67DAE
331
67DB6
331
67DB7
331
67DBF
331
67DC0
331
67DC8
331
67DC9
331
67DD1
331
67DD2
331
67DDA
331
67DDB
331
67DE5
331
67DE6
331
67DEE
331
67DEF
331
67DF7
331
67DF8
331
67E02
331
67E03
331
67E0B
331
67E0C
331
67E14
331
67E15
331
6D7F8
331
6D7F9
331
6D801
331
6D802
331
6D80E
331
6D80F
331
6D817
331
6D818
331
6D820
331
6D821
331
6D829
331
6D82A
331
6D832
331
6D833
331
6D83D
331
6D83E
331
6D846
331
6D847
331
6D84F
331
6D850
331
6D858
331
6D859
331
6D861
331
6D862
331
6D86A
331
6D86B
331
6D873
331
6D874
331
6D87C
331
6D87D
331
6D885
331
6D886
331
6D88E
331
6D88F
331
6D897
331
6D898
331
6D8A2
331
6D8A3
331
6D8AB
331
6D8AC
331
6E46C
331
6E46D
331
6E477
331
6E478
331
6E480
331
6E481
331
6E5B9
331
6E5BA
331
6E5C2
331
6E5C3
331
6E5CB
331
6E5CC
331
6E5D6
331
6E5D7
331
6E5DF
331
6E5E0
331
6E5EA
331
6E5EB
331
6E5F3
331
6E5F4
331
6E5FE
331
6E5FF
331
6E607
331
6E608
331
6E610
331
6E611
331
6E619
331
6E61A
331
6E622
331
6E623
331
6E62B
331
6E62C
331
6E634
331
6E635
331
6E63D
331
6E63E
331
6E646
331
6E647
331
6E64F
331
6E650
331
6F14B
331
6F14C
331
6F154
331
6F155
331
6F15D
331
6F15E
331
6F166
331
6F167
331
6F16F
331
6F170
331
6F178
331
6F179
331
6F181
331
6F182
331
6F18A
331
6F18B
331
6F193
331
6F194
331
6F19E
331
6F19F
331
6F1A7
331
6F1A8
331
6F1B0
331
6F1B1
331
6F1B9
331
6F1BA
331
6F1C6
331
6F1C7
331
6F1CF
331
6F1D0
331
6F1D8
331
6F1D9
331
6F1E1
331
6F1E2
331
6F1EA
331
6F1EB
331
6F1F5
331
6F1F6
331
6F1FE
331
6F1FF
331
6FDC9
331
6FDCA
331
6FDD4
331
6FDD5
331
6FDDD
331
6FDDE
331
6FDE6
331
6FDE7
331
6FDF3
331
6FDF4
331
6FDFC
331
6FDFD
331
6FE05
331
6FE06
331
6FE0E
331
6FE0F
331
6FE17
331
6FE18
331
6FE22
331
6FE23
331
6FE2B
331
6FE2C
331
6FE34
331
6FE35
331
6FE3D
331
6FE3E
331
6FE46
331
6FE47
331
6FE4F
331
6FE50
331
6FE58
331
6FE59
331
6FE61
331
6FE62
331
6FE6A
331
6FE6B
331
6FE73
331
6FE74
331
6FE7C
331
6FE7D
102
}
  0
ENDTAB
  0
ENDSEC
  0
SECTION
  2
BLOCKS
  0
BLOCK
  5
52
330
18
100
AcDbEntity
  8
0
100
AcDbBlockBegin
  2
*MODEL_SPACE
 70
     0
 10
0.0
 20
0.0
 30
0.0
  3
*MODEL_SPACE
  1
*MODEL_SPACE
  0
ENDBLK
  5
53
330
18
100
AcDbEntity
  8
0
100
AcDbBlockEnd
  0
BLOCK
  5
50
330
15
100
AcDbEntity
 67
     1
  8
0
100
AcDbBlockBegin
  2
*PAPER_SPACE
 70
     0
 10
0.0
 20
0.0
 30
0.0
  3
*PAPER_SPACE
  1
*PAPER_SPACE
  0
ENDBLK
  5
51
330
15
100
AcDbEntity
 67
     1
  8
0
100
AcDbBlockEnd
  0
BLOCK
  5
49C7
330
49C3
100
AcDbEntity
  8
0
100
AcDbBlockBegin
  2
_OPEN
 70
     0
 10
0.0
 20
0.0
 30
0.0
  3
_OPEN
  1
_OPEN
  0
LINE
  5
49C4
330
49C3
100
AcDbEntity
  8
0
  6
ByBlock
 62
     0
100
AcDbLine
 10
-1.0
 20
0.1666666666666667
 30
0.0
 11
0.0
 21
0.0
 31
0.0
  0
LINE
  5
49C5
330
49C3
100
AcDbEntity
  8
0
  6
ByBlock
 62
     0
100
AcDbLine
 10
0.0
 20
0.0
 30
0.0
 11
-1.0
 21
-0.1666666666666667
 31
0.0
  0
LINE
  5
49C6
330
49C3
100
AcDbEntity
  8
0
  6
ByBlock
 62
     0
100
AcDbLine
 10
0.0
 20
0.0
 30
0.0
 11
-1.0
 21
0.0
 31
0.0
  0
ENDBLK
  5
49C8
330
49C3
100
AcDbEntity
  8
0
100
AcDbBlockEnd
  0
ENDSEC
  0
SECTION
  2
ENTITIES
  0
TEXT
  5
6F2FB
330
18
100
AcDbEntity
  8
文字
100
AcDbText
 10
20589.42330019581
 20
-18060.11647061642
 30
0.0
 40
29.997
  1
SX-LB102E
100
AcDbText
  0
LINE
  5
6F476
330
18
100
AcDbEntity
  8
姿図
100
AcDbLine
 10
20663.81744883357
 20
-17907.69897993009
 30
0.0
 11
20689.60355084177
 21
-17913.78824496644
 31
0.0
  0
LINE
  5
6F477
330
18
100
AcDbEntity
  8
姿図
100
AcDbLine
 10
20663.81744883357
 20
-17907.69897993009
 30
0.0
 11
20742.57116245272
 21
-17968.07834905345
 31
0.0
  0
LINE
  5
6F478
330
18
100
AcDbEntity
  8
姿図
100
AcDbLine
 10
20762.56390963731
 20
-17808.46944173166
 30
0.0
 11
20597.45896011583
 21
-17837.80135929428
 31
0.0
  0
LINE
  5
6F479
330
18
100
AcDbEntity
  8
姿図
100
AcDbLine
 10
20762.56390963731
 20
-17840.43985946276
 30
0.0
 11
20597.45896011583
 21
-17869.77177702537
 31
0.0
  0
LINE
  5
6F47A
330
18
100
AcDbEntity
  8
姿図
100
AcDbLine
 10
20762.56390963731
 20
-17837.24281768965
 30
0.0
 11
20597.45896011583
 21
-17866.57473525226
 31
0.0
  0
LINE
  5
6F47B
330
18
100
AcDbEntity
  8
姿図
100
AcDbLine
 10
20762.56390963731
 20
-17835.56817676087
 30
0.0
 11
20597.45896011583
 21
-17864.90009432349
 31
0.0
  0
LINE
  5
6F47C
330
18
100
AcDbEntity
  8
姿図
100
AcDbLine
 10
20762.56390963731
 20
-17832.37113498777
 30
0.0
 11
20597.45896011583
 21
-17861.70305255038
 31
0.0
  0
LINE
  5
6F47D
330
18
100
AcDbEntity
  8
姿図
100
AcDbLine
 10
20762.56390963731
 20
-17830.69649405899
 30
0.0
 11
20597.45896011583
 21
-17860.02841162161
 31
0.0
  0
LINE
  5
6F47E
330
18
100
AcDbEntity
  8
姿図
100
AcDbLine
 10
20762.56390963731
 20
-17827.49945228588
 30
0.0
 11
20597.45896011583
 21
-17856.8313698485
 31
0.0
  0
LINE
  5
6F47F
330
18
100
AcDbEntity
  8
姿図
100
AcDbLine
 10
20762.56390963731
 20
-17825.82481135711
 30
0.0
 11
20597.45896011583
 21
-17855.15672891973
 31
0.0
  0
LINE
  5
6F480
330
18
100
AcDbEntity
  8
姿図
100
AcDbLine
 10
20762.56390963731
 20
-17822.627769584
 30
0.0
 11
20597.45896011583
 21
-17851.95968714662
 31
0.0
  0
LINE
  5
6F481
330
18
100
AcDbEntity
  8
姿図
100
AcDbLine
 10
20762.56390963731
 20
-17824.72798722463
 30
0.0
 11
20599.27772634699
 21
-17853.73678969401
 31
0.0
  0
LINE
  5
6F482
330
18
100
AcDbEntity
  8
姿図
100
AcDbLine
 10
20762.56390963731
 20
-17829.59966992651
 30
0.0
 11
20599.27772634699
 21
-17858.60847239589
 31
0.0
  0
LINE
  5
6F483
330
18
100
AcDbEntity
  8
姿図
100
AcDbLine
 10
20762.56390963731
 20
-17834.47135262838
 30
0.0
 11
20599.27772634699
 21
-17863.48015509777
 31
0.0
  0
LINE
  5
6F484
330
18
100
AcDbEntity
  8
姿図
100
AcDbLine
 10
20762.56390963731
 20
-17839.34303533027
 30
0.0
 11
20599.27772634699
 21
-17868.35183779965
 31
0.0
  0
LINE
  5
6F485
330
18
100
AcDbEntity
  8
姿図
100
AcDbLine
 10
20762.56390963731
 20
-17820.95312865523
 30
0.0
 11
20597.45896011583
 21
-17850.28504621785
 31
0.0
  0
LINE
  5
6F486
330
18
100
AcDbEntity
  8
姿図
100
AcDbLine
 10
20762.56390963731
 20
-17818.41579391467
 30
0.0
 11
20597.45896011583
 21
-17847.74771147729
 31
0.0
  0
LINE
  5
6F487
330
18
100
AcDbEntity
  8
姿図
100
AcDbLine
 10
20762.56390963731
 20
-17819.6287515788
 30
0.0
 11
20598.91273646235
 21
-17848.7023967633
 31
0.0
  0
LINE
  5
6F488
330
18
100
AcDbEntity
  8
姿図
100
AcDbLine
 10
20762.56390963731
 20
-17816.38592612222
 30
0.0
 11
20597.45896011583
 21
-17845.71784368484
 31
0.0
  0
LINE
  5
6F489
330
18
100
AcDbEntity
  8
姿図
100
AcDbLine
 10
20762.56390963731
 20
-17810.49930952411
 30
0.0
 11
20597.45896011583
 21
-17839.83122708673
 31
0.0
  0
LINE
  5
6F48A
330
18
100
AcDbEntity
  8
姿図
100
AcDbLine
 10
20762.56390963731
 20
-17811.71226718824
 30
0.0
 11
20598.91273646235
 21
-17840.78591237274
 31
0.0
  0
LINE
  5
6F48B
330
18
100
AcDbEntity
  8
姿図
100
AcDbLine
 10
20762.56390963731
 20
-17756.86322030213
 30
0.0
 11
20602.97860498587
 21
-17785.21453874417
 31
0.0
  0
LINE
  5
6F48C
330
18
100
AcDbEntity
  8
姿図
100
AcDbLine
 10
20749.6781938047
 20
-17893.22001898466
 30
0.0
 11
20663.81744883357
 21
-17907.69897993009
 31
0.0
  0
LINE
  5
6F48D
330
18
100
AcDbEntity
  8
姿図
100
AcDbLine
 10
20751.20307034154
 20
-17883.29274501122
 30
0.0
 11
20663.81744883357
 21
-17899.64729671859
 31
0.0
  0
LINE
  5
6F48E
330
18
100
AcDbEntity
  8
姿図
100
AcDbLine
 10
20762.56390963731
 20
-17859.18518589728
 30
0.0
 11
20597.45896011583
 21
-17888.51710345989
 31
0.0
  0
LINE
  5
6F48F
330
18
100
AcDbEntity
  8
姿図
100
AcDbLine
 10
20762.56390963731
 20
-17856.4250683283
 30
0.0
 11
20597.45896011583
 21
-17885.75698589092
 31
0.0
  0
LINE
  5
6F490
330
18
100
AcDbEntity
  8
姿図
100
AcDbLine
 10
20762.56390963731
 20
-17850.5384517302
 30
0.0
 11
20597.45896011583
 21
-17879.87036929281
 31
0.0
  0
LINE
  5
6F491
330
18
100
AcDbEntity
  8
姿図
100
AcDbLine
 10
20762.56390963731
 20
-17850.5384517302
 30
0.0
 11
20597.45896011583
 21
-17879.87036929281
 31
0.0
  0
LINE
  5
6F492
330
18
100
AcDbEntity
  8
姿図
100
AcDbLine
 10
20762.56390963731
 20
-17851.45787708801
 30
0.0
 11
20598.56092671954
 21
-17880.59402345376
 31
0.0
  0
LINE
  5
6F493
330
18
100
AcDbEntity
  8
姿図
100
AcDbLine
 10
20762.56390963731
 20
-17848.7623174118
 30
0.0
 11
20597.45896011583
 21
-17878.09423497442
 31
0.0
  0
LINE
  5
6F494
330
18
100
AcDbEntity
  8
姿図
100
AcDbLine
 10
20762.56390963731
 20
-17846.98618309341
 30
0.0
 11
20597.45896011583
 21
-17876.31810065603
 31
0.0
  0
LINE
  5
6F495
330
18
100
AcDbEntity
  8
姿図
100
AcDbLine
 10
20762.56390963731
 20
-17845.31154216464
 30
0.0
 11
20597.45896011583
 21
-17874.64345972726
 31
0.0
  0
LINE
  5
6F496
330
18
100
AcDbEntity
  8
姿図
100
AcDbLine
 10
20762.56390963731
 20
-17842.11450039153
 30
0.0
 11
20597.45896011583
 21
-17871.44641795415
 31
0.0
  0
LINE
  5
6F497
330
18
100
AcDbEntity
  8
姿図
100
AcDbLine
 10
20762.56390963731
 20
-17844.21471803215
 30
0.0
 11
20599.27772634699
 21
-17873.22352050153
 31
0.0
  0
LINE
  5
6F498
330
18
100
AcDbEntity
  8
姿図
100
AcDbLine
 10
20702.72002364194
 20
-17971.76894102266
 30
0.0
 11
20597.45896011583
 21
-17888.51710345989
 31
0.0
  0
LINE
  5
6F499
330
18
100
AcDbEntity
  8
姿図
100
AcDbLine
 10
20602.97860498587
 20
-17836.8207601737
 30
0.0
 11
20602.97860498587
 21
-17785.21453874417
 31
0.0
  0
LINE
  5
6F49A
330
18
100
AcDbEntity
  8
姿図
100
AcDbLine
 10
20597.45896011583
 20
-17851.95968714662
 30
0.0
 11
20599.27772634699
 21
-17853.73678969401
 31
0.0
  0
LINE
  5
6F49B
330
18
100
AcDbEntity
  8
姿図
100
AcDbLine
 10
20597.45896011583
 20
-17847.74771147729
 30
0.0
 11
20598.91273646235
 21
-17848.7023967633
 31
0.0
  0
LINE
  5
6F49C
330
18
100
AcDbEntity
  8
姿図
100
AcDbLine
 10
20599.27772634699
 20
-17853.73678969401
 30
0.0
 11
20597.45896011583
 21
-17855.15672891973
 31
0.0
  0
LINE
  5
6F49D
330
18
100
AcDbEntity
  8
姿図
100
AcDbLine
 10
20597.45896011583
 20
-17839.83122708673
 30
0.0
 11
20598.91273646235
 21
-17840.78591237275
 31
0.0
  0
LINE
  5
6F49E
330
18
100
AcDbEntity
  8
姿図
100
AcDbLine
 10
20597.45896011583
 20
-17847.74771147728
 30
0.0
 11
20597.45896011583
 21
-17845.71784368484
 31
0.0
  0
LINE
  5
6F49F
330
18
100
AcDbEntity
  8
姿図
100
AcDbLine
 10
20597.45896011583
 20
-17851.95968714662
 30
0.0
 11
20597.45896011583
 21
-17850.28504621785
 31
0.0
  0
LINE
  5
6F4A0
330
18
100
AcDbEntity
  8
姿図
100
AcDbLine
 10
20597.45896011583
 20
-17839.83122708673
 30
0.0
 11
20597.45896011583
 21
-17837.80135929428
 31
0.0
  0
LINE
  5
6F4A1
330
18
100
AcDbEntity
  8
姿図
100
AcDbLine
 10
20599.62804583882
 20
-17840.6588332287
 30
0.0
 11
20599.62804583882
 21
-17845.33249216268
 31
0.0
  0
LINE
  5
6F4A2
330
18
100
AcDbEntity
  8
姿図
100
AcDbLine
 10
20598.91273646235
 20
-17848.7023967633
 30
0.0
 11
20598.91273646235
 21
-17850.02677383974
 31
0.0
  0
LINE
  5
6F4A3
330
18
100
AcDbEntity
  8
姿図
100
AcDbLine
 10
20597.45896011583
 20
-17856.8313698485
 30
0.0
 11
20599.27772634699
 21
-17858.60847239589
 31
0.0
  0
LINE
  5
6F4A4
330
18
100
AcDbEntity
  8
姿図
100
AcDbLine
 10
20599.27772634699
 20
-17858.60847239589
 30
0.0
 11
20597.45896011583
 21
-17860.02841162161
 31
0.0
  0
LINE
  5
6F4A5
330
18
100
AcDbEntity
  8
姿図
100
AcDbLine
 10
20597.45896011583
 20
-17866.57473525226
 30
0.0
 11
20599.27772634699
 21
-17868.35183779965
 31
0.0
  0
LINE
  5
6F4A6
330
18
100
AcDbEntity
  8
姿図
100
AcDbLine
 10
20597.45896011583
 20
-17861.70305255038
 30
0.0
 11
20599.27772634699
 21
-17863.48015509777
 31
0.0
  0
LINE
  5
6F4A7
330
18
100
AcDbEntity
  8
姿図
100
AcDbLine
 10
20599.27772634699
 20
-17863.48015509777
 30
0.0
 11
20597.45896011583
 21
-17864.90009432349
 31
0.0
  0
LINE
  5
6F4A8
330
18
100
AcDbEntity
  8
姿図
100
AcDbLine
 10
20599.27772634699
 20
-17868.35183779965
 30
0.0
 11
20597.45896011583
 21
-17869.77177702537
 31
0.0
  0
LINE
  5
6F4A9
330
18
100
AcDbEntity
  8
姿図
100
AcDbLine
 10
20597.45896011583
 20
-17866.57473525226
 30
0.0
 11
20597.45896011583
 21
-17864.90009432349
 31
0.0
  0
LINE
  5
6F4AA
330
18
100
AcDbEntity
  8
姿図
100
AcDbLine
 10
20597.45896011583
 20
-17861.70305255038
 30
0.0
 11
20597.45896011583
 21
-17860.02841162161
 31
0.0
  0
LINE
  5
6F4AB
330
18
100
AcDbEntity
  8
姿図
100
AcDbLine
 10
20597.45896011583
 20
-17856.8313698485
 30
0.0
 11
20597.45896011583
 21
-17855.15672891973
 31
0.0
  0
LINE
  5
6F4AC
330
18
100
AcDbEntity
  8
姿図
100
AcDbLine
 10
20597.45896011583
 20
-17876.31810065603
 30
0.0
 11
20598.91273646235
 21
-17877.27278594204
 31
0.0
  0
LINE
  5
6F4AD
330
18
100
AcDbEntity
  8
姿図
100
AcDbLine
 10
20597.45896011583
 20
-17878.09423497442
 30
0.0
 11
20597.45896011583
 21
-17879.87036929281
 31
0.0
  0
LINE
  5
6F4AE
330
18
100
AcDbEntity
  8
姿図
100
AcDbLine
 10
20597.45896011583
 20
-17879.87036929281
 30
0.0
 11
20598.56092671954
 21
-17880.59402345376
 31
0.0
  0
LINE
  5
6F4AF
330
18
100
AcDbEntity
  8
姿図
100
AcDbLine
 10
20598.56092671954
 20
-17880.59402345376
 30
0.0
 11
20598.56092671954
 21
-17885.56121469405
 31
0.0
  0
LINE
  5
6F4B0
330
18
100
AcDbEntity
  8
姿図
100
AcDbLine
 10
20598.91273646235
 20
-17877.27278594204
 30
0.0
 11
20598.91273646235
 21
-17877.83596259631
 31
0.0
  0
LINE
  5
6F4B1
330
18
100
AcDbEntity
  8
姿図
100
AcDbLine
 10
20597.45896011583
 20
-17871.44641795415
 30
0.0
 11
20599.27772634699
 21
-17873.22352050153
 31
0.0
  0
LINE
  5
6F4B2
330
18
100
AcDbEntity
  8
姿図
100
AcDbLine
 10
20599.27772634699
 20
-17873.22352050153
 30
0.0
 11
20597.45896011583
 21
-17874.64345972726
 31
0.0
  0
LINE
  5
6F4B3
330
18
100
AcDbEntity
  8
姿図
100
AcDbLine
 10
20597.45896011583
 20
-17876.31810065603
 30
0.0
 11
20597.45896011583
 21
-17874.64345972726
 31
0.0
  0
LINE
  5
6F4B4
330
18
100
AcDbEntity
  8
姿図
100
AcDbLine
 10
20597.45896011583
 20
-17871.44641795415
 30
0.0
 11
20597.45896011583
 21
-17869.77177702537
 31
0.0
  0
LINE
  5
6F4B5
330
18
100
AcDbEntity
  8
姿図
100
AcDbLine
 10
20597.45896011583
 20
-17888.51710345989
 30
0.0
 11
20597.45896011583
 21
-17885.75698589092
 31
0.0
  0
LINE
  5
6F4B6
330
18
100
AcDbEntity
  8
姿図
100
AcDbLine
 10
20663.81744883357
 20
-17899.64729671859
 30
0.0
 11
20663.81744883357
 21
-17907.69897993009
 31
0.0
  0
LINE
  5
6F4B7
330
18
100
AcDbEntity
  8
姿図
100
AcDbLine
 10
20663.81744883357
 20
-17899.64729671859
 30
0.0
 11
20663.81744883357
 21
-17907.69897993009
 31
0.0
  0
LINE
  5
6F4B8
330
18
100
AcDbEntity
  8
姿図
100
AcDbLine
 10
20796.18308608902
 20
-17818.73898312915
 30
0.0
 11
20835.01654495624
 21
-17851.74425120957
 31
0.0
  0
LINE
  5
6F4B9
330
18
100
AcDbEntity
  8
姿図
100
AcDbLine
 10
20796.18308608902
 20
-17790.68632454021
 30
0.0
 11
20835.01654495625
 21
-17823.69159262063
 31
0.0
  0
LINE
  5
6F4BA
330
18
100
AcDbEntity
  8
姿図
100
AcDbLine
 10
20812.37755546984
 20
-17957.81386912782
 30
0.0
 11
20828.01859433745
 21
-17955.5139776346
 31
0.0
  0
LINE
  5
6F4BB
330
18
100
AcDbEntity
  8
姿図
100
AcDbLine
 10
20828.01859433745
 20
-17955.5139776346
 30
0.0
 11
20749.6781938047
 21
-17893.22001898466
 31
0.0
  0
LINE
  5
6F4BC
330
18
100
AcDbEntity
  8
姿図
100
AcDbLine
 10
20828.01859433745
 20
-17948.29023773901
 30
0.0
 11
20751.20307034154
 21
-17883.29274501122
 31
0.0
  0
LINE
  5
6F4BD
330
18
100
AcDbEntity
  8
姿図
100
AcDbLine
 10
20867.82497316342
 20
-17942.43702346004
 30
0.0
 11
20762.56390963731
 21
-17859.18518589728
 31
0.0
  0
LINE
  5
6F4BE
330
18
100
AcDbEntity
  8
姿図
100
AcDbLine
 10
20867.82497316342
 20
-17939.67690589107
 30
0.0
 11
20762.56390963731
 21
-17856.4250683283
 31
0.0
  0
LINE
  5
6F4BF
330
18
100
AcDbEntity
  8
姿図
100
AcDbLine
 10
20867.82497316342
 20
-17891.72127929443
 30
0.0
 11
20762.56390963731
 21
-17808.46944173166
 31
0.0
  0
LINE
  5
6F4C0
330
18
100
AcDbEntity
  8
姿図
100
AcDbLine
 10
20867.82497316342
 20
-17893.75114708688
 30
0.0
 11
20762.56390963731
 21
-17810.49930952411
 31
0.0
  0
LINE
  5
6F4C1
330
18
100
AcDbEntity
  8
姿図
100
AcDbLine
 10
20866.76842961588
 20
-17893.75114708688
 30
0.0
 11
20762.56390963731
 21
-17811.71226718824
 31
0.0
  0
LINE
  5
6F4C2
330
18
100
AcDbEntity
  8
姿図
100
AcDbLine
 10
20867.82497316342
 20
-17899.63776368498
 30
0.0
 11
20762.56390963731
 21
-17816.38592612222
 31
0.0
  0
LINE
  5
6F4C3
330
18
100
AcDbEntity
  8
姿図
100
AcDbLine
 10
20867.82497316342
 20
-17901.66763147743
 30
0.0
 11
20762.37913759147
 21
-17818.44861981379
 31
0.0
  0
LINE
  5
6F4C4
330
18
100
AcDbEntity
  8
姿図
100
AcDbLine
 10
20866.52704539624
 20
-17901.80872972441
 30
0.0
 11
20762.56390963731
 21
-17819.6287515788
 31
0.0
  0
LINE
  5
6F4C5
330
18
100
AcDbEntity
  8
姿図
100
AcDbLine
 10
20867.82497316342
 20
-17904.204966218
 30
0.0
 11
20762.56390963731
 21
-17820.95312865523
 31
0.0
  0
LINE
  5
6F4C6
330
18
100
AcDbEntity
  8
姿図
100
AcDbLine
 10
20867.82497316342
 20
-17905.87960714677
 30
0.0
 11
20762.56390963731
 21
-17822.627769584
 31
0.0
  0
LINE
  5
6F4C7
330
18
100
AcDbEntity
  8
姿図
100
AcDbLine
 10
20867.82497316342
 20
-17909.07664891988
 30
0.0
 11
20762.56390963731
 21
-17824.72798722463
 31
0.0
  0
LINE
  5
6F4C8
330
18
100
AcDbEntity
  8
姿図
100
AcDbLine
 10
20867.82497316342
 20
-17910.75128984865
 30
0.0
 11
20762.56390963731
 21
-17825.82481135711
 31
0.0
  0
LINE
  5
6F4C9
330
18
100
AcDbEntity
  8
姿図
100
AcDbLine
 10
20867.82497316342
 20
-17913.94833162176
 30
0.0
 11
20762.56390963731
 21
-17829.59966992651
 31
0.0
  0
LINE
  5
6F4CA
330
18
100
AcDbEntity
  8
姿図
100
AcDbLine
 10
20867.82497316342
 20
-17915.62297255053
 30
0.0
 11
20762.56390963731
 21
-17830.69649405899
 31
0.0
  0
LINE
  5
6F4CB
330
18
100
AcDbEntity
  8
姿図
100
AcDbLine
 10
20867.82497316342
 20
-17918.82001432364
 30
0.0
 11
20762.56390963731
 21
-17834.47135262838
 31
0.0
  0
LINE
  5
6F4CC
330
18
100
AcDbEntity
  8
姿図
100
AcDbLine
 10
20867.82497316342
 20
-17920.49465525241
 30
0.0
 11
20762.56390963731
 21
-17835.56817676087
 31
0.0
  0
LINE
  5
6F4CD
330
18
100
AcDbEntity
  8
姿図
100
AcDbLine
 10
20867.82497316342
 20
-17923.69169702552
 30
0.0
 11
20762.56390963731
 21
-17839.34303533027
 31
0.0
  0
LINE
  5
6F4CE
330
18
100
AcDbEntity
  8
姿図
100
AcDbLine
 10
20867.82497316342
 20
-17925.36633795429
 30
0.0
 11
20762.56390963731
 21
-17840.43985946276
 31
0.0
  0
LINE
  5
6F4CF
330
18
100
AcDbEntity
  8
姿図
100
AcDbLine
 10
20867.82497316342
 20
-17928.5633797274
 30
0.0
 11
20762.56390963731
 21
-17844.21471803215
 31
0.0
  0
LINE
  5
6F4D0
330
18
100
AcDbEntity
  8
姿図
100
AcDbLine
 10
20867.82497316342
 20
-17930.23802065618
 30
0.0
 11
20762.56390963731
 21
-17845.31154216464
 31
0.0
  0
LINE
  5
6F4D1
330
18
100
AcDbEntity
  8
姿図
100
AcDbLine
 10
20867.82497316342
 20
-17932.01415497457
 30
0.0
 11
20762.56390963731
 21
-17848.7623174118
 31
0.0
  0
LINE
  5
6F4D2
330
18
100
AcDbEntity
  8
姿図
100
AcDbLine
 10
20867.82497316342
 20
-17933.79028929296
 30
0.0
 11
20762.56390963731
 21
-17850.5384517302
 31
0.0
  0
LINE
  5
6F4D3
330
18
100
AcDbEntity
  8
姿図
100
AcDbLine
 10
20866.64730318813
 20
-17933.79028929296
 30
0.0
 11
20762.56390963731
 21
-17851.45787708801
 31
0.0
  0
LINE
  5
6F4D4
330
18
100
AcDbEntity
  8
姿図
100
AcDbLine
 10
20867.82497316342
 20
-17931.91266158495
 30
0.0
 11
20762.56390963731
 21
-17846.98618309341
 31
0.0
  0
LINE
  5
6F4D5
330
18
100
AcDbEntity
  8
姿図
100
AcDbLine
 10
20756.9575010526
 20
-17958.73921145031
 30
0.0
 11
20701.58023540914
 21
-17911.88171138122
 31
0.0
  0
LINE
  5
6F4D6
330
18
100
AcDbEntity
  8
姿図
100
AcDbLine
 10
20756.53748450786
 20
-17966.0247114685
 30
0.0
 11
20742.57116245272
 21
-17968.07834905345
 31
0.0
  0
LINE
  5
6F4D7
330
18
100
AcDbEntity
  8
姿図
100
AcDbLine
 10
20747.00626488186
 20
-17904.65047385922
 30
0.0
 11
20812.37755546984
 21
-17957.81386912782
 31
0.0
  0
LINE
  5
6F4D8
330
18
100
AcDbEntity
  8
姿図
100
AcDbLine
 10
20689.60355084177
 20
-17913.78824496644
 30
0.0
 11
20756.53748450786
 21
-17966.0247114685
 31
0.0
  0
LINE
  5
6F4D9
330
18
100
AcDbEntity
  8
姿図
100
AcDbLine
 10
20690.18982757306
 20
-17913.64179079175
 30
0.0
 11
20756.9575010526
 21
-17965.96295134589
 31
0.0
  0
LINE
  5
6F4DA
330
18
100
AcDbEntity
  8
姿図
100
AcDbLine
 10
20749.6781938047
 20
-17893.22001898466
 30
0.0
 11
20747.00626488186
 21
-17904.65047385922
 31
0.0
  0
LINE
  5
6F4DB
330
18
100
AcDbEntity
  8
姿図
100
AcDbLine
 10
20717.91186565901
 20
-17935.8805717981
 30
0.0
 11
20718.00096719429
 21
-17935.43543770925
 31
0.0
  0
LINE
  5
6F4DC
330
18
100
AcDbEntity
  8
姿図
100
AcDbLine
 10
20738.9821987682
 20
-17965.32674086738
 30
0.0
 11
20702.72002364194
 21
-17971.76894102266
 31
0.0
  0
LINE
  5
6F4DD
330
18
100
AcDbEntity
  8
姿図
100
AcDbLine
 10
20751.20307034154
 20
-17883.29274501122
 30
0.0
 11
20749.6781938047
 21
-17893.22001898466
 31
0.0
  0
LINE
  5
6F4DE
330
18
100
AcDbEntity
  8
姿図
100
AcDbLine
 10
20751.20307034154
 20
-17883.29274501122
 30
0.0
 11
20749.6781938047
 21
-17893.22001898466
 31
0.0
  0
LINE
  5
6F4DF
330
18
100
AcDbEntity
  8
姿図
100
AcDbLine
 10
20747.00626488186
 20
-17904.65047385922
 30
0.0
 11
20689.60355084177
 21
-17913.78824496644
 31
0.0
  0
LINE
  5
6F4E0
330
18
100
AcDbEntity
  8
姿図
100
AcDbLine
 10
20762.56390963731
 20
-17756.86322030213
 30
0.0
 11
20796.18308608902
 21
-17785.4367742373
 31
0.0
  0
LINE
  5
6F4E1
330
18
100
AcDbEntity
  8
姿図
100
AcDbLine
 10
20796.18308608902
 20
-17818.73898312915
 30
0.0
 11
20796.18308608902
 21
-17785.4367742373
 31
0.0
  0
LINE
  5
6F4E2
330
18
100
AcDbEntity
  8
姿図
100
AcDbLine
 10
20762.56390963731
 20
-17859.18518589728
 30
0.0
 11
20762.56390963731
 21
-17756.86322030213
 31
0.0
  0
LINE
  5
6F4E3
330
18
100
AcDbEntity
  8
姿図
100
AcDbLine
 10
20756.9575010526
 20
-17965.96295134589
 30
0.0
 11
20756.53748450786
 21
-17966.0247114685
 31
0.0
  0
LINE
  5
6F4E4
330
18
100
AcDbEntity
  8
姿図
100
AcDbLine
 10
20756.9575010526
 20
-17958.73921145031
 30
0.0
 11
20756.9575010526
 21
-17965.96295134589
 31
0.0
  0
LINE
  5
6F4E5
330
18
100
AcDbEntity
  8
姿図
100
AcDbLine
 10
20835.01654495625
 20
-17818.44204231771
 30
0.0
 11
20860.95045743237
 21
-17840.48374961386
 31
0.0
  0
LINE
  5
6F4E6
330
18
100
AcDbEntity
  8
姿図
100
AcDbLine
 10
20835.01654495624
 20
-17851.74425120957
 30
0.0
 11
20835.01654495625
 21
-17818.44204231771
 31
0.0
  0
LINE
  5
6F4E7
330
18
100
AcDbEntity
  8
姿図
100
AcDbLine
 10
20835.01654495625
 20
-17818.44204231771
 30
0.0
 11
20829.7787075798
 21
-17819.23985868257
 31
0.0
  0
LINE
  5
6F4E8
330
18
100
AcDbEntity
  8
姿図
100
AcDbLine
 10
20860.95045743237
 20
-17840.48374961386
 30
0.0
 11
20860.95045743237
 21
-17886.35423740795
 31
0.0
  0
LINE
  5
6F4E9
330
18
100
AcDbEntity
  8
姿図
100
AcDbLine
 10
20867.82497316342
 20
-17901.66763147743
 30
0.0
 11
20866.52704539624
 21
-17901.80872972441
 31
0.0
  0
LINE
  5
6F4EA
330
18
100
AcDbEntity
  8
姿図
100
AcDbLine
 10
20866.52704539624
 20
-17901.80872972441
 30
0.0
 11
20866.52704539624
 21
-17903.19165372231
 31
0.0
  0
LINE
  5
6F4EB
330
18
100
AcDbEntity
  8
姿図
100
AcDbLine
 10
20867.82497316342
 20
-17905.87960714677
 30
0.0
 11
20867.82497316342
 21
-17904.204966218
 31
0.0
  0
LINE
  5
6F4EC
330
18
100
AcDbEntity
  8
姿図
100
AcDbLine
 10
20867.82497316342
 20
-17901.66763147743
 30
0.0
 11
20867.82497316342
 21
-17899.63776368498
 31
0.0
  0
LINE
  5
6F4ED
330
18
100
AcDbEntity
  8
姿図
100
AcDbLine
 10
20867.82497316342
 20
-17893.75114708688
 30
0.0
 11
20866.76842961588
 21
-17893.75114708688
 31
0.0
  0
LINE
  5
6F4EE
330
18
100
AcDbEntity
  8
姿図
100
AcDbLine
 10
20867.82497316342
 20
-17893.75114708688
 30
0.0
 11
20867.82497316342
 21
-17891.72127929443
 31
0.0
  0
LINE
  5
6F4EF
330
18
100
AcDbEntity
  8
姿図
100
AcDbLine
 10
20865.49522477675
 20
-17892.75713616756
 30
0.0
 11
20865.49522477675
 21
-17897.81889270332
 31
0.0
  0
LINE
  5
6F4F0
330
18
100
AcDbEntity
  8
姿図
100
AcDbLine
 10
20867.82497316342
 20
-17905.87960714677
 30
0.0
 11
20866.00620693225
 21
-17907.65670969415
 31
0.0
  0
LINE
  5
6F4F1
330
18
100
AcDbEntity
  8
姿図
100
AcDbLine
 10
20867.82497316342
 20
-17925.36633795429
 30
0.0
 11
20867.82497316342
 21
-17923.69169702552
 31
0.0
  0
LINE
  5
6F4F2
330
18
100
AcDbEntity
  8
姿図
100
AcDbLine
 10
20867.82497316342
 20
-17920.49465525241
 30
0.0
 11
20867.82497316342
 21
-17918.82001432364
 31
0.0
  0
LINE
  5
6F4F3
330
18
100
AcDbEntity
  8
姿図
100
AcDbLine
 10
20867.82497316342
 20
-17915.62297255053
 30
0.0
 11
20867.82497316342
 21
-17913.94833162176
 31
0.0
  0
LINE
  5
6F4F4
330
18
100
AcDbEntity
  8
姿図
100
AcDbLine
 10
20867.82497316342
 20
-17933.79028929296
 30
0.0
 11
20867.82497316342
 21
-17932.01415497457
 31
0.0
  0
LINE
  5
6F4F5
330
18
100
AcDbEntity
  8
姿図
100
AcDbLine
 10
20867.82497316342
 20
-17933.79028929296
 30
0.0
 11
20866.64730318813
 21
-17933.79028929296
 31
0.0
  0
LINE
  5
6F4F6
330
18
100
AcDbEntity
  8
姿図
100
AcDbLine
 10
20867.82497316342
 20
-17942.43702346004
 30
0.0
 11
20867.82497316342
 21
-17939.67690589107
 31
0.0
  0
LINE
  5
6F4F7
330
18
100
AcDbEntity
  8
姿図
100
AcDbLine
 10
20867.82497316342
 20
-17930.23802065618
 30
0.0
 11
20867.82497316342
 21
-17928.5633797274
 31
0.0
  0
LINE
  5
6F4F8
330
18
100
AcDbEntity
  8
姿図
100
AcDbLine
 10
20865.49522477675
 20
-17932.89084366911
 30
0.0
 11
20865.49522477675
 21
-17937.8580349094
 31
0.0
  0
LINE
  5
6F4F9
330
18
100
AcDbEntity
  8
姿図
100
AcDbLine
 10
20867.82497316342
 20
-17910.75128984865
 30
0.0
 11
20866.00620693225
 21
-17912.52839239604
 31
0.0
  0
LINE
  5
6F4FA
330
18
100
AcDbEntity
  8
姿図
100
AcDbLine
 10
20867.82497316342
 20
-17915.62297255053
 30
0.0
 11
20866.00620693225
 21
-17917.40007509792
 31
0.0
  0
LINE
  5
6F4FB
330
18
100
AcDbEntity
  8
姿図
100
AcDbLine
 10
20867.82497316342
 20
-17920.49465525241
 30
0.0
 11
20866.00620693225
 21
-17922.2717577998
 31
0.0
  0
LINE
  5
6F4FC
330
18
100
AcDbEntity
  8
姿図
100
AcDbLine
 10
20867.82497316342
 20
-17925.36633795429
 30
0.0
 11
20866.00620693225
 21
-17927.14344050168
 31
0.0
  0
LINE
  5
6F4FD
330
18
100
AcDbEntity
  8
姿図
100
AcDbLine
 10
20867.82497316342
 20
-17930.23802065618
 30
0.0
 11
20865.54996514774
 21
-17930.23802065618
 31
0.0
  0
LINE
  5
6F4FE
330
18
100
AcDbEntity
  8
姿図
100
AcDbLine
 10
20867.82497316342
 20
-17910.75128984865
 30
0.0
 11
20867.82497316342
 21
-17909.07664891988
 31
0.0
  0
LINE
  5
6F4FF
330
18
100
AcDbEntity
  8
姿図
100
AcDbLine
 10
20828.01859433745
 20
-17948.29023773901
 30
0.0
 11
20828.01859433745
 21
-17955.5139776346
 31
0.0
  0
LINE
  5
6F500
330
18
100
AcDbEntity
  8
姿図
100
AcDbLine
 10
20867.82497316342
 20
-17942.43702346004
 30
0.0
 11
20828.01859433745
 21
-17949.50887336868
 31
0.0
  0
ENDSEC
  0
SECTION
  2
OBJECTS
  0
DICTIONARY
  5
C
330
0
100
AcDbDictionary
281
     1
  3
ACAD_GROUP
350
D
  3
ACAD_IMAGE_VARS
350
70388
  3
ACAD_LAYOUT
350
40CB
  3
ACAD_MLINESTYLE
350
E
  3
ACAD_PLOTSETTINGS
350
40CC
  3
ACAD_PLOTSTYLENAME
350
40C9
  3
ACAD_SCALELIST
350
64C01
  3
AcadDim
350
FCCB
  3
AcDbVariableDictionary
350
6377
  3
APPDATA
350
70387
  3
DWGPROPS
350
703AB
  0
DICTIONARY
  5
634FE
330
2
100
AcDbDictionary
280
     1
281
     1
  3
ACAD_LAYERSTATES
360
634FF
  0
DICTIONARY
  5
65B7E
330
F
100
AcDbDictionary
280
     1
281
     1
  3
ADSK_XREC_LAYER_RECONCILED
360
65B7F
  0
DICTIONARY
  5
65B86
330
4C
100
AcDbDictionary
280
     1
281
     1
  3
ADSK_XREC_LAYER_RECONCILED
360
65B87
  0
DICTIONARY
  5
65B88
330
4D
100
AcDbDictionary
280
     1
281
     1
  3
ADSK_XREC_LAYER_RECONCILED
360
65B89
  0
DICTIONARY
  5
65B8C
330
40D4
100
AcDbDictionary
280
     1
281
     1
  3
ADSK_XREC_LAYER_RECONCILED
360
65B8D
  0
DICTIONARY
  5
65B96
330
634FC
100
AcDbDictionary
280
     1
281
     1
  3
ADSK_XREC_LAYER_RECONCILED
360
65B97
  0
DICTIONARY
  5
9FD5
330
18
100
AcDbDictionary
280
     1
281
     1
  3
ACAD_SORTENTS
360
61C2F
  0
DICTIONARY
  5
D
102
{ACAD_REACTORS
330
C
102
}
330
C
100
AcDbDictionary
281
     1
  0
RASTERVARIABLES
  5
70388
102
{ACAD_REACTORS
330
C
102
}
330
C
100
AcDbRasterVariables
 90
        0
 70
     1
 71
     1
 72
     0
  0
DICTIONARY
  5
40CB
102
{ACAD_REACTORS
330
C
102
}
330
C
100
AcDbDictionary
281
     1
  3
Model
350
40CD
  3
ﾚｲｱｳﾄ1
350
40CE
  0
DICTIONARY
  5
E
102
{ACAD_REACTORS
330
C
102
}
330
C
100
AcDbDictionary
281
     1
  3
STANDARD
350
1B
  0
DICTIONARY
  5
40CC
102
{ACAD_REACTORS
330
C
102
}
330
C
100
AcDbDictionary
281
     1
  0
ACDBDICTIONARYWDFLT
  5
40C9
102
{ACAD_REACTORS
330
C
102
}
330
C
100
AcDbDictionary
281
     1
  3
Normal
350
40CA
100
AcDbDictionaryWithDefault
340
40CA
  0
DICTIONARY
  5
64C01
102
{ACAD_REACTORS
330
C
102
}
330
C
100
AcDbDictionary
281
     1
  3
A0
350
64C02
  3
A1
350
64C03
  3
A2
350
64C04
  3
A3
350
64C05
  3
A4
350
64C06
  3
A5
350
64C07
  3
A6
350
64C08
  3
A7
350
64C09
  3
A8
350
64C0A
  3
A9
350
64C0B
  3
B0
350
64C0C
  3
B1
350
64C0D
  3
B2
350
64C0E
  3
B3
350
64C0F
  3
B4
350
64C10
  3
B5
350
64C11
  3
B6
350
64C12
  3
B7
350
64C13
  3
B8
350
64C14
  3
B9
350
64C15
  3
C0
350
64C16
  3
C1
350
64C17
  3
C2
350
64C18
  3
C3
350
64C19
  3
C4
350
64C1A
  3
C5
350
64C1B
  3
C6
350
64C1C
  3
C7
350
64C1D
  3
C8
350
64C1E
  3
C9
350
64C1F
  3
D0
350
64C20
  3
D1
350
64C21
  3
D2
350
64C22
  0
XRECORD
  5
FCCB
102
{ACAD_REACTORS
330
C
102
}
330
C
100
AcDbXrecord
280
     1
 90
   990106
  3

 60
     0
 61
     0
 62
     1
 63
     3
 64
     0
 65
     0
 66
     0
 67
     3
 68
     1
 69
     0
 70
     0
 71
     0
 72
     0
 40
2.0
170
     0
  0
DICTIONARY
  5
6377
102
{ACAD_REACTORS
330
C
102
}
330
C
100
AcDbDictionary
281
     1
  3
DIMASSOC
350
73F2
  3
INDEXCTL
350
65BAB
  3
PROJECTNAME
350
6149B
  3
SORTENTS
350
6378
  0
DICTIONARY
  5
70387
102
{ACAD_REACTORS
330
C
102
}
330
C
100
AcDbDictionary
281
     1
  0
XRECORD
  5
703AB
102
{ACAD_REACTORS
330
C
102
}
330
C
100
AcDbXrecord
280
     1
  1
DWGPROPS COOKIE
  2

  3

  4

  6

  7

  8
SPAX
  9

300
=
301
=
302
=
303
=
304
=
305
=
306
=
307
=
308
=
309
=
 40
0.0
 41
2449505.547222222
 42
2456822.118430474
  1

 90
        0
  0
DICTIONARY
  5
634FF
102
{ACAD_REACTORS
330
634FE
102
}
330
634FE
100
AcDbDictionary
281
     1
  0
XRECORD
  5
65B7F
102
{ACAD_REACTORS
330
65B7E
102
}
330
65B7E
100
AcDbXrecord
280
     1
290
     1
  0
XRECORD
  5
65B87
102
{ACAD_REACTORS
330
65B86
102
}
330
65B86
100
AcDbXrecord
280
     1
290
     1
  0
XRECORD
  5
65B89
102
{ACAD_REACTORS
330
65B88
102
}
330
65B88
100
AcDbXrecord
280
     1
290
     1
  0
XRECORD
  5
65B8D
102
{ACAD_REACTORS
330
65B8C
102
}
330
65B8C
100
AcDbXrecord
280
     1
290
     1
  0
XRECORD
  5
65B97
102
{ACAD_REACTORS
330
65B96
102
}
330
65B96
100
AcDbXrecord
280
     1
290
     1
  0
SORTENTSTABLE
  5
61C2F
102
{ACAD_REACTORS
330
9FD5
102
}
330
9FD5
100
AcDbSortentsTable
330
18
331
0
  5
47CC6
  0
LAYOUT
  5
40CD
102
{ACAD_REACTORS
330
40CB
102
}
330
40CB
100
AcDbPlotSettings
  1

  2
JUST PDF 2.pc3
  4
A4
  6
CUT1
 40
3.174999952316284
 41
3.174999952316284
 42
3.175003051757812
 43
3.17498779296875
 44
209.8886566162109
 45
297.0530090332031
 46
14.33
 47
9.86
 48
20503.73911410211
 49
-17180.8383360088
140
22252.533100473
141
-14470.91158455127
142
1.0
143
10.0
 70
 11940
 72
     1
 73
     0
 74
     4
  7
spax form.ctb
 75
     0
147
0.1
148
-20503.73911410211
149
17180.8383360088
100
AcDbLayout
  1
Model
 70
     1
 71
     0
 10
0.0
 20
0.0
 11
12.0
 21
9.0
 12
0.0
 22
0.0
 32
0.0
 14
20589.42330019581
 24
-18060.11647061642
 34
0.0
 15
20867.82497316342
 25
-17756.86322030213
 35
0.0
146
0.0
 13
0.0
 23
0.0
 33
0.0
 16
1.0
 26
0.0
 36
0.0
 17
0.0
 27
1.0
 37
0.0
 76
     0
330
18
331
6F2CC
1001
ACAD_PSEXT
1000
DWG To PDF.pc3
1000
PDF
1000
ファイル
1000

1070
     0
  0
LAYOUT
  5
40CE
102
{ACAD_REACTORS
330
40CB
102
}
330
40CB
100
AcDbPlotSettings
  1

  2
なし
  4

  6

 40
0.0
 41
0.0
 42
0.0
 43
0.0
 44
0.0
 45
0.0
 46
0.0
 47
0.0
 48
0.0
 49
0.0
140
0.0
141
0.0
142
1.0
143
1.0
 70
   688
 72
     0
 73
     0
 74
     5
  7
spax form2.ctb
 75
    16
147
1.0
148
0.0
149
0.0
100
AcDbLayout
  1
ﾚｲｱｳﾄ1
 70
     0
 71
     1
 10
0.0
 20
0.0
 11
12.0
 21
9.0
 12
0.0
 22
0.0
 32
0.0
 14
1.000000000000000E+20
 24
1.000000000000000E+20
 34
1.000000000000000E+20
 15
-1.000000000000000E+20
 25
-1.000000000000000E+20
 35
-1.000000000000000E+20
146
0.0
 13
0.0
 23
0.0
 33
0.0
 16
1.0
 26
0.0
 36
0.0
 17
0.0
 27
1.0
 37
0.0
 76
     0
330
15
  0
MLINESTYLE
  5
1B
102
{ACAD_REACTORS
330
E
102
}
330
E
100
AcDbMlineStyle
  2
STANDARD
 70
     0
  3

 62
     0
 51
90.0
 52
90.0
 71
     2
 49
0.5
 62
   256
  6
BYLAYER
 49
-0.5
 62
   256
  6
BYLAYER
  0
ACDBPLACEHOLDER
  5
40CA
102
{ACAD_REACTORS
330
40C9
102
}
330
40C9
  0
SCALE
  5
64C02
102
{ACAD_REACTORS
330
64C01
102
}
330
64C01
100
AcDbScale
 70
     0
300
1:1
140
1.0
141
1.0
290
     1
1001
ACAD
1000
AcRTDxfName
1000
SCALE
1000
AcRTDxfName
1000
SCALE
  0
SCALE
  5
64C03
102
{ACAD_REACTORS
330
64C01
102
}
330
64C01
100
AcDbScale
 70
     0
300
1:2
140
1.0
141
2.0
290
     0
1001
ACAD
1000
AcRTDxfName
1000
SCALE
1000
AcRTDxfName
1000
SCALE
  0
SCALE
  5
64C04
102
{ACAD_REACTORS
330
64C01
102
}
330
64C01
100
AcDbScale
 70
     0
300
1:4
140
1.0
141
4.0
290
     0
1001
ACAD
1000
AcRTDxfName
1000
SCALE
1000
AcRTDxfName
1000
SCALE
  0
SCALE
  5
64C05
102
{ACAD_REACTORS
330
64C01
102
}
330
64C01
100
AcDbScale
 70
     0
300
1:5
140
1.0
141
5.0
290
     0
1001
ACAD
1000
AcRTDxfName
1000
SCALE
1000
AcRTDxfName
1000
SCALE
  0
SCALE
  5
64C06
102
{ACAD_REACTORS
330
64C01
102
}
330
64C01
100
AcDbScale
 70
     0
300
1:8
140
1.0
141
8.0
290
     0
1001
ACAD
1000
AcRTDxfName
1000
SCALE
1000
AcRTDxfName
1000
SCALE
  0
SCALE
  5
64C07
102
{ACAD_REACTORS
330
64C01
102
}
330
64C01
100
AcDbScale
 70
     0
300
1:10
140
1.0
141
10.0
290
     0
1001
ACAD
1000
AcRTDxfName
1000
SCALE
1000
AcRTDxfName
1000
SCALE
  0
SCALE
  5
64C08
102
{ACAD_REACTORS
330
64C01
102
}
330
64C01
100
AcDbScale
 70
     0
300
1:16
140
1.0
141
16.0
290
     0
1001
ACAD
1000
AcRTDxfName
1000
SCALE
1000
AcRTDxfName
1000
SCALE
  0
SCALE
  5
64C09
102
{ACAD_REACTORS
330
64C01
102
}
330
64C01
100
AcDbScale
 70
     0
300
1:20
140
1.0
141
20.0
290
     0
1001
ACAD
1000
AcRTDxfName
1000
SCALE
1000
AcRTDxfName
1000
SCALE
  0
SCALE
  5
64C0A
102
{ACAD_REACTORS
330
64C01
102
}
330
64C01
100
AcDbScale
 70
     0
300
1:30
140
1.0
141
30.0
290
     0
1001
ACAD
1000
AcRTDxfName
1000
SCALE
1000
AcRTDxfName
1000
SCALE
  0
SCALE
  5
64C0B
102
{ACAD_REACTORS
330
64C01
102
}
330
64C01
100
AcDbScale
 70
     0
300
1:40
140
1.0
141
40.0
290
     0
1001
ACAD
1000
AcRTDxfName
1000
SCALE
1000
AcRTDxfName
1000
SCALE
  0
SCALE
  5
64C0C
102
{ACAD_REACTORS
330
64C01
102
}
330
64C01
100
AcDbScale
 70
     0
300
1:50
140
1.0
141
50.0
290
     0
1001
ACAD
1000
AcRTDxfName
1000
SCALE
1000
AcRTDxfName
1000
SCALE
  0
SCALE
  5
64C0D
102
{ACAD_REACTORS
330
64C01
102
}
330
64C01
100
AcDbScale
 70
     0
300
1:100
140
1.0
141
100.0
290
     0
1001
ACAD
1000
AcRTDxfName
1000
SCALE
1000
AcRTDxfName
1000
SCALE
  0
SCALE
  5
64C0E
102
{ACAD_REACTORS
330
64C01
102
}
330
64C01
100
AcDbScale
 70
     0
300
2:1
140
2.0
141
1.0
290
     0
1001
ACAD
1000
AcRTDxfName
1000
SCALE
1000
AcRTDxfName
1000
SCALE
  0
SCALE
  5
64C0F
102
{ACAD_REACTORS
330
64C01
102
}
330
64C01
100
AcDbScale
 70
     0
300
4:1
140
4.0
141
1.0
290
     0
1001
ACAD
1000
AcRTDxfName
1000
SCALE
1000
AcRTDxfName
1000
SCALE
  0
SCALE
  5
64C10
102
{ACAD_REACTORS
330
64C01
102
}
330
64C01
100
AcDbScale
 70
     0
300
8:1
140
8.0
141
1.0
290
     0
1001
ACAD
1000
AcRTDxfName
1000
SCALE
1000
AcRTDxfName
1000
SCALE
  0
SCALE
  5
64C11
102
{ACAD_REACTORS
330
64C01
102
}
330
64C01
100
AcDbScale
 70
     0
300
10:1
140
10.0
141
1.0
290
     0
1001
ACAD
1000
AcRTDxfName
1000
SCALE
1000
AcRTDxfName
1000
SCALE
  0
SCALE
  5
64C12
102
{ACAD_REACTORS
330
64C01
102
}
330
64C01
100
AcDbScale
 70
     0
300
100:1
140
100.0
141
1.0
290
     0
1001
ACAD
1000
AcRTDxfName
1000
SCALE
1000
AcRTDxfName
1000
SCALE
  0
SCALE
  5
64C13
102
{ACAD_REACTORS
330
64C01
102
}
330
64C01
100
AcDbScale
 70
     0
300
1/128" = 1'-0"
140
0.0078125
141
12.0
290
     0
1001
ACAD
1000
AcRTDxfName
1000
SCALE
1000
AcRTDxfName
1000
SCALE
  0
SCALE
  5
64C14
102
{ACAD_REACTORS
330
64C01
102
}
330
64C01
100
AcDbScale
 70
     0
300
1/64" = 1'-0"
140
0.015625
141
12.0
290
     0
1001
ACAD
1000
AcRTDxfName
1000
SCALE
1000
AcRTDxfName
1000
SCALE
  0
SCALE
  5
64C15
102
{ACAD_REACTORS
330
64C01
102
}
330
64C01
100
AcDbScale
 70
     0
300
1/32" = 1'-0"
140
0.03125
141
12.0
290
     0
1001
ACAD
1000
AcRTDxfName
1000
SCALE
1000
AcRTDxfName
1000
SCALE
  0
SCALE
  5
64C16
102
{ACAD_REACTORS
330
64C01
102
}
330
64C01
100
AcDbScale
 70
     0
300
1/16" = 1'-0"
140
0.0625
141
12.0
290
     0
1001
ACAD
1000
AcRTDxfName
1000
SCALE
1000
AcRTDxfName
1000
SCALE
  0
SCALE
  5
64C17
102
{ACAD_REACTORS
330
64C01
102
}
330
64C01
100
AcDbScale
 70
     0
300
3/32" = 1'-0"
140
0.09375
141
12.0
290
     0
1001
ACAD
1000
AcRTDxfName
1000
SCALE
1000
AcRTDxfName
1000
SCALE
  0
SCALE
  5
64C18
102
{ACAD_REACTORS
330
64C01
102
}
330
64C01
100
AcDbScale
 70
     0
300
1/8" = 1'-0"
140
0.125
141
12.0
290
     0
1001
ACAD
1000
AcRTDxfName
1000
SCALE
1000
AcRTDxfName
1000
SCALE
  0
SCALE
  5
64C19
102
{ACAD_REACTORS
330
64C01
102
}
330
64C01
100
AcDbScale
 70
     0
300
3/16" = 1'-0"
140
0.1875
141
12.0
290
     0
1001
ACAD
1000
AcRTDxfName
1000
SCALE
1000
AcRTDxfName
1000
SCALE
  0
SCALE
  5
64C1A
102
{ACAD_REACTORS
330
64C01
102
}
330
64C01
100
AcDbScale
 70
     0
300
1/4" = 1'-0"
140
0.25
141
12.0
290
     0
1001
ACAD
1000
AcRTDxfName
1000
SCALE
1000
AcRTDxfName
1000
SCALE
  0
SCALE
  5
64C1B
102
{ACAD_REACTORS
330
64C01
102
}
330
64C01
100
AcDbScale
 70
     0
300
3/8" = 1'-0"
140
0.375
141
12.0
290
     0
1001
ACAD
1000
AcRTDxfName
1000
SCALE
1000
AcRTDxfName
1000
SCALE
  0
SCALE
  5
64C1C
102
{ACAD_REACTORS
330
64C01
102
}
330
64C01
100
AcDbScale
 70
     0
300
1/2" = 1'-0"
140
0.5
141
12.0
290
     0
1001
ACAD
1000
AcRTDxfName
1000
SCALE
1000
AcRTDxfName
1000
SCALE
  0
SCALE
  5
64C1D
102
{ACAD_REACTORS
330
64C01
102
}
330
64C01
100
AcDbScale
 70
     0
300
3/4" = 1'-0"
140
0.75
141
12.0
290
     0
1001
ACAD
1000
AcRTDxfName
1000
SCALE
1000
AcRTDxfName
1000
SCALE
  0
SCALE
  5
64C1E
102
{ACAD_REACTORS
330
64C01
102
}
330
64C01
100
AcDbScale
 70
     0
300
1" = 1'-0"
140
1.0
141
12.0
290
     0
1001
ACAD
1000
AcRTDxfName
1000
SCALE
1000
AcRTDxfName
1000
SCALE
  0
SCALE
  5
64C1F
102
{ACAD_REACTORS
330
64C01
102
}
330
64C01
100
AcDbScale
 70
     0
300
1-1/2" = 1'-0"
140
1.5
141
12.0
290
     0
1001
ACAD
1000
AcRTDxfName
1000
SCALE
1000
AcRTDxfName
1000
SCALE
  0
SCALE
  5
64C20
102
{ACAD_REACTORS
330
64C01
102
}
330
64C01
100
AcDbScale
 70
     0
300
3" = 1'-0"
140
3.0
141
12.0
290
     0
1001
ACAD
1000
AcRTDxfName
1000
SCALE
1000
AcRTDxfName
1000
SCALE
  0
SCALE
  5
64C21
102
{ACAD_REACTORS
330
64C01
102
}
330
64C01
100
AcDbScale
 70
     0
300
6" = 1'-0"
140
6.0
141
12.0
290
     0
1001
ACAD
1000
AcRTDxfName
1000
SCALE
1000
AcRTDxfName
1000
SCALE
  0
SCALE
  5
64C22
102
{ACAD_REACTORS
330
64C01
102
}
330
64C01
100
AcDbScale
 70
     0
300
1'-0" = 1'-0"
140
12.0
141
12.0
290
     0
1001
ACAD
1000
AcRTDxfName
1000
SCALE
1000
AcRTDxfName
1000
SCALE
  0
DICTIONARYVAR
  5
73F2
102
{ACAD_REACTORS
330
6377
102
}
330
6377
100
DictionaryVariables
280
     0
  1
1
  0
DICTIONARYVAR
  5
65BAB
102
{ACAD_REACTORS
330
6377
102
}
330
6377
100
DictionaryVariables
280
     0
  1
0
  0
DICTIONARYVAR
  5
6149B
102
{ACAD_REACTORS
330
6377
102
}
330
6377
100
DictionaryVariables
280
     0
  1

  0
DICTIONARYVAR
  5
6378
102
{ACAD_REACTORS
330
6377
102
}
330
6377
100
DictionaryVariables
280
     0
  1
127
  0
ENDSEC
  0
EOF
