  0
SECTION
  2
HEADER
  9
$ACADVER
  1
AC1015
  9
$ACADMAINTVER
 70
     6
  9
$DWGCODEPAGE
  3
ANSI_932
  9
$INSBASE
 10
0.0
 20
0.0
 30
0.0
  9
$EXTMIN
 10
9623.964636879147
 20
-18043.93393196592
 30
0.0
  9
$EXTMAX
 10
10027.68131556947
 20
-17686.6431693556
 30
0.0
  9
$LIMMIN
 10
0.0
 20
0.0
  9
$LIMMAX
 10
840.0
 20
594.0
  9
$ORTHOMODE
 70
     1
  9
$REGENMODE
 70
     1
  9
$FILLMODE
 70
     1
  9
$QTEXTMODE
 70
     0
  9
$MIRRTEXT
 70
     1
  9
$LTSCALE
 40
7.0
  9
$ATTMODE
 70
     0
  9
$TEXTSIZE
 40
6.0
  9
$TRACEWID
 40
1.0
  9
$TEXTSTYLE
  7
STANDARD
  9
$CLAYER
  8
文字
  9
$CELTYPE
  6
BYLAYER
  9
$CECOLOR
 62
   256
  9
$CELTSCALE
 40
1.0
  9
$DISPSILH
 70
     0
  9
$DIMSCALE
 40
1.0
  9
$DIMASZ
 40
10.0
  9
$DIMEXO
 40
3.0
  9
$DIMDLI
 40
7.149999999999999
  9
$DIMRND
 40
0.0
  9
$DIMDLE
 40
0.0
  9
$DIMEXE
 40
2.0
  9
$DIMTP
 40
0.0
  9
$DIMTM
 40
0.0
  9
$DIMTXT
 40
18.0
  9
$DIMCEN
 40
0.0
  9
$DIMTSZ
 40
0.0
  9
$DIMTOL
 70
     0
  9
$DIMLIM
 70
     0
  9
$DIMTIH
 70
     0
  9
$DIMTOH
 70
     0
  9
$DIMSE1
 70
     0
  9
$DIMSE2
 70
     0
  9
$DIMTAD
 70
     3
  9
$DIMZIN
 70
     8
  9
$DIMBLK
  1
OPEN
  9
$DIMASO
 70
     1
  9
$DIMSHO
 70
     0
  9
$DIMPOST
  1

  9
$DIMAPOST
  1

  9
$DIMALT
 70
     0
  9
$DIMALTD
 70
     2
  9
$DIMALTF
 40
25.4
  9
$DIMLFAC
 40
1.0
  9
$DIMTOFL
 70
     0
  9
$DIMTVP
 40
0.0
  9
$DIMTIX
 70
     0
  9
$DIMSOXD
 70
     0
  9
$DIMSAH
 70
     0
  9
$DIMBLK1
  1

  9
$DIMBLK2
  1

  9
$DIMSTYLE
  2
STANDARD
  9
$DIMCLRD
 70
     8
  9
$DIMCLRE
 70
     8
  9
$DIMCLRT
 70
     0
  9
$DIMTFAC
 40
1.0
  9
$DIMGAP
 40
4.0
  9
$DIMJUST
 70
     0
  9
$DIMSD1
 70
     0
  9
$DIMSD2
 70
     0
  9
$DIMTOLJ
 70
     1
  9
$DIMTZIN
 70
     0
  9
$DIMALTZ
 70
     0
  9
$DIMALTTZ
 70
     0
  9
$DIMUPT
 70
     1
  9
$DIMDEC
 70
     2
  9
$DIMTDEC
 70
     2
  9
$DIMALTU
 70
     2
  9
$DIMALTTD
 70
     2
  9
$DIMTXSTY
  7
STANDARD
  9
$DIMAUNIT
 70
     0
  9
$DIMADEC
 70
     2
  9
$DIMALTRND
 40
0.0
  9
$DIMAZIN
 70
     2
  9
$DIMDSEP
 70
    46
  9
$DIMATFIT
 70
     3
  9
$DIMFRAC
 70
     0
  9
$DIMLDRBLK
  1
OPEN
  9
$DIMLUNIT
 70
     2
  9
$DIMLWD
 70
    -2
  9
$DIMLWE
 70
    -2
  9
$DIMTMOVE
 70
     0
  9
$LUNITS
 70
     2
  9
$LUPREC
 70
     2
  9
$SKETCHINC
 40
0.1
  9
$FILLETRAD
 40
0.6
  9
$AUNITS
 70
     0
  9
$AUPREC
 70
     2
  9
$MENU
  1
ACAD
  9
$ELEVATION
 40
0.0
  9
$PELEVATION
 40
0.0
  9
$THICKNESS
 40
0.0
  9
$LIMCHECK
 70
     0
  9
$CHAMFERA
 40
0.0
  9
$CHAMFERB
 40
0.0
  9
$CHAMFERC
 40
0.0
  9
$CHAMFERD
 40
0.0
  9
$SKPOLY
 70
     0
  9
$TDCREATE
 40
2449505.922222222
  9
$TDUCREATE
 40
2449505.547222222
  9
$TDUPDATE
 40
2456822.493837523
  9
$TDUUPDATE
 40
2456822.118837523
  9
$TDINDWG
 40
2.362827963
  9
$TDUSRTIMER
 40
2456822.1186764
  9
$USRTIMER
 70
     1
  9
$ANGBASE
 50
0.0
  9
$ANGDIR
 70
     0
  9
$PDMODE
 70
     3
  9
$PDSIZE
 40
0.0
  9
$PLINEWID
 40
0.0
  9
$SPLFRAME
 70
     0
  9
$SPLINETYPE
 70
     6
  9
$SPLINESEGS
 70
     8
  9
$HANDSEED
  5
6A200
  9
$SURFTAB1
 70
     6
  9
$SURFTAB2
 70
     6
  9
$SURFTYPE
 70
     6
  9
$SURFU
 70
     6
  9
$SURFV
 70
     6
  9
$UCSBASE
  2

  9
$UCSNAME
  2

  9
$UCSORG
 10
0.0
 20
0.0
 30
0.0
  9
$UCSXDIR
 10
1.0
 20
0.0
 30
0.0
  9
$UCSYDIR
 10
0.0
 20
1.0
 30
0.0
  9
$UCSORTHOREF
  2

  9
$UCSORTHOVIEW
 70
     0
  9
$UCSORGTOP
 10
0.0
 20
0.0
 30
0.0
  9
$UCSORGBOTTOM
 10
0.0
 20
0.0
 30
0.0
  9
$UCSORGLEFT
 10
0.0
 20
0.0
 30
0.0
  9
$UCSORGRIGHT
 10
0.0
 20
0.0
 30
0.0
  9
$UCSORGFRONT
 10
0.0
 20
0.0
 30
0.0
  9
$UCSORGBACK
 10
0.0
 20
0.0
 30
0.0
  9
$PUCSBASE
  2

  9
$PUCSNAME
  2

  9
$PUCSORG
 10
0.0
 20
0.0
 30
0.0
  9
$PUCSXDIR
 10
1.0
 20
0.0
 30
0.0
  9
$PUCSYDIR
 10
0.0
 20
1.0
 30
0.0
  9
$PUCSORTHOREF
  2

  9
$PUCSORTHOVIEW
 70
     0
  9
$PUCSORGTOP
 10
0.0
 20
0.0
 30
0.0
  9
$PUCSORGBOTTOM
 10
0.0
 20
0.0
 30
0.0
  9
$PUCSORGLEFT
 10
0.0
 20
0.0
 30
0.0
  9
$PUCSORGRIGHT
 10
0.0
 20
0.0
 30
0.0
  9
$PUCSORGFRONT
 10
0.0
 20
0.0
 30
0.0
  9
$PUCSORGBACK
 10
0.0
 20
0.0
 30
0.0
  9
$USERI1
 70
     0
  9
$USERI2
 70
     0
  9
$USERI3
 70
     0
  9
$USERI4
 70
     0
  9
$USERI5
 70
     0
  9
$USERR1
 40
0.0
  9
$USERR2
 40
0.0
  9
$USERR3
 40
0.0
  9
$USERR4
 40
0.0
  9
$USERR5
 40
0.0
  9
$WORLDVIEW
 70
     0
  9
$SHADEDGE
 70
     3
  9
$SHADEDIF
 70
    70
  9
$TILEMODE
 70
     1
  9
$MAXACTVP
 70
    16
  9
$PINSBASE
 10
0.0
 20
0.0
 30
0.0
  9
$PLIMCHECK
 70
     0
  9
$PEXTMIN
 10
1.000000000000000E+20
 20
1.000000000000000E+20
 30
1.000000000000000E+20
  9
$PEXTMAX
 10
-1.000000000000000E+20
 20
-1.000000000000000E+20
 30
-1.000000000000000E+20
  9
$PLIMMIN
 10
0.0
 20
0.0
  9
$PLIMMAX
 10
0.0
 20
0.0
  9
$UNITMODE
 70
     0
  9
$VISRETAIN
 70
     0
  9
$PLINEGEN
 70
     0
  9
$PSLTSCALE
 70
     0
  9
$TREEDEPTH
 70
  3020
  9
$CMLSTYLE
  2
STANDARD
  9
$CMLJUST
 70
     0
  9
$CMLSCALE
 40
1.0
  9
$PROXYGRAPHICS
 70
     1
  9
$MEASUREMENT
 70
     0
  9
$CELWEIGHT
370
    -1
  9
$ENDCAPS
280
     0
  9
$JOINSTYLE
280
     0
  9
$LWDISPLAY
290
     0
  9
$INSUNITS
 70
     0
  9
$HYPERLINKBASE
  1

  9
$STYLESHEET
  1
spax form.ctb
  9
$XEDIT
290
     1
  9
$CEPSNTYPE
380
     0
  9
$PSTYLEMODE
290
     1
  9
$FINGERPRINTGUID
  2
{C1CFCF3E-DF91-11D3-B30C-0060B0FA8DFC}
  9
$VERSIONGUID
  2
{4921C3A9-D26C-48E1-986C-B837D992A90C}
  9
$EXTNAMES
290
     1
  9
$PSVPSCALE
 40
0.0
  9
$OLESTARTUP
290
     0
  0
ENDSEC
  0
SECTION
  2
CLASSES
  0
CLASS
  1
LWPOLYLINE
  2
AcDbPolyline
  3
ObjectDBX Classes
 90
        0
280
     0
281
     1
  0
CLASS
  1
ACDBDICTIONARYWDFLT
  2
AcDbDictionaryWithDefault
  3
ObjectDBX Classes
 90
        0
280
     0
281
     0
  0
CLASS
  1
ACDBPLACEHOLDER
  2
AcDbPlaceHolder
  3
ObjectDBX Classes
 90
        0
280
     0
281
     0
  0
CLASS
  1
LAYOUT
  2
AcDbLayout
  3
ObjectDBX Classes
 90
        0
280
     0
281
     0
  0
CLASS
  1
DICTIONARYVAR
  2
AcDbDictionaryVar
  3
ObjectDBX Classes
 90
        0
280
     0
281
     0
  0
CLASS
  1
LONG_TRANSACTION
  2
AcDbLongTransaction
  3
ObjectDBX Classes
 90
        0
280
     0
281
     0
  0
CLASS
  1
LWPOLYLINE
  2
AcDbPolyline
  3
ObjectDBX Classes
 90
        0
280
     0
281
     1
  0
CLASS
  1
HATCH
  2
AcDbHatch
  3
ObjectDBX Classes
 90
        0
280
     0
281
     1
  0
CLASS
  1
XRECORD
  2
AcDbXrecord
  3
ObjectDBX Classes
 90
        0
280
     0
281
     0
  0
CLASS
  1
SORTENTSTABLE
  2
AcDbSortentsTable
  3
ObjectDBX Classes
 90
        0
280
     0
281
     0
  0
CLASS
  1
MATERIAL
  2
AcDbMaterial
  3
ObjectDBX Classes
 90
     1153
280
     0
281
     0
  0
CLASS
  1
VISUALSTYLE
  2
AcDbVisualStyle
  3
ObjectDBX Classes
 90
     4095
280
     0
281
     0
  0
CLASS
  1
TABLESTYLE
  2
AcDbTableStyle
  3
ObjectDBX Classes
 90
     4095
280
     0
281
     0
  0
CLASS
  1
SCALE
  2
AcDbScale
  3
ObjectDBX Classes
 90
     1153
280
     0
281
     0
  0
CLASS
  1
MLEADERSTYLE
  2
AcDbMLeaderStyle
  3
ACDB_MLEADERSTYLE_CLASS
 90
     4095
280
     0
281
     0
  0
CLASS
  1
CELLSTYLEMAP
  2
AcDbCellStyleMap
  3
ObjectDBX Classes
 90
     1152
280
     0
281
     0
  0
CLASS
  1
RASTERVARIABLES
  2
AcDbRasterVariables
  3
ISM
 90
        0
280
     0
281
     0
  0
CLASS
  1
SUN
  2
AcDbSun
  3
SCENEOE
 90
     1153
280
     0
281
     0
  0
ENDSEC
  0
SECTION
  2
TABLES
  0
TABLE
  2
VPORT
  5
8
330
0
100
AcDbSymbolTable
 70
     1
  0
VPORT
  5
69356
330
8
100
AcDbSymbolTableRecord
100
AcDbViewportTableRecord
  2
*Active
 70
     0
 10
0.0
 20
0.0
 11
1.0
 21
1.0
 12
9825.822976224308
 22
-17865.28855066076
 13
0.0
 23
0.0
 14
1.0
 24
1.0
 15
20.0
 25
20.0
 16
0.0
 26
0.0
 36
1.0
 17
0.0
 27
0.0
 37
0.0
 40
364.4365778625215
 41
2.027568922305764
 42
50.0
 43
0.0
 44
0.0
 50
0.0
 51
0.0
 71
    16
 72
  2000
 73
     1
 74
     0
 75
     0
 76
     0
 77
     0
 78
     1
281
     0
 65
     1
110
0.0
120
0.0
130
0.0
111
1.0
121
0.0
131
0.0
112
0.0
122
1.0
132
0.0
 79
     0
146
0.0
  0
ENDTAB
  0
TABLE
  2
LTYPE
  5
5
330
0
100
AcDbSymbolTable
 70
     5
  0
LTYPE
  5
12
330
5
100
AcDbSymbolTableRecord
100
AcDbLinetypeTableRecord
  2
BYBLOCK
 70
     0
  3

 72
    65
 73
     0
 40
0.0
  0
LTYPE
  5
13
330
5
100
AcDbSymbolTableRecord
100
AcDbLinetypeTableRecord
  2
BYLAYER
 70
     0
  3

 72
    65
 73
     0
 40
0.0
  0
LTYPE
  5
14
330
5
100
AcDbSymbolTableRecord
100
AcDbLinetypeTableRecord
  2
CONTINUOUS
 70
     0
  3
Solid line
 72
    65
 73
     0
 40
0.0
  0
LTYPE
  5
3D
330
5
100
AcDbSymbolTableRecord
100
AcDbLinetypeTableRecord
  2
PHANTOM
 70
     0
  3
_____ _ _ _____ _ _ _____ _ _ _____ _ _ ____
 72
    65
 73
     6
 40
2.5
 49
1.25
 74
     0
 49
-0.25
 74
     0
 49
0.25
 74
     0
 49
-0.25
 74
     0
 49
0.25
 74
     0
 49
-0.25
 74
     0
  0
LTYPE
  5
40D2
330
5
100
AcDbSymbolTableRecord
100
AcDbLinetypeTableRecord
  2
CENTER
 70
     0
  3
____ _ ____ _ ____ _ ____ _ ____ _ ____ _ ____ 
 72
    65
 73
     4
 40
2.0
 49
1.25
 74
     0
 49
-0.25
 74
     0
 49
0.25
 74
     0
 49
-0.25
 74
     0
  0
LTYPE
  5
A244
330
5
100
AcDbSymbolTableRecord
100
AcDbLinetypeTableRecord
  2
HIDDEN
 70
     0
  3
_ _ _ _ _ _ _ _ _ _ _ _ _ _ _ _ _ _ _ _ _ _ _
 72
    65
 73
     2
 40
0.375
 49
0.25
 74
     0
 49
-0.125
 74
     0
  0
ENDTAB
  0
TABLE
  2
LAYER
  5
2
102
{ACAD_XDICTIONARY
360
6349C
102
}
330
0
100
AcDbSymbolTable
 70
    12
  0
LAYER
  5
F
102
{ACAD_XDICTIONARY
360
644AE
102
}
330
2
100
AcDbSymbolTableRecord
100
AcDbLayerTableRecord
  2
0
 70
     0
 62
     7
  6
CONTINUOUS
370
    -3
390
40CA
  0
LAYER
  5
4D
102
{ACAD_XDICTIONARY
360
644B8
102
}
330
2
100
AcDbSymbolTableRecord
100
AcDbLayerTableRecord
  2
姿図
 70
     0
 62
     8
  6
CONTINUOUS
370
    -3
390
40CA
  0
LAYER
  5
40D4
102
{ACAD_XDICTIONARY
360
644BC
102
}
330
2
100
AcDbSymbolTableRecord
100
AcDbLayerTableRecord
  2
文字
 70
     0
 62
     7
  6
CONTINUOUS
370
    -3
390
40CA
  0
LAYER
  5
66593
102
{ACAD_XDICTIONARY
360
66594
102
}
330
2
100
AcDbSymbolTableRecord
100
AcDbLayerTableRecord
  2
C-SUNPO
 70
     0
 62
     7
  6
CONTINUOUS
370
    -3
390
40CA
  0
ENDTAB
  0
TABLE
  2
STYLE
  5
3
330
0
100
AcDbSymbolTable
 70
     1
  0
STYLE
  5
10
330
3
100
AcDbSymbolTableRecord
100
AcDbTextStyleTableRecord
  2
STANDARD
 70
     0
 40
0.0
 41
1.0
 50
0.0
 71
     0
 42
6.0
  3
MONOTXT
  4
BIGFONT
  0
ENDTAB
  0
TABLE
  2
VIEW
  5
6
330
0
100
AcDbSymbolTable
 70
     1
  0
VIEW
  5
41
330
6
100
AcDbSymbolTableRecord
100
AcDbViewTableRecord
  2
CUT1
 70
     0
 40
612.7795527156796
 10
420.0000000000169
 20
306.3897763578398
 41
840.0000000000338
 11
0.0
 21
0.0
 31
1.0
 12
0.0
 22
0.0
 32
0.0
 42
50.0
 43
0.0
 44
0.0
 50
0.0
 71
     0
281
     0
 72
     0
  0
ENDTAB
  0
TABLE
  2
UCS
  5
7
330
0
100
AcDbSymbolTable
 70
     0
  0
ENDTAB
  0
TABLE
  2
APPID
  5
9
330
0
100
AcDbSymbolTable
 70
     6
  0
APPID
  5
11
330
9
100
AcDbSymbolTableRecord
100
AcDbRegAppTableRecord
  2
ACAD
 70
     0
  0
APPID
  5
635DD
330
9
100
AcDbSymbolTableRecord
100
AcDbRegAppTableRecord
  2
ACAD_MLEADERVER
 70
     0
  0
APPID
  5
640DB
330
9
100
AcDbSymbolTableRecord
100
AcDbRegAppTableRecord
  2
ACAD_EXEMPT_FROM_CAD_STANDARDS
 70
     0
  0
APPID
  5
665E2
330
9
100
AcDbSymbolTableRecord
100
AcDbRegAppTableRecord
  2
ACAD_PSEXT
 70
     0
  0
APPID
  5
69E8E
330
9
100
AcDbSymbolTableRecord
100
AcDbRegAppTableRecord
  2
ACAD_DSTYLE_DIMJAG
 70
     0
  0
APPID
  5
69E8F
330
9
100
AcDbSymbolTableRecord
100
AcDbRegAppTableRecord
  2
ACAD_DSTYLE_DIMTALN
 70
     0
  0
ENDTAB
  0
TABLE
  2
DIMSTYLE
  5
A
330
0
100
AcDbSymbolTable
 70
     5
100
AcDbDimStyleTable
  0
DIMSTYLE
105
1B3A
330
A
100
AcDbSymbolTableRecord
100
AcDbDimStyleTableRecord
  2
STANDARD
 70
     0
 41
10.0
 42
3.0
 43
7.149999999999999
 44
2.0
 73
     0
 74
     0
 77
     3
 78
     8
 79
     2
140
18.0
141
0.0
147
4.0
176
     8
177
     8
178
     0
179
     2
271
     2
272
     2
288
     1
340
10
341
49C3
342
49C3
  0
DIMSTYLE
105
A246
330
A
100
AcDbSymbolTableRecord
100
AcDbDimStyleTableRecord
  2
STANDERD
 70
     0
 40
0.0
 41
4.0
 42
1.5
 43
3.75
 44
1.25
 73
     0
 74
     0
 77
     3
 78
     8
140
5.0
141
0.0
147
2.5
171
     0
173
     1
178
     0
288
     1
340
10
341
49C3
343
49C3
344
49C3
  0
DIMSTYLE
105
66597
330
A
100
AcDbSymbolTableRecord
100
AcDbDimStyleTableRecord
  2
STANDARD-5
 70
     0
 41
7.5
 42
7.5
 43
1.9
 44
5.0
 73
     0
 74
     0
 77
     1
 78
     8
 79
     2
140
8.0
141
0.0
147
3.0
171
     0
173
     1
176
     8
177
     8
271
     2
178
   256
179
     2
271
     2
272
     2
274
     0
340
10
341
49C3
343
49C3
344
49C3
  0
ENDTAB
  0
TABLE
  2
BLOCK_RECORD
  5
1
330
0
100
AcDbSymbolTable
 70
   147
  0
BLOCK_RECORD
  5
18
102
{ACAD_XDICTIONARY
360
9FD5
102
}
330
1
100
AcDbSymbolTableRecord
100
AcDbBlockTableRecord
  2
*MODEL_SPACE
340
40CD
  0
BLOCK_RECORD
  5
15
330
1
100
AcDbSymbolTableRecord
100
AcDbBlockTableRecord
  2
*PAPER_SPACE
340
40CE
  0
BLOCK_RECORD
  5
49C3
330
1
100
AcDbSymbolTableRecord
100
AcDbBlockTableRecord
  2
_OPEN
340
0
102
{BLKREFS
331
5E709
331
5E70A
331
5E712
331
5E713
331
5E724
331
5E725
331
5E73F
331
5E740
331
5E748
331
5E749
331
5E751
331
5E752
331
5E75A
331
5E75B
331
5E76E
331
5E76F
331
5E777
331
5E778
331
5E780
331
5E781
331
6195D
331
6195E
331
61968
331
61969
331
61971
331
61972
331
61986
331
61987
331
61CE5
331
61CE6
331
61D25
331
61D26
331
627E2
331
627E3
331
627ED
331
627EE
331
627F6
331
627F7
331
62801
331
62802
331
6280A
331
6280B
331
62813
331
62814
331
6281C
331
6281D
331
62825
331
62826
331
62830
331
62831
331
62839
331
6283A
331
62842
331
62843
331
6284B
331
6284C
331
62854
331
62855
331
6285D
331
6285E
331
62866
331
62867
331
6286F
331
62870
331
633E1
331
633E2
331
633EE
331
633EF
331
633F7
331
633F8
331
63400
331
63401
331
63409
331
6340A
331
63412
331
63413
331
6341B
331
6341C
331
63424
331
63425
331
6342D
331
6342E
331
63436
331
63437
331
6343F
331
63440
331
63448
331
63449
331
63451
331
63452
331
6345A
331
6345B
331
63463
331
63464
331
6346E
331
6346F
331
64045
331
64046
331
6404E
331
6404F
331
64057
331
64058
331
64060
331
64061
331
64069
331
6406A
331
64072
331
64073
331
6407B
331
6407C
331
64086
331
64087
331
6408F
331
64090
331
64098
331
64099
331
640A1
331
640A2
331
640AA
331
640AB
331
640D0
331
640D1
331
64494
331
64495
331
6449F
331
644A0
331
644A8
331
644A9
331
664F8
331
664F9
331
66501
331
66502
331
6650A
331
6650B
331
66513
331
66514
331
6651E
331
6651F
331
66527
331
66528
331
66530
331
66531
331
6653D
331
6653E
331
66546
331
66547
331
6654F
331
66550
331
66558
331
66559
331
66561
331
66562
331
6656A
331
6656B
331
66573
331
66574
331
6657C
331
6657D
331
66585
331
66586
331
67AD6
331
67AD7
331
67ADF
331
67AE0
331
67AE8
331
67AE9
331
67AF1
331
67AF2
331
67AFA
331
67AFB
331
67B03
331
67B04
331
67B0C
331
67B0D
331
67B15
331
67B16
331
67B1E
331
67B1F
331
67B27
331
67B28
331
67B30
331
67B31
331
67B39
331
67B3A
331
67B42
331
67B43
331
67B4D
331
67B4E
331
67B58
331
67B59
331
67B61
331
67B62
331
6868F
331
68690
331
6869A
331
6869B
331
686A5
331
686A6
331
686AE
331
686AF
331
686B7
331
686B8
331
686C0
331
686C1
331
686C9
331
686CA
331
686D2
331
686D3
331
686DD
331
686DE
331
686E6
331
686E7
331
686EF
331
686F0
331
686F8
331
686F9
331
68701
331
68702
331
6870A
331
6870B
331
68713
331
68714
331
6871C
331
6871D
331
691FF
331
69200
331
69208
331
69209
331
69211
331
69212
331
6921A
331
6921B
331
69223
331
69224
331
6922C
331
6922D
331
69235
331
69236
331
6923E
331
6923F
331
69247
331
69248
331
69250
331
69251
331
69259
331
6925A
331
69262
331
69263
331
6926B
331
6926C
331
69276
331
69277
331
69281
331
69282
331
6928A
331
6928B
331
69DED
331
69DEE
331
69DF6
331
69DF7
331
69DFF
331
69E00
331
69E08
331
69E09
331
69E11
331
69E12
331
69E1C
331
69E1D
331
69E27
331
69E28
331
69E30
331
69E31
331
69E3B
331
69E3C
331
69E44
331
69E45
331
69E4D
331
69E4E
331
69E56
331
69E57
331
69E5F
331
69E60
331
69E68
331
69E69
331
69E71
331
69E72
331
69E7A
331
69E7B
102
}
  0
ENDTAB
  0
ENDSEC
  0
SECTION
  2
BLOCKS
  0
BLOCK
  5
52
330
18
100
AcDbEntity
  8
0
100
AcDbBlockBegin
  2
*MODEL_SPACE
 70
     0
 10
0.0
 20
0.0
 30
0.0
  3
*MODEL_SPACE
  1
*MODEL_SPACE
  0
ENDBLK
  5
53
330
18
100
AcDbEntity
  8
0
100
AcDbBlockEnd
  0
BLOCK
  5
50
330
15
100
AcDbEntity
 67
     1
  8
0
100
AcDbBlockBegin
  2
*PAPER_SPACE
 70
     0
 10
0.0
 20
0.0
 30
0.0
  3
*PAPER_SPACE
  1
*PAPER_SPACE
  0
ENDBLK
  5
51
330
15
100
AcDbEntity
 67
     1
  8
0
100
AcDbBlockEnd
  0
BLOCK
  5
49C7
330
49C3
100
AcDbEntity
  8
0
100
AcDbBlockBegin
  2
_OPEN
 70
     0
 10
0.0
 20
0.0
 30
0.0
  3
_OPEN
  1
_OPEN
  0
LINE
  5
49C4
330
49C3
100
AcDbEntity
  8
0
  6
ByBlock
 62
     0
100
AcDbLine
 10
-1.0
 20
0.1666666666666667
 30
0.0
 11
0.0
 21
0.0
 31
0.0
  0
LINE
  5
49C5
330
49C3
100
AcDbEntity
  8
0
  6
ByBlock
 62
     0
100
AcDbLine
 10
0.0
 20
0.0
 30
0.0
 11
-1.0
 21
-0.1666666666666667
 31
0.0
  0
LINE
  5
49C6
330
49C3
100
AcDbEntity
  8
0
  6
ByBlock
 62
     0
100
AcDbLine
 10
0.0
 20
0.0
 30
0.0
 11
-1.0
 21
0.0
 31
0.0
  0
ENDBLK
  5
49C8
330
49C3
100
AcDbEntity
  8
0
100
AcDbBlockEnd
  0
ENDSEC
  0
SECTION
  2
ENTITIES
  0
TEXT
  5
69374
330
18
100
AcDbEntity
  8
文字
100
AcDbText
 10
9623.964636879147
 20
-18043.93393196592
 30
0.0
 40
29.997
  1
SX-LB102S/600
100
AcDbText
  0
LINE
  5
699F2
330
18
100
AcDbEntity
  8
姿図
100
AcDbLine
 10
9862.687705615566
 20
-17829.07113444273
 30
0.0
 11
9752.037446803519
 21
-17735.02745247903
 31
0.0
  0
LINE
  5
699F3
330
18
100
AcDbEntity
  8
姿図
100
AcDbLine
 10
9862.687705615566
 20
-17932.1064050562
 30
0.0
 11
9731.000036640342
 21
-17820.29705251336
 31
0.0
  0
LINE
  5
699F4
330
18
100
AcDbEntity
  8
姿図
100
AcDbLine
 10
9918.27572511083
 20
-17925.2742251924
 30
0.0
 11
9787.971360014466
 21
-17814.63936614822
 31
0.0
  0
LINE
  5
699F5
330
18
100
AcDbEntity
  8
姿図
100
AcDbLine
 10
9902.516144282214
 20
-17930.8341299696
 30
0.0
 11
9772.211779185853
 21
-17820.19927092543
 31
0.0
  0
LINE
  5
699F6
330
18
100
AcDbEntity
  8
姿図
100
AcDbLine
 10
9918.275725110829
 20
-17928.03434276137
 30
0.0
 11
9787.971360014464
 21
-17817.3994837172
 31
0.0
  0
LINE
  5
699F7
330
18
100
AcDbEntity
  8
姿図
100
AcDbLine
 10
9896.104986161827
 20
-17686.6431693556
 30
0.0
 11
9736.519681510388
 21
-17718.99448779764
 31
0.0
  0
LINE
  5
699F8
330
18
100
AcDbEntity
  8
姿図
100
AcDbLine
 10
9874.104986161825
 20
-17710.86477113755
 30
0.0
 11
9751.519681510388
 21
-17734.64281026264
 31
0.0
  0
LINE
  5
699F9
330
18
100
AcDbEntity
  8
姿図
100
AcDbLine
 10
9874.187071060122
 20
-17711.32681467633
 30
0.0
 11
9752.037446803519
 21
-17735.02745247903
 31
0.0
  0
LINE
  5
699FA
330
18
100
AcDbEntity
  8
姿図
100
AcDbLine
 10
9774.971896754827
 20
-17809.72506146821
 30
0.0
 11
9736.519681510388
 21
-17816.55633582382
 31
0.0
  0
LINE
  5
699FB
330
18
100
AcDbEntity
  8
姿図
100
AcDbLine
 10
9772.211779185853
 20
-17812.97553102985
 30
0.0
 11
9731.000036640342
 21
-17820.29705251336
 31
0.0
  0
LINE
  5
699FC
330
18
100
AcDbEntity
  8
姿図
100
AcDbLine
 10
9732.102003244056
 20
-17812.37397250723
 30
0.0
 11
9732.102003244056
 21
-17817.34116374752
 31
0.0
  0
LINE
  5
699FD
330
18
100
AcDbEntity
  8
姿図
100
AcDbLine
 10
9736.519681510388
 20
-17816.55633582382
 30
0.0
 11
9736.519681510388
 21
-17718.99448779764
 31
0.0
  0
LINE
  5
699FE
330
18
100
AcDbEntity
  8
姿図
100
AcDbLine
 10
9736.519681510388
 20
-17816.55633582382
 30
0.0
 11
9731.000036640342
 21
-17817.53693494439
 31
0.0
  0
LINE
  5
699FF
330
18
100
AcDbEntity
  8
姿図
100
AcDbLine
 10
9751.519681510388
 20
-17811.86017631435
 30
0.0
 11
9751.519681510388
 21
-17734.64281026264
 31
0.0
  0
LINE
  5
69A00
330
18
100
AcDbEntity
  8
姿図
100
AcDbLine
 10
9752.037446803519
 20
-17811.49763315308
 30
0.0
 11
9752.037446803519
 21
-17735.02745247903
 31
0.0
  0
LINE
  5
69A01
330
18
100
AcDbEntity
  8
姿図
100
AcDbLine
 10
9731.000036640342
 20
-17771.6111761402
 30
0.0
 11
9732.453812986863
 21
-17772.56586142621
 31
0.0
  0
LINE
  5
69A02
330
18
100
AcDbEntity
  8
姿図
100
AcDbLine
 10
9731.000036640342
 20
-17771.6111761402
 30
0.0
 11
9731.000036640342
 21
-17769.58130834775
 31
0.0
  0
LINE
  5
69A03
330
18
100
AcDbEntity
  8
姿図
100
AcDbLine
 10
9736.519681510388
 20
-17770.63057701963
 30
0.0
 11
9731.000036640342
 21
-17771.6111761402
 31
0.0
  0
LINE
  5
69A04
330
18
100
AcDbEntity
  8
姿図
100
AcDbLine
 10
9736.519681510388
 20
-17771.84353468375
 30
0.0
 11
9732.453812986863
 21
-17772.56586142621
 31
0.0
  0
LINE
  5
69A05
330
18
100
AcDbEntity
  8
姿図
100
AcDbLine
 10
9736.519681510388
 20
-17768.60070922718
 30
0.0
 11
9731.000036640342
 21
-17769.58130834775
 31
0.0
  0
LINE
  5
69A06
330
18
100
AcDbEntity
  8
姿図
100
AcDbLine
 10
9752.037446803519
 20
-17811.49763315308
 30
0.0
 11
9751.519681510388
 21
-17811.86017631435
 31
0.0
  0
ELLIPSE
  5
69A07
330
18
100
AcDbEntity
  8
姿図
100
AcDbEllipse
 10
9743.73699462668
 20
-17804.24708956155
 30
0.0
 11
0.0
 21
-3.508473521634005
 31
0.0
210
0.0
220
0.0
230
1.0
 40
0.6840581766403772
 41
0.0
 42
6.283185307179586
  0
ELLIPSE
  5
69A08
330
18
100
AcDbEntity
  8
姿図
100
AcDbEllipse
 10
9744.136994626682
 20
-17804.24708956155
 30
0.0
 11
1.557139847723761E-15
 21
3.508473521634053
 31
0.0
210
0.0
220
0.0
230
1.0
 40
0.6840581766403936
 41
0.0834300866107265
 42
3.058162566979068
  0
LINE
  5
69A09
330
18
100
AcDbEntity
  8
姿図
100
AcDbLine
 10
9751.519681510388
 20
-17811.86017631435
 30
0.0
 11
9736.519681510388
 21
-17814.52501928069
 31
0.0
  0
LINE
  5
69A0A
330
18
100
AcDbEntity
  8
姿図
100
AcDbLine
 10
9731.000036640342
 20
-17788.61131890197
 30
0.0
 11
9731.000036640342
 21
-17786.9366779732
 31
0.0
  0
LINE
  5
69A0B
330
18
100
AcDbEntity
  8
姿図
100
AcDbLine
 10
9732.818802871507
 20
-17790.38842144936
 30
0.0
 11
9731.000036640342
 21
-17791.80836067508
 31
0.0
  0
LINE
  5
69A0C
330
18
100
AcDbEntity
  8
姿図
100
AcDbLine
 10
9731.000036640342
 20
-17788.61131890197
 30
0.0
 11
9732.818802871507
 21
-17790.38842144936
 31
0.0
  0
LINE
  5
69A0D
330
18
100
AcDbEntity
  8
姿図
100
AcDbLine
 10
9732.818802871507
 20
-17785.51673874748
 30
0.0
 11
9731.000036640342
 21
-17786.9366779732
 31
0.0
  0
LINE
  5
69A0E
330
18
100
AcDbEntity
  8
姿図
100
AcDbLine
 10
9731.000036640342
 20
-17779.52766053076
 30
0.0
 11
9732.453812986863
 21
-17780.48234581677
 31
0.0
  0
LINE
  5
69A0F
330
18
100
AcDbEntity
  8
姿図
100
AcDbLine
 10
9731.000036640342
 20
-17783.73963620009
 30
0.0
 11
9732.818802871507
 21
-17785.51673874748
 31
0.0
  0
LINE
  5
69A10
330
18
100
AcDbEntity
  8
姿図
100
AcDbLine
 10
9732.453812986863
 20
-17780.48234581677
 30
0.0
 11
9732.453812986863
 21
-17781.80672289321
 31
0.0
  0
LINE
  5
69A11
330
18
100
AcDbEntity
  8
姿図
100
AcDbLine
 10
9731.000036640342
 20
-17783.73963620009
 30
0.0
 11
9731.000036640342
 21
-17782.06499527132
 31
0.0
  0
LINE
  5
69A12
330
18
100
AcDbEntity
  8
姿図
100
AcDbLine
 10
9731.000036640342
 20
-17779.52766053076
 30
0.0
 11
9731.000036640342
 21
-17777.49779273831
 31
0.0
  0
LINE
  5
69A13
330
18
100
AcDbEntity
  8
姿図
100
AcDbLine
 10
9732.453812986863
 20
-17809.05273499551
 30
0.0
 11
9732.453812986863
 21
-17809.61591164978
 31
0.0
  0
LINE
  5
69A14
330
18
100
AcDbEntity
  8
姿図
100
AcDbLine
 10
9731.000036640342
 20
-17808.0980497095
 30
0.0
 11
9732.453812986863
 21
-17809.05273499551
 31
0.0
  0
LINE
  5
69A15
330
18
100
AcDbEntity
  8
姿図
100
AcDbLine
 10
9731.000036640342
 20
-17811.65031834628
 30
0.0
 11
9732.102003244056
 21
-17812.37397250723
 31
0.0
  0
LINE
  5
69A16
330
18
100
AcDbEntity
  8
姿図
100
AcDbLine
 10
9731.000036640342
 20
-17809.87418402789
 30
0.0
 11
9731.000036640342
 21
-17811.65031834628
 31
0.0
  0
LINE
  5
69A17
330
18
100
AcDbEntity
  8
姿図
100
AcDbLine
 10
9731.000036640342
 20
-17808.0980497095
 30
0.0
 11
9731.000036640342
 21
-17806.42340878073
 31
0.0
  0
LINE
  5
69A18
330
18
100
AcDbEntity
  8
姿図
100
AcDbLine
 10
9731.000036640342
 20
-17803.22636700762
 30
0.0
 11
9731.000036640342
 21
-17801.55172607884
 31
0.0
  0
LINE
  5
69A19
330
18
100
AcDbEntity
  8
姿図
100
AcDbLine
 10
9731.000036640342
 20
-17798.35468430573
 30
0.0
 11
9731.000036640342
 21
-17796.68004337696
 31
0.0
  0
LINE
  5
69A1A
330
18
100
AcDbEntity
  8
姿図
100
AcDbLine
 10
9732.818802871507
 20
-17805.003469555
 30
0.0
 11
9731.000036640342
 21
-17806.42340878073
 31
0.0
  0
LINE
  5
69A1B
330
18
100
AcDbEntity
  8
姿図
100
AcDbLine
 10
9731.000036640342
 20
-17803.22636700762
 30
0.0
 11
9732.818802871507
 21
-17805.003469555
 31
0.0
  0
LINE
  5
69A1C
330
18
100
AcDbEntity
  8
姿図
100
AcDbLine
 10
9732.818802871507
 20
-17800.13178685312
 30
0.0
 11
9731.000036640342
 21
-17801.55172607884
 31
0.0
  0
LINE
  5
69A1D
330
18
100
AcDbEntity
  8
姿図
100
AcDbLine
 10
9732.818802871507
 20
-17795.26010415124
 30
0.0
 11
9731.000036640342
 21
-17796.68004337696
 31
0.0
  0
LINE
  5
69A1E
330
18
100
AcDbEntity
  8
姿図
100
AcDbLine
 10
9731.000036640342
 20
-17793.48300160385
 30
0.0
 11
9732.818802871507
 21
-17795.26010415124
 31
0.0
  0
LINE
  5
69A1F
330
18
100
AcDbEntity
  8
姿図
100
AcDbLine
 10
9731.000036640342
 20
-17798.35468430573
 30
0.0
 11
9732.818802871507
 21
-17800.13178685312
 31
0.0
  0
LINE
  5
69A20
330
18
100
AcDbEntity
  8
姿図
100
AcDbLine
 10
9731.000036640342
 20
-17793.48300160385
 30
0.0
 11
9731.000036640342
 21
-17791.80836067508
 31
0.0
  0
LINE
  5
69A21
330
18
100
AcDbEntity
  8
姿図
100
AcDbLine
 10
9736.519681510388
 20
-17787.6307197814
 30
0.0
 11
9731.000036640342
 21
-17788.61131890197
 31
0.0
  0
LINE
  5
69A22
330
18
100
AcDbEntity
  8
姿図
100
AcDbLine
 10
9736.519681510388
 20
-17789.73093742202
 30
0.0
 11
9732.818802871507
 21
-17790.38842144936
 31
0.0
  0
LINE
  5
69A23
330
18
100
AcDbEntity
  8
姿図
100
AcDbLine
 10
9736.519681510388
 20
-17790.82776155451
 30
0.0
 11
9731.000036640342
 21
-17791.80836067508
 31
0.0
  0
LINE
  5
69A24
330
18
100
AcDbEntity
  8
姿図
100
AcDbLine
 10
9736.519681510388
 20
-17776.51719361774
 30
0.0
 11
9731.000036640342
 21
-17777.49779273831
 31
0.0
  0
LINE
  5
69A25
330
18
100
AcDbEntity
  8
姿図
100
AcDbLine
 10
9736.519681510388
 20
-17778.54706141019
 30
0.0
 11
9731.000036640342
 21
-17779.52766053076
 31
0.0
  0
LINE
  5
69A26
330
18
100
AcDbEntity
  8
姿図
100
AcDbLine
 10
9736.519681510388
 20
-17781.08439615075
 30
0.0
 11
9731.000036640342
 21
-17782.06499527132
 31
0.0
  0
LINE
  5
69A27
330
18
100
AcDbEntity
  8
姿図
100
AcDbLine
 10
9736.519681510388
 20
-17779.76001907431
 30
0.0
 11
9732.453812986863
 21
-17780.48234581677
 31
0.0
  0
LINE
  5
69A28
330
18
100
AcDbEntity
  8
姿図
100
AcDbLine
 10
9736.519681510388
 20
-17784.85925472014
 30
0.0
 11
9732.818802871507
 21
-17785.51673874748
 31
0.0
  0
LINE
  5
69A29
330
18
100
AcDbEntity
  8
姿図
100
AcDbLine
 10
9736.519681510388
 20
-17782.75903707952
 30
0.0
 11
9731.000036640342
 21
-17783.73963620009
 31
0.0
  0
LINE
  5
69A2A
330
18
100
AcDbEntity
  8
姿図
100
AcDbLine
 10
9736.519681510388
 20
-17785.95607885263
 30
0.0
 11
9731.000036640342
 21
-17786.9366779732
 31
0.0
  0
LINE
  5
69A2B
330
18
100
AcDbEntity
  8
姿図
100
AcDbLine
 10
9736.519681510388
 20
-17794.6026201239
 30
0.0
 11
9732.818802871507
 21
-17795.26010415124
 31
0.0
  0
LINE
  5
69A2C
330
18
100
AcDbEntity
  8
姿図
100
AcDbLine
 10
9736.519681510388
 20
-17795.69944425639
 30
0.0
 11
9731.000036640342
 21
-17796.68004337696
 31
0.0
  0
LINE
  5
69A2D
330
18
100
AcDbEntity
  8
姿図
100
AcDbLine
 10
9736.519681510388
 20
-17797.37408518516
 30
0.0
 11
9731.000036640342
 21
-17798.35468430573
 31
0.0
  0
LINE
  5
69A2E
330
18
100
AcDbEntity
  8
姿図
100
AcDbLine
 10
9736.519681510388
 20
-17799.47430282578
 30
0.0
 11
9732.818802871507
 21
-17800.13178685312
 31
0.0
  0
LINE
  5
69A2F
330
18
100
AcDbEntity
  8
姿図
100
AcDbLine
 10
9736.519681510388
 20
-17800.57112695827
 30
0.0
 11
9731.000036640342
 21
-17801.55172607884
 31
0.0
  0
LINE
  5
69A30
330
18
100
AcDbEntity
  8
姿図
100
AcDbLine
 10
9736.519681510388
 20
-17802.24576788704
 30
0.0
 11
9731.000036640342
 21
-17803.22636700762
 31
0.0
  0
LINE
  5
69A31
330
18
100
AcDbEntity
  8
姿図
100
AcDbLine
 10
9736.519681510388
 20
-17804.34598552766
 30
0.0
 11
9732.818802871507
 21
-17805.003469555
 31
0.0
  0
LINE
  5
69A32
330
18
100
AcDbEntity
  8
姿図
100
AcDbLine
 10
9736.519681510388
 20
-17805.44280966015
 30
0.0
 11
9731.000036640342
 21
-17806.42340878073
 31
0.0
  0
LINE
  5
69A33
330
18
100
AcDbEntity
  8
姿図
100
AcDbLine
 10
9736.519681510388
 20
-17807.11745058892
 30
0.0
 11
9731.000036640342
 21
-17808.0980497095
 31
0.0
  0
LINE
  5
69A34
330
18
100
AcDbEntity
  8
姿図
100
AcDbLine
 10
9736.519681510388
 20
-17808.89358490732
 30
0.0
 11
9731.000036640342
 21
-17809.87418402789
 31
0.0
  0
LINE
  5
69A35
330
18
100
AcDbEntity
  8
姿図
100
AcDbLine
 10
9736.519681510388
 20
-17810.66971922571
 30
0.0
 11
9731.000036640342
 21
-17811.65031834628
 31
0.0
  0
LINE
  5
69A36
330
18
100
AcDbEntity
  8
姿図
100
AcDbLine
 10
9736.519681510388
 20
-17811.58914458353
 30
0.0
 11
9732.102003244056
 21
-17812.37397250723
 31
0.0
  0
LINE
  5
69A37
330
18
100
AcDbEntity
  8
姿図
100
AcDbLine
 10
9736.519681510388
 20
-17810.66971922571
 30
0.0
 11
9731.000036640342
 21
-17811.65031834628
 31
0.0
  0
LINE
  5
69A38
330
18
100
AcDbEntity
  8
姿図
100
AcDbLine
 10
9736.519681510388
 20
-17792.50240248328
 30
0.0
 11
9731.000036640342
 21
-17793.48300160385
 31
0.0
  0
LINE
  5
69A39
330
18
100
AcDbEntity
  8
姿図
100
AcDbLine
 10
9733.169122363335
 20
-17772.43878228217
 30
0.0
 11
9733.169122363335
 21
-17777.11244121616
 31
0.0
  0
ELLIPSE
  5
69A3A
330
18
100
AcDbEntity
  8
姿図
100
AcDbEllipse
 10
9743.73699462668
 20
-17773.03534712845
 30
0.0
 11
0.0
 21
-3.508473521634005
 31
0.0
210
0.0
220
0.0
230
1.0
 40
0.6840581766403772
 41
0.0
 42
6.283185307179586
  0
ELLIPSE
  5
69A3B
330
18
100
AcDbEntity
  8
姿図
100
AcDbEllipse
 10
9744.136994626682
 20
-17773.03534712845
 30
0.0
 11
1.557139847723761E-15
 21
3.508473521634053
 31
0.0
210
0.0
220
0.0
230
1.0
 40
0.6840581766403936
 41
0.0834300866107265
 42
3.058162566979068
  0
LINE
  5
69A3C
330
18
100
AcDbEntity
  8
姿図
100
AcDbLine
 10
9731.000036640342
 20
-17820.29705251336
 30
0.0
 11
9731.000036640342
 21
-17817.53693494439
 31
0.0
  0
LINE
  5
69A3D
330
18
100
AcDbEntity
  8
姿図
100
AcDbLine
 10
9787.971360014466
 20
-17814.63936614822
 30
0.0
 11
9787.971360014464
 21
-17817.3994837172
 31
0.0
  0
ARC
  5
69A3E
330
18
100
AcDbEntity
  8
姿図
100
AcDbCircle
 10
9775.471896754829
 20
-17816.35214412913
 30
0.0
 40
0.5
100
AcDbArc
 50
180.0
 51
280.0738452396512
  0
LINE
  5
69A3F
330
18
100
AcDbEntity
  8
姿図
100
AcDbLine
 10
9783.550751833895
 20
-17815.42471458935
 30
0.0
 11
9775.55935540245
 21
-17816.84443569412
 31
0.0
  0
ARC
  5
69A40
330
18
100
AcDbEntity
  8
姿図
100
AcDbCircle
 10
9782.96329318627
 20
-17814.78275347492
 30
0.0
 40
1.0
100
AcDbArc
 50
0.0
 51
68.11232009493915
  0
ARC
  5
69A41
330
18
100
AcDbEntity
  8
姿図
100
AcDbCircle
 10
9783.46329318627
 20
-17814.93242302437
 30
0.0
 40
0.5
100
AcDbArc
 50
280.0738452396512
 51
0.0
  0
LINE
  5
69A42
330
18
100
AcDbEntity
  8
姿図
100
AcDbLine
 10
9783.96329318627
 20
-17814.78275347492
 30
0.0
 11
9783.96329318627
 21
-17814.93242302437
 31
0.0
  0
LINE
  5
69A43
330
18
100
AcDbEntity
  8
姿図
100
AcDbLine
 10
9774.971896754829
 20
-17812.48517903718
 30
0.0
 11
9779.698596854236
 21
-17816.1090737962
 31
0.0
  0
LINE
  5
69A44
330
18
100
AcDbEntity
  8
姿図
100
AcDbLine
 10
9777.204529491544
 20
-17811.39150033188
 30
0.0
 11
9777.577317756375
 21
-17810.46358389728
 31
0.0
  0
LINE
  5
69A45
330
18
100
AcDbEntity
  8
姿図
100
AcDbLine
 10
9774.971896754827
 20
-17809.72506146821
 30
0.0
 11
9774.971896754829
 21
-17816.35214412913
 31
0.0
  0
LINE
  5
69A46
330
18
100
AcDbEntity
  8
姿図
100
AcDbLine
 10
9777.204529491544
 20
-17811.39150033188
 30
0.0
 11
9783.336081451102
 21
-17813.85483704032
 31
0.0
  0
LINE
  5
69A47
330
18
100
AcDbEntity
  8
姿図
100
AcDbLine
 10
9777.577317756375
 20
-17810.46358389728
 30
0.0
 11
9787.971360014464
 21
-17814.63936614822
 31
0.0
  0
LINE
  5
69A48
330
18
100
AcDbEntity
  8
姿図
100
AcDbLine
 10
9772.211779185853
 20
-17812.97553102985
 30
0.0
 11
9772.211779185853
 21
-17820.19927092543
 31
0.0
  0
LINE
  5
69A49
330
18
100
AcDbEntity
  8
姿図
100
AcDbLine
 10
9787.971360014464
 20
-17817.3994837172
 30
0.0
 11
9772.211779185853
 21
-17820.19927092543
 31
0.0
  0
LINE
  5
69A4A
330
18
100
AcDbEntity
  8
姿図
100
AcDbLine
 10
10026.53177786224
 20
-17881.97510393508
 30
0.0
 11
9896.104986161823
 21
-17771.12298438374
 31
0.0
  0
LINE
  5
69A4B
330
18
100
AcDbEntity
  8
姿図
100
AcDbLine
 10
10027.68131556946
 20
-17852.0785234922
 30
0.0
 11
9896.104986161823
 21
-17740.24939078513
 31
0.0
  0
LINE
  5
69A4C
330
18
100
AcDbEntity
  8
姿図
100
AcDbLine
 10
10027.68131556946
 20
-17854.10839128465
 30
0.0
 11
9896.104986161827
 21
-17742.27925857758
 31
0.0
  0
LINE
  5
69A4D
330
18
100
AcDbEntity
  8
姿図
100
AcDbLine
 10
10026.62477202192
 20
-17854.10839128465
 30
0.0
 11
9896.104986161825
 21
-17743.17723429343
 31
0.0
  0
LINE
  5
69A4E
330
18
100
AcDbEntity
  8
姿図
100
AcDbLine
 10
10026.50364559417
 20
-17894.14753349073
 30
0.0
 11
9896.104986161823
 21
-17783.31932406938
 31
0.0
  0
LINE
  5
69A4F
330
18
100
AcDbEntity
  8
姿図
100
AcDbLine
 10
9996.464057492762
 20
-17914.14370092155
 30
0.0
 11
9981.28939236541
 21
-17916.83957423029
 31
0.0
  0
LINE
  5
69A50
330
18
100
AcDbEntity
  8
姿図
100
AcDbLine
 10
9996.464057492762
 20
-17906.91996102595
 30
0.0
 11
9865.274901692268
 21
-17795.53178538565
 31
0.0
  0
LINE
  5
69A51
330
18
100
AcDbEntity
  8
姿図
100
AcDbLine
 10
9996.464057492774
 20
-17914.14370092154
 30
0.0
 11
9865.274901692268
 21
-17802.75552528124
 31
0.0
  0
LINE
  5
69A52
330
18
100
AcDbEntity
  8
姿図
100
AcDbLine
 10
9911.603188931578
 20
-17712.93925155811
 30
0.0
 11
10014.44477079721
 21
-17802.34619593809
 31
0.0
  0
LINE
  5
69A53
330
18
100
AcDbEntity
  8
姿図
100
AcDbLine
 10
9911.603188931578
 20
-17702.44015095226
 30
0.0
 11
10014.44477079721
 21
-17791.84709533225
 31
0.0
  0
LINE
  5
69A54
330
18
100
AcDbEntity
  8
姿図
100
AcDbLine
 10
9911.603188931578
 20
-17705.06492610373
 30
0.0
 11
10014.44477079721
 21
-17794.47187048371
 31
0.0
  0
LINE
  5
69A55
330
18
100
AcDbEntity
  8
姿図
100
AcDbLine
 10
10026.38338780229
 20
-17862.16597392218
 30
0.0
 11
9896.104986161823
 21
-17751.43997380115
 31
0.0
  0
LINE
  5
69A56
330
18
100
AcDbEntity
  8
姿図
100
AcDbLine
 10
10027.68131556947
 20
-17862.0248756752
 30
0.0
 11
9896.104986161825
 21
-17750.19574296814
 31
0.0
  0
LINE
  5
69A57
330
18
100
AcDbEntity
  8
姿図
100
AcDbLine
 10
10027.68131556947
 20
-17866.23685134454
 30
0.0
 11
9896.104986161825
 21
-17754.40771863748
 31
0.0
  0
LINE
  5
69A58
330
18
100
AcDbEntity
  8
姿図
100
AcDbLine
 10
10027.68131556947
 20
-17871.10853404642
 30
0.0
 11
9896.104986161825
 21
-17759.27940133936
 31
0.0
  0
LINE
  5
69A59
330
18
100
AcDbEntity
  8
姿図
100
AcDbLine
 10
10027.68131556947
 20
-17875.9802167483
 30
0.0
 11
9896.104986161825
 21
-17764.15108404124
 31
0.0
  0
LINE
  5
69A5A
330
18
100
AcDbEntity
  8
姿図
100
AcDbLine
 10
10027.68131556947
 20
-17880.85189945019
 30
0.0
 11
9896.104986161825
 21
-17769.02276674312
 31
0.0
  0
LINE
  5
69A5B
330
18
100
AcDbEntity
  8
姿図
100
AcDbLine
 10
10027.68131556947
 20
-17885.72358215207
 30
0.0
 11
9896.104986161825
 21
-17773.894449445
 31
0.0
  0
LINE
  5
69A5C
330
18
100
AcDbEntity
  8
姿図
100
AcDbLine
 10
10027.68131556946
 20
-17890.59526485395
 30
0.0
 11
9896.104986161823
 21
-17778.76613214688
 31
0.0
  0
LINE
  5
69A5D
330
18
100
AcDbEntity
  8
姿図
100
AcDbLine
 10
10027.68131556946
 20
-17859.99500788275
 30
0.0
 11
9896.104986161823
 21
-17748.16587517569
 31
0.0
  0
LINE
  5
69A5E
330
18
100
AcDbEntity
  8
姿図
100
AcDbLine
 10
10027.68131556946
 20
-17864.56221041577
 30
0.0
 11
9896.104986161823
 21
-17752.7330777087
 31
0.0
  0
LINE
  5
69A5F
330
18
100
AcDbEntity
  8
姿図
100
AcDbLine
 10
10027.68131556946
 20
-17869.43389311765
 30
0.0
 11
9896.104986161823
 21
-17757.60476041058
 31
0.0
  0
LINE
  5
69A60
330
18
100
AcDbEntity
  8
姿図
100
AcDbLine
 10
10027.68131556946
 20
-17874.30557581953
 30
0.0
 11
9896.104986161823
 21
-17762.47644311246
 31
0.0
  0
LINE
  5
69A61
330
18
100
AcDbEntity
  8
姿図
100
AcDbLine
 10
10027.68131556946
 20
-17879.17725852141
 30
0.0
 11
9896.104986161823
 21
-17767.34812581434
 31
0.0
  0
LINE
  5
69A62
330
18
100
AcDbEntity
  8
姿図
100
AcDbLine
 10
10027.68131556946
 20
-17884.04894122329
 30
0.0
 11
9896.104986161823
 21
-17772.21980851623
 31
0.0
  0
LINE
  5
69A63
330
18
100
AcDbEntity
  8
姿図
100
AcDbLine
 10
10027.68131556946
 20
-17888.92062392517
 30
0.0
 11
9896.104986161823
 21
-17777.09149121811
 31
0.0
  0
LINE
  5
69A64
330
18
100
AcDbEntity
  8
姿図
100
AcDbLine
 10
10027.68131556946
 20
-17892.37139917234
 30
0.0
 11
9896.104986161823
 21
-17780.54226646527
 31
0.0
  0
LINE
  5
69A65
330
18
100
AcDbEntity
  8
姿図
100
AcDbLine
 10
10027.68131556946
 20
-17900.03415008884
 30
0.0
 11
9896.104986161823
 21
-17788.20501738177
 31
0.0
  0
LINE
  5
69A66
330
18
100
AcDbEntity
  8
姿図
100
AcDbLine
 10
10027.68131556946
 20
-17902.79426765781
 30
0.0
 11
9896.104986161823
 21
-17790.96513495075
 31
0.0
  0
LINE
  5
69A67
330
18
100
AcDbEntity
  8
姿図
100
AcDbLine
 10
9862.687705615566
 20
-17932.1064050562
 30
0.0
 11
9896.86360551524
 21
-17926.03484462514
 31
0.0
  0
LINE
  5
69A68
330
18
100
AcDbEntity
  8
姿図
100
AcDbLine
 10
9918.27572511083
 20
-17925.2742251924
 30
0.0
 11
9918.27572511083
 21
-17928.03434276137
 31
0.0
  0
LINE
  5
69A69
330
18
100
AcDbEntity
  8
姿図
100
AcDbLine
 10
9902.516144282214
 20
-17930.8341299696
 30
0.0
 11
9918.27572511083
 21
-17928.03434276137
 31
0.0
  0
LINE
  5
69A6A
330
18
100
AcDbEntity
  8
姿図
100
AcDbLine
 10
9851.095197277933
 20
-17806.18514280123
 30
0.0
 11
9981.289392365397
 21
-17916.83957423029
 31
0.0
  0
LINE
  5
69A6B
330
18
100
AcDbEntity
  8
姿図
100
AcDbLine
 10
9896.104986161823
 20
-17686.6431693556
 30
0.0
 11
9911.603188931578
 21
-17699.8153758008
 31
0.0
  0
LINE
  5
69A6C
330
18
100
AcDbEntity
  8
姿図
100
AcDbLine
 10
9877.687705615568
 20
-17890.81298659598
 30
0.0
 11
9877.687705615568
 21
-17828.78660278488
 31
0.0
  0
LINE
  5
69A6D
330
18
100
AcDbEntity
  8
姿図
100
AcDbLine
 10
9878.205470908699
 20
-17891.2525949712
 30
0.0
 11
9878.205470908699
 21
-17829.22666099244
 31
0.0
  0
LINE
  5
69A6E
330
18
100
AcDbEntity
  8
姿図
100
AcDbLine
 10
9862.687705615566
 20
-17829.07113444273
 30
0.0
 11
9862.687705615566
 21
-17878.07724374933
 31
0.0
  0
LINE
  5
69A6F
330
18
100
AcDbEntity
  8
姿図
100
AcDbLine
 10
9875.37126892925
 20
-17826.81782081043
 30
0.0
 11
9862.687705615566
 21
-17829.07113444273
 31
0.0
  0
LINE
  5
69A70
330
18
100
AcDbEntity
  8
姿図
100
AcDbLine
 10
9893.957491158384
 20
-17743.55875009044
 30
0.0
 11
9893.957491158384
 21
-17748.5473909727
 31
0.0
  0
LINE
  5
69A71
330
18
100
AcDbEntity
  8
姿図
100
AcDbLine
 10
9896.104986161823
 20
-17743.17723429343
 30
0.0
 11
9896.104986161827
 21
-17686.6431693556
 31
0.0
  0
LINE
  5
69A72
330
18
100
AcDbEntity
  8
姿図
100
AcDbLine
 10
9892.75442701477
 20
-17742.87450617601
 30
0.0
 11
9893.860910551139
 21
-17743.5759082339
 31
0.0
  0
LINE
  5
69A73
330
18
100
AcDbEntity
  8
姿図
100
AcDbLine
 10
9896.104986161823
 20
-17743.17723429343
 30
0.0
 11
9893.860910551139
 21
-17743.5759082339
 31
0.0
  0
LINE
  5
69A74
330
18
100
AcDbEntity
  8
姿図
100
AcDbLine
 10
9896.104986161823
 20
-17742.27925857758
 30
0.0
 11
9892.75442701477
 21
-17742.87450617601
 31
0.0
  0
LINE
  5
69A75
330
18
100
AcDbEntity
  8
姿図
100
AcDbLine
 10
9892.75442701477
 20
-17742.87450617601
 30
0.0
 11
9892.75442701477
 21
-17740.84463838355
 31
0.0
  0
LINE
  5
69A76
330
18
100
AcDbEntity
  8
姿図
100
AcDbLine
 10
9896.104986161823
 20
-17740.24939078513
 30
0.0
 11
9892.75442701477
 21
-17740.84463838355
 31
0.0
  0
LINE
  5
69A77
330
18
100
AcDbEntity
  8
姿図
100
AcDbLine
 10
9894.350092889339
 20
-17780.85403413153
 30
0.0
 11
9892.75442701477
 21
-17781.1375140637
 31
0.0
  0
LINE
  5
69A78
330
18
100
AcDbEntity
  8
姿図
100
AcDbLine
 10
9894.573193245938
 20
-17776.16036348134
 30
0.0
 11
9894.573193245938
 21
-17776.9684764823
 31
0.0
  0
LINE
  5
69A79
330
18
100
AcDbEntity
  8
姿図
100
AcDbLine
 10
9896.104986161823
 20
-17777.0914912181
 30
0.0
 11
9894.985504239598
 21
-17777.29037411986
 31
0.0
  0
LINE
  5
69A7A
330
18
100
AcDbEntity
  8
姿図
100
AcDbLine
 10
9891.104986161825
 20
-17774.26079300034
 30
0.0
 11
9891.104986161823
 21
-17758.83379777772
 31
0.0
  0
LINE
  5
69A7B
330
18
100
AcDbEntity
  8
姿図
100
AcDbLine
 10
9896.104986161823
 20
-17757.60476041058
 30
0.0
 11
9894.985504239598
 21
-17757.80364331234
 31
0.0
  0
LINE
  5
69A7C
330
18
100
AcDbEntity
  8
姿図
100
AcDbLine
 10
9894.573193245937
 20
-17756.78006878328
 30
0.0
 11
9894.573193245937
 21
-17757.48174567477
 31
0.0
  0
LINE
  5
69A7D
330
18
100
AcDbEntity
  8
姿図
100
AcDbLine
 10
9894.545380705358
 20
-17761.51976757453
 30
0.0
 11
9894.573193245946
 21
-17761.54531537571
 31
0.0
  0
LINE
  5
69A7E
330
18
100
AcDbEntity
  8
姿図
100
AcDbLine
 10
9894.688253207201
 20
-17761.63131036993
 30
0.0
 11
9894.573193245937
 21
-17761.65175148516
 31
0.0
  0
LINE
  5
69A7F
330
18
100
AcDbEntity
  8
姿図
100
AcDbLine
 10
9896.104986161823
 20
-17748.16587517569
 30
0.0
 11
9892.75442701477
 21
-17748.76112277411
 31
0.0
  0
LINE
  5
69A80
330
18
100
AcDbEntity
  8
姿図
100
AcDbLine
 10
9892.75442701477
 20
-17750.79099056656
 30
0.0
 11
9892.75442701477
 21
-17748.76112277411
 31
0.0
  0
LINE
  5
69A81
330
18
100
AcDbEntity
  8
姿図
100
AcDbLine
 10
9896.104986161823
 20
-17783.23782614148
 30
0.0
 11
9893.856393618486
 21
-17783.63730254303
 31
0.0
  0
LINE
  5
69A82
330
18
100
AcDbEntity
  8
姿図
100
AcDbLine
 10
9896.104986161823
 20
-17782.31840078367
 30
0.0
 11
9892.75442701477
 21
-17782.91364838209
 31
0.0
  0
LINE
  5
69A83
330
18
100
AcDbEntity
  8
姿図
100
AcDbLine
 10
9896.104986161823
 20
-17771.12298438374
 30
0.0
 11
9894.573193245937
 21
-17771.39511688892
 31
0.0
  0
LINE
  5
69A84
330
18
100
AcDbEntity
  8
姿図
100
AcDbLine
 10
9896.104986161823
 20
-17775.99466708562
 30
0.0
 11
9894.573193245937
 21
-17776.26679959081
 31
0.0
  0
LINE
  5
69A85
330
18
100
AcDbEntity
  8
姿図
100
AcDbLine
 10
9896.104986161823
 20
-17766.25130168186
 30
0.0
 11
9894.573193245935
 21
-17766.52343418704
 31
0.0
  0
LINE
  5
69A86
330
18
100
AcDbEntity
  8
姿図
100
AcDbLine
 10
9896.104986161823
 20
-17756.5079362781
 30
0.0
 11
9894.573193245937
 21
-17756.78006878328
 31
0.0
  0
LINE
  5
69A87
330
18
100
AcDbEntity
  8
姿図
100
AcDbLine
 10
9896.104986161823
 20
-17751.40870063227
 30
0.0
 11
9893.860910551137
 21
-17751.80737457274
 31
0.0
  0
LINE
  5
69A88
330
18
100
AcDbEntity
  8
姿図
100
AcDbLine
 10
9896.104986161823
 20
-17750.19574296814
 30
0.0
 11
9892.75442701477
 21
-17750.79099056656
 31
0.0
  0
LINE
  5
69A89
330
18
100
AcDbEntity
  8
姿図
100
AcDbLine
 10
9896.104986161823
 20
-17752.7330777087
 30
0.0
 11
9892.75442701477
 21
-17753.32832530712
 31
0.0
  0
LINE
  5
69A8A
330
18
100
AcDbEntity
  8
姿図
100
AcDbLine
 10
9896.104986161823
 20
-17754.40771863747
 30
0.0
 11
9892.75442701477
 21
-17755.00296623589
 31
0.0
  0
LINE
  5
69A8B
330
18
100
AcDbEntity
  8
姿図
100
AcDbLine
 10
9896.104986161823
 20
-17762.47644311246
 30
0.0
 11
9892.75442701477
 21
-17763.07169071089
 31
0.0
  0
LINE
  5
69A8C
330
18
100
AcDbEntity
  8
姿図
100
AcDbLine
 10
9896.104986161823
 20
-17764.15108404123
 30
0.0
 11
9892.75442701477
 21
-17764.74633163965
 31
0.0
  0
LINE
  5
69A8D
330
18
100
AcDbEntity
  8
姿図
100
AcDbLine
 10
9896.104986161823
 20
-17767.34812581434
 30
0.0
 11
9892.75442701477
 21
-17767.94337341277
 31
0.0
  0
LINE
  5
69A8E
330
18
100
AcDbEntity
  8
姿図
100
AcDbLine
 10
9896.104986161823
 20
-17769.02276674312
 30
0.0
 11
9892.75442701477
 21
-17769.61801434154
 31
0.0
  0
LINE
  5
69A8F
330
18
100
AcDbEntity
  8
姿図
100
AcDbLine
 10
9896.104986161823
 20
-17772.21980851622
 30
0.0
 11
9892.75442701477
 21
-17772.81505611465
 31
0.0
  0
LINE
  5
69A90
330
18
100
AcDbEntity
  8
姿図
100
AcDbLine
 10
9896.104986161823
 20
-17773.894449445
 30
0.0
 11
9892.75442701477
 21
-17774.48969704342
 31
0.0
  0
LINE
  5
69A91
330
18
100
AcDbEntity
  8
姿図
100
AcDbLine
 10
9896.104986161823
 20
-17782.31840078367
 30
0.0
 11
9892.75442701477
 21
-17782.91364838209
 31
0.0
  0
LINE
  5
69A92
330
18
100
AcDbEntity
  8
姿図
100
AcDbLine
 10
9892.75442701477
 20
-17769.61801434154
 30
0.0
 11
9892.75442701477
 21
-17767.94337341277
 31
0.0
  0
LINE
  5
69A93
330
18
100
AcDbEntity
  8
姿図
100
AcDbLine
 10
9892.75442701477
 20
-17774.48969704342
 30
0.0
 11
9892.75442701477
 21
-17772.81505611465
 31
0.0
  0
LINE
  5
69A94
330
18
100
AcDbEntity
  8
姿図
100
AcDbLine
 10
9892.75442701477
 20
-17755.00296623589
 30
0.0
 11
9892.75442701477
 21
-17753.32832530712
 31
0.0
  0
LINE
  5
69A95
330
18
100
AcDbEntity
  8
姿図
100
AcDbLine
 10
9892.75442701477
 20
-17764.74633163965
 30
0.0
 11
9892.75442701477
 21
-17763.07169071088
 31
0.0
  0
LINE
  5
69A96
330
18
100
AcDbEntity
  8
姿図
100
AcDbLine
 10
9892.75442701477
 20
-17781.13751406369
 30
0.0
 11
9892.75442701477
 21
-17782.91364838209
 31
0.0
  0
LINE
  5
69A97
330
18
100
AcDbEntity
  8
姿図
100
AcDbLine
 10
9892.75442701477
 20
-17782.91364838209
 30
0.0
 11
9893.856393618486
 21
-17783.63730254303
 31
0.0
  0
LINE
  5
69A98
330
18
100
AcDbEntity
  8
姿図
100
AcDbLine
 10
9892.75442701477
 20
-17750.79099056656
 30
0.0
 11
9893.860910551137
 21
-17751.80737457274
 31
0.0
  0
LINE
  5
69A99
330
18
100
AcDbEntity
  8
姿図
100
AcDbLine
 10
9892.75442701477
 20
-17755.00296623589
 30
0.0
 11
9894.573193245937
 21
-17756.78006878328
 31
0.0
  0
LINE
  5
69A9A
330
18
100
AcDbEntity
  8
姿図
100
AcDbLine
 10
9894.573193245937
 20
-17761.65175148516
 30
0.0
 11
9894.573193245937
 21
-17762.74857561765
 31
0.0
  0
LINE
  5
69A9B
330
18
100
AcDbEntity
  8
姿図
100
AcDbLine
 10
9894.573193245938
 20
-17766.52343418704
 30
0.0
 11
9894.573193245937
 21
-17767.62025831953
 31
0.0
  0
LINE
  5
69A9C
330
18
100
AcDbEntity
  8
姿図
100
AcDbLine
 10
9893.860910551137
 20
-17751.80737457274
 30
0.0
 11
9893.860910551137
 21
-17753.13175164917
 31
0.0
  0
LINE
  5
69A9D
330
18
100
AcDbEntity
  8
姿図
100
AcDbLine
 10
9894.573193245937
 20
-17771.28868077946
 30
0.0
 11
9894.573193245937
 21
-17772.49194102141
 31
0.0
  0
LINE
  5
69A9E
330
18
100
AcDbEntity
  8
姿図
100
AcDbLine
 10
9892.75442701477
 20
-17764.74633163965
 30
0.0
 11
9894.573193245946
 21
-17766.41699807759
 31
0.0
  0
LINE
  5
69A9F
330
18
100
AcDbEntity
  8
姿図
100
AcDbLine
 10
9892.75442701477
 20
-17769.61801434154
 30
0.0
 11
9894.573193245946
 21
-17771.28868077947
 31
0.0
  0
LINE
  5
69AA0
330
18
100
AcDbEntity
  8
姿図
100
AcDbLine
 10
9892.75442701477
 20
-17774.48969704342
 30
0.0
 11
9894.573193245946
 21
-17776.16036348135
 31
0.0
  0
LINE
  5
69AA1
330
18
100
AcDbEntity
  8
姿図
100
AcDbLine
 10
9896.104986161823
 20
-17790.96513495075
 30
0.0
 11
9896.104986161823
 21
-17743.17723429343
 31
0.0
  0
LINE
  5
69AA2
330
18
100
AcDbEntity
  8
姿図
100
AcDbLine
 10
9851.095197277933
 20
-17806.18514280123
 30
0.0
 11
9854.899507129012
 21
-17800.62815357604
 31
0.0
  0
LINE
  5
69AA3
330
18
100
AcDbEntity
  8
姿図
100
AcDbLine
 10
9855.211491985252
 20
-17800.17243452254
 30
0.0
 11
9857.132107872123
 21
-17797.36697381959
 31
0.0
  0
LINE
  5
69AA4
330
18
100
AcDbEntity
  8
姿図
100
AcDbLine
 10
9860.612288709153
 20
-17802.41242945114
 30
0.0
 11
9857.499996747898
 21
-17799.93762736406
 31
0.0
  0
LINE
  5
69AA5
330
18
100
AcDbEntity
  8
姿図
100
AcDbLine
 10
9865.274901692266
 20
-17802.75552528124
 30
0.0
 11
9851.095197277933
 21
-17806.18514280123
 31
0.0
  0
LINE
  5
69AA6
330
18
100
AcDbEntity
  8
姿図
100
AcDbLine
 10
9891.104986161825
 20
-17789.09329837055
 30
0.0
 11
9863.274901692266
 21
-17793.12698021219
 31
0.0
  0
LINE
  5
69AA7
330
18
100
AcDbEntity
  8
姿図
100
AcDbLine
 10
9896.104986161823
 20
-17790.96513495075
 30
0.0
 11
9865.274901692268
 21
-17795.53178538565
 31
0.0
  0
LINE
  5
69AA8
330
18
100
AcDbEntity
  8
姿図
100
AcDbLine
 10
9863.274901692268
 20
-17801.07952113362
 30
0.0
 11
9860.455523728588
 21
-17802.49090625112
 31
0.0
  0
LINE
  5
69AA9
330
18
100
AcDbEntity
  8
姿図
100
AcDbLine
 10
9863.274901692268
 20
-17793.12698021219
 30
0.0
 11
9863.274901692268
 21
-17801.07952113362
 31
0.0
  0
LINE
  5
69AAA
330
18
100
AcDbEntity
  8
姿図
100
AcDbLine
 10
9865.274901692268
 20
-17795.53178538565
 30
0.0
 11
9865.274901692268
 21
-17802.75552528124
 31
0.0
  0
ARC
  5
69AAB
330
18
100
AcDbEntity
  8
姿図
100
AcDbCircle
 10
9857.188803104236
 20
-17800.53211373746
 30
0.0
 40
0.5
100
AcDbArc
 50
51.50932280875229
 51
100.0738452396513
  0
LINE
  5
69AAC
330
18
100
AcDbEntity
  8
姿図
100
AcDbLine
 10
9860.455523728588
 20
-17802.49090625112
 30
0.0
 11
9857.499996747898
 21
-17800.14075901838
 31
0.0
  0
ARC
  5
69AAD
330
18
100
AcDbEntity
  8
姿図
100
AcDbCircle
 10
9857.188803104236
 20
-17800.32898208314
 30
0.0
 40
0.5
100
AcDbArc
 50
51.50932280875229
 51
100.0738452396513
  0
LINE
  5
69AAE
330
18
100
AcDbEntity
  8
姿図
100
AcDbLine
 10
9857.499996747898
 20
-17800.14075901838
 30
0.0
 11
9857.499996747898
 21
-17799.93762736406
 31
0.0
  0
LINE
  5
69AAF
330
18
100
AcDbEntity
  8
姿図
100
AcDbLine
 10
9857.828923122688
 20
-17802.95753812779
 30
0.0
 11
9855.92102791402
 21
-17803.29648753627
 31
0.0
  0
LINE
  5
69AB0
330
18
100
AcDbEntity
  8
姿図
100
AcDbLine
 10
9860.455523728588
 20
-17802.49090625112
 30
0.0
 11
9857.828923122688
 21
-17802.95753812779
 31
0.0
  0
LINE
  5
69AB1
330
18
100
AcDbEntity
  8
姿図
100
AcDbLine
 10
9857.260878282334
 20
-17799.83420418479
 30
0.0
 11
9858.299817194978
 21
-17798.31661687744
 31
0.0
  0
LINE
  5
69AB2
330
18
100
AcDbEntity
  8
姿図
100
AcDbLine
 10
9858.299817194982
 20
-17798.31661687744
 30
0.0
 11
9858.766750112816
 21
-17800.94491199878
 31
0.0
  0
LINE
  5
69AB3
330
18
100
AcDbEntity
  8
姿図
100
AcDbLine
 10
9857.132107872123
 20
-17797.36697381959
 30
0.0
 11
9858.299817194978
 21
-17798.31661687744
 31
0.0
  0
ARC
  5
69AB4
330
18
100
AcDbEntity
  8
姿図
100
AcDbCircle
 10
9854.932571404446
 20
-17800.52668397387
 30
0.0
 40
0.1
100
AcDbArc
 50
100.0738452396513
 51
231.5093228087523
  0
LINE
  5
69AB5
330
18
100
AcDbEntity
  8
姿図
100
AcDbLine
 10
9854.835630473735
 20
-17800.23920864956
 30
0.0
 11
9854.835630473735
 21
-17800.5021389957
 31
0.0
  0
LINE
  5
69AB6
330
18
100
AcDbEntity
  8
姿図
100
AcDbLine
 10
9857.101344456612
 20
-17800.03982217247
 30
0.0
 11
9854.91507967492
 21
-17800.42822566087
 31
0.0
  0
LINE
  5
69AB7
330
18
100
AcDbEntity
  8
姿図
100
AcDbLine
 10
9857.101344456612
 20
-17799.83669051815
 30
0.0
 11
9854.835630473735
 21
-17800.23920864956
 31
0.0
  0
LINE
  5
69AB8
330
18
100
AcDbEntity
  8
姿図
100
AcDbLine
 10
9857.828923122688
 20
-17802.95753812778
 30
0.0
 11
9854.870332675713
 21
-17800.60495491768
 31
0.0
  0
ARC
  5
69AB9
330
18
100
AcDbEntity
  8
姿図
100
AcDbCircle
 10
9855.833569266397
 20
-17802.80419597129
 30
0.0
 40
0.5
100
AcDbArc
 50
145.6044933460326
 51
280.0738452396512
  0
LINE
  5
69ABA
330
18
100
AcDbEntity
  8
姿図
100
AcDbLine
 10
9855.42099036513
 20
-17802.52174482466
 30
0.0
 11
9856.076576572992
 21
-17801.56412422175
 31
0.0
  0
LINE
  5
69ABB
330
18
100
AcDbEntity
  8
姿図
100
AcDbLine
 10
9891.104986161825
 20
-17754.77406219282
 30
0.0
 11
9891.104986161825
 21
-17687.53145034438
 31
0.0
  0
ELLIPSE
  5
69ABC
330
18
100
AcDbEntity
  8
姿図
100
AcDbEllipse
 10
9882.338873080495
 20
-17748.55398935877
 30
0.0
 11
1.557139847723761E-15
 21
3.508473521634053
 31
0.0
210
0.0
220
0.0
230
1.0
 40
0.6840581766403936
 41
0.0834300866107265
 42
3.058162566979068
  0
ELLIPSE
  5
69ABD
330
18
100
AcDbEntity
  8
姿図
100
AcDbEllipse
 10
9881.938873080495
 20
-17748.55398935877
 30
0.0
 11
0.0
 21
-3.508473521634005
 31
0.0
210
0.0
220
0.0
230
1.0
 40
0.6840581766403772
 41
0.0
 42
6.283185307179586
  0
LINE
  5
69ABE
330
18
100
AcDbEntity
  8
姿図
100
AcDbLine
 10
9874.104986161823
 20
-17790.08213718927
 30
0.0
 11
9874.104986161825
 21
-17710.86477113755
 31
0.0
  0
LINE
  5
69ABF
330
18
100
AcDbEntity
  8
姿図
100
AcDbLine
 10
9891.104986161823
 20
-17787.06198182742
 30
0.0
 11
9874.104986161823
 21
-17790.08213718927
 31
0.0
  0
LINE
  5
69AC0
330
18
100
AcDbEntity
  8
姿図
100
AcDbLine
 10
9891.104986161823
 20
-17789.09329837055
 30
0.0
 11
9891.104986161823
 21
-17778.32052858524
 31
0.0
  0
LINE
  5
69AC1
330
18
100
AcDbEntity
  8
姿図
  6
Continuous
370
     0
100
AcDbLine
 10
9896.104986161821
 20
-17782.22410674001
 30
0.0
 11
9889.046222104125
 21
-17776.71321930495
 31
0.0
  0
LINE
  5
69AC2
330
18
100
AcDbEntity
  8
姿図
  6
Continuous
370
     0
100
AcDbLine
 10
9896.104986161821
 20
-17781.97037326596
 30
0.0
 11
9889.169298593557
 21
-17776.55557357
 31
0.0
  0
ARC
  5
69AC3
330
18
100
AcDbEntity
  8
姿図
  6
Continuous
370
     0
100
AcDbCircle
 10
9889.345997793322
 20
-17773.62502183782
 30
0.0
 40
0.5871021973724699
100
AcDbArc
 50
43.9706144279669
 51
173.0481439442984
  0
LINE
  5
69AC4
330
18
100
AcDbEntity
  8
姿図
  6
Continuous
370
     0
100
AcDbLine
 10
9888.588744225382
 20
-17775.66867811392
 30
0.0
 11
9888.763211851283
 21
-17773.55396175111
 31
0.0
  0
ARC
  5
69AC5
330
18
100
AcDbEntity
  8
姿図
  6
Continuous
370
     0
100
AcDbCircle
 10
9889.784681040715
 20
-17775.76734489523
 30
0.0
 40
1.2
100
AcDbArc
 50
175.2836838794859
 51
232.020285162138
  0
LINE
  5
69AC6
330
18
100
AcDbEntity
  8
姿図
  6
Continuous
370
     0
100
AcDbLine
 10
9888.788067027937
 20
-17775.68512257747
 30
0.0
 11
9888.96253465384
 21
-17773.57040621466
 31
0.0
  0
ARC
  5
69AC7
330
18
100
AcDbEntity
  8
姿図
  6
Continuous
370
     0
100
AcDbCircle
 10
9889.460841660228
 20
-17773.61151737354
 30
0.0
 40
0.5
100
AcDbArc
 50
52.02028516213803
 51
175.2836838794859
  0
ARC
  5
69AC8
330
18
100
AcDbEntity
  8
姿図
  6
Continuous
370
     0
100
AcDbCircle
 10
9889.784681040715
 20
-17775.76734489523
 30
0.0
 40
1.0
100
AcDbArc
 50
175.2836838794859
 51
232.020285162138
  0
LINE
  5
69AC9
330
18
100
AcDbEntity
  8
姿図
  6
Continuous
370
     0
100
AcDbLine
 10
9896.104986161821
 20
-17778.16437115512
 30
0.0
 11
9889.768532883805
 21
-17773.21740303615
 31
0.0
  0
LINE
  5
69ACA
330
18
100
AcDbEntity
  8
姿図
  6
Continuous
370
     0
100
AcDbLine
 10
9896.104986161823
 20
-17758.67764034759
 30
0.0
 11
9889.768532883807
 21
-17753.73067222863
 31
0.0
  0
ARC
  5
69ACB
330
18
100
AcDbEntity
  8
姿図
  6
Continuous
370
     0
100
AcDbCircle
 10
9889.784681040715
 20
-17756.2806140877
 30
0.0
 40
1.0
100
AcDbArc
 50
175.2836838794859
 51
232.020285162138
  0
ARC
  5
69ACC
330
18
100
AcDbEntity
  8
姿図
  6
Continuous
370
     0
100
AcDbCircle
 10
9889.460841660228
 20
-17754.12478656602
 30
0.0
 40
0.5
100
AcDbArc
 50
52.02028516213803
 51
175.2836838794859
  0
LINE
  5
69ACD
330
18
100
AcDbEntity
  8
姿図
  6
Continuous
370
     0
100
AcDbLine
 10
9888.78806702794
 20
-17756.19839176995
 30
0.0
 11
9888.96253465384
 21
-17754.08367540714
 31
0.0
  0
ARC
  5
69ACE
330
18
100
AcDbEntity
  8
姿図
  6
Continuous
370
     0
100
AcDbCircle
 10
9889.784681040717
 20
-17756.2806140877
 30
0.0
 40
1.2
100
AcDbArc
 50
175.2836838794859
 51
232.020285162138
  0
LINE
  5
69ACF
330
18
100
AcDbEntity
  8
姿図
  6
Continuous
370
     0
100
AcDbLine
 10
9888.588744225384
 20
-17756.1819473064
 30
0.0
 11
9888.763211851283
 21
-17754.06723094359
 31
0.0
  0
ARC
  5
69AD0
330
18
100
AcDbEntity
  8
姿図
  6
Continuous
370
     0
100
AcDbCircle
 10
9889.345997793323
 20
-17754.13829103029
 30
0.0
 40
0.5871021973724699
100
AcDbArc
 50
43.9706144279669
 51
173.0481439442984
  0
LINE
  5
69AD1
330
18
100
AcDbEntity
  8
姿図
  6
Continuous
370
     0
100
AcDbLine
 10
9896.104986161823
 20
-17762.48364245844
 30
0.0
 11
9889.169298593557
 21
-17757.06884276247
 31
0.0
  0
LINE
  5
69AD2
330
18
100
AcDbEntity
  8
姿図
  6
Continuous
370
     0
100
AcDbLine
 10
9896.104986161823
 20
-17762.73737593249
 30
0.0
 11
9889.046222104125
 21
-17757.22648849743
 31
0.0
  0
ELLIPSE
  5
69AD3
330
18
100
AcDbEntity
  8
姿図
100
AcDbEllipse
 10
9881.538873080495
 20
-17779.76573179186
 30
0.0
 11
0.0
 21
-3.508473521634005
 31
0.0
210
0.0
220
0.0
230
1.0
 40
0.6840581766403772
 41
0.0
 42
6.283185307179586
  0
ELLIPSE
  5
69AD4
330
18
100
AcDbEntity
  8
姿図
100
AcDbEllipse
 10
9881.938873080495
 20
-17779.76573179186
 30
0.0
 11
1.557139847723761E-15
 21
3.508473521634053
 31
0.0
210
0.0
220
0.0
230
1.0
 40
0.6840581766403936
 41
0.0834300866107265
 42
3.058162566979068
  0
LINE
  5
69AD5
330
18
100
AcDbEntity
  8
姿図
100
AcDbLine
 10
9911.603188931578
 20
-17753.42159723034
 30
0.0
 11
9911.603188931578
 21
-17699.8153758008
 31
0.0
  0
LINE
  5
69AD6
330
18
100
AcDbEntity
  8
姿図
100
AcDbLine
 10
9996.464057492762
 20
-17908.34020703208
 30
0.0
 11
10027.68131556947
 21
-17902.79426765781
 31
0.0
  0
LINE
  5
69AD7
330
18
100
AcDbEntity
  8
姿図
100
AcDbLine
 10
9996.464057492762
 20
-17906.91996102596
 30
0.0
 11
9996.464057492762
 21
-17914.14370092155
 31
0.0
  0
LINE
  5
69AD8
330
18
100
AcDbEntity
  8
姿図
100
AcDbLine
 10
10014.44477079721
 20
-17840.82854161032
 30
0.0
 11
10014.44477079721
 21
-17789.11003128557
 31
0.0
  0
LINE
  5
69AD9
330
18
100
AcDbEntity
  8
姿図
100
AcDbLine
 10
10025.35156718279
 20
-17798.37991733501
 30
0.0
 11
10025.3515671828
 21
-17850.09842765977
 31
0.0
  0
LINE
  5
69ADA
330
18
100
AcDbEntity
  8
姿図
100
AcDbLine
 10
10014.44477079721
 20
-17789.11003128556
 30
0.0
 11
10011.61231464636
 21
-17789.43973896195
 31
0.0
  0
LINE
  5
69ADB
330
18
100
AcDbEntity
  8
姿図
100
AcDbLine
 10
10014.44477079721
 20
-17789.11003128556
 30
0.0
 11
10025.35156718279
 21
-17798.37991733501
 31
0.0
  0
LINE
  5
69ADC
330
18
100
AcDbEntity
  8
姿図
100
AcDbLine
 10
10027.68131556946
 20
-17894.14753349073
 30
0.0
 11
10027.68131556946
 21
-17892.37139917234
 31
0.0
  0
LINE
  5
69ADD
330
18
100
AcDbEntity
  8
姿図
100
AcDbLine
 10
10025.35156718279
 20
-17893.24808786688
 30
0.0
 11
10025.35156718279
 21
-17898.21527910717
 31
0.0
  0
LINE
  5
69ADE
330
18
100
AcDbEntity
  8
姿図
100
AcDbLine
 10
10027.68131556946
 20
-17894.14753349073
 30
0.0
 11
10026.50364559417
 21
-17894.14753349073
 31
0.0
  0
LINE
  5
69ADF
330
18
100
AcDbEntity
  8
姿図
100
AcDbLine
 10
10027.68131556946
 20
-17902.79426765781
 30
0.0
 11
10027.68131556946
 21
-17900.03415008884
 31
0.0
  0
LINE
  5
69AE0
330
18
100
AcDbEntity
  8
姿図
100
AcDbLine
 10
10027.68131556946
 20
-17854.10839128465
 30
0.0
 11
10026.62477202192
 21
-17854.10839128465
 31
0.0
  0
LINE
  5
69AE1
330
18
100
AcDbEntity
  8
姿図
100
AcDbLine
 10
10027.68131556946
 20
-17854.10839128465
 30
0.0
 11
10027.68131556946
 21
-17852.0785234922
 31
0.0
  0
LINE
  5
69AE2
330
18
100
AcDbEntity
  8
姿図
100
AcDbLine
 10
10027.68131556946
 20
-17866.23685134454
 30
0.0
 11
10025.8625493383
 21
-17868.01395389192
 31
0.0
  0
LINE
  5
69AE3
330
18
100
AcDbEntity
  8
姿図
100
AcDbLine
 10
10027.68131556946
 20
-17862.0248756752
 30
0.0
 11
10026.38338780228
 21
-17862.16597392218
 31
0.0
  0
LINE
  5
69AE4
330
18
100
AcDbEntity
  8
姿図
100
AcDbLine
 10
10027.68131556946
 20
-17871.10853404642
 30
0.0
 11
10025.8625493383
 21
-17872.8856365938
 31
0.0
  0
LINE
  5
69AE5
330
18
100
AcDbEntity
  8
姿図
100
AcDbLine
 10
10026.38338780228
 20
-17862.16597392218
 30
0.0
 11
10026.38338780228
 21
-17863.54889792008
 31
0.0
  0
LINE
  5
69AE6
330
18
100
AcDbEntity
  8
姿図
100
AcDbLine
 10
10027.68131556946
 20
-17871.10853404642
 30
0.0
 11
10027.68131556946
 21
-17869.43389311765
 31
0.0
  0
LINE
  5
69AE7
330
18
100
AcDbEntity
  8
姿図
100
AcDbLine
 10
10027.68131556946
 20
-17866.23685134454
 30
0.0
 11
10027.68131556946
 21
-17864.56221041577
 31
0.0
  0
LINE
  5
69AE8
330
18
100
AcDbEntity
  8
姿図
100
AcDbLine
 10
10027.68131556946
 20
-17862.0248756752
 30
0.0
 11
10027.68131556946
 21
-17859.99500788275
 31
0.0
  0
LINE
  5
69AE9
330
18
100
AcDbEntity
  8
姿図
100
AcDbLine
 10
10027.68131556946
 20
-17875.9802167483
 30
0.0
 11
10025.8625493383
 21
-17877.75731929569
 31
0.0
  0
LINE
  5
69AEA
330
18
100
AcDbEntity
  8
姿図
100
AcDbLine
 10
10027.68131556946
 20
-17880.85189945018
 30
0.0
 11
10025.8625493383
 21
-17882.62900199757
 31
0.0
  0
LINE
  5
69AEB
330
18
100
AcDbEntity
  8
姿図
100
AcDbLine
 10
10027.68131556946
 20
-17885.72358215206
 30
0.0
 11
10025.8625493383
 21
-17887.50068469945
 31
0.0
  0
LINE
  5
69AEC
330
18
100
AcDbEntity
  8
姿図
100
AcDbLine
 10
10027.68131556946
 20
-17885.72358215206
 30
0.0
 11
10027.68131556946
 21
-17884.04894122329
 31
0.0
  0
LINE
  5
69AED
330
18
100
AcDbEntity
  8
姿図
100
AcDbLine
 10
10027.68131556946
 20
-17880.85189945018
 30
0.0
 11
10027.68131556946
 21
-17879.17725852141
 31
0.0
  0
LINE
  5
69AEE
330
18
100
AcDbEntity
  8
姿図
100
AcDbLine
 10
10027.68131556946
 20
-17875.9802167483
 30
0.0
 11
10027.68131556946
 21
-17874.30557581953
 31
0.0
  0
LINE
  5
69AEF
330
18
100
AcDbEntity
  8
姿図
100
AcDbLine
 10
10025.35156718279
 20
-17853.11438036533
 30
0.0
 11
10025.35156718279
 21
-17858.17613690109
 31
0.0
  0
LINE
  5
69AF0
330
18
100
AcDbEntity
  8
姿図
100
AcDbLine
 10
10027.68131556946
 20
-17890.59526485395
 30
0.0
 11
10025.40630755378
 21
-17890.59526485395
 31
0.0
  0
LINE
  5
69AF1
330
18
100
AcDbEntity
  8
姿図
100
AcDbLine
 10
10027.68131556946
 20
-17890.59526485395
 30
0.0
 11
10027.68131556946
 21
-17888.92062392517
 31
0.0
  0
ENDSEC
  0
SECTION
  2
OBJECTS
  0
DICTIONARY
  5
C
330
0
100
AcDbDictionary
281
     1
  3
ACAD_GROUP
350
D
  3
ACAD_IMAGE_VARS
350
6A1DC
  3
ACAD_LAYOUT
350
40CB
  3
ACAD_MLINESTYLE
350
E
  3
ACAD_PLOTSETTINGS
350
40CC
  3
ACAD_PLOTSTYLENAME
350
40C9
  3
ACAD_SCALELIST
350
635B9
  3
AcadDim
350
FCCB
  3
AcDbVariableDictionary
350
6377
  3
APPDATA
350
6A1DB
  3
DWGPROPS
350
6A1FF
  0
DICTIONARY
  5
6349C
330
2
100
AcDbDictionary
280
     1
281
     1
  3
ACAD_LAYERSTATES
360
6349D
  0
DICTIONARY
  5
644AE
330
F
100
AcDbDictionary
280
     1
281
     1
  3
ADSK_XREC_LAYER_RECONCILED
360
644AF
  0
DICTIONARY
  5
644B8
330
4D
100
AcDbDictionary
280
     1
281
     1
  3
ADSK_XREC_LAYER_RECONCILED
360
644B9
  0
DICTIONARY
  5
644BC
330
40D4
100
AcDbDictionary
280
     1
281
     1
  3
ADSK_XREC_LAYER_RECONCILED
360
644BD
  0
DICTIONARY
  5
66594
330
66593
100
AcDbDictionary
280
     1
281
     1
  3
ADSK_XREC_LAYER_RECONCILED
360
66596
  0
DICTIONARY
  5
9FD5
330
18
100
AcDbDictionary
280
     1
281
     1
  3
ACAD_SORTENTS
360
61CD0
  0
DICTIONARY
  5
D
102
{ACAD_REACTORS
330
C
102
}
330
C
100
AcDbDictionary
281
     1
  0
RASTERVARIABLES
  5
6A1DC
102
{ACAD_REACTORS
330
C
102
}
330
C
100
AcDbRasterVariables
 90
        0
 70
     1
 71
     1
 72
     0
  0
DICTIONARY
  5
40CB
102
{ACAD_REACTORS
330
C
102
}
330
C
100
AcDbDictionary
281
     1
  3
Model
350
40CD
  3
ﾚｲｱｳﾄ1
350
40CE
  0
DICTIONARY
  5
E
102
{ACAD_REACTORS
330
C
102
}
330
C
100
AcDbDictionary
281
     1
  3
STANDARD
350
1B
  0
DICTIONARY
  5
40CC
102
{ACAD_REACTORS
330
C
102
}
330
C
100
AcDbDictionary
281
     1
  0
ACDBDICTIONARYWDFLT
  5
40C9
102
{ACAD_REACTORS
330
C
102
}
330
C
100
AcDbDictionary
281
     1
  3
Normal
350
40CA
100
AcDbDictionaryWithDefault
340
40CA
  0
DICTIONARY
  5
635B9
102
{ACAD_REACTORS
330
C
102
}
330
C
100
AcDbDictionary
281
     1
  3
A0
350
635BA
  3
A1
350
635BB
  3
A2
350
635BC
  3
A3
350
635BD
  3
A4
350
635BE
  3
A5
350
635BF
  3
A6
350
635C0
  3
A7
350
635C1
  3
A8
350
635C2
  3
A9
350
635C3
  3
B0
350
635C4
  3
B1
350
635C5
  3
B2
350
635C6
  3
B3
350
635C7
  3
B4
350
635C8
  3
B5
350
635C9
  3
B6
350
635CA
  3
B7
350
635CB
  3
B8
350
635CC
  3
B9
350
635CD
  3
C0
350
635CE
  3
C1
350
635CF
  3
C2
350
635D0
  3
C3
350
635D1
  3
C4
350
635D2
  3
C5
350
635D3
  3
C6
350
635D4
  3
C7
350
635D5
  3
C8
350
635D6
  3
C9
350
635D7
  3
D0
350
635D8
  3
D1
350
635D9
  3
D2
350
635DA
  0
XRECORD
  5
FCCB
102
{ACAD_REACTORS
330
C
102
}
330
C
100
AcDbXrecord
280
     1
 90
   990106
  3

 60
     0
 61
     0
 62
     1
 63
     3
 64
     0
 65
     0
 66
     0
 67
     3
 68
     1
 69
     0
 70
     0
 71
     0
 72
     0
 40
2.0
170
     0
  0
DICTIONARY
  5
6377
102
{ACAD_REACTORS
330
C
102
}
330
C
100
AcDbDictionary
281
     1
  3
DIMASSOC
350
73F2
  3
INDEXCTL
350
644D7
  3
PROJECTNAME
350
6149B
  3
SORTENTS
350
6378
  0
DICTIONARY
  5
6A1DB
102
{ACAD_REACTORS
330
C
102
}
330
C
100
AcDbDictionary
281
     1
  0
XRECORD
  5
6A1FF
102
{ACAD_REACTORS
330
C
102
}
330
C
100
AcDbXrecord
280
     1
  1
DWGPROPS COOKIE
  2

  3

  4

  6

  7

  8
SPAX
  9

300
=
301
=
302
=
303
=
304
=
305
=
306
=
307
=
308
=
309
=
 40
0.0
 41
2449505.547222222
 42
2456822.118837523
  1

 90
        0
  0
DICTIONARY
  5
6349D
102
{ACAD_REACTORS
330
6349C
102
}
330
6349C
100
AcDbDictionary
281
     1
  0
XRECORD
  5
644AF
102
{ACAD_REACTORS
330
644AE
102
}
330
644AE
100
AcDbXrecord
280
     1
290
     1
  0
XRECORD
  5
644B9
102
{ACAD_REACTORS
330
644B8
102
}
330
644B8
100
AcDbXrecord
280
     1
290
     1
  0
XRECORD
  5
644BD
102
{ACAD_REACTORS
330
644BC
102
}
330
644BC
100
AcDbXrecord
280
     1
290
     1
  0
XRECORD
  5
66596
102
{ACAD_REACTORS
330
66594
102
}
330
66594
100
AcDbXrecord
280
     1
290
     1
  0
SORTENTSTABLE
  5
61CD0
102
{ACAD_REACTORS
330
9FD5
102
}
330
9FD5
100
AcDbSortentsTable
330
18
331
0
  5
5D2B7
  0
LAYOUT
  5
40CD
102
{ACAD_REACTORS
330
40CB
102
}
330
40CB
100
AcDbPlotSettings
  1

  2
JUST PDF 2.pc3
  4
A4
  6
CUT1
 40
3.174999952316284
 41
3.174999952316284
 42
3.175003051757812
 43
3.17498779296875
 44
209.8886566162109
 45
297.0530090332031
 46
14.27
 47
9.86
 48
9649.889793680728
 49
-17180.83830778697
140
11399.84197862979
141
-14470.91155640031
142
1.0
143
10.0
 70
 11940
 72
     1
 73
     0
 74
     4
  7
spax form.ctb
 75
     0
147
0.1
148
-9649.889793680728
149
17180.83830778697
100
AcDbLayout
  1
Model
 70
     1
 71
     0
 10
0.0
 20
0.0
 11
12.0
 21
9.0
 12
0.0
 22
0.0
 32
0.0
 14
9623.964636879147
 24
-18043.93393196592
 34
0.0
 15
10027.68131556947
 25
-17686.6431693556
 35
0.0
146
0.0
 13
0.0
 23
0.0
 33
0.0
 16
1.0
 26
0.0
 36
0.0
 17
0.0
 27
1.0
 37
0.0
 76
     0
330
18
331
69356
1001
ACAD_PSEXT
1000
DWG To PDF.pc3
1000
PDF
1000
ファイル
1000

1070
     0
  0
LAYOUT
  5
40CE
102
{ACAD_REACTORS
330
40CB
102
}
330
40CB
100
AcDbPlotSettings
  1

  2
なし
  4

  6

 40
0.0
 41
0.0
 42
0.0
 43
0.0
 44
0.0
 45
0.0
 46
0.0
 47
0.0
 48
0.0
 49
0.0
140
0.0
141
0.0
142
1.0
143
1.0
 70
   688
 72
     0
 73
     0
 74
     5
  7
spax form.ctb
 75
    16
147
1.0
148
0.0
149
0.0
100
AcDbLayout
  1
ﾚｲｱｳﾄ1
 70
     0
 71
     1
 10
0.0
 20
0.0
 11
12.0
 21
9.0
 12
0.0
 22
0.0
 32
0.0
 14
1.000000000000000E+20
 24
1.000000000000000E+20
 34
1.000000000000000E+20
 15
-1.000000000000000E+20
 25
-1.000000000000000E+20
 35
-1.000000000000000E+20
146
0.0
 13
0.0
 23
0.0
 33
0.0
 16
1.0
 26
0.0
 36
0.0
 17
0.0
 27
1.0
 37
0.0
 76
     0
330
15
  0
MLINESTYLE
  5
1B
102
{ACAD_REACTORS
330
E
102
}
330
E
100
AcDbMlineStyle
  2
STANDARD
 70
     0
  3

 62
     0
 51
90.0
 52
90.0
 71
     2
 49
0.5
 62
   256
  6
BYLAYER
 49
-0.5
 62
   256
  6
BYLAYER
  0
ACDBPLACEHOLDER
  5
40CA
102
{ACAD_REACTORS
330
40C9
102
}
330
40C9
  0
SCALE
  5
635BA
102
{ACAD_REACTORS
330
635B9
102
}
330
635B9
100
AcDbScale
 70
     0
300
1:1
140
1.0
141
1.0
290
     1
1001
ACAD
1000
AcRTDxfName
1000
SCALE
1000
AcRTDxfName
1000
SCALE
  0
SCALE
  5
635BB
102
{ACAD_REACTORS
330
635B9
102
}
330
635B9
100
AcDbScale
 70
     0
300
1:2
140
1.0
141
2.0
290
     0
1001
ACAD
1000
AcRTDxfName
1000
SCALE
1000
AcRTDxfName
1000
SCALE
  0
SCALE
  5
635BC
102
{ACAD_REACTORS
330
635B9
102
}
330
635B9
100
AcDbScale
 70
     0
300
1:4
140
1.0
141
4.0
290
     0
1001
ACAD
1000
AcRTDxfName
1000
SCALE
1000
AcRTDxfName
1000
SCALE
  0
SCALE
  5
635BD
102
{ACAD_REACTORS
330
635B9
102
}
330
635B9
100
AcDbScale
 70
     0
300
1:5
140
1.0
141
5.0
290
     0
1001
ACAD
1000
AcRTDxfName
1000
SCALE
1000
AcRTDxfName
1000
SCALE
  0
SCALE
  5
635BE
102
{ACAD_REACTORS
330
635B9
102
}
330
635B9
100
AcDbScale
 70
     0
300
1:8
140
1.0
141
8.0
290
     0
1001
ACAD
1000
AcRTDxfName
1000
SCALE
1000
AcRTDxfName
1000
SCALE
  0
SCALE
  5
635BF
102
{ACAD_REACTORS
330
635B9
102
}
330
635B9
100
AcDbScale
 70
     0
300
1:10
140
1.0
141
10.0
290
     0
1001
ACAD
1000
AcRTDxfName
1000
SCALE
1000
AcRTDxfName
1000
SCALE
  0
SCALE
  5
635C0
102
{ACAD_REACTORS
330
635B9
102
}
330
635B9
100
AcDbScale
 70
     0
300
1:16
140
1.0
141
16.0
290
     0
1001
ACAD
1000
AcRTDxfName
1000
SCALE
1000
AcRTDxfName
1000
SCALE
  0
SCALE
  5
635C1
102
{ACAD_REACTORS
330
635B9
102
}
330
635B9
100
AcDbScale
 70
     0
300
1:20
140
1.0
141
20.0
290
     0
1001
ACAD
1000
AcRTDxfName
1000
SCALE
1000
AcRTDxfName
1000
SCALE
  0
SCALE
  5
635C2
102
{ACAD_REACTORS
330
635B9
102
}
330
635B9
100
AcDbScale
 70
     0
300
1:30
140
1.0
141
30.0
290
     0
1001
ACAD
1000
AcRTDxfName
1000
SCALE
1000
AcRTDxfName
1000
SCALE
  0
SCALE
  5
635C3
102
{ACAD_REACTORS
330
635B9
102
}
330
635B9
100
AcDbScale
 70
     0
300
1:40
140
1.0
141
40.0
290
     0
1001
ACAD
1000
AcRTDxfName
1000
SCALE
1000
AcRTDxfName
1000
SCALE
  0
SCALE
  5
635C4
102
{ACAD_REACTORS
330
635B9
102
}
330
635B9
100
AcDbScale
 70
     0
300
1:50
140
1.0
141
50.0
290
     0
1001
ACAD
1000
AcRTDxfName
1000
SCALE
1000
AcRTDxfName
1000
SCALE
  0
SCALE
  5
635C5
102
{ACAD_REACTORS
330
635B9
102
}
330
635B9
100
AcDbScale
 70
     0
300
1:100
140
1.0
141
100.0
290
     0
1001
ACAD
1000
AcRTDxfName
1000
SCALE
1000
AcRTDxfName
1000
SCALE
  0
SCALE
  5
635C6
102
{ACAD_REACTORS
330
635B9
102
}
330
635B9
100
AcDbScale
 70
     0
300
2:1
140
2.0
141
1.0
290
     0
1001
ACAD
1000
AcRTDxfName
1000
SCALE
1000
AcRTDxfName
1000
SCALE
  0
SCALE
  5
635C7
102
{ACAD_REACTORS
330
635B9
102
}
330
635B9
100
AcDbScale
 70
     0
300
4:1
140
4.0
141
1.0
290
     0
1001
ACAD
1000
AcRTDxfName
1000
SCALE
1000
AcRTDxfName
1000
SCALE
  0
SCALE
  5
635C8
102
{ACAD_REACTORS
330
635B9
102
}
330
635B9
100
AcDbScale
 70
     0
300
8:1
140
8.0
141
1.0
290
     0
1001
ACAD
1000
AcRTDxfName
1000
SCALE
1000
AcRTDxfName
1000
SCALE
  0
SCALE
  5
635C9
102
{ACAD_REACTORS
330
635B9
102
}
330
635B9
100
AcDbScale
 70
     0
300
10:1
140
10.0
141
1.0
290
     0
1001
ACAD
1000
AcRTDxfName
1000
SCALE
1000
AcRTDxfName
1000
SCALE
  0
SCALE
  5
635CA
102
{ACAD_REACTORS
330
635B9
102
}
330
635B9
100
AcDbScale
 70
     0
300
100:1
140
100.0
141
1.0
290
     0
1001
ACAD
1000
AcRTDxfName
1000
SCALE
1000
AcRTDxfName
1000
SCALE
  0
SCALE
  5
635CB
102
{ACAD_REACTORS
330
635B9
102
}
330
635B9
100
AcDbScale
 70
     0
300
1/128" = 1'-0"
140
0.0078125
141
12.0
290
     0
1001
ACAD
1000
AcRTDxfName
1000
SCALE
1000
AcRTDxfName
1000
SCALE
  0
SCALE
  5
635CC
102
{ACAD_REACTORS
330
635B9
102
}
330
635B9
100
AcDbScale
 70
     0
300
1/64" = 1'-0"
140
0.015625
141
12.0
290
     0
1001
ACAD
1000
AcRTDxfName
1000
SCALE
1000
AcRTDxfName
1000
SCALE
  0
SCALE
  5
635CD
102
{ACAD_REACTORS
330
635B9
102
}
330
635B9
100
AcDbScale
 70
     0
300
1/32" = 1'-0"
140
0.03125
141
12.0
290
     0
1001
ACAD
1000
AcRTDxfName
1000
SCALE
1000
AcRTDxfName
1000
SCALE
  0
SCALE
  5
635CE
102
{ACAD_REACTORS
330
635B9
102
}
330
635B9
100
AcDbScale
 70
     0
300
1/16" = 1'-0"
140
0.0625
141
12.0
290
     0
1001
ACAD
1000
AcRTDxfName
1000
SCALE
1000
AcRTDxfName
1000
SCALE
  0
SCALE
  5
635CF
102
{ACAD_REACTORS
330
635B9
102
}
330
635B9
100
AcDbScale
 70
     0
300
3/32" = 1'-0"
140
0.09375
141
12.0
290
     0
1001
ACAD
1000
AcRTDxfName
1000
SCALE
1000
AcRTDxfName
1000
SCALE
  0
SCALE
  5
635D0
102
{ACAD_REACTORS
330
635B9
102
}
330
635B9
100
AcDbScale
 70
     0
300
1/8" = 1'-0"
140
0.125
141
12.0
290
     0
1001
ACAD
1000
AcRTDxfName
1000
SCALE
1000
AcRTDxfName
1000
SCALE
  0
SCALE
  5
635D1
102
{ACAD_REACTORS
330
635B9
102
}
330
635B9
100
AcDbScale
 70
     0
300
3/16" = 1'-0"
140
0.1875
141
12.0
290
     0
1001
ACAD
1000
AcRTDxfName
1000
SCALE
1000
AcRTDxfName
1000
SCALE
  0
SCALE
  5
635D2
102
{ACAD_REACTORS
330
635B9
102
}
330
635B9
100
AcDbScale
 70
     0
300
1/4" = 1'-0"
140
0.25
141
12.0
290
     0
1001
ACAD
1000
AcRTDxfName
1000
SCALE
1000
AcRTDxfName
1000
SCALE
  0
SCALE
  5
635D3
102
{ACAD_REACTORS
330
635B9
102
}
330
635B9
100
AcDbScale
 70
     0
300
3/8" = 1'-0"
140
0.375
141
12.0
290
     0
1001
ACAD
1000
AcRTDxfName
1000
SCALE
1000
AcRTDxfName
1000
SCALE
  0
SCALE
  5
635D4
102
{ACAD_REACTORS
330
635B9
102
}
330
635B9
100
AcDbScale
 70
     0
300
1/2" = 1'-0"
140
0.5
141
12.0
290
     0
1001
ACAD
1000
AcRTDxfName
1000
SCALE
1000
AcRTDxfName
1000
SCALE
  0
SCALE
  5
635D5
102
{ACAD_REACTORS
330
635B9
102
}
330
635B9
100
AcDbScale
 70
     0
300
3/4" = 1'-0"
140
0.75
141
12.0
290
     0
1001
ACAD
1000
AcRTDxfName
1000
SCALE
1000
AcRTDxfName
1000
SCALE
  0
SCALE
  5
635D6
102
{ACAD_REACTORS
330
635B9
102
}
330
635B9
100
AcDbScale
 70
     0
300
1" = 1'-0"
140
1.0
141
12.0
290
     0
1001
ACAD
1000
AcRTDxfName
1000
SCALE
1000
AcRTDxfName
1000
SCALE
  0
SCALE
  5
635D7
102
{ACAD_REACTORS
330
635B9
102
}
330
635B9
100
AcDbScale
 70
     0
300
1-1/2" = 1'-0"
140
1.5
141
12.0
290
     0
1001
ACAD
1000
AcRTDxfName
1000
SCALE
1000
AcRTDxfName
1000
SCALE
  0
SCALE
  5
635D8
102
{ACAD_REACTORS
330
635B9
102
}
330
635B9
100
AcDbScale
 70
     0
300
3" = 1'-0"
140
3.0
141
12.0
290
     0
1001
ACAD
1000
AcRTDxfName
1000
SCALE
1000
AcRTDxfName
1000
SCALE
  0
SCALE
  5
635D9
102
{ACAD_REACTORS
330
635B9
102
}
330
635B9
100
AcDbScale
 70
     0
300
6" = 1'-0"
140
6.0
141
12.0
290
     0
1001
ACAD
1000
AcRTDxfName
1000
SCALE
1000
AcRTDxfName
1000
SCALE
  0
SCALE
  5
635DA
102
{ACAD_REACTORS
330
635B9
102
}
330
635B9
100
AcDbScale
 70
     0
300
1'-0" = 1'-0"
140
12.0
141
12.0
290
     0
1001
ACAD
1000
AcRTDxfName
1000
SCALE
1000
AcRTDxfName
1000
SCALE
  0
DICTIONARYVAR
  5
73F2
102
{ACAD_REACTORS
330
6377
102
}
330
6377
100
DictionaryVariables
280
     0
  1
1
  0
DICTIONARYVAR
  5
644D7
102
{ACAD_REACTORS
330
6377
102
}
330
6377
100
DictionaryVariables
280
     0
  1
0
  0
DICTIONARYVAR
  5
6149B
102
{ACAD_REACTORS
330
6377
102
}
330
6377
100
DictionaryVariables
280
     0
  1

  0
DICTIONARYVAR
  5
6378
102
{ACAD_REACTORS
330
6377
102
}
330
6377
100
DictionaryVariables
280
     0
  1
127
  0
ENDSEC
  0
EOF
