  0
SECTION
  2
HEADER
  9
$ACADVER
  1
AC1015
  9
$ACADMAINTVER
 70
     6
  9
$DWGCODEPAGE
  3
ANSI_932
  9
$INSBASE
 10
0.0
 20
0.0
 30
0.0
  9
$EXTMIN
 10
11922.2234248893
 20
-17969.03823141959
 30
0.0
  9
$EXTMAX
 10
12302.1854248893
 20
-17633.23281673369
 30
0.0
  9
$LIMMIN
 10
0.0
 20
0.0
  9
$LIMMAX
 10
840.0
 20
594.0
  9
$ORTHOMODE
 70
     1
  9
$REGENMODE
 70
     1
  9
$FILLMODE
 70
     1
  9
$QTEXTMODE
 70
     0
  9
$MIRRTEXT
 70
     1
  9
$LTSCALE
 40
7.0
  9
$ATTMODE
 70
     0
  9
$TEXTSIZE
 40
6.0
  9
$TRACEWID
 40
1.0
  9
$TEXTSTYLE
  7
STANDARD
  9
$CLAYER
  8
寸法線
  9
$CELTYPE
  6
BYLAYER
  9
$CECOLOR
 62
   256
  9
$CELTSCALE
 40
1.0
  9
$DISPSILH
 70
     0
  9
$DIMSCALE
 40
1.0
  9
$DIMASZ
 40
10.0
  9
$DIMEXO
 40
3.0
  9
$DIMDLI
 40
7.149999999999999
  9
$DIMRND
 40
0.0
  9
$DIMDLE
 40
0.0
  9
$DIMEXE
 40
2.0
  9
$DIMTP
 40
0.0
  9
$DIMTM
 40
0.0
  9
$DIMTXT
 40
18.0
  9
$DIMCEN
 40
0.0
  9
$DIMTSZ
 40
0.0
  9
$DIMTOL
 70
     0
  9
$DIMLIM
 70
     0
  9
$DIMTIH
 70
     0
  9
$DIMTOH
 70
     0
  9
$DIMSE1
 70
     0
  9
$DIMSE2
 70
     0
  9
$DIMTAD
 70
     3
  9
$DIMZIN
 70
     8
  9
$DIMBLK
  1
OPEN
  9
$DIMASO
 70
     1
  9
$DIMSHO
 70
     0
  9
$DIMPOST
  1

  9
$DIMAPOST
  1

  9
$DIMALT
 70
     0
  9
$DIMALTD
 70
     2
  9
$DIMALTF
 40
25.4
  9
$DIMLFAC
 40
1.0
  9
$DIMTOFL
 70
     0
  9
$DIMTVP
 40
0.0
  9
$DIMTIX
 70
     0
  9
$DIMSOXD
 70
     0
  9
$DIMSAH
 70
     0
  9
$DIMBLK1
  1

  9
$DIMBLK2
  1

  9
$DIMSTYLE
  2
STANDARD
  9
$DIMCLRD
 70
     8
  9
$DIMCLRE
 70
     8
  9
$DIMCLRT
 70
     0
  9
$DIMTFAC
 40
1.0
  9
$DIMGAP
 40
4.0
  9
$DIMJUST
 70
     0
  9
$DIMSD1
 70
     0
  9
$DIMSD2
 70
     0
  9
$DIMTOLJ
 70
     1
  9
$DIMTZIN
 70
     0
  9
$DIMALTZ
 70
     0
  9
$DIMALTTZ
 70
     0
  9
$DIMUPT
 70
     1
  9
$DIMDEC
 70
     2
  9
$DIMTDEC
 70
     2
  9
$DIMALTU
 70
     2
  9
$DIMALTTD
 70
     2
  9
$DIMTXSTY
  7
STANDARD
  9
$DIMAUNIT
 70
     0
  9
$DIMADEC
 70
     2
  9
$DIMALTRND
 40
0.0
  9
$DIMAZIN
 70
     2
  9
$DIMDSEP
 70
    46
  9
$DIMATFIT
 70
     3
  9
$DIMFRAC
 70
     0
  9
$DIMLDRBLK
  1
OPEN
  9
$DIMLUNIT
 70
     2
  9
$DIMLWD
 70
    -2
  9
$DIMLWE
 70
    -2
  9
$DIMTMOVE
 70
     0
  9
$LUNITS
 70
     2
  9
$LUPREC
 70
     2
  9
$SKETCHINC
 40
0.1
  9
$FILLETRAD
 40
0.6
  9
$AUNITS
 70
     0
  9
$AUPREC
 70
     2
  9
$MENU
  1
ACAD
  9
$ELEVATION
 40
0.0
  9
$PELEVATION
 40
0.0
  9
$THICKNESS
 40
0.0
  9
$LIMCHECK
 70
     0
  9
$CHAMFERA
 40
0.0
  9
$CHAMFERB
 40
0.0
  9
$CHAMFERC
 40
0.0
  9
$CHAMFERD
 40
0.0
  9
$SKPOLY
 70
     0
  9
$TDCREATE
 40
2449505.922222222
  9
$TDUCREATE
 40
2449505.547222222
  9
$TDUPDATE
 40
2456822.494045
  9
$TDUUPDATE
 40
2456822.119045
  9
$TDINDWG
 40
2.4807140046
  9
$TDUSRTIMER
 40
2456822.118905845
  9
$USRTIMER
 70
     1
  9
$ANGBASE
 50
0.0
  9
$ANGDIR
 70
     0
  9
$PDMODE
 70
     3
  9
$PDSIZE
 40
0.0
  9
$PLINEWID
 40
0.0
  9
$SPLFRAME
 70
     0
  9
$SPLINETYPE
 70
     6
  9
$SPLINESEGS
 70
     8
  9
$HANDSEED
  5
6B6CB
  9
$SURFTAB1
 70
     6
  9
$SURFTAB2
 70
     6
  9
$SURFTYPE
 70
     6
  9
$SURFU
 70
     6
  9
$SURFV
 70
     6
  9
$UCSBASE
  2

  9
$UCSNAME
  2

  9
$UCSORG
 10
0.0
 20
0.0
 30
0.0
  9
$UCSXDIR
 10
1.0
 20
0.0
 30
0.0
  9
$UCSYDIR
 10
0.0
 20
1.0
 30
0.0
  9
$UCSORTHOREF
  2

  9
$UCSORTHOVIEW
 70
     0
  9
$UCSORGTOP
 10
0.0
 20
0.0
 30
0.0
  9
$UCSORGBOTTOM
 10
0.0
 20
0.0
 30
0.0
  9
$UCSORGLEFT
 10
0.0
 20
0.0
 30
0.0
  9
$UCSORGRIGHT
 10
0.0
 20
0.0
 30
0.0
  9
$UCSORGFRONT
 10
0.0
 20
0.0
 30
0.0
  9
$UCSORGBACK
 10
0.0
 20
0.0
 30
0.0
  9
$PUCSBASE
  2

  9
$PUCSNAME
  2

  9
$PUCSORG
 10
0.0
 20
0.0
 30
0.0
  9
$PUCSXDIR
 10
1.0
 20
0.0
 30
0.0
  9
$PUCSYDIR
 10
0.0
 20
1.0
 30
0.0
  9
$PUCSORTHOREF
  2

  9
$PUCSORTHOVIEW
 70
     0
  9
$PUCSORGTOP
 10
0.0
 20
0.0
 30
0.0
  9
$PUCSORGBOTTOM
 10
0.0
 20
0.0
 30
0.0
  9
$PUCSORGLEFT
 10
0.0
 20
0.0
 30
0.0
  9
$PUCSORGRIGHT
 10
0.0
 20
0.0
 30
0.0
  9
$PUCSORGFRONT
 10
0.0
 20
0.0
 30
0.0
  9
$PUCSORGBACK
 10
0.0
 20
0.0
 30
0.0
  9
$USERI1
 70
     0
  9
$USERI2
 70
     0
  9
$USERI3
 70
     0
  9
$USERI4
 70
     0
  9
$USERI5
 70
     0
  9
$USERR1
 40
0.0
  9
$USERR2
 40
0.0
  9
$USERR3
 40
0.0
  9
$USERR4
 40
0.0
  9
$USERR5
 40
0.0
  9
$WORLDVIEW
 70
     0
  9
$SHADEDGE
 70
     3
  9
$SHADEDIF
 70
    70
  9
$TILEMODE
 70
     1
  9
$MAXACTVP
 70
    16
  9
$PINSBASE
 10
0.0
 20
0.0
 30
0.0
  9
$PLIMCHECK
 70
     0
  9
$PEXTMIN
 10
1.000000000000000E+20
 20
1.000000000000000E+20
 30
1.000000000000000E+20
  9
$PEXTMAX
 10
-1.000000000000000E+20
 20
-1.000000000000000E+20
 30
-1.000000000000000E+20
  9
$PLIMMIN
 10
0.0
 20
0.0
  9
$PLIMMAX
 10
0.0
 20
0.0
  9
$UNITMODE
 70
     0
  9
$VISRETAIN
 70
     0
  9
$PLINEGEN
 70
     0
  9
$PSLTSCALE
 70
     0
  9
$TREEDEPTH
 70
  3020
  9
$CMLSTYLE
  2
STANDARD
  9
$CMLJUST
 70
     0
  9
$CMLSCALE
 40
1.0
  9
$PROXYGRAPHICS
 70
     1
  9
$MEASUREMENT
 70
     0
  9
$CELWEIGHT
370
    -1
  9
$ENDCAPS
280
     0
  9
$JOINSTYLE
280
     0
  9
$LWDISPLAY
290
     0
  9
$INSUNITS
 70
     0
  9
$HYPERLINKBASE
  1

  9
$STYLESHEET
  1
spax form.ctb
  9
$XEDIT
290
     1
  9
$CEPSNTYPE
380
     0
  9
$PSTYLEMODE
290
     1
  9
$FINGERPRINTGUID
  2
{C1CFCF3E-DF91-11D3-B30C-0060B0FA8DFC}
  9
$VERSIONGUID
  2
{6E0E643B-4D17-4237-8A49-BF86D7C20795}
  9
$EXTNAMES
290
     1
  9
$PSVPSCALE
 40
0.0
  9
$OLESTARTUP
290
     0
  0
ENDSEC
  0
SECTION
  2
CLASSES
  0
CLASS
  1
LWPOLYLINE
  2
AcDbPolyline
  3
ObjectDBX Classes
 90
        0
280
     0
281
     1
  0
CLASS
  1
ACDBDICTIONARYWDFLT
  2
AcDbDictionaryWithDefault
  3
ObjectDBX Classes
 90
        0
280
     0
281
     0
  0
CLASS
  1
ACDBPLACEHOLDER
  2
AcDbPlaceHolder
  3
ObjectDBX Classes
 90
        0
280
     0
281
     0
  0
CLASS
  1
LAYOUT
  2
AcDbLayout
  3
ObjectDBX Classes
 90
        0
280
     0
281
     0
  0
CLASS
  1
DICTIONARYVAR
  2
AcDbDictionaryVar
  3
ObjectDBX Classes
 90
        0
280
     0
281
     0
  0
CLASS
  1
LONG_TRANSACTION
  2
AcDbLongTransaction
  3
ObjectDBX Classes
 90
        0
280
     0
281
     0
  0
CLASS
  1
LWPOLYLINE
  2
AcDbPolyline
  3
ObjectDBX Classes
 90
        0
280
     0
281
     1
  0
CLASS
  1
HATCH
  2
AcDbHatch
  3
ObjectDBX Classes
 90
        0
280
     0
281
     1
  0
CLASS
  1
XRECORD
  2
AcDbXrecord
  3
ObjectDBX Classes
 90
        0
280
     0
281
     0
  0
CLASS
  1
SORTENTSTABLE
  2
AcDbSortentsTable
  3
ObjectDBX Classes
 90
        0
280
     0
281
     0
  0
CLASS
  1
MATERIAL
  2
AcDbMaterial
  3
ObjectDBX Classes
 90
     1153
280
     0
281
     0
  0
CLASS
  1
VISUALSTYLE
  2
AcDbVisualStyle
  3
ObjectDBX Classes
 90
     4095
280
     0
281
     0
  0
CLASS
  1
TABLESTYLE
  2
AcDbTableStyle
  3
ObjectDBX Classes
 90
     4095
280
     0
281
     0
  0
CLASS
  1
SCALE
  2
AcDbScale
  3
ObjectDBX Classes
 90
     1153
280
     0
281
     0
  0
CLASS
  1
MLEADERSTYLE
  2
AcDbMLeaderStyle
  3
ACDB_MLEADERSTYLE_CLASS
 90
     4095
280
     0
281
     0
  0
CLASS
  1
CELLSTYLEMAP
  2
AcDbCellStyleMap
  3
ObjectDBX Classes
 90
     1152
280
     0
281
     0
  0
CLASS
  1
RASTERVARIABLES
  2
AcDbRasterVariables
  3
ISM
 90
        0
280
     0
281
     0
  0
CLASS
  1
SUN
  2
AcDbSun
  3
SCENEOE
 90
     1153
280
     0
281
     0
  0
ENDSEC
  0
SECTION
  2
TABLES
  0
TABLE
  2
VPORT
  5
8
330
0
100
AcDbSymbolTable
 70
     1
  0
VPORT
  5
6A81E
330
8
100
AcDbSymbolTableRecord
100
AcDbViewportTableRecord
  2
*Active
 70
     0
 10
0.0
 20
0.0
 11
1.0
 21
1.0
 12
12112.2044248893
 22
-17801.13552407664
 13
0.0
 23
0.0
 14
1.0
 24
1.0
 15
20.0
 25
20.0
 16
0.0
 26
0.0
 36
1.0
 17
0.0
 27
0.0
 37
0.0
 40
342.5215229796137
 41
2.027568922305764
 42
50.0
 43
0.0
 44
0.0
 50
0.0
 51
0.0
 71
    16
 72
  2000
 73
     1
 74
     0
 75
     0
 76
     0
 77
     0
 78
     1
281
     0
 65
     1
110
0.0
120
0.0
130
0.0
111
1.0
121
0.0
131
0.0
112
0.0
122
1.0
132
0.0
 79
     0
146
0.0
  0
ENDTAB
  0
TABLE
  2
LTYPE
  5
5
330
0
100
AcDbSymbolTable
 70
     5
  0
LTYPE
  5
12
330
5
100
AcDbSymbolTableRecord
100
AcDbLinetypeTableRecord
  2
BYBLOCK
 70
     0
  3

 72
    65
 73
     0
 40
0.0
  0
LTYPE
  5
13
330
5
100
AcDbSymbolTableRecord
100
AcDbLinetypeTableRecord
  2
BYLAYER
 70
     0
  3

 72
    65
 73
     0
 40
0.0
  0
LTYPE
  5
14
330
5
100
AcDbSymbolTableRecord
100
AcDbLinetypeTableRecord
  2
CONTINUOUS
 70
     0
  3
Solid line
 72
    65
 73
     0
 40
0.0
  0
LTYPE
  5
3D
330
5
100
AcDbSymbolTableRecord
100
AcDbLinetypeTableRecord
  2
PHANTOM
 70
     0
  3
_____ _ _ _____ _ _ _____ _ _ _____ _ _ ____
 72
    65
 73
     6
 40
2.5
 49
1.25
 74
     0
 49
-0.25
 74
     0
 49
0.25
 74
     0
 49
-0.25
 74
     0
 49
0.25
 74
     0
 49
-0.25
 74
     0
  0
LTYPE
  5
40D2
330
5
100
AcDbSymbolTableRecord
100
AcDbLinetypeTableRecord
  2
CENTER
 70
     0
  3
____ _ ____ _ ____ _ ____ _ ____ _ ____ _ ____ 
 72
    65
 73
     4
 40
2.0
 49
1.25
 74
     0
 49
-0.25
 74
     0
 49
0.25
 74
     0
 49
-0.25
 74
     0
  0
LTYPE
  5
A244
330
5
100
AcDbSymbolTableRecord
100
AcDbLinetypeTableRecord
  2
HIDDEN
 70
     0
  3
_ _ _ _ _ _ _ _ _ _ _ _ _ _ _ _ _ _ _ _ _ _ _
 72
    65
 73
     2
 40
0.375
 49
0.25
 74
     0
 49
-0.125
 74
     0
  0
ENDTAB
  0
TABLE
  2
LAYER
  5
2
102
{ACAD_XDICTIONARY
360
6388D
102
}
330
0
100
AcDbSymbolTable
 70
    12
  0
LAYER
  5
F
102
{ACAD_XDICTIONARY
360
66467
102
}
330
2
100
AcDbSymbolTableRecord
100
AcDbLayerTableRecord
  2
0
 70
     0
 62
     7
  6
CONTINUOUS
370
    -3
390
40CA
  0
LAYER
  5
4C
102
{ACAD_XDICTIONARY
360
6646F
102
}
330
2
100
AcDbSymbolTableRecord
100
AcDbLayerTableRecord
  2
寸法線
 70
     0
 62
     7
  6
CONTINUOUS
370
    -3
390
40CA
  0
LAYER
  5
4D
102
{ACAD_XDICTIONARY
360
66471
102
}
330
2
100
AcDbSymbolTableRecord
100
AcDbLayerTableRecord
  2
姿図
 70
     0
 62
     8
  6
CONTINUOUS
370
    -3
390
40CA
  0
LAYER
  5
40D4
102
{ACAD_XDICTIONARY
360
66475
102
}
330
2
100
AcDbSymbolTableRecord
100
AcDbLayerTableRecord
  2
文字
 70
     0
 62
     7
  6
CONTINUOUS
370
    -3
390
40CA
  0
LAYER
  5
6857F
102
{ACAD_XDICTIONARY
360
68580
102
}
330
2
100
AcDbSymbolTableRecord
100
AcDbLayerTableRecord
  2
C-SUNPO
 70
     0
 62
     7
  6
CONTINUOUS
370
    -3
390
40CA
  0
ENDTAB
  0
TABLE
  2
STYLE
  5
3
330
0
100
AcDbSymbolTable
 70
     1
  0
STYLE
  5
10
330
3
100
AcDbSymbolTableRecord
100
AcDbTextStyleTableRecord
  2
STANDARD
 70
     0
 40
0.0
 41
1.0
 50
0.0
 71
     0
 42
6.0
  3
MONOTXT
  4
BIGFONT
  0
ENDTAB
  0
TABLE
  2
VIEW
  5
6
330
0
100
AcDbSymbolTable
 70
     1
  0
VIEW
  5
41
330
6
100
AcDbSymbolTableRecord
100
AcDbViewTableRecord
  2
CUT1
 70
     0
 40
612.7795527156796
 10
420.0000000000169
 20
306.3897763578398
 41
840.0000000000338
 11
0.0
 21
0.0
 31
1.0
 12
0.0
 22
0.0
 32
0.0
 42
50.0
 43
0.0
 44
0.0
 50
0.0
 71
     0
281
     0
 72
     0
  0
ENDTAB
  0
TABLE
  2
UCS
  5
7
330
0
100
AcDbSymbolTable
 70
     0
  0
ENDTAB
  0
TABLE
  2
APPID
  5
9
330
0
100
AcDbSymbolTable
 70
     5
  0
APPID
  5
11
330
9
100
AcDbSymbolTableRecord
100
AcDbRegAppTableRecord
  2
ACAD
 70
     0
  0
APPID
  5
64E79
330
9
100
AcDbSymbolTableRecord
100
AcDbRegAppTableRecord
  2
ACAD_MLEADERVER
 70
     0
  0
APPID
  5
685CE
330
9
100
AcDbSymbolTableRecord
100
AcDbRegAppTableRecord
  2
ACAD_PSEXT
 70
     0
  0
APPID
  5
6B358
330
9
100
AcDbSymbolTableRecord
100
AcDbRegAppTableRecord
  2
ACAD_DSTYLE_DIMJAG
 70
     0
  0
APPID
  5
6B359
330
9
100
AcDbSymbolTableRecord
100
AcDbRegAppTableRecord
  2
ACAD_DSTYLE_DIMTALN
 70
     0
  0
ENDTAB
  0
TABLE
  2
DIMSTYLE
  5
A
330
0
100
AcDbSymbolTable
 70
     5
100
AcDbDimStyleTable
  0
DIMSTYLE
105
1B3A
330
A
100
AcDbSymbolTableRecord
100
AcDbDimStyleTableRecord
  2
STANDARD
 70
     0
 41
10.0
 42
3.0
 43
7.149999999999999
 44
2.0
 73
     0
 74
     0
 77
     3
 78
     8
 79
     2
140
18.0
141
0.0
147
4.0
176
     8
177
     8
178
     0
179
     2
271
     2
272
     2
288
     1
340
10
341
49C3
342
49C3
  0
DIMSTYLE
105
A246
330
A
100
AcDbSymbolTableRecord
100
AcDbDimStyleTableRecord
  2
STANDERD
 70
     0
 40
0.0
 41
4.0
 42
1.5
 43
3.75
 44
1.25
 73
     0
 74
     0
 77
     3
 78
     8
140
5.0
141
0.0
147
2.5
171
     0
173
     1
178
     0
288
     1
340
10
341
49C3
343
49C3
344
49C3
  0
DIMSTYLE
105
68583
330
A
100
AcDbSymbolTableRecord
100
AcDbDimStyleTableRecord
  2
STANDARD-5
 70
     0
 41
7.5
 42
7.5
 43
1.9
 44
5.0
 73
     0
 74
     0
 77
     1
 78
     8
 79
     2
140
8.0
141
0.0
147
3.0
171
     0
173
     1
176
     8
177
     8
271
     2
178
   256
179
     2
271
     2
272
     2
274
     0
340
10
341
49C3
343
49C3
344
49C3
  0
ENDTAB
  0
TABLE
  2
BLOCK_RECORD
  5
1
330
0
100
AcDbSymbolTable
 70
   148
  0
BLOCK_RECORD
  5
18
102
{ACAD_XDICTIONARY
360
9FD5
102
}
330
1
100
AcDbSymbolTableRecord
100
AcDbBlockTableRecord
  2
*MODEL_SPACE
340
40CD
  0
BLOCK_RECORD
  5
15
330
1
100
AcDbSymbolTableRecord
100
AcDbBlockTableRecord
  2
*PAPER_SPACE
340
40CE
  0
BLOCK_RECORD
  5
49C3
330
1
100
AcDbSymbolTableRecord
100
AcDbBlockTableRecord
  2
_OPEN
340
0
102
{BLKREFS
331
5D0F8
331
5D0F9
331
5D144
331
5D145
331
5D14D
331
5D14E
331
5D15F
331
5D160
331
5D168
331
5D169
331
5D280
331
5D281
331
5D289
331
5D28A
331
5D292
331
5D293
331
5D29B
331
5D29C
331
5D2A4
331
5D2A5
331
5D2AD
331
5D2AE
331
6195D
331
6195E
331
61966
331
61967
331
61971
331
61972
331
61987
331
61988
331
620FD
331
620FE
331
62BE8
331
62BE9
331
62BF1
331
62BF2
331
62BFA
331
62BFB
331
62C03
331
62C04
331
62C0C
331
62C0D
331
62C15
331
62C16
331
62C20
331
62C21
331
62C29
331
62C2A
331
62C32
331
62C33
331
62C3B
331
62C3C
331
62C44
331
62C45
331
62C4D
331
62C4E
331
62C56
331
62C57
331
62C61
331
62C62
331
62C6A
331
62C6B
331
62C75
331
62C76
331
63731
331
63732
331
6373C
331
6373D
331
63745
331
63746
331
6374E
331
6374F
331
63757
331
63758
331
63760
331
63761
331
63769
331
6376A
331
63772
331
63773
331
6377D
331
6377E
331
63786
331
63787
331
6378F
331
63790
331
63798
331
63799
331
637A1
331
637A2
331
637AA
331
637AB
331
637B5
331
637B6
331
637BE
331
637BF
331
658E3
331
658E4
331
658EC
331
658ED
331
658F5
331
658F6
331
658FE
331
658FF
331
65907
331
65908
331
65910
331
65911
331
6591B
331
6591C
331
65924
331
65925
331
6592D
331
6592E
331
65936
331
65937
331
6593F
331
65940
331
65948
331
65949
331
6596E
331
6596F
331
66094
331
66095
331
6609F
331
660A0
331
660A8
331
660A9
331
684E4
331
684E5
331
684ED
331
684EE
331
684F6
331
684F7
331
684FF
331
68500
331
68508
331
68509
331
68511
331
68512
331
6851C
331
6851D
331
68527
331
68528
331
68530
331
68531
331
68539
331
6853A
331
68544
331
68545
331
6854D
331
6854E
331
68556
331
68557
331
6855F
331
68560
331
68568
331
68569
331
68571
331
68572
331
69045
331
69046
331
6904E
331
6904F
331
69057
331
69058
331
69060
331
69061
331
69069
331
6906A
331
69072
331
69073
331
6907B
331
6907C
331
69084
331
69085
331
6908D
331
6908E
331
69096
331
69097
331
690A1
331
690A2
331
690AA
331
690AB
331
690B5
331
690B6
331
690C0
331
690C1
331
690C9
331
690CA
331
690D2
331
690D3
331
69BA8
331
69BA9
331
69BB3
331
69BB4
331
69BBC
331
69BBD
331
69BC5
331
69BC6
331
69BCE
331
69BCF
331
69BD7
331
69BD8
331
69BE0
331
69BE1
331
69BE9
331
69BEA
331
69BF2
331
69BF3
331
69BFB
331
69BFC
331
69C04
331
69C05
331
69C0D
331
69C0E
331
69C18
331
69C19
331
69C23
331
69C24
331
69C2C
331
69C2D
331
69C35
331
69C36
331
6A717
331
6A718
331
6A722
331
6A723
331
6A72B
331
6A72C
331
6A734
331
6A735
331
6A73D
331
6A73E
331
6A746
331
6A747
331
6A74F
331
6A750
331
6A758
331
6A759
331
6A763
331
6A764
331
6A76E
331
6A76F
331
6A777
331
6A778
331
6A780
331
6A781
331
6A789
331
6A78A
331
6A792
331
6A793
331
6A79B
331
6A79C
331
6A7A4
331
6A7A5
331
6B2B5
331
6B2B6
331
6B2C0
331
6B2C1
331
6B2C9
331
6B2CA
331
6B2D2
331
6B2D3
331
6B2DB
331
6B2DC
331
6B2E4
331
6B2E5
331
6B2ED
331
6B2EE
331
6B2F6
331
6B2F7
331
6B301
331
6B302
331
6B30C
331
6B30D
331
6B315
331
6B316
331
6B31E
331
6B31F
331
6B327
331
6B328
331
6B330
331
6B331
331
6B339
331
6B33A
331
6B342
331
6B343
102
}
  0
ENDTAB
  0
ENDSEC
  0
SECTION
  2
BLOCKS
  0
BLOCK
  5
52
330
18
100
AcDbEntity
  8
0
100
AcDbBlockBegin
  2
*MODEL_SPACE
 70
     0
 10
0.0
 20
0.0
 30
0.0
  3
*MODEL_SPACE
  1
*MODEL_SPACE
  0
ENDBLK
  5
53
330
18
100
AcDbEntity
  8
0
100
AcDbBlockEnd
  0
BLOCK
  5
50
330
15
100
AcDbEntity
 67
     1
  8
0
100
AcDbBlockBegin
  2
*PAPER_SPACE
 70
     0
 10
0.0
 20
0.0
 30
0.0
  3
*PAPER_SPACE
  1
*PAPER_SPACE
  0
ENDBLK
  5
51
330
15
100
AcDbEntity
 67
     1
  8
0
100
AcDbBlockEnd
  0
BLOCK
  5
49C7
330
49C3
100
AcDbEntity
  8
0
100
AcDbBlockBegin
  2
_OPEN
 70
     0
 10
0.0
 20
0.0
 30
0.0
  3
_OPEN
  1
_OPEN
  0
LINE
  5
49C4
330
49C3
100
AcDbEntity
  8
0
  6
ByBlock
 62
     0
100
AcDbLine
 10
-1.0
 20
0.1666666666666667
 30
0.0
 11
0.0
 21
0.0
 31
0.0
  0
LINE
  5
49C5
330
49C3
100
AcDbEntity
  8
0
  6
ByBlock
 62
     0
100
AcDbLine
 10
0.0
 20
0.0
 30
0.0
 11
-1.0
 21
-0.1666666666666667
 31
0.0
  0
LINE
  5
49C6
330
49C3
100
AcDbEntity
  8
0
  6
ByBlock
 62
     0
100
AcDbLine
 10
0.0
 20
0.0
 30
0.0
 11
-1.0
 21
0.0
 31
0.0
  0
ENDBLK
  5
49C8
330
49C3
100
AcDbEntity
  8
0
100
AcDbBlockEnd
  0
ENDSEC
  0
SECTION
  2
ENTITIES
  0
TEXT
  5
6AEB4
330
18
100
AcDbEntity
  8
文字
100
AcDbText
 10
11922.2234248893
 20
-17969.03823141959
 30
0.0
 40
29.997
  1
SX-LB102S/900
100
AcDbText
  0
LINE
  5
6AEB9
330
18
100
AcDbEntity
  8
姿図
100
AcDbLine
 10
12151.47397645716
 20
-17886.69653372119
 30
0.0
 11
12167.23355728577
 21
-17883.89674651295
 31
0.0
  0
LINE
  5
6AEBA
330
18
100
AcDbEntity
  8
姿図
100
AcDbLine
 10
12149.67038134305
 20
-17651.65457348182
 30
0.0
 11
12263.41875959427
 21
-17750.33140391124
 31
0.0
  0
LINE
  5
6AEBB
330
18
100
AcDbEntity
  8
姿図
100
AcDbLine
 10
12149.67038134305
 20
-17649.02979833036
 30
0.0
 11
12263.41875959427
 21
-17747.70662875978
 31
0.0
  0
LINE
  5
6AEBC
330
18
100
AcDbEntity
  8
姿図
100
AcDbLine
 10
12149.67038134305
 20
-17659.5288989362
 30
0.0
 11
12263.41875959427
 21
-17758.20572936562
 31
0.0
  0
LINE
  5
6AEBD
330
18
100
AcDbEntity
  8
姿図
100
AcDbLine
 10
12245.43804628984
 20
-17870.00323434908
 30
0.0
 11
12103.34209410374
 21
-17749.34517265933
 31
0.0
  0
LINE
  5
6AEBE
330
18
100
AcDbEntity
  8
姿図
100
AcDbLine
 10
12245.43804628982
 20
-17862.77949445348
 30
0.0
 11
12103.34209410374
 21
-17742.12143276375
 31
0.0
  0
LINE
  5
6AEBF
330
18
100
AcDbEntity
  8
姿図
100
AcDbLine
 10
12276.65530436652
 20
-17858.65380108535
 30
0.0
 11
12134.1721785733
 21
-17737.55478232884
 31
0.0
  0
LINE
  5
6AEC0
330
18
100
AcDbEntity
  8
姿図
100
AcDbLine
 10
12276.65530436652
 20
-17855.89368351637
 30
0.0
 11
12134.1721785733
 21
-17734.79466475987
 31
0.0
  0
LINE
  5
6AEC1
330
18
100
AcDbEntity
  8
姿図
100
AcDbLine
 10
12276.65530436652
 20
-17848.23093259987
 30
0.0
 11
12134.1721785733
 21
-17727.13191384336
 31
0.0
  0
LINE
  5
6AEC2
330
18
100
AcDbEntity
  8
姿図
100
AcDbLine
 10
12276.65530436652
 20
-17844.7801573527
 30
0.0
 11
12134.1721785733
 21
-17723.6811385962
 31
0.0
  0
LINE
  5
6AEC3
330
18
100
AcDbEntity
  8
姿図
100
AcDbLine
 10
12276.65530436652
 20
-17839.90847465082
 30
0.0
 11
12134.1721785733
 21
-17718.80945589432
 31
0.0
  0
LINE
  5
6AEC4
330
18
100
AcDbEntity
  8
姿図
100
AcDbLine
 10
12276.65530436652
 20
-17835.03679194894
 30
0.0
 11
12134.1721785733
 21
-17713.93777319244
 31
0.0
  0
LINE
  5
6AEC5
330
18
100
AcDbEntity
  8
姿図
100
AcDbLine
 10
12276.65530436652
 20
-17830.16510924706
 30
0.0
 11
12134.1721785733
 21
-17709.06609049056
 31
0.0
  0
LINE
  5
6AEC6
330
18
100
AcDbEntity
  8
姿図
100
AcDbLine
 10
12276.65530436652
 20
-17825.29342654518
 30
0.0
 11
12134.1721785733
 21
-17704.19440778868
 31
0.0
  0
LINE
  5
6AEC7
330
18
100
AcDbEntity
  8
姿図
100
AcDbLine
 10
12276.65530436652
 20
-17820.4217438433
 30
0.0
 11
12134.1721785733
 21
-17699.32272508679
 31
0.0
  0
LINE
  5
6AEC8
330
18
100
AcDbEntity
  8
姿図
100
AcDbLine
 10
12276.65530436652
 20
-17815.85454131028
 30
0.0
 11
12134.1721785733
 21
-17694.75552255378
 31
0.0
  0
LINE
  5
6AEC9
330
18
100
AcDbEntity
  8
姿図
100
AcDbLine
 10
12276.65530436652
 20
-17846.45479828148
 30
0.0
 11
12134.1721785733
 21
-17725.35577952497
 31
0.0
  0
LINE
  5
6AECA
330
18
100
AcDbEntity
  8
姿図
100
AcDbLine
 10
12276.65530436653
 20
-17841.5831155796
 30
0.0
 11
12134.1721785733
 21
-17720.48409682309
 31
0.0
  0
LINE
  5
6AECB
330
18
100
AcDbEntity
  8
姿図
100
AcDbLine
 10
12276.65530436653
 20
-17836.71143287772
 30
0.0
 11
12134.1721785733
 21
-17715.61241412121
 31
0.0
  0
LINE
  5
6AECC
330
18
100
AcDbEntity
  8
姿図
100
AcDbLine
 10
12276.65530436653
 20
-17831.83975017584
 30
0.0
 11
12134.1721785733
 21
-17710.74073141933
 31
0.0
  0
LINE
  5
6AECD
330
18
100
AcDbEntity
  8
姿図
100
AcDbLine
 10
12276.65530436653
 20
-17826.96806747395
 30
0.0
 11
12134.1721785733
 21
-17705.86904871745
 31
0.0
  0
LINE
  5
6AECE
330
18
100
AcDbEntity
  8
姿図
100
AcDbLine
 10
12276.65530436653
 20
-17822.09638477207
 30
0.0
 11
12134.1721785733
 21
-17700.99736601557
 31
0.0
  0
LINE
  5
6AECF
330
18
100
AcDbEntity
  8
姿図
100
AcDbLine
 10
12276.65530436653
 20
-17817.88440910274
 30
0.0
 11
12134.1721785733
 21
-17696.78539034623
 31
0.0
  0
LINE
  5
6AED0
330
18
100
AcDbEntity
  8
姿図
100
AcDbLine
 10
12275.35737659935
 20
-17818.02550734971
 30
0.0
 11
12134.1721785733
 21
-17698.02962117924
 31
0.0
  0
LINE
  5
6AED1
330
18
100
AcDbEntity
  8
姿図
100
AcDbLine
 10
12275.47763439123
 20
-17850.00706691827
 30
0.0
 11
12134.1721785733
 21
-17729.90897144747
 31
0.0
  0
LINE
  5
6AED2
330
18
100
AcDbEntity
  8
姿図
100
AcDbLine
 10
12275.59876081898
 20
-17809.96792471218
 30
0.0
 11
12134.1721785733
 21
-17689.76688167152
 31
0.0
  0
LINE
  5
6AED3
330
18
100
AcDbEntity
  8
姿図
100
AcDbLine
 10
12276.65530436652
 20
-17809.96792471218
 30
0.0
 11
12134.1721785733
 21
-17688.86890595567
 31
0.0
  0
LINE
  5
6AED4
330
18
100
AcDbEntity
  8
姿図
100
AcDbLine
 10
12276.65530436652
 20
-17807.93805691973
 30
0.0
 11
12134.1721785733
 21
-17686.83903816322
 31
0.0
  0
LINE
  5
6AED5
330
18
100
AcDbEntity
  8
姿図
100
AcDbLine
 10
12275.5057666593
 20
-17837.83463736261
 30
0.0
 11
12134.1721785733
 21
-17717.71263176183
 31
0.0
  0
LINE
  5
6AED6
330
18
100
AcDbEntity
  8
姿図
100
AcDbLine
 10
12167.23355728577
 20
-17883.89674651295
 30
0.0
 11
12026.03855242594
 21
-17763.98913109529
 31
0.0
  0
LINE
  5
6AED7
330
18
100
AcDbEntity
  8
姿図
100
AcDbLine
 10
12167.23355728577
 20
-17881.13662894398
 30
0.0
 11
12026.03855242594
 21
-17761.22901352631
 31
0.0
  0
LINE
  5
6AED8
330
18
100
AcDbEntity
  8
姿図
100
AcDbLine
 10
12089.16238968941
 20
-17752.77479017932
 30
0.0
 11
12230.26338116246
 21
-17872.69910765782
 31
0.0
  0
LINE
  5
6AED9
330
18
100
AcDbEntity
  8
姿図
100
AcDbLine
 10
11990.10463921499
 20
-17681.61709985712
 30
0.0
 11
12111.18124082702
 21
-17784.39889768101
 31
0.0
  0
LINE
  5
6AEDA
330
18
100
AcDbEntity
  8
姿図
100
AcDbLine
 10
12111.64553779051
 20
-17887.96880880779
 30
0.0
 11
11969.06722905182
 21
-17766.88669989146
 31
0.0
  0
LINE
  5
6AEDB
330
18
100
AcDbEntity
  8
姿図
100
AcDbLine
 10
12112.1721785733
 20
-17657.45441851564
 30
0.0
 11
11989.58687392186
 21
-17681.23245764073
 31
0.0
  0
LINE
  5
6AEDC
330
18
100
AcDbEntity
  8
姿図
100
AcDbLine
 10
12112.2542634716
 20
-17657.91646205442
 30
0.0
 11
11990.10463921499
 21
-17681.61709985712
 31
0.0
  0
LINE
  5
6AEDD
330
18
100
AcDbEntity
  8
姿図
100
AcDbLine
 10
12151.47397645716
 20
-17886.69653372119
 30
0.0
 11
12010.27897159733
 21
-17766.78891830352
 31
0.0
  0
LINE
  5
6AEDE
330
18
100
AcDbEntity
  8
姿図
100
AcDbLine
 10
12134.1721785733
 20
-17633.23281673369
 30
0.0
 11
11974.58687392186
 21
-17665.58413517574
 31
0.0
  0
LINE
  5
6AEDF
330
18
100
AcDbEntity
  8
姿図
100
AcDbLine
 10
12013.0390891663
 20
-17756.3147088463
 30
0.0
 11
11974.58687392186
 21
-17763.14598320191
 31
0.0
  0
LINE
  5
6AEE0
330
18
100
AcDbEntity
  8
姿図
100
AcDbLine
 10
12026.03855242594
 20
-17763.98913109529
 30
0.0
 11
12010.27897159733
 21
-17766.78891830352
 31
0.0
  0
LINE
  5
6AEE1
330
18
100
AcDbEntity
  8
姿図
100
AcDbLine
 10
12010.27897159733
 20
-17759.56517840794
 30
0.0
 11
11969.06722905182
 21
-17766.88669989146
 31
0.0
  0
LINE
  5
6AEE2
330
18
100
AcDbEntity
  8
姿図
100
AcDbLine
 10
11989.58687392186
 20
-17758.44982369244
 30
0.0
 11
11974.58687392186
 21
-17761.11466665878
 31
0.0
  0
LINE
  5
6AEE3
330
18
100
AcDbEntity
  8
姿図
100
AcDbLine
 10
11970.16919565553
 20
-17758.96361988533
 30
0.0
 11
11970.16919565553
 21
-17763.93081112561
 31
0.0
  0
LINE
  5
6AEE4
330
18
100
AcDbEntity
  8
姿図
100
AcDbLine
 10
11974.58687392186
 20
-17763.14598320191
 30
0.0
 11
11974.58687392186
 21
-17665.58413517574
 31
0.0
  0
LINE
  5
6AEE5
330
18
100
AcDbEntity
  8
姿図
100
AcDbLine
 10
11974.58687392186
 20
-17763.14598320191
 30
0.0
 11
11969.06722905182
 21
-17764.12658232248
 31
0.0
  0
LINE
  5
6AEE6
330
18
100
AcDbEntity
  8
姿図
100
AcDbLine
 10
11969.06722905182
 20
-17718.20082351829
 30
0.0
 11
11970.52100539834
 21
-17719.15550880431
 31
0.0
  0
LINE
  5
6AEE7
330
18
100
AcDbEntity
  8
姿図
100
AcDbLine
 10
11969.06722905182
 20
-17718.20082351829
 30
0.0
 11
11969.06722905182
 21
-17716.17095572584
 31
0.0
  0
LINE
  5
6AEE8
330
18
100
AcDbEntity
  8
姿図
100
AcDbLine
 10
11974.58687392186
 20
-17717.22022439772
 30
0.0
 11
11969.06722905182
 21
-17718.20082351829
 31
0.0
  0
LINE
  5
6AEE9
330
18
100
AcDbEntity
  8
姿図
100
AcDbLine
 10
11974.58687392186
 20
-17718.43318206185
 30
0.0
 11
11970.52100539834
 21
-17719.15550880431
 31
0.0
  0
LINE
  5
6AEEA
330
18
100
AcDbEntity
  8
姿図
100
AcDbLine
 10
11974.58687392186
 20
-17715.19035660527
 30
0.0
 11
11969.06722905182
 21
-17716.17095572584
 31
0.0
  0
ELLIPSE
  5
6AEEB
330
18
100
AcDbEntity
  8
姿図
100
AcDbEllipse
 10
11982.20418703816
 20
-17750.83673693964
 30
0.0
 11
1.557139847723761E-15
 21
3.508473521634053
 31
0.0
210
0.0
220
0.0
230
1.0
 40
0.6840581766403936
 41
0.0834300866107265
 42
3.058162566979068
  0
LINE
  5
6AEEC
330
18
100
AcDbEntity
  8
姿図
100
AcDbLine
 10
11969.06722905182
 20
-17735.20096628007
 30
0.0
 11
11969.06722905182
 21
-17733.52632535129
 31
0.0
  0
LINE
  5
6AEED
330
18
100
AcDbEntity
  8
姿図
100
AcDbLine
 10
11970.88599528298
 20
-17736.97806882745
 30
0.0
 11
11969.06722905182
 21
-17738.39800805318
 31
0.0
  0
LINE
  5
6AEEE
330
18
100
AcDbEntity
  8
姿図
100
AcDbLine
 10
11969.06722905182
 20
-17735.20096628007
 30
0.0
 11
11970.88599528298
 21
-17736.97806882745
 31
0.0
  0
LINE
  5
6AEEF
330
18
100
AcDbEntity
  8
姿図
100
AcDbLine
 10
11970.88599528298
 20
-17732.10638612557
 30
0.0
 11
11969.06722905182
 21
-17733.52632535129
 31
0.0
  0
LINE
  5
6AEF0
330
18
100
AcDbEntity
  8
姿図
100
AcDbLine
 10
11969.06722905182
 20
-17726.11730790885
 30
0.0
 11
11970.52100539834
 21
-17727.07199319486
 31
0.0
  0
LINE
  5
6AEF1
330
18
100
AcDbEntity
  8
姿図
100
AcDbLine
 10
11969.06722905182
 20
-17730.32928357818
 30
0.0
 11
11970.88599528298
 21
-17732.10638612557
 31
0.0
  0
LINE
  5
6AEF2
330
18
100
AcDbEntity
  8
姿図
100
AcDbLine
 10
11970.52100539834
 20
-17727.07199319486
 30
0.0
 11
11970.52100539834
 21
-17728.3963702713
 31
0.0
  0
LINE
  5
6AEF3
330
18
100
AcDbEntity
  8
姿図
100
AcDbLine
 10
11969.06722905182
 20
-17730.32928357818
 30
0.0
 11
11969.06722905182
 21
-17728.65464264941
 31
0.0
  0
LINE
  5
6AEF4
330
18
100
AcDbEntity
  8
姿図
100
AcDbLine
 10
11969.06722905182
 20
-17726.11730790885
 30
0.0
 11
11969.06722905182
 21
-17724.0874401164
 31
0.0
  0
LINE
  5
6AEF5
330
18
100
AcDbEntity
  8
姿図
100
AcDbLine
 10
11970.52100539834
 20
-17755.6423823736
 30
0.0
 11
11970.52100539834
 21
-17756.20555902788
 31
0.0
  0
LINE
  5
6AEF6
330
18
100
AcDbEntity
  8
姿図
100
AcDbLine
 10
11969.06722905182
 20
-17754.68769708759
 30
0.0
 11
11970.52100539834
 21
-17755.6423823736
 31
0.0
  0
LINE
  5
6AEF7
330
18
100
AcDbEntity
  8
姿図
100
AcDbLine
 10
11969.06722905182
 20
-17758.23996572438
 30
0.0
 11
11970.16919565553
 21
-17758.96361988533
 31
0.0
  0
LINE
  5
6AEF8
330
18
100
AcDbEntity
  8
姿図
100
AcDbLine
 10
11969.06722905182
 20
-17756.46383140598
 30
0.0
 11
11969.06722905182
 21
-17758.23996572438
 31
0.0
  0
LINE
  5
6AEF9
330
18
100
AcDbEntity
  8
姿図
100
AcDbLine
 10
11969.06722905182
 20
-17754.68769708759
 30
0.0
 11
11969.06722905182
 21
-17753.01305615882
 31
0.0
  0
LINE
  5
6AEFA
330
18
100
AcDbEntity
  8
姿図
100
AcDbLine
 10
11969.06722905182
 20
-17749.81601438571
 30
0.0
 11
11969.06722905182
 21
-17748.14137345694
 31
0.0
  0
LINE
  5
6AEFB
330
18
100
AcDbEntity
  8
姿図
100
AcDbLine
 10
11969.06722905182
 20
-17744.94433168383
 30
0.0
 11
11969.06722905182
 21
-17743.26969075506
 31
0.0
  0
LINE
  5
6AEFC
330
18
100
AcDbEntity
  8
姿図
100
AcDbLine
 10
11970.88599528298
 20
-17751.59311693309
 30
0.0
 11
11969.06722905182
 21
-17753.01305615882
 31
0.0
  0
LINE
  5
6AEFD
330
18
100
AcDbEntity
  8
姿図
100
AcDbLine
 10
11969.06722905182
 20
-17749.81601438571
 30
0.0
 11
11970.88599528298
 21
-17751.59311693309
 31
0.0
  0
LINE
  5
6AEFE
330
18
100
AcDbEntity
  8
姿図
100
AcDbLine
 10
11970.88599528298
 20
-17746.72143423121
 30
0.0
 11
11969.06722905182
 21
-17748.14137345694
 31
0.0
  0
LINE
  5
6AEFF
330
18
100
AcDbEntity
  8
姿図
100
AcDbLine
 10
11970.88599528298
 20
-17741.84975152933
 30
0.0
 11
11969.06722905182
 21
-17743.26969075506
 31
0.0
  0
LINE
  5
6AF00
330
18
100
AcDbEntity
  8
姿図
100
AcDbLine
 10
11969.06722905182
 20
-17740.07264898195
 30
0.0
 11
11970.88599528298
 21
-17741.84975152933
 31
0.0
  0
LINE
  5
6AF01
330
18
100
AcDbEntity
  8
姿図
100
AcDbLine
 10
11969.06722905182
 20
-17744.94433168383
 30
0.0
 11
11970.88599528298
 21
-17746.72143423121
 31
0.0
  0
LINE
  5
6AF02
330
18
100
AcDbEntity
  8
姿図
100
AcDbLine
 10
11969.06722905182
 20
-17740.07264898195
 30
0.0
 11
11969.06722905182
 21
-17738.39800805318
 31
0.0
  0
LINE
  5
6AF03
330
18
100
AcDbEntity
  8
姿図
100
AcDbLine
 10
11974.58687392186
 20
-17734.22036715949
 30
0.0
 11
11969.06722905182
 21
-17735.20096628007
 31
0.0
  0
LINE
  5
6AF04
330
18
100
AcDbEntity
  8
姿図
100
AcDbLine
 10
11974.58687392186
 20
-17736.32058480011
 30
0.0
 11
11970.88599528298
 21
-17736.97806882745
 31
0.0
  0
LINE
  5
6AF05
330
18
100
AcDbEntity
  8
姿図
100
AcDbLine
 10
11974.58687392186
 20
-17737.4174089326
 30
0.0
 11
11969.06722905182
 21
-17738.39800805318
 31
0.0
  0
LINE
  5
6AF06
330
18
100
AcDbEntity
  8
姿図
100
AcDbLine
 10
11974.58687392186
 20
-17723.10684099582
 30
0.0
 11
11969.06722905182
 21
-17724.0874401164
 31
0.0
  0
LINE
  5
6AF07
330
18
100
AcDbEntity
  8
姿図
100
AcDbLine
 10
11974.58687392186
 20
-17725.13670878828
 30
0.0
 11
11969.06722905182
 21
-17726.11730790885
 31
0.0
  0
LINE
  5
6AF08
330
18
100
AcDbEntity
  8
姿図
100
AcDbLine
 10
11974.58687392186
 20
-17727.67404352884
 30
0.0
 11
11969.06722905182
 21
-17728.65464264941
 31
0.0
  0
LINE
  5
6AF09
330
18
100
AcDbEntity
  8
姿図
100
AcDbLine
 10
11974.58687392186
 20
-17726.3496664524
 30
0.0
 11
11970.52100539834
 21
-17727.07199319487
 31
0.0
  0
LINE
  5
6AF0A
330
18
100
AcDbEntity
  8
姿図
100
AcDbLine
 10
11974.58687392186
 20
-17731.44890209823
 30
0.0
 11
11970.88599528298
 21
-17732.10638612557
 31
0.0
  0
LINE
  5
6AF0B
330
18
100
AcDbEntity
  8
姿図
100
AcDbLine
 10
11974.58687392186
 20
-17729.34868445761
 30
0.0
 11
11969.06722905182
 21
-17730.32928357818
 31
0.0
  0
LINE
  5
6AF0C
330
18
100
AcDbEntity
  8
姿図
100
AcDbLine
 10
11974.58687392186
 20
-17732.54572623072
 30
0.0
 11
11969.06722905182
 21
-17733.5263253513
 31
0.0
  0
LINE
  5
6AF0D
330
18
100
AcDbEntity
  8
姿図
100
AcDbLine
 10
11974.58687392186
 20
-17741.192267502
 30
0.0
 11
11970.88599528298
 21
-17741.84975152933
 31
0.0
  0
LINE
  5
6AF0E
330
18
100
AcDbEntity
  8
姿図
100
AcDbLine
 10
11974.58687392186
 20
-17742.28909163448
 30
0.0
 11
11969.06722905182
 21
-17743.26969075506
 31
0.0
  0
LINE
  5
6AF0F
330
18
100
AcDbEntity
  8
姿図
100
AcDbLine
 10
11974.58687392186
 20
-17743.96373256325
 30
0.0
 11
11969.06722905182
 21
-17744.94433168383
 31
0.0
  0
LINE
  5
6AF10
330
18
100
AcDbEntity
  8
姿図
100
AcDbLine
 10
11974.58687392186
 20
-17746.06395020388
 30
0.0
 11
11970.88599528298
 21
-17746.72143423121
 31
0.0
  0
LINE
  5
6AF11
330
18
100
AcDbEntity
  8
姿図
100
AcDbLine
 10
11974.58687392186
 20
-17747.16077433636
 30
0.0
 11
11969.06722905182
 21
-17748.14137345694
 31
0.0
  0
LINE
  5
6AF12
330
18
100
AcDbEntity
  8
姿図
100
AcDbLine
 10
11974.58687392186
 20
-17748.83541526514
 30
0.0
 11
11969.06722905182
 21
-17749.81601438571
 31
0.0
  0
LINE
  5
6AF13
330
18
100
AcDbEntity
  8
姿図
100
AcDbLine
 10
11974.58687392186
 20
-17750.93563290576
 30
0.0
 11
11970.88599528298
 21
-17751.59311693309
 31
0.0
  0
LINE
  5
6AF14
330
18
100
AcDbEntity
  8
姿図
100
AcDbLine
 10
11974.58687392186
 20
-17752.03245703824
 30
0.0
 11
11969.06722905182
 21
-17753.01305615882
 31
0.0
  0
LINE
  5
6AF15
330
18
100
AcDbEntity
  8
姿図
100
AcDbLine
 10
11974.58687392186
 20
-17753.70709796702
 30
0.0
 11
11969.06722905182
 21
-17754.68769708759
 31
0.0
  0
LINE
  5
6AF16
330
18
100
AcDbEntity
  8
姿図
100
AcDbLine
 10
11974.58687392186
 20
-17755.48323228541
 30
0.0
 11
11969.06722905182
 21
-17756.46383140598
 31
0.0
  0
LINE
  5
6AF17
330
18
100
AcDbEntity
  8
姿図
100
AcDbLine
 10
11974.58687392186
 20
-17757.2593666038
 30
0.0
 11
11969.06722905182
 21
-17758.23996572438
 31
0.0
  0
LINE
  5
6AF18
330
18
100
AcDbEntity
  8
姿図
100
AcDbLine
 10
11974.58687392186
 20
-17758.17879196162
 30
0.0
 11
11970.16919565553
 21
-17758.96361988533
 31
0.0
  0
LINE
  5
6AF19
330
18
100
AcDbEntity
  8
姿図
100
AcDbLine
 10
11974.58687392186
 20
-17757.2593666038
 30
0.0
 11
11969.06722905182
 21
-17758.23996572438
 31
0.0
  0
LINE
  5
6AF1A
330
18
100
AcDbEntity
  8
姿図
100
AcDbLine
 10
11974.58687392186
 20
-17739.09204986137
 30
0.0
 11
11969.06722905182
 21
-17740.07264898195
 31
0.0
  0
LINE
  5
6AF1B
330
18
100
AcDbEntity
  8
姿図
100
AcDbLine
 10
11971.23631477481
 20
-17719.02842966027
 30
0.0
 11
11971.23631477481
 21
-17723.70208859425
 31
0.0
  0
ELLIPSE
  5
6AF1C
330
18
100
AcDbEntity
  8
姿図
100
AcDbEllipse
 10
11982.20418703816
 20
-17719.62499450654
 30
0.0
 11
1.557139847723761E-15
 21
3.508473521634053
 31
0.0
210
0.0
220
0.0
230
1.0
 40
0.6840581766403936
 41
0.0834300866107265
 42
3.058162566979068
  0
LINE
  5
6AF1D
330
18
100
AcDbEntity
  8
姿図
100
AcDbLine
 10
11969.06722905182
 20
-17766.88669989146
 30
0.0
 11
11969.06722905182
 21
-17764.12658232248
 31
0.0
  0
ELLIPSE
  5
6AF1E
330
18
100
AcDbEntity
  8
姿図
100
AcDbEllipse
 10
11981.80418703816
 20
-17750.83673693964
 30
0.0
 11
0.0
 21
-3.508473521634005
 31
0.0
210
0.0
220
0.0
230
1.0
 40
0.6840581766403772
 41
0.0
 42
6.283185307179586
  0
ELLIPSE
  5
6AF1F
330
18
100
AcDbEntity
  8
姿図
100
AcDbEllipse
 10
11981.80418703816
 20
-17719.62499450654
 30
0.0
 11
0.0
 21
-3.508473521634005
 31
0.0
210
0.0
220
0.0
230
1.0
 40
0.6840581766403772
 41
0.0
 42
6.283185307179586
  0
LINE
  5
6AF20
330
18
100
AcDbEntity
  8
姿図
100
AcDbLine
 10
11989.58687392186
 20
-17758.44982369244
 30
0.0
 11
11989.58687392186
 21
-17681.23245764073
 31
0.0
  0
LINE
  5
6AF21
330
18
100
AcDbEntity
  8
姿図
100
AcDbLine
 10
11990.10463921499
 20
-17758.08728053117
 30
0.0
 11
11990.10463921499
 21
-17681.61709985712
 31
0.0
  0
LINE
  5
6AF22
330
18
100
AcDbEntity
  8
姿図
100
AcDbLine
 10
11990.10463921499
 20
-17758.08728053117
 30
0.0
 11
11989.58687392186
 21
-17758.44982369244
 31
0.0
  0
LINE
  5
6AF23
330
18
100
AcDbEntity
  8
姿図
100
AcDbLine
 10
12010.27897159733
 20
-17759.56517840794
 30
0.0
 11
12010.27897159733
 21
-17766.78891830352
 31
0.0
  0
LINE
  5
6AF24
330
18
100
AcDbEntity
  8
姿図
100
AcDbLine
 10
12026.03855242594
 20
-17761.22901352631
 30
0.0
 11
12026.03855242594
 21
-17763.98913109529
 31
0.0
  0
ARC
  5
6AF25
330
18
100
AcDbEntity
  8
姿図
100
AcDbCircle
 10
12021.03048559775
 20
-17761.37240085302
 30
0.0
 40
1.0
100
AcDbArc
 50
0.0
 51
68.1123200950065
  0
ARC
  5
6AF26
330
18
100
AcDbEntity
  8
姿図
100
AcDbCircle
 10
12021.53048559775
 20
-17761.52207040245
 30
0.0
 40
0.5
100
AcDbArc
 50
280.0738452396549
 51
0.0
  0
LINE
  5
6AF27
330
18
100
AcDbEntity
  8
姿図
100
AcDbLine
 10
12022.03048559775
 20
-17761.37240085302
 30
0.0
 11
12022.03048559775
 21
-17761.52207040245
 31
0.0
  0
ARC
  5
6AF28
330
18
100
AcDbEntity
  8
姿図
100
AcDbCircle
 10
12013.5390891663
 20
-17762.94179150722
 30
0.0
 40
0.5
100
AcDbArc
 50
180.0
 51
280.0738452396549
  0
LINE
  5
6AF29
330
18
100
AcDbEntity
  8
姿図
100
AcDbLine
 10
12015.27172190302
 20
-17757.98114770997
 30
0.0
 11
12015.64451016785
 21
-17757.05323127537
 31
0.0
  0
LINE
  5
6AF2A
330
18
100
AcDbEntity
  8
姿図
100
AcDbLine
 10
12013.0390891663
 20
-17756.3147088463
 30
0.0
 11
12013.0390891663
 21
-17762.94179150722
 31
0.0
  0
LINE
  5
6AF2B
330
18
100
AcDbEntity
  8
姿図
100
AcDbLine
 10
12021.61794424537
 20
-17762.01436196744
 30
0.0
 11
12013.62654781393
 21
-17763.43408307221
 31
0.0
  0
LINE
  5
6AF2C
330
18
100
AcDbEntity
  8
姿図
100
AcDbLine
 10
12013.0390891663
 20
-17759.07482641528
 30
0.0
 11
12017.76578926571
 21
-17762.69872117429
 31
0.0
  0
LINE
  5
6AF2D
330
18
100
AcDbEntity
  8
姿図
100
AcDbLine
 10
12015.27172190302
 20
-17757.98114770997
 30
0.0
 11
12021.40327386258
 21
-17760.44448441841
 31
0.0
  0
LINE
  5
6AF2E
330
18
100
AcDbEntity
  8
姿図
100
AcDbLine
 10
12015.64451016785
 20
-17757.05323127537
 30
0.0
 11
12026.03855242594
 21
-17761.22901352631
 31
0.0
  0
LINE
  5
6AF2F
330
18
100
AcDbEntity
  8
姿図
100
AcDbLine
 10
12134.1721785733
 20
-17737.55478232884
 30
0.0
 11
12103.34209410374
 21
-17742.12143276375
 31
0.0
  0
LINE
  5
6AF30
330
18
100
AcDbEntity
  8
姿図
100
AcDbLine
 10
12129.1721785733
 20
-17735.68294574865
 30
0.0
 11
12101.34209410374
 21
-17739.71662759029
 31
0.0
  0
LINE
  5
6AF31
330
18
100
AcDbEntity
  8
姿図
100
AcDbLine
 10
12103.34209410374
 20
-17742.12143276375
 30
0.0
 11
12103.34209410374
 21
-17749.34517265933
 31
0.0
  0
LINE
  5
6AF32
330
18
100
AcDbEntity
  8
姿図
100
AcDbLine
 10
12089.16238968941
 20
-17752.77479017932
 30
0.0
 11
12092.96669954049
 21
-17747.21780095413
 31
0.0
  0
LINE
  5
6AF33
330
18
100
AcDbEntity
  8
姿図
100
AcDbLine
 10
12093.27868439673
 20
-17746.76208190063
 30
0.0
 11
12095.1993002836
 21
-17743.95662119768
 31
0.0
  0
LINE
  5
6AF34
330
18
100
AcDbEntity
  8
姿図
100
AcDbLine
 10
12098.67948112063
 20
-17749.00207682923
 30
0.0
 11
12095.56718915937
 21
-17746.52727474215
 31
0.0
  0
LINE
  5
6AF35
330
18
100
AcDbEntity
  8
姿図
100
AcDbLine
 10
12101.34209410374
 20
-17747.66916851171
 30
0.0
 11
12098.52271614006
 21
-17749.08055362921
 31
0.0
  0
LINE
  5
6AF36
330
18
100
AcDbEntity
  8
姿図
100
AcDbLine
 10
12101.34209410374
 20
-17739.71662759029
 30
0.0
 11
12101.34209410374
 21
-17747.66916851171
 31
0.0
  0
ARC
  5
6AF37
330
18
100
AcDbEntity
  8
姿図
100
AcDbCircle
 10
12095.25599551571
 20
-17747.12176111555
 30
0.0
 40
0.5
100
AcDbArc
 50
51.50932280863591
 51
100.0738452396549
  0
LINE
  5
6AF38
330
18
100
AcDbEntity
  8
姿図
100
AcDbLine
 10
12098.52271614006
 20
-17749.08055362921
 30
0.0
 11
12095.56718915937
 21
-17746.73040639647
 31
0.0
  0
ARC
  5
6AF39
330
18
100
AcDbEntity
  8
姿図
100
AcDbCircle
 10
12095.25599551571
 20
-17746.91862946123
 30
0.0
 40
0.5
100
AcDbArc
 50
51.50932280863591
 51
100.0738452396549
  0
LINE
  5
6AF3A
330
18
100
AcDbEntity
  8
姿図
100
AcDbLine
 10
12095.56718915937
 20
-17746.73040639647
 30
0.0
 11
12095.56718915937
 21
-17746.52727474215
 31
0.0
  0
LINE
  5
6AF3B
330
18
100
AcDbEntity
  8
姿図
100
AcDbLine
 10
12095.89611553416
 20
-17749.54718550588
 30
0.0
 11
12093.9882203255
 21
-17749.88613491437
 31
0.0
  0
LINE
  5
6AF3C
330
18
100
AcDbEntity
  8
姿図
100
AcDbLine
 10
12098.52271614006
 20
-17749.08055362921
 30
0.0
 11
12095.89611553416
 21
-17749.54718550588
 31
0.0
  0
LINE
  5
6AF3D
330
18
100
AcDbEntity
  8
姿図
100
AcDbLine
 10
12095.32807069381
 20
-17746.42385156287
 30
0.0
 11
12096.36700960645
 21
-17744.90626425553
 31
0.0
  0
LINE
  5
6AF3E
330
18
100
AcDbEntity
  8
姿図
100
AcDbLine
 10
12096.36700960646
 20
-17744.90626425554
 30
0.0
 11
12096.83394252429
 21
-17747.53455937687
 31
0.0
  0
LINE
  5
6AF3F
330
18
100
AcDbEntity
  8
姿図
100
AcDbLine
 10
12095.1993002836
 20
-17743.95662119768
 30
0.0
 11
12096.36700960645
 21
-17744.90626425553
 31
0.0
  0
ARC
  5
6AF40
330
18
100
AcDbEntity
  8
姿図
100
AcDbCircle
 10
12092.99976381592
 20
-17747.11633135196
 30
0.0
 40
0.1
100
AcDbArc
 50
100.0738452396549
 51
231.5093228086359
  0
LINE
  5
6AF41
330
18
100
AcDbEntity
  8
姿図
100
AcDbLine
 10
12092.90282288521
 20
-17746.82885602765
 30
0.0
 11
12092.90282288521
 21
-17747.0917863738
 31
0.0
  0
LINE
  5
6AF42
330
18
100
AcDbEntity
  8
姿図
100
AcDbLine
 10
12095.16853686809
 20
-17746.62946955056
 30
0.0
 11
12092.9822720864
 21
-17747.01787303896
 31
0.0
  0
LINE
  5
6AF43
330
18
100
AcDbEntity
  8
姿図
100
AcDbLine
 10
12095.16853686809
 20
-17746.42633789625
 30
0.0
 11
12092.90282288521
 21
-17746.82885602765
 31
0.0
  0
LINE
  5
6AF44
330
18
100
AcDbEntity
  8
姿図
100
AcDbLine
 10
12095.89611553416
 20
-17749.54718550588
 30
0.0
 11
12092.93752508719
 21
-17747.19460229578
 31
0.0
  0
ARC
  5
6AF45
330
18
100
AcDbEntity
  8
姿図
100
AcDbCircle
 10
12093.90076167787
 20
-17749.39384334938
 30
0.0
 40
0.5
100
AcDbArc
 50
145.6044933459069
 51
280.0738452396549
  0
LINE
  5
6AF46
330
18
100
AcDbEntity
  8
姿図
100
AcDbLine
 10
12093.48818277661
 20
-17749.11139220275
 30
0.0
 11
12094.14376898447
 21
-17748.15377159984
 31
0.0
  0
LINE
  5
6AF47
330
18
100
AcDbEntity
  8
姿図
100
AcDbLine
 10
12103.34209410374
 20
-17749.34517265933
 30
0.0
 11
12089.16238968941
 21
-17752.77479017932
 31
0.0
  0
LINE
  5
6AF48
330
18
100
AcDbEntity
  8
姿図
100
AcDbLine
 10
12134.1721785733
 20
-17633.23281673369
 30
0.0
 11
12149.67038134305
 21
-17646.4050231789
 31
0.0
  0
LINE
  5
6AF49
330
18
100
AcDbEntity
  8
姿図
100
AcDbLine
 10
12111.64553779051
 20
-17887.96880880779
 30
0.0
 11
12145.82143769018
 21
-17881.89724837673
 31
0.0
  0
LINE
  5
6AF4A
330
18
100
AcDbEntity
  8
姿図
100
AcDbLine
 10
12126.18124082702
 20
-17846.27360118441
 30
0.0
 11
12126.18124082702
 21
-17784.23778990859
 31
0.0
  0
LINE
  5
6AF4B
330
18
100
AcDbEntity
  8
姿図
100
AcDbLine
 10
12126.69900612015
 20
-17846.71330513645
 30
0.0
 11
12126.69900612015
 21
-17784.67784811615
 31
0.0
  0
LINE
  5
6AF4C
330
18
100
AcDbEntity
  8
姿図
100
AcDbLine
 10
12123.74469228174
 20
-17782.16692266488
 30
0.0
 11
12111.18124082702
 21
-17784.39889768101
 31
0.0
  0
LINE
  5
6AF4D
330
18
100
AcDbEntity
  8
姿図
100
AcDbLine
 10
12111.18124082702
 20
-17784.39889768101
 30
0.0
 11
12111.18124082702
 21
-17833.53508941446
 31
0.0
  0
LINE
  5
6AF4E
330
18
100
AcDbEntity
  8
姿図
100
AcDbLine
 10
12130.82161942625
 20
-17689.4641535541
 30
0.0
 11
12131.92810296261
 21
-17690.16555561199
 31
0.0
  0
LINE
  5
6AF4F
330
18
100
AcDbEntity
  8
姿図
100
AcDbLine
 10
12134.1721785733
 20
-17688.86890595568
 30
0.0
 11
12130.82161942625
 21
-17689.4641535541
 31
0.0
  0
LINE
  5
6AF50
330
18
100
AcDbEntity
  8
姿図
100
AcDbLine
 10
12134.1721785733
 20
-17686.83903816323
 30
0.0
 11
12130.82161942625
 21
-17687.43428576164
 31
0.0
  0
LINE
  5
6AF51
330
18
100
AcDbEntity
  8
姿図
100
AcDbLine
 10
12132.41728530081
 20
-17727.44368150962
 30
0.0
 11
12130.82161942625
 21
-17727.72716144179
 31
0.0
  0
LINE
  5
6AF52
330
18
100
AcDbEntity
  8
姿図
100
AcDbLine
 10
12134.1721785733
 20
-17694.75552255378
 30
0.0
 11
12130.82161942625
 21
-17695.3507701522
 31
0.0
  0
LINE
  5
6AF53
330
18
100
AcDbEntity
  8
姿図
100
AcDbLine
 10
12134.1721785733
 20
-17728.90804816176
 30
0.0
 11
12130.82161942625
 21
-17729.50329576018
 31
0.0
  0
LINE
  5
6AF54
330
18
100
AcDbEntity
  8
姿図
100
AcDbLine
 10
12134.1721785733
 20
-17696.78539034623
 30
0.0
 11
12130.82161942625
 21
-17697.38063794465
 31
0.0
  0
LINE
  5
6AF55
330
18
100
AcDbEntity
  8
姿図
100
AcDbLine
 10
12134.1721785733
 20
-17699.32272508679
 30
0.0
 11
12130.82161942625
 21
-17699.91797268522
 31
0.0
  0
LINE
  5
6AF56
330
18
100
AcDbEntity
  8
姿図
100
AcDbLine
 10
12134.1721785733
 20
-17700.99736601557
 30
0.0
 11
12130.82161942625
 21
-17701.59261361399
 31
0.0
  0
LINE
  5
6AF57
330
18
100
AcDbEntity
  8
姿図
100
AcDbLine
 10
12134.1721785733
 20
-17709.06609049055
 30
0.0
 11
12130.82161942625
 21
-17709.66133808898
 31
0.0
  0
LINE
  5
6AF58
330
18
100
AcDbEntity
  8
姿図
100
AcDbLine
 10
12134.1721785733
 20
-17710.74073141933
 30
0.0
 11
12130.82161942625
 21
-17711.33597901775
 31
0.0
  0
LINE
  5
6AF59
330
18
100
AcDbEntity
  8
姿図
100
AcDbLine
 10
12134.1721785733
 20
-17713.93777319244
 30
0.0
 11
12130.82161942625
 21
-17714.53302079086
 31
0.0
  0
LINE
  5
6AF5A
330
18
100
AcDbEntity
  8
姿図
100
AcDbLine
 10
12134.1721785733
 20
-17715.61241412121
 30
0.0
 11
12130.82161942625
 21
-17716.20766171963
 31
0.0
  0
LINE
  5
6AF5B
330
18
100
AcDbEntity
  8
姿図
100
AcDbLine
 10
12134.1721785733
 20
-17718.80945589432
 30
0.0
 11
12130.82161942625
 21
-17719.40470349274
 31
0.0
  0
LINE
  5
6AF5C
330
18
100
AcDbEntity
  8
姿図
100
AcDbLine
 10
12134.1721785733
 20
-17720.48409682309
 30
0.0
 11
12130.82161942625
 21
-17721.07934442151
 31
0.0
  0
LINE
  5
6AF5D
330
18
100
AcDbEntity
  8
姿図
100
AcDbLine
 10
12134.1721785733
 20
-17728.90804816176
 30
0.0
 11
12130.82161942625
 21
-17729.50329576018
 31
0.0
  0
LINE
  5
6AF5E
330
18
100
AcDbEntity
  8
姿図
100
AcDbLine
 10
12130.82161942625
 20
-17729.50329576018
 30
0.0
 11
12131.92358602996
 21
-17730.22694992113
 31
0.0
  0
LINE
  5
6AF5F
330
18
100
AcDbEntity
  8
姿図
100
AcDbLine
 10
12130.82161942625
 20
-17697.38063794465
 30
0.0
 11
12131.92810296261
 21
-17698.39702195083
 31
0.0
  0
LINE
  5
6AF60
330
18
100
AcDbEntity
  8
姿図
100
AcDbLine
 10
12130.82161942625
 20
-17701.59261361399
 30
0.0
 11
12132.64038565741
 21
-17703.36971616137
 31
0.0
  0
LINE
  5
6AF61
330
18
100
AcDbEntity
  8
姿図
100
AcDbLine
 10
12130.82161942625
 20
-17711.33597901775
 30
0.0
 11
12132.64038565742
 21
-17713.00664545568
 31
0.0
  0
LINE
  5
6AF62
330
18
100
AcDbEntity
  8
姿図
100
AcDbLine
 10
12130.82161942625
 20
-17716.20766171963
 30
0.0
 11
12132.64038565742
 21
-17717.87832815756
 31
0.0
  0
LINE
  5
6AF63
330
18
100
AcDbEntity
  8
姿図
100
AcDbLine
 10
12130.82161942625
 20
-17721.07934442151
 30
0.0
 11
12132.64038565742
 21
-17722.75001085944
 31
0.0
  0
LINE
  5
6AF64
330
18
100
AcDbEntity
  8
姿図
  6
Continuous
370
     0
100
AcDbLine
 10
12134.1721785733
 20
-17728.81375411811
 30
0.0
 11
12127.1134145156
 21
-17723.30286668304
 31
0.0
  0
LINE
  5
6AF65
330
18
100
AcDbEntity
  8
姿図
  6
Continuous
370
     0
100
AcDbLine
 10
12134.1721785733
 20
-17728.56002064405
 30
0.0
 11
12127.23649100503
 21
-17723.14522094808
 31
0.0
  0
LINE
  5
6AF66
330
18
100
AcDbEntity
  8
姿図
  6
Continuous
370
     0
100
AcDbLine
 10
12134.1721785733
 20
-17724.7540185332
 30
0.0
 11
12127.83572529528
 21
-17719.80705041425
 31
0.0
  0
LINE
  5
6AF67
330
18
100
AcDbEntity
  8
姿図
  6
Continuous
370
     0
100
AcDbLine
 10
12134.1721785733
 20
-17705.26728772568
 30
0.0
 11
12127.83572529528
 21
-17700.32031960672
 31
0.0
  0
LINE
  5
6AF68
330
18
100
AcDbEntity
  8
姿図
  6
Continuous
370
     0
100
AcDbLine
 10
12134.1721785733
 20
-17709.07328983653
 30
0.0
 11
12127.23649100503
 21
-17703.65849014057
 31
0.0
  0
LINE
  5
6AF69
330
18
100
AcDbEntity
  8
姿図
  6
Continuous
370
     0
100
AcDbLine
 10
12134.1721785733
 20
-17709.32702331058
 30
0.0
 11
12127.1134145156
 21
-17703.81613587552
 31
0.0
  0
LINE
  5
6AF6A
330
18
100
AcDbEntity
  8
姿図
100
AcDbLine
 10
12130.82161942625
 20
-17689.46415355409
 30
0.0
 11
12130.82161942625
 21
-17687.43428576164
 31
0.0
  0
LINE
  5
6AF6B
330
18
100
AcDbEntity
  8
姿図
100
AcDbLine
 10
12129.1721785733
 20
-17720.85044037843
 30
0.0
 11
12129.1721785733
 21
-17705.42344515581
 31
0.0
  0
LINE
  5
6AF6C
330
18
100
AcDbEntity
  8
姿図
100
AcDbLine
 10
12130.82161942625
 20
-17697.38063794465
 30
0.0
 11
12130.82161942625
 21
-17695.3507701522
 31
0.0
  0
LINE
  5
6AF6D
330
18
100
AcDbEntity
  8
姿図
100
AcDbLine
 10
12130.82161942625
 20
-17716.20766171963
 30
0.0
 11
12130.82161942625
 21
-17714.53302079086
 31
0.0
  0
LINE
  5
6AF6E
330
18
100
AcDbEntity
  8
姿図
100
AcDbLine
 10
12130.82161942625
 20
-17721.07934442151
 30
0.0
 11
12130.82161942625
 21
-17719.40470349274
 31
0.0
  0
LINE
  5
6AF6F
330
18
100
AcDbEntity
  8
姿図
100
AcDbLine
 10
12130.82161942625
 20
-17701.59261361399
 30
0.0
 11
12130.82161942625
 21
-17699.91797268522
 31
0.0
  0
LINE
  5
6AF70
330
18
100
AcDbEntity
  8
姿図
100
AcDbLine
 10
12130.82161942625
 20
-17711.33597901775
 30
0.0
 11
12130.82161942625
 21
-17709.66133808898
 31
0.0
  0
LINE
  5
6AF71
330
18
100
AcDbEntity
  8
姿図
100
AcDbLine
 10
12130.82161942625
 20
-17727.72716144178
 30
0.0
 11
12130.82161942625
 21
-17729.50329576018
 31
0.0
  0
LINE
  5
6AF72
330
18
100
AcDbEntity
  8
姿図
100
AcDbLine
 10
12129.1721785733
 20
-17701.36370957091
 30
0.0
 11
12129.1721785733
 21
-17634.12109772247
 31
0.0
  0
LINE
  5
6AF73
330
18
100
AcDbEntity
  8
姿図
100
AcDbLine
 10
12129.1721785733
 20
-17735.68294574865
 30
0.0
 11
12129.1721785733
 21
-17724.91017596333
 31
0.0
  0
ARC
  5
6AF74
330
18
100
AcDbEntity
  8
姿図
  6
Continuous
370
     0
100
AcDbCircle
 10
12127.4131902048
 20
-17720.21466921591
 30
0.0
 40
0.5871021973724699
100
AcDbArc
 50
43.97061442796972
 51
173.0481439441934
  0
LINE
  5
6AF75
330
18
100
AcDbEntity
  8
姿図
  6
Continuous
370
     0
100
AcDbLine
 10
12126.65593663686
 20
-17722.25832549201
 30
0.0
 11
12126.83040426276
 21
-17720.1436091292
 31
0.0
  0
ARC
  5
6AF76
330
18
100
AcDbEntity
  8
姿図
  6
Continuous
370
     0
100
AcDbCircle
 10
12127.85187345219
 20
-17722.35699227332
 30
0.0
 40
1.2
100
AcDbArc
 50
175.2836838794859
 51
232.0202851621343
  0
LINE
  5
6AF77
330
18
100
AcDbEntity
  8
姿図
  6
Continuous
370
     0
100
AcDbLine
 10
12126.85525943941
 20
-17722.27476995556
 30
0.0
 11
12127.02972706532
 21
-17720.16005359275
 31
0.0
  0
ARC
  5
6AF78
330
18
100
AcDbEntity
  8
姿図
  6
Continuous
370
     0
100
AcDbCircle
 10
12127.5280340717
 20
-17720.20116475163
 30
0.0
 40
0.5
100
AcDbArc
 50
52.0202851621343
 51
175.2836838794859
  0
ARC
  5
6AF79
330
18
100
AcDbEntity
  8
姿図
  6
Continuous
370
     0
100
AcDbCircle
 10
12127.85187345219
 20
-17722.35699227332
 30
0.0
 40
1.0
100
AcDbArc
 50
175.2836838795905
 51
232.0202851621343
  0
ARC
  5
6AF7A
330
18
100
AcDbEntity
  8
姿図
  6
Continuous
370
     0
100
AcDbCircle
 10
12127.85187345219
 20
-17702.8702614658
 30
0.0
 40
1.0
100
AcDbArc
 50
175.2836838795905
 51
232.0202851621343
  0
ARC
  5
6AF7B
330
18
100
AcDbEntity
  8
姿図
  6
Continuous
370
     0
100
AcDbCircle
 10
12127.5280340717
 20
-17700.71443394411
 30
0.0
 40
0.5
100
AcDbArc
 50
52.0202851621343
 51
175.2836838794859
  0
LINE
  5
6AF7C
330
18
100
AcDbEntity
  8
姿図
  6
Continuous
370
     0
100
AcDbLine
 10
12126.85525943942
 20
-17702.78803914804
 30
0.0
 11
12127.02972706532
 21
-17700.67332278523
 31
0.0
  0
ARC
  5
6AF7D
330
18
100
AcDbEntity
  8
姿図
  6
Continuous
370
     0
100
AcDbCircle
 10
12127.85187345219
 20
-17702.8702614658
 30
0.0
 40
1.2
100
AcDbArc
 50
175.2836838794859
 51
232.0202851621343
  0
LINE
  5
6AF7E
330
18
100
AcDbEntity
  8
姿図
  6
Continuous
370
     0
100
AcDbLine
 10
12126.65593663686
 20
-17702.77159468449
 30
0.0
 11
12126.83040426276
 21
-17700.65687832168
 31
0.0
  0
ARC
  5
6AF7F
330
18
100
AcDbEntity
  8
姿図
  6
Continuous
370
     0
100
AcDbCircle
 10
12127.4131902048
 20
-17700.72793840838
 30
0.0
 40
0.5871021973724699
100
AcDbArc
 50
43.97061442796972
 51
173.0481439441934
  0
ELLIPSE
  5
6AF80
330
18
100
AcDbEntity
  8
姿図
100
AcDbEllipse
 10
12120.40606549197
 20
-17695.14363673686
 30
0.0
 11
1.557139847723761E-15
 21
3.508473521634053
 31
0.0
210
0.0
220
0.0
230
1.0
 40
0.6840581766403936
 41
0.0834300866107265
 42
3.058162566979068
  0
ELLIPSE
  5
6AF81
330
18
100
AcDbEntity
  8
姿図
100
AcDbEllipse
 10
12120.00606549197
 20
-17695.14363673686
 30
0.0
 11
0.0
 21
-3.508473521634005
 31
0.0
210
0.0
220
0.0
230
1.0
 40
0.6840581766403772
 41
0.0
 42
6.283185307179586
  0
LINE
  5
6AF82
330
18
100
AcDbEntity
  8
姿図
100
AcDbLine
 10
12112.1721785733
 20
-17736.67178456736
 30
0.0
 11
12112.1721785733
 21
-17657.45441851564
 31
0.0
  0
ELLIPSE
  5
6AF83
330
18
100
AcDbEntity
  8
姿図
100
AcDbEllipse
 10
12119.60606549197
 20
-17726.35537916995
 30
0.0
 11
0.0
 21
-3.508473521634005
 31
0.0
210
0.0
220
0.0
230
1.0
 40
0.6840581766403772
 41
0.0
 42
6.283185307179586
  0
ELLIPSE
  5
6AF84
330
18
100
AcDbEntity
  8
姿図
100
AcDbEllipse
 10
12120.00606549197
 20
-17726.35537916995
 30
0.0
 11
1.557139847723761E-15
 21
3.508473521634053
 31
0.0
210
0.0
220
0.0
230
1.0
 40
0.6840581766403936
 41
0.0834300866107265
 42
3.058162566979068
  0
LINE
  5
6AF85
330
18
100
AcDbEntity
  8
姿図
100
AcDbLine
 10
12129.1721785733
 20
-17733.65162920551
 30
0.0
 11
12112.1721785733
 21
-17736.67178456736
 31
0.0
  0
LINE
  5
6AF86
330
18
100
AcDbEntity
  8
姿図
100
AcDbLine
 10
12132.02468356986
 20
-17690.14839746853
 30
0.0
 11
12132.02468356986
 21
-17695.13703835079
 31
0.0
  0
LINE
  5
6AF87
330
18
100
AcDbEntity
  8
姿図
100
AcDbLine
 10
12134.1721785733
 20
-17689.76688167152
 30
0.0
 11
12134.1721785733
 21
-17633.23281673369
 31
0.0
  0
LINE
  5
6AF88
330
18
100
AcDbEntity
  8
姿図
100
AcDbLine
 10
12134.1721785733
 20
-17689.76688167152
 30
0.0
 11
12131.92810296261
 21
-17690.16555561199
 31
0.0
  0
LINE
  5
6AF89
330
18
100
AcDbEntity
  8
姿図
100
AcDbLine
 10
12132.64038565741
 20
-17722.75001085943
 30
0.0
 11
12132.64038565741
 21
-17723.55812386039
 31
0.0
  0
LINE
  5
6AF8A
330
18
100
AcDbEntity
  8
姿図
100
AcDbLine
 10
12134.1721785733
 20
-17723.6811385962
 30
0.0
 11
12133.05269665107
 21
-17723.88002149796
 31
0.0
  0
LINE
  5
6AF8B
330
18
100
AcDbEntity
  8
姿図
100
AcDbLine
 10
12134.1721785733
 20
-17704.19440778867
 30
0.0
 11
12133.05269665107
 21
-17704.39329069043
 31
0.0
  0
LINE
  5
6AF8C
330
18
100
AcDbEntity
  8
姿図
100
AcDbLine
 10
12132.64038565741
 20
-17703.36971616137
 30
0.0
 11
12132.64038565741
 21
-17704.07139305287
 31
0.0
  0
LINE
  5
6AF8D
330
18
100
AcDbEntity
  8
姿図
100
AcDbLine
 10
12132.61257311683
 20
-17708.10941495262
 30
0.0
 11
12132.64038565742
 21
-17708.1349627538
 31
0.0
  0
LINE
  5
6AF8E
330
18
100
AcDbEntity
  8
姿図
100
AcDbLine
 10
12132.75544561868
 20
-17708.22095774802
 30
0.0
 11
12132.64038565741
 21
-17708.24139886325
 31
0.0
  0
LINE
  5
6AF8F
330
18
100
AcDbEntity
  8
姿図
100
AcDbLine
 10
12134.1721785733
 20
-17729.82747351957
 30
0.0
 11
12131.92358602996
 21
-17730.22694992113
 31
0.0
  0
LINE
  5
6AF90
330
18
100
AcDbEntity
  8
姿図
100
AcDbLine
 10
12134.1721785733
 20
-17717.71263176183
 30
0.0
 11
12132.64038565741
 21
-17717.98476426701
 31
0.0
  0
LINE
  5
6AF91
330
18
100
AcDbEntity
  8
姿図
100
AcDbLine
 10
12134.1721785733
 20
-17722.58431446371
 30
0.0
 11
12132.64038565741
 21
-17722.85644696889
 31
0.0
  0
LINE
  5
6AF92
330
18
100
AcDbEntity
  8
姿図
100
AcDbLine
 10
12134.1721785733
 20
-17712.84094905995
 30
0.0
 11
12132.64038565741
 21
-17713.11308156513
 31
0.0
  0
LINE
  5
6AF93
330
18
100
AcDbEntity
  8
姿図
100
AcDbLine
 10
12134.1721785733
 20
-17703.09758365618
 30
0.0
 11
12132.64038565741
 21
-17703.36971616137
 31
0.0
  0
LINE
  5
6AF94
330
18
100
AcDbEntity
  8
姿図
100
AcDbLine
 10
12134.1721785733
 20
-17697.99834801035
 30
0.0
 11
12131.92810296261
 21
-17698.39702195083
 31
0.0
  0
LINE
  5
6AF95
330
18
100
AcDbEntity
  8
姿図
100
AcDbLine
 10
12132.64038565741
 20
-17708.24139886325
 30
0.0
 11
12132.64038565741
 21
-17709.33822299574
 31
0.0
  0
LINE
  5
6AF96
330
18
100
AcDbEntity
  8
姿図
100
AcDbLine
 10
12132.64038565741
 20
-17713.11308156513
 30
0.0
 11
12132.64038565741
 21
-17714.20990569762
 31
0.0
  0
LINE
  5
6AF97
330
18
100
AcDbEntity
  8
姿図
100
AcDbLine
 10
12131.92810296261
 20
-17698.39702195083
 30
0.0
 11
12131.92810296261
 21
-17699.72139902726
 31
0.0
  0
LINE
  5
6AF98
330
18
100
AcDbEntity
  8
姿図
100
AcDbLine
 10
12132.64038565741
 20
-17717.87832815756
 30
0.0
 11
12132.64038565741
 21
-17719.0815883995
 31
0.0
  0
LINE
  5
6AF99
330
18
100
AcDbEntity
  8
姿図
100
AcDbLine
 10
12134.1721785733
 20
-17737.55478232884
 30
0.0
 11
12134.1721785733
 21
-17689.76688167152
 31
0.0
  0
LINE
  5
6AF9A
330
18
100
AcDbEntity
  8
姿図
100
AcDbLine
 10
12149.67038134305
 20
-17700.01124460843
 30
0.0
 11
12149.67038134305
 21
-17646.4050231789
 31
0.0
  0
LINE
  5
6AF9B
330
18
100
AcDbEntity
  8
姿図
100
AcDbLine
 10
12263.41875959427
 20
-17744.9695647131
 30
0.0
 11
12260.58630344342
 21
-17745.29927238948
 31
0.0
  0
LINE
  5
6AF9C
330
18
100
AcDbEntity
  8
姿図
100
AcDbLine
 10
12245.43804628982
 20
-17864.19974045961
 30
0.0
 11
12276.65530436653
 21
-17858.65380108535
 31
0.0
  0
LINE
  5
6AF9D
330
18
100
AcDbEntity
  8
姿図
100
AcDbLine
 10
12167.23355728577
 20
-17881.13662894398
 30
0.0
 11
12167.23355728577
 21
-17883.89674651295
 31
0.0
  0
LINE
  5
6AF9E
330
18
100
AcDbEntity
  8
姿図
100
AcDbLine
 10
12245.43804628982
 20
-17870.00323434908
 30
0.0
 11
12230.26338116247
 21
-17872.69910765782
 31
0.0
  0
LINE
  5
6AF9F
330
18
100
AcDbEntity
  8
姿図
100
AcDbLine
 10
12245.43804628982
 20
-17862.7794944535
 30
0.0
 11
12245.43804628982
 21
-17870.00323434908
 31
0.0
  0
LINE
  5
6AFA0
330
18
100
AcDbEntity
  8
姿図
100
AcDbLine
 10
12276.65530436652
 20
-17846.45479828148
 30
0.0
 11
12276.65530436652
 21
-17844.7801573527
 31
0.0
  0
LINE
  5
6AFA1
330
18
100
AcDbEntity
  8
姿図
100
AcDbLine
 10
12276.65530436652
 20
-17846.45479828148
 30
0.0
 11
12274.38029635084
 21
-17846.45479828148
 31
0.0
  0
LINE
  5
6AFA2
330
18
100
AcDbEntity
  8
姿図
100
AcDbLine
 10
12274.32555597985
 20
-17808.97391379286
 30
0.0
 11
12274.32555597985
 21
-17814.03567032862
 31
0.0
  0
LINE
  5
6AFA3
330
18
100
AcDbEntity
  8
姿図
100
AcDbLine
 10
12276.65530436652
 20
-17831.83975017583
 30
0.0
 11
12276.65530436652
 21
-17830.16510924706
 31
0.0
  0
LINE
  5
6AFA4
330
18
100
AcDbEntity
  8
姿図
100
AcDbLine
 10
12276.65530436652
 20
-17836.71143287772
 30
0.0
 11
12276.65530436652
 21
-17835.03679194894
 31
0.0
  0
LINE
  5
6AFA5
330
18
100
AcDbEntity
  8
姿図
100
AcDbLine
 10
12276.65530436652
 20
-17841.5831155796
 30
0.0
 11
12276.65530436652
 21
-17839.90847465082
 31
0.0
  0
LINE
  5
6AFA6
330
18
100
AcDbEntity
  8
姿図
100
AcDbLine
 10
12276.65530436652
 20
-17841.5831155796
 30
0.0
 11
12274.83653813536
 21
-17843.36021812698
 31
0.0
  0
LINE
  5
6AFA7
330
18
100
AcDbEntity
  8
姿図
100
AcDbLine
 10
12276.65530436652
 20
-17836.71143287772
 30
0.0
 11
12274.83653813536
 21
-17838.4885354251
 31
0.0
  0
LINE
  5
6AFA8
330
18
100
AcDbEntity
  8
姿図
100
AcDbLine
 10
12276.65530436652
 20
-17831.83975017583
 30
0.0
 11
12274.83653813536
 21
-17833.61685272322
 31
0.0
  0
LINE
  5
6AFA9
330
18
100
AcDbEntity
  8
姿図
100
AcDbLine
 10
12276.65530436652
 20
-17817.88440910273
 30
0.0
 11
12276.65530436652
 21
-17815.85454131028
 31
0.0
  0
LINE
  5
6AFAA
330
18
100
AcDbEntity
  8
姿図
100
AcDbLine
 10
12276.65530436652
 20
-17822.09638477207
 30
0.0
 11
12276.65530436652
 21
-17820.4217438433
 31
0.0
  0
LINE
  5
6AFAB
330
18
100
AcDbEntity
  8
姿図
100
AcDbLine
 10
12276.65530436652
 20
-17826.96806747395
 30
0.0
 11
12276.65530436652
 21
-17825.29342654518
 31
0.0
  0
LINE
  5
6AFAC
330
18
100
AcDbEntity
  8
姿図
100
AcDbLine
 10
12275.35737659934
 20
-17818.02550734971
 30
0.0
 11
12275.35737659934
 21
-17819.40843134761
 31
0.0
  0
LINE
  5
6AFAD
330
18
100
AcDbEntity
  8
姿図
100
AcDbLine
 10
12276.65530436652
 20
-17826.96806747395
 30
0.0
 11
12274.83653813536
 21
-17828.74517002134
 31
0.0
  0
LINE
  5
6AFAE
330
18
100
AcDbEntity
  8
姿図
100
AcDbLine
 10
12276.65530436652
 20
-17817.88440910273
 30
0.0
 11
12275.35737659934
 21
-17818.02550734971
 31
0.0
  0
LINE
  5
6AFAF
330
18
100
AcDbEntity
  8
姿図
100
AcDbLine
 10
12276.65530436652
 20
-17822.09638477207
 30
0.0
 11
12274.83653813536
 21
-17823.87348731946
 31
0.0
  0
LINE
  5
6AFB0
330
18
100
AcDbEntity
  8
姿図
100
AcDbLine
 10
12276.65530436652
 20
-17809.96792471218
 30
0.0
 11
12276.65530436652
 21
-17807.93805691973
 31
0.0
  0
LINE
  5
6AFB1
330
18
100
AcDbEntity
  8
姿図
100
AcDbLine
 10
12276.65530436652
 20
-17809.96792471218
 30
0.0
 11
12275.59876081898
 21
-17809.96792471218
 31
0.0
  0
LINE
  5
6AFB2
330
18
100
AcDbEntity
  8
姿図
100
AcDbLine
 10
12276.65530436652
 20
-17858.65380108535
 30
0.0
 11
12276.65530436652
 21
-17855.89368351637
 31
0.0
  0
LINE
  5
6AFB3
330
18
100
AcDbEntity
  8
姿図
100
AcDbLine
 10
12276.65530436652
 20
-17850.00706691827
 30
0.0
 11
12275.47763439123
 21
-17850.00706691827
 31
0.0
  0
LINE
  5
6AFB4
330
18
100
AcDbEntity
  8
姿図
100
AcDbLine
 10
12274.32555597985
 20
-17849.10762129442
 30
0.0
 11
12274.32555597985
 21
-17854.07481253471
 31
0.0
  0
LINE
  5
6AFB5
330
18
100
AcDbEntity
  8
姿図
100
AcDbLine
 10
12276.65530436652
 20
-17850.00706691827
 30
0.0
 11
12276.65530436652
 21
-17848.23093259987
 31
0.0
  0
LINE
  5
6AFB6
330
18
100
AcDbEntity
  8
姿図
100
AcDbLine
 10
12274.32555597985
 20
-17754.23945076254
 30
0.0
 11
12274.32555597986
 21
-17805.9579610873
 31
0.0
  0
LINE
  5
6AFB7
330
18
100
AcDbEntity
  8
姿図
100
AcDbLine
 10
12263.41875959427
 20
-17796.68807503786
 30
0.0
 11
12263.41875959427
 21
-17744.9695647131
 31
0.0
  0
LINE
  5
6AFB8
330
18
100
AcDbEntity
  8
姿図
100
AcDbLine
 10
12263.41875959427
 20
-17744.9695647131
 30
0.0
 11
12274.32555597985
 21
-17754.23945076254
 31
0.0
  0
ENDSEC
  0
SECTION
  2
OBJECTS
  0
DICTIONARY
  5
C
330
0
100
AcDbDictionary
281
     1
  3
ACAD_GROUP
350
D
  3
ACAD_IMAGE_VARS
350
6B6A7
  3
ACAD_LAYOUT
350
40CB
  3
ACAD_MLINESTYLE
350
E
  3
ACAD_PLOTSETTINGS
350
40CC
  3
ACAD_PLOTSTYLENAME
350
40C9
  3
ACAD_SCALELIST
350
64E55
  3
AcadDim
350
FCCB
  3
AcDbVariableDictionary
350
6377
  3
APPDATA
350
6B6A6
  3
DWGPROPS
350
6B6CA
  0
DICTIONARY
  5
6388D
330
2
100
AcDbDictionary
280
     1
281
     1
  3
ACAD_LAYERSTATES
360
6388E
  0
DICTIONARY
  5
66467
330
F
100
AcDbDictionary
280
     1
281
     1
  3
ADSK_XREC_LAYER_RECONCILED
360
66468
  0
DICTIONARY
  5
6646F
330
4C
100
AcDbDictionary
280
     1
281
     1
  3
ADSK_XREC_LAYER_RECONCILED
360
66470
  0
DICTIONARY
  5
66471
330
4D
100
AcDbDictionary
280
     1
281
     1
  3
ADSK_XREC_LAYER_RECONCILED
360
66472
  0
DICTIONARY
  5
66475
330
40D4
100
AcDbDictionary
280
     1
281
     1
  3
ADSK_XREC_LAYER_RECONCILED
360
66476
  0
DICTIONARY
  5
68580
330
6857F
100
AcDbDictionary
280
     1
281
     1
  3
ADSK_XREC_LAYER_RECONCILED
360
68582
  0
DICTIONARY
  5
9FD5
330
18
100
AcDbDictionary
280
     1
281
     1
  3
ACAD_SORTENTS
360
620D2
  0
DICTIONARY
  5
D
102
{ACAD_REACTORS
330
C
102
}
330
C
100
AcDbDictionary
281
     1
  0
RASTERVARIABLES
  5
6B6A7
102
{ACAD_REACTORS
330
C
102
}
330
C
100
AcDbRasterVariables
 90
        0
 70
     1
 71
     1
 72
     0
  0
DICTIONARY
  5
40CB
102
{ACAD_REACTORS
330
C
102
}
330
C
100
AcDbDictionary
281
     1
  3
Model
350
40CD
  3
ﾚｲｱｳﾄ1
350
40CE
  0
DICTIONARY
  5
E
102
{ACAD_REACTORS
330
C
102
}
330
C
100
AcDbDictionary
281
     1
  3
STANDARD
350
1B
  0
DICTIONARY
  5
40CC
102
{ACAD_REACTORS
330
C
102
}
330
C
100
AcDbDictionary
281
     1
  0
ACDBDICTIONARYWDFLT
  5
40C9
102
{ACAD_REACTORS
330
C
102
}
330
C
100
AcDbDictionary
281
     1
  3
Normal
350
40CA
100
AcDbDictionaryWithDefault
340
40CA
  0
DICTIONARY
  5
64E55
102
{ACAD_REACTORS
330
C
102
}
330
C
100
AcDbDictionary
281
     1
  3
A0
350
64E56
  3
A1
350
64E57
  3
A2
350
64E58
  3
A3
350
64E59
  3
A4
350
64E5A
  3
A5
350
64E5B
  3
A6
350
64E5C
  3
A7
350
64E5D
  3
A8
350
64E5E
  3
A9
350
64E5F
  3
B0
350
64E60
  3
B1
350
64E61
  3
B2
350
64E62
  3
B3
350
64E63
  3
B4
350
64E64
  3
B5
350
64E65
  3
B6
350
64E66
  3
B7
350
64E67
  3
B8
350
64E68
  3
B9
350
64E69
  3
C0
350
64E6A
  3
C1
350
64E6B
  3
C2
350
64E6C
  3
C3
350
64E6D
  3
C4
350
64E6E
  3
C5
350
64E6F
  3
C6
350
64E70
  3
C7
350
64E71
  3
C8
350
64E72
  3
C9
350
64E73
  3
D0
350
64E74
  3
D1
350
64E75
  3
D2
350
64E76
  0
XRECORD
  5
FCCB
102
{ACAD_REACTORS
330
C
102
}
330
C
100
AcDbXrecord
280
     1
 90
   990106
  3

 60
     0
 61
     0
 62
     1
 63
     3
 64
     0
 65
     0
 66
     0
 67
     3
 68
     1
 69
     0
 70
     0
 71
     0
 72
     0
 40
2.0
170
     0
  0
DICTIONARY
  5
6377
102
{ACAD_REACTORS
330
C
102
}
330
C
100
AcDbDictionary
281
     1
  3
DIMASSOC
350
73F2
  3
INDEXCTL
350
66490
  3
PROJECTNAME
350
6149B
  3
SORTENTS
350
6378
  0
DICTIONARY
  5
6B6A6
102
{ACAD_REACTORS
330
C
102
}
330
C
100
AcDbDictionary
281
     1
  0
XRECORD
  5
6B6CA
102
{ACAD_REACTORS
330
C
102
}
330
C
100
AcDbXrecord
280
     1
  1
DWGPROPS COOKIE
  2

  3

  4

  6

  7

  8
SPAX
  9

300
=
301
=
302
=
303
=
304
=
305
=
306
=
307
=
308
=
309
=
 40
0.0
 41
2449505.547222222
 42
2456822.119045
  1

 90
        0
  0
DICTIONARY
  5
6388E
102
{ACAD_REACTORS
330
6388D
102
}
330
6388D
100
AcDbDictionary
281
     1
  0
XRECORD
  5
66468
102
{ACAD_REACTORS
330
66467
102
}
330
66467
100
AcDbXrecord
280
     1
290
     1
  0
XRECORD
  5
66470
102
{ACAD_REACTORS
330
6646F
102
}
330
6646F
100
AcDbXrecord
280
     1
290
     1
  0
XRECORD
  5
66472
102
{ACAD_REACTORS
330
66471
102
}
330
66471
100
AcDbXrecord
280
     1
290
     1
  0
XRECORD
  5
66476
102
{ACAD_REACTORS
330
66475
102
}
330
66475
100
AcDbXrecord
280
     1
290
     1
  0
XRECORD
  5
68582
102
{ACAD_REACTORS
330
68580
102
}
330
68580
100
AcDbXrecord
280
     1
290
     1
  0
SORTENTSTABLE
  5
620D2
102
{ACAD_REACTORS
330
9FD5
102
}
330
9FD5
100
AcDbSortentsTable
330
18
331
0
  5
5BE18
  0
LAYOUT
  5
40CD
102
{ACAD_REACTORS
330
40CB
102
}
330
40CB
100
AcDbPlotSettings
  1

  2
JUST PDF 2.pc3
  4
A4
  6
CUT1
 40
3.174999952316284
 41
3.174999952316284
 42
3.175003051757812
 43
3.17498779296875
 44
209.8886566162109
 45
297.0530090332031
 46
14.27
 47
9.86
 48
11873.68169425997
 49
-17180.8383360088
140
13623.63387920903
141
-14470.91158462213
142
1.0
143
10.0
 70
 11940
 72
     1
 73
     0
 74
     4
  7
spax form.ctb
 75
     0
147
0.1
148
-11873.68169425997
149
17180.8383360088
100
AcDbLayout
  1
Model
 70
     1
 71
     0
 10
0.0
 20
0.0
 11
12.0
 21
9.0
 12
0.0
 22
0.0
 32
0.0
 14
11922.2234248893
 24
-17969.03823141959
 34
0.0
 15
12302.1854248893
 25
-17633.23281673369
 35
0.0
146
0.0
 13
0.0
 23
0.0
 33
0.0
 16
1.0
 26
0.0
 36
0.0
 17
0.0
 27
1.0
 37
0.0
 76
     0
330
18
331
6A81E
1001
ACAD_PSEXT
1000
DWG To PDF.pc3
1000
PDF
1000
ファイル
1000

1070
     0
  0
LAYOUT
  5
40CE
102
{ACAD_REACTORS
330
40CB
102
}
330
40CB
100
AcDbPlotSettings
  1

  2
なし
  4

  6

 40
0.0
 41
0.0
 42
0.0
 43
0.0
 44
0.0
 45
0.0
 46
0.0
 47
0.0
 48
0.0
 49
0.0
140
0.0
141
0.0
142
1.0
143
1.0
 70
   688
 72
     0
 73
     0
 74
     5
  7
spax form.ctb
 75
    16
147
1.0
148
0.0
149
0.0
100
AcDbLayout
  1
ﾚｲｱｳﾄ1
 70
     0
 71
     1
 10
0.0
 20
0.0
 11
12.0
 21
9.0
 12
0.0
 22
0.0
 32
0.0
 14
1.000000000000000E+20
 24
1.000000000000000E+20
 34
1.000000000000000E+20
 15
-1.000000000000000E+20
 25
-1.000000000000000E+20
 35
-1.000000000000000E+20
146
0.0
 13
0.0
 23
0.0
 33
0.0
 16
1.0
 26
0.0
 36
0.0
 17
0.0
 27
1.0
 37
0.0
 76
     0
330
15
  0
MLINESTYLE
  5
1B
102
{ACAD_REACTORS
330
E
102
}
330
E
100
AcDbMlineStyle
  2
STANDARD
 70
     0
  3

 62
     0
 51
90.0
 52
90.0
 71
     2
 49
0.5
 62
   256
  6
BYLAYER
 49
-0.5
 62
   256
  6
BYLAYER
  0
ACDBPLACEHOLDER
  5
40CA
102
{ACAD_REACTORS
330
40C9
102
}
330
40C9
  0
SCALE
  5
64E56
102
{ACAD_REACTORS
330
64E55
102
}
330
64E55
100
AcDbScale
 70
     0
300
1:1
140
1.0
141
1.0
290
     1
1001
ACAD
1000
AcRTDxfName
1000
SCALE
1000
AcRTDxfName
1000
SCALE
  0
SCALE
  5
64E57
102
{ACAD_REACTORS
330
64E55
102
}
330
64E55
100
AcDbScale
 70
     0
300
1:2
140
1.0
141
2.0
290
     0
1001
ACAD
1000
AcRTDxfName
1000
SCALE
1000
AcRTDxfName
1000
SCALE
  0
SCALE
  5
64E58
102
{ACAD_REACTORS
330
64E55
102
}
330
64E55
100
AcDbScale
 70
     0
300
1:4
140
1.0
141
4.0
290
     0
1001
ACAD
1000
AcRTDxfName
1000
SCALE
1000
AcRTDxfName
1000
SCALE
  0
SCALE
  5
64E59
102
{ACAD_REACTORS
330
64E55
102
}
330
64E55
100
AcDbScale
 70
     0
300
1:5
140
1.0
141
5.0
290
     0
1001
ACAD
1000
AcRTDxfName
1000
SCALE
1000
AcRTDxfName
1000
SCALE
  0
SCALE
  5
64E5A
102
{ACAD_REACTORS
330
64E55
102
}
330
64E55
100
AcDbScale
 70
     0
300
1:8
140
1.0
141
8.0
290
     0
1001
ACAD
1000
AcRTDxfName
1000
SCALE
1000
AcRTDxfName
1000
SCALE
  0
SCALE
  5
64E5B
102
{ACAD_REACTORS
330
64E55
102
}
330
64E55
100
AcDbScale
 70
     0
300
1:10
140
1.0
141
10.0
290
     0
1001
ACAD
1000
AcRTDxfName
1000
SCALE
1000
AcRTDxfName
1000
SCALE
  0
SCALE
  5
64E5C
102
{ACAD_REACTORS
330
64E55
102
}
330
64E55
100
AcDbScale
 70
     0
300
1:16
140
1.0
141
16.0
290
     0
1001
ACAD
1000
AcRTDxfName
1000
SCALE
1000
AcRTDxfName
1000
SCALE
  0
SCALE
  5
64E5D
102
{ACAD_REACTORS
330
64E55
102
}
330
64E55
100
AcDbScale
 70
     0
300
1:20
140
1.0
141
20.0
290
     0
1001
ACAD
1000
AcRTDxfName
1000
SCALE
1000
AcRTDxfName
1000
SCALE
  0
SCALE
  5
64E5E
102
{ACAD_REACTORS
330
64E55
102
}
330
64E55
100
AcDbScale
 70
     0
300
1:30
140
1.0
141
30.0
290
     0
1001
ACAD
1000
AcRTDxfName
1000
SCALE
1000
AcRTDxfName
1000
SCALE
  0
SCALE
  5
64E5F
102
{ACAD_REACTORS
330
64E55
102
}
330
64E55
100
AcDbScale
 70
     0
300
1:40
140
1.0
141
40.0
290
     0
1001
ACAD
1000
AcRTDxfName
1000
SCALE
1000
AcRTDxfName
1000
SCALE
  0
SCALE
  5
64E60
102
{ACAD_REACTORS
330
64E55
102
}
330
64E55
100
AcDbScale
 70
     0
300
1:50
140
1.0
141
50.0
290
     0
1001
ACAD
1000
AcRTDxfName
1000
SCALE
1000
AcRTDxfName
1000
SCALE
  0
SCALE
  5
64E61
102
{ACAD_REACTORS
330
64E55
102
}
330
64E55
100
AcDbScale
 70
     0
300
1:100
140
1.0
141
100.0
290
     0
1001
ACAD
1000
AcRTDxfName
1000
SCALE
1000
AcRTDxfName
1000
SCALE
  0
SCALE
  5
64E62
102
{ACAD_REACTORS
330
64E55
102
}
330
64E55
100
AcDbScale
 70
     0
300
2:1
140
2.0
141
1.0
290
     0
1001
ACAD
1000
AcRTDxfName
1000
SCALE
1000
AcRTDxfName
1000
SCALE
  0
SCALE
  5
64E63
102
{ACAD_REACTORS
330
64E55
102
}
330
64E55
100
AcDbScale
 70
     0
300
4:1
140
4.0
141
1.0
290
     0
1001
ACAD
1000
AcRTDxfName
1000
SCALE
1000
AcRTDxfName
1000
SCALE
  0
SCALE
  5
64E64
102
{ACAD_REACTORS
330
64E55
102
}
330
64E55
100
AcDbScale
 70
     0
300
8:1
140
8.0
141
1.0
290
     0
1001
ACAD
1000
AcRTDxfName
1000
SCALE
1000
AcRTDxfName
1000
SCALE
  0
SCALE
  5
64E65
102
{ACAD_REACTORS
330
64E55
102
}
330
64E55
100
AcDbScale
 70
     0
300
10:1
140
10.0
141
1.0
290
     0
1001
ACAD
1000
AcRTDxfName
1000
SCALE
1000
AcRTDxfName
1000
SCALE
  0
SCALE
  5
64E66
102
{ACAD_REACTORS
330
64E55
102
}
330
64E55
100
AcDbScale
 70
     0
300
100:1
140
100.0
141
1.0
290
     0
1001
ACAD
1000
AcRTDxfName
1000
SCALE
1000
AcRTDxfName
1000
SCALE
  0
SCALE
  5
64E67
102
{ACAD_REACTORS
330
64E55
102
}
330
64E55
100
AcDbScale
 70
     0
300
1/128" = 1'-0"
140
0.0078125
141
12.0
290
     0
1001
ACAD
1000
AcRTDxfName
1000
SCALE
1000
AcRTDxfName
1000
SCALE
  0
SCALE
  5
64E68
102
{ACAD_REACTORS
330
64E55
102
}
330
64E55
100
AcDbScale
 70
     0
300
1/64" = 1'-0"
140
0.015625
141
12.0
290
     0
1001
ACAD
1000
AcRTDxfName
1000
SCALE
1000
AcRTDxfName
1000
SCALE
  0
SCALE
  5
64E69
102
{ACAD_REACTORS
330
64E55
102
}
330
64E55
100
AcDbScale
 70
     0
300
1/32" = 1'-0"
140
0.03125
141
12.0
290
     0
1001
ACAD
1000
AcRTDxfName
1000
SCALE
1000
AcRTDxfName
1000
SCALE
  0
SCALE
  5
64E6A
102
{ACAD_REACTORS
330
64E55
102
}
330
64E55
100
AcDbScale
 70
     0
300
1/16" = 1'-0"
140
0.0625
141
12.0
290
     0
1001
ACAD
1000
AcRTDxfName
1000
SCALE
1000
AcRTDxfName
1000
SCALE
  0
SCALE
  5
64E6B
102
{ACAD_REACTORS
330
64E55
102
}
330
64E55
100
AcDbScale
 70
     0
300
3/32" = 1'-0"
140
0.09375
141
12.0
290
     0
1001
ACAD
1000
AcRTDxfName
1000
SCALE
1000
AcRTDxfName
1000
SCALE
  0
SCALE
  5
64E6C
102
{ACAD_REACTORS
330
64E55
102
}
330
64E55
100
AcDbScale
 70
     0
300
1/8" = 1'-0"
140
0.125
141
12.0
290
     0
1001
ACAD
1000
AcRTDxfName
1000
SCALE
1000
AcRTDxfName
1000
SCALE
  0
SCALE
  5
64E6D
102
{ACAD_REACTORS
330
64E55
102
}
330
64E55
100
AcDbScale
 70
     0
300
3/16" = 1'-0"
140
0.1875
141
12.0
290
     0
1001
ACAD
1000
AcRTDxfName
1000
SCALE
1000
AcRTDxfName
1000
SCALE
  0
SCALE
  5
64E6E
102
{ACAD_REACTORS
330
64E55
102
}
330
64E55
100
AcDbScale
 70
     0
300
1/4" = 1'-0"
140
0.25
141
12.0
290
     0
1001
ACAD
1000
AcRTDxfName
1000
SCALE
1000
AcRTDxfName
1000
SCALE
  0
SCALE
  5
64E6F
102
{ACAD_REACTORS
330
64E55
102
}
330
64E55
100
AcDbScale
 70
     0
300
3/8" = 1'-0"
140
0.375
141
12.0
290
     0
1001
ACAD
1000
AcRTDxfName
1000
SCALE
1000
AcRTDxfName
1000
SCALE
  0
SCALE
  5
64E70
102
{ACAD_REACTORS
330
64E55
102
}
330
64E55
100
AcDbScale
 70
     0
300
1/2" = 1'-0"
140
0.5
141
12.0
290
     0
1001
ACAD
1000
AcRTDxfName
1000
SCALE
1000
AcRTDxfName
1000
SCALE
  0
SCALE
  5
64E71
102
{ACAD_REACTORS
330
64E55
102
}
330
64E55
100
AcDbScale
 70
     0
300
3/4" = 1'-0"
140
0.75
141
12.0
290
     0
1001
ACAD
1000
AcRTDxfName
1000
SCALE
1000
AcRTDxfName
1000
SCALE
  0
SCALE
  5
64E72
102
{ACAD_REACTORS
330
64E55
102
}
330
64E55
100
AcDbScale
 70
     0
300
1" = 1'-0"
140
1.0
141
12.0
290
     0
1001
ACAD
1000
AcRTDxfName
1000
SCALE
1000
AcRTDxfName
1000
SCALE
  0
SCALE
  5
64E73
102
{ACAD_REACTORS
330
64E55
102
}
330
64E55
100
AcDbScale
 70
     0
300
1-1/2" = 1'-0"
140
1.5
141
12.0
290
     0
1001
ACAD
1000
AcRTDxfName
1000
SCALE
1000
AcRTDxfName
1000
SCALE
  0
SCALE
  5
64E74
102
{ACAD_REACTORS
330
64E55
102
}
330
64E55
100
AcDbScale
 70
     0
300
3" = 1'-0"
140
3.0
141
12.0
290
     0
1001
ACAD
1000
AcRTDxfName
1000
SCALE
1000
AcRTDxfName
1000
SCALE
  0
SCALE
  5
64E75
102
{ACAD_REACTORS
330
64E55
102
}
330
64E55
100
AcDbScale
 70
     0
300
6" = 1'-0"
140
6.0
141
12.0
290
     0
1001
ACAD
1000
AcRTDxfName
1000
SCALE
1000
AcRTDxfName
1000
SCALE
  0
SCALE
  5
64E76
102
{ACAD_REACTORS
330
64E55
102
}
330
64E55
100
AcDbScale
 70
     0
300
1'-0" = 1'-0"
140
12.0
141
12.0
290
     0
1001
ACAD
1000
AcRTDxfName
1000
SCALE
1000
AcRTDxfName
1000
SCALE
  0
DICTIONARYVAR
  5
73F2
102
{ACAD_REACTORS
330
6377
102
}
330
6377
100
DictionaryVariables
280
     0
  1
1
  0
DICTIONARYVAR
  5
66490
102
{ACAD_REACTORS
330
6377
102
}
330
6377
100
DictionaryVariables
280
     0
  1
0
  0
DICTIONARYVAR
  5
6149B
102
{ACAD_REACTORS
330
6377
102
}
330
6377
100
DictionaryVariables
280
     0
  1

  0
DICTIONARYVAR
  5
6378
102
{ACAD_REACTORS
330
6377
102
}
330
6377
100
DictionaryVariables
280
     0
  1
127
  0
ENDSEC
  0
EOF
