  0
SECTION
  2
HEADER
  9
$ACADVER
  1
AC1015
  9
$ACADMAINTVER
 70
     6
  9
$DWGCODEPAGE
  3
ANSI_932
  9
$INSBASE
 10
0.0
 20
0.0
 30
0.0
  9
$EXTMIN
 10
18541.38811060916
 20
-8309.152929080225
 30
0.0
  9
$EXTMAX
 10
18832.07906044686
 20
-7986.65576311471
 30
0.0
  9
$LIMMIN
 10
0.0
 20
0.0
  9
$LIMMAX
 10
840.0
 20
594.0
  9
$ORTHOMODE
 70
     1
  9
$REGENMODE
 70
     1
  9
$FILLMODE
 70
     1
  9
$QTEXTMODE
 70
     0
  9
$MIRRTEXT
 70
     1
  9
$LTSCALE
 40
7.0
  9
$ATTMODE
 70
     0
  9
$TEXTSIZE
 40
6.0
  9
$TRACEWID
 40
1.0
  9
$TEXTSTYLE
  7
STANDARD
  9
$CLAYER
  8
寸法線
  9
$CELTYPE
  6
BYLAYER
  9
$CECOLOR
 62
   256
  9
$CELTSCALE
 40
1.0
  9
$DISPSILH
 70
     0
  9
$DIMSCALE
 40
1.0
  9
$DIMASZ
 40
10.0
  9
$DIMEXO
 40
3.0
  9
$DIMDLI
 40
7.149999999999999
  9
$DIMRND
 40
0.0
  9
$DIMDLE
 40
0.0
  9
$DIMEXE
 40
2.0
  9
$DIMTP
 40
0.0
  9
$DIMTM
 40
0.0
  9
$DIMTXT
 40
18.0
  9
$DIMCEN
 40
0.0
  9
$DIMTSZ
 40
0.0
  9
$DIMTOL
 70
     0
  9
$DIMLIM
 70
     0
  9
$DIMTIH
 70
     0
  9
$DIMTOH
 70
     0
  9
$DIMSE1
 70
     0
  9
$DIMSE2
 70
     0
  9
$DIMTAD
 70
     3
  9
$DIMZIN
 70
     8
  9
$DIMBLK
  1
OPEN
  9
$DIMASO
 70
     1
  9
$DIMSHO
 70
     0
  9
$DIMPOST
  1

  9
$DIMAPOST
  1

  9
$DIMALT
 70
     0
  9
$DIMALTD
 70
     2
  9
$DIMALTF
 40
25.4
  9
$DIMLFAC
 40
1.0
  9
$DIMTOFL
 70
     0
  9
$DIMTVP
 40
0.0
  9
$DIMTIX
 70
     0
  9
$DIMSOXD
 70
     0
  9
$DIMSAH
 70
     0
  9
$DIMBLK1
  1

  9
$DIMBLK2
  1

  9
$DIMSTYLE
  2
STANDARD
  9
$DIMCLRD
 70
     8
  9
$DIMCLRE
 70
     8
  9
$DIMCLRT
 70
     0
  9
$DIMTFAC
 40
1.0
  9
$DIMGAP
 40
4.0
  9
$DIMJUST
 70
     0
  9
$DIMSD1
 70
     0
  9
$DIMSD2
 70
     0
  9
$DIMTOLJ
 70
     1
  9
$DIMTZIN
 70
     0
  9
$DIMALTZ
 70
     0
  9
$DIMALTTZ
 70
     0
  9
$DIMUPT
 70
     1
  9
$DIMDEC
 70
     2
  9
$DIMTDEC
 70
     2
  9
$DIMALTU
 70
     2
  9
$DIMALTTD
 70
     2
  9
$DIMTXSTY
  7
STANDARD
  9
$DIMAUNIT
 70
     0
  9
$DIMADEC
 70
     2
  9
$DIMALTRND
 40
0.0
  9
$DIMAZIN
 70
     2
  9
$DIMDSEP
 70
    46
  9
$DIMATFIT
 70
     3
  9
$DIMFRAC
 70
     0
  9
$DIMLDRBLK
  1
OPEN
  9
$DIMLUNIT
 70
     2
  9
$DIMLWD
 70
    -2
  9
$DIMLWE
 70
    -2
  9
$DIMTMOVE
 70
     0
  9
$LUNITS
 70
     2
  9
$LUPREC
 70
     2
  9
$SKETCHINC
 40
0.1
  9
$FILLETRAD
 40
0.6
  9
$AUNITS
 70
     0
  9
$AUPREC
 70
     2
  9
$MENU
  1
ACAD
  9
$ELEVATION
 40
0.0
  9
$PELEVATION
 40
0.0
  9
$THICKNESS
 40
0.0
  9
$LIMCHECK
 70
     0
  9
$CHAMFERA
 40
0.0
  9
$CHAMFERB
 40
0.0
  9
$CHAMFERC
 40
0.0
  9
$CHAMFERD
 40
0.0
  9
$SKPOLY
 70
     0
  9
$TDCREATE
 40
2449505.922222222
  9
$TDUCREATE
 40
2449505.547222222
  9
$TDUPDATE
 40
2456822.492113078
  9
$TDUUPDATE
 40
2456822.117113078
  9
$TDINDWG
 40
2.4507888773
  9
$TDUSRTIMER
 40
2456822.116976609
  9
$USRTIMER
 70
     1
  9
$ANGBASE
 50
0.0
  9
$ANGDIR
 70
     0
  9
$PDMODE
 70
     3
  9
$PDSIZE
 40
0.0
  9
$PLINEWID
 40
0.0
  9
$SPLFRAME
 70
     0
  9
$SPLINETYPE
 70
     6
  9
$SPLINESEGS
 70
     8
  9
$HANDSEED
  5
6B386
  9
$SURFTAB1
 70
     6
  9
$SURFTAB2
 70
     6
  9
$SURFTYPE
 70
     6
  9
$SURFU
 70
     6
  9
$SURFV
 70
     6
  9
$UCSBASE
  2

  9
$UCSNAME
  2

  9
$UCSORG
 10
0.0
 20
0.0
 30
0.0
  9
$UCSXDIR
 10
1.0
 20
0.0
 30
0.0
  9
$UCSYDIR
 10
0.0
 20
1.0
 30
0.0
  9
$UCSORTHOREF
  2

  9
$UCSORTHOVIEW
 70
     0
  9
$UCSORGTOP
 10
0.0
 20
0.0
 30
0.0
  9
$UCSORGBOTTOM
 10
0.0
 20
0.0
 30
0.0
  9
$UCSORGLEFT
 10
0.0
 20
0.0
 30
0.0
  9
$UCSORGRIGHT
 10
0.0
 20
0.0
 30
0.0
  9
$UCSORGFRONT
 10
0.0
 20
0.0
 30
0.0
  9
$UCSORGBACK
 10
0.0
 20
0.0
 30
0.0
  9
$PUCSBASE
  2

  9
$PUCSNAME
  2

  9
$PUCSORG
 10
0.0
 20
0.0
 30
0.0
  9
$PUCSXDIR
 10
1.0
 20
0.0
 30
0.0
  9
$PUCSYDIR
 10
0.0
 20
1.0
 30
0.0
  9
$PUCSORTHOREF
  2

  9
$PUCSORTHOVIEW
 70
     0
  9
$PUCSORGTOP
 10
0.0
 20
0.0
 30
0.0
  9
$PUCSORGBOTTOM
 10
0.0
 20
0.0
 30
0.0
  9
$PUCSORGLEFT
 10
0.0
 20
0.0
 30
0.0
  9
$PUCSORGRIGHT
 10
0.0
 20
0.0
 30
0.0
  9
$PUCSORGFRONT
 10
0.0
 20
0.0
 30
0.0
  9
$PUCSORGBACK
 10
0.0
 20
0.0
 30
0.0
  9
$USERI1
 70
     0
  9
$USERI2
 70
     0
  9
$USERI3
 70
     0
  9
$USERI4
 70
     0
  9
$USERI5
 70
     0
  9
$USERR1
 40
0.0
  9
$USERR2
 40
0.0
  9
$USERR3
 40
0.0
  9
$USERR4
 40
0.0
  9
$USERR5
 40
0.0
  9
$WORLDVIEW
 70
     0
  9
$SHADEDGE
 70
     3
  9
$SHADEDIF
 70
    70
  9
$TILEMODE
 70
     1
  9
$MAXACTVP
 70
    16
  9
$PINSBASE
 10
0.0
 20
0.0
 30
0.0
  9
$PLIMCHECK
 70
     0
  9
$PEXTMIN
 10
1.000000000000000E+20
 20
1.000000000000000E+20
 30
1.000000000000000E+20
  9
$PEXTMAX
 10
-1.000000000000000E+20
 20
-1.000000000000000E+20
 30
-1.000000000000000E+20
  9
$PLIMMIN
 10
0.0
 20
0.0
  9
$PLIMMAX
 10
0.0
 20
0.0
  9
$UNITMODE
 70
     0
  9
$VISRETAIN
 70
     0
  9
$PLINEGEN
 70
     0
  9
$PSLTSCALE
 70
     0
  9
$TREEDEPTH
 70
  3020
  9
$CMLSTYLE
  2
STANDARD
  9
$CMLJUST
 70
     0
  9
$CMLSCALE
 40
1.0
  9
$PROXYGRAPHICS
 70
     1
  9
$MEASUREMENT
 70
     0
  9
$CELWEIGHT
370
    -1
  9
$ENDCAPS
280
     0
  9
$JOINSTYLE
280
     0
  9
$LWDISPLAY
290
     0
  9
$INSUNITS
 70
     0
  9
$HYPERLINKBASE
  1

  9
$STYLESHEET
  1
spax form.ctb
  9
$XEDIT
290
     1
  9
$CEPSNTYPE
380
     0
  9
$PSTYLEMODE
290
     1
  9
$FINGERPRINTGUID
  2
{C1CFCF3E-DF91-11D3-B30C-0060B0FA8DFC}
  9
$VERSIONGUID
  2
{DF9F4453-6668-4B61-90C0-CC9B6A5FDE12}
  9
$EXTNAMES
290
     1
  9
$PSVPSCALE
 40
0.0
  9
$OLESTARTUP
290
     0
  0
ENDSEC
  0
SECTION
  2
CLASSES
  0
CLASS
  1
LWPOLYLINE
  2
AcDbPolyline
  3
ObjectDBX Classes
 90
        0
280
     0
281
     1
  0
CLASS
  1
ACDBDICTIONARYWDFLT
  2
AcDbDictionaryWithDefault
  3
ObjectDBX Classes
 90
        0
280
     0
281
     0
  0
CLASS
  1
ACDBPLACEHOLDER
  2
AcDbPlaceHolder
  3
ObjectDBX Classes
 90
        0
280
     0
281
     0
  0
CLASS
  1
LAYOUT
  2
AcDbLayout
  3
ObjectDBX Classes
 90
        0
280
     0
281
     0
  0
CLASS
  1
DICTIONARYVAR
  2
AcDbDictionaryVar
  3
ObjectDBX Classes
 90
        0
280
     0
281
     0
  0
CLASS
  1
LONG_TRANSACTION
  2
AcDbLongTransaction
  3
ObjectDBX Classes
 90
        0
280
     0
281
     0
  0
CLASS
  1
LWPOLYLINE
  2
AcDbPolyline
  3
ObjectDBX Classes
 90
        0
280
     0
281
     1
  0
CLASS
  1
HATCH
  2
AcDbHatch
  3
ObjectDBX Classes
 90
        0
280
     0
281
     1
  0
CLASS
  1
XRECORD
  2
AcDbXrecord
  3
ObjectDBX Classes
 90
        0
280
     0
281
     0
  0
CLASS
  1
SORTENTSTABLE
  2
AcDbSortentsTable
  3
ObjectDBX Classes
 90
        0
280
     0
281
     0
  0
CLASS
  1
MATERIAL
  2
AcDbMaterial
  3
ObjectDBX Classes
 90
     1153
280
     0
281
     0
  0
CLASS
  1
VISUALSTYLE
  2
AcDbVisualStyle
  3
ObjectDBX Classes
 90
     4095
280
     0
281
     0
  0
CLASS
  1
TABLESTYLE
  2
AcDbTableStyle
  3
ObjectDBX Classes
 90
     4095
280
     0
281
     0
  0
CLASS
  1
SCALE
  2
AcDbScale
  3
ObjectDBX Classes
 90
     1153
280
     0
281
     0
  0
CLASS
  1
MLEADERSTYLE
  2
AcDbMLeaderStyle
  3
ACDB_MLEADERSTYLE_CLASS
 90
     4095
280
     0
281
     0
  0
CLASS
  1
CELLSTYLEMAP
  2
AcDbCellStyleMap
  3
ObjectDBX Classes
 90
     1152
280
     0
281
     0
  0
CLASS
  1
RASTERVARIABLES
  2
AcDbRasterVariables
  3
ISM
 90
        0
280
     0
281
     0
  0
CLASS
  1
SUN
  2
AcDbSun
  3
SCENEOE
 90
     1153
280
     0
281
     0
  0
ENDSEC
  0
SECTION
  2
TABLES
  0
TABLE
  2
VPORT
  5
8
330
0
100
AcDbSymbolTable
 70
     1
  0
VPORT
  5
69D42
330
8
100
AcDbSymbolTableRecord
100
AcDbViewportTableRecord
  2
*Active
 70
     0
 10
0.0
 20
0.0
 11
1.0
 21
1.0
 12
18686.73358552801
 22
-8147.904346097467
 13
0.0
 23
0.0
 14
1.0
 24
1.0
 15
20.0
 25
20.0
 16
0.0
 26
0.0
 36
1.0
 17
0.0
 27
0.0
 37
0.0
 40
328.9471092848251
 41
2.027568922305764
 42
50.0
 43
0.0
 44
0.0
 50
0.0
 51
0.0
 71
    16
 72
  2000
 73
     1
 74
     0
 75
     0
 76
     0
 77
     0
 78
     1
281
     0
 65
     1
110
0.0
120
0.0
130
0.0
111
1.0
121
0.0
131
0.0
112
0.0
122
1.0
132
0.0
 79
     0
146
0.0
  0
ENDTAB
  0
TABLE
  2
LTYPE
  5
5
330
0
100
AcDbSymbolTable
 70
     6
  0
LTYPE
  5
12
330
5
100
AcDbSymbolTableRecord
100
AcDbLinetypeTableRecord
  2
BYBLOCK
 70
     0
  3

 72
    65
 73
     0
 40
0.0
  0
LTYPE
  5
13
330
5
100
AcDbSymbolTableRecord
100
AcDbLinetypeTableRecord
  2
BYLAYER
 70
     0
  3

 72
    65
 73
     0
 40
0.0
  0
LTYPE
  5
14
330
5
100
AcDbSymbolTableRecord
100
AcDbLinetypeTableRecord
  2
CONTINUOUS
 70
     0
  3
Solid line
 72
    65
 73
     0
 40
0.0
  0
LTYPE
  5
3D
330
5
100
AcDbSymbolTableRecord
100
AcDbLinetypeTableRecord
  2
PHANTOM
 70
     0
  3
_____ _ _ _____ _ _ _____ _ _ _____ _ _ ____
 72
    65
 73
     6
 40
2.5
 49
1.25
 74
     0
 49
-0.25
 74
     0
 49
0.25
 74
     0
 49
-0.25
 74
     0
 49
0.25
 74
     0
 49
-0.25
 74
     0
  0
LTYPE
  5
40D2
330
5
100
AcDbSymbolTableRecord
100
AcDbLinetypeTableRecord
  2
CENTER
 70
     0
  3
____ _ ____ _ ____ _ ____ _ ____ _ ____ _ ____ 
 72
    65
 73
     4
 40
2.0
 49
1.25
 74
     0
 49
-0.25
 74
     0
 49
0.25
 74
     0
 49
-0.25
 74
     0
  0
LTYPE
  5
A244
330
5
100
AcDbSymbolTableRecord
100
AcDbLinetypeTableRecord
  2
HIDDEN
 70
     0
  3
_ _ _ _ _ _ _ _ _ _ _ _ _ _ _ _ _ _ _ _ _ _ _
 72
    65
 73
     2
 40
0.375
 49
0.25
 74
     0
 49
-0.125
 74
     0
  0
ENDTAB
  0
TABLE
  2
LAYER
  5
2
102
{ACAD_XDICTIONARY
360
640A8
102
}
330
0
100
AcDbSymbolTable
 70
    15
  0
LAYER
  5
F
102
{ACAD_XDICTIONARY
360
66604
102
}
330
2
100
AcDbSymbolTableRecord
100
AcDbLayerTableRecord
  2
0
 70
     0
 62
     7
  6
CONTINUOUS
370
    -3
390
40CA
  0
LAYER
  5
4C
102
{ACAD_XDICTIONARY
360
6660C
102
}
330
2
100
AcDbSymbolTableRecord
100
AcDbLayerTableRecord
  2
寸法線
 70
     0
 62
     7
  6
CONTINUOUS
370
    -3
390
40CA
  0
LAYER
  5
4D
102
{ACAD_XDICTIONARY
360
6660E
102
}
330
2
100
AcDbSymbolTableRecord
100
AcDbLayerTableRecord
  2
姿図
 70
     0
 62
     8
  6
CONTINUOUS
370
    -3
390
40CA
  0
LAYER
  5
40D4
102
{ACAD_XDICTIONARY
360
66612
102
}
330
2
100
AcDbSymbolTableRecord
100
AcDbLayerTableRecord
  2
文字
 70
     0
 62
     7
  6
CONTINUOUS
370
    -3
390
40CA
  0
LAYER
  5
640A6
102
{ACAD_XDICTIONARY
360
6661A
102
}
330
2
100
AcDbSymbolTableRecord
100
AcDbLayerTableRecord
  2
C-SUNPO
 70
     0
 62
     7
  6
CONTINUOUS
370
    -3
390
40CA
  0
ENDTAB
  0
TABLE
  2
STYLE
  5
3
330
0
100
AcDbSymbolTable
 70
     1
  0
STYLE
  5
10
330
3
100
AcDbSymbolTableRecord
100
AcDbTextStyleTableRecord
  2
STANDARD
 70
     0
 40
0.0
 41
1.0
 50
0.0
 71
     0
 42
6.0
  3
MONOTXT
  4
BIGFONT
  0
ENDTAB
  0
TABLE
  2
VIEW
  5
6
330
0
100
AcDbSymbolTable
 70
     1
  0
VIEW
  5
41
330
6
100
AcDbSymbolTableRecord
100
AcDbViewTableRecord
  2
CUT1
 70
     0
 40
612.7795527156796
 10
420.0000000000169
 20
306.3897763578398
 41
840.0000000000338
 11
0.0
 21
0.0
 31
1.0
 12
0.0
 22
0.0
 32
0.0
 42
50.0
 43
0.0
 44
0.0
 50
0.0
 71
     0
281
     0
 72
     0
  0
ENDTAB
  0
TABLE
  2
UCS
  5
7
330
0
100
AcDbSymbolTable
 70
     0
  0
ENDTAB
  0
TABLE
  2
APPID
  5
9
330
0
100
AcDbSymbolTable
 70
     6
  0
APPID
  5
11
330
9
100
AcDbSymbolTableRecord
100
AcDbRegAppTableRecord
  2
ACAD
 70
     0
  0
APPID
  5
65763
330
9
100
AcDbSymbolTableRecord
100
AcDbRegAppTableRecord
  2
ACAD_MLEADERVER
 70
     0
  0
APPID
  5
66231
330
9
100
AcDbSymbolTableRecord
100
AcDbRegAppTableRecord
  2
ACAD_EXEMPT_FROM_CAD_STANDARDS
 70
     0
  0
APPID
  5
68757
330
9
100
AcDbSymbolTableRecord
100
AcDbRegAppTableRecord
  2
ACAD_PSEXT
 70
     0
  0
APPID
  5
6B2FB
330
9
100
AcDbSymbolTableRecord
100
AcDbRegAppTableRecord
  2
ACAD_DSTYLE_DIMJAG
 70
     0
  0
APPID
  5
6B2FC
330
9
100
AcDbSymbolTableRecord
100
AcDbRegAppTableRecord
  2
ACAD_DSTYLE_DIMTALN
 70
     0
  0
ENDTAB
  0
TABLE
  2
DIMSTYLE
  5
A
330
0
100
AcDbSymbolTable
 70
     5
100
AcDbDimStyleTable
  0
DIMSTYLE
105
1B3A
330
A
100
AcDbSymbolTableRecord
100
AcDbDimStyleTableRecord
  2
STANDARD
 70
     0
 41
10.0
 42
3.0
 43
7.149999999999999
 44
2.0
 73
     0
 74
     0
 77
     3
 78
     8
 79
     2
140
18.0
141
0.0
147
4.0
176
     8
177
     8
178
     0
179
     2
271
     2
272
     2
288
     1
340
10
341
49C3
342
49C3
  0
DIMSTYLE
105
A246
330
A
100
AcDbSymbolTableRecord
100
AcDbDimStyleTableRecord
  2
STANDERD
 70
     0
 40
0.0
 41
4.0
 42
1.5
 43
3.75
 44
1.25
 73
     0
 74
     0
 77
     3
 78
     8
140
5.0
141
0.0
147
2.5
171
     0
173
     1
178
     0
288
     1
340
10
341
49C3
343
49C3
344
49C3
  0
DIMSTYLE
105
63F34
330
A
100
AcDbSymbolTableRecord
100
AcDbDimStyleTableRecord
  2
STANDARD-5
 70
     0
 41
7.5
 42
7.5
 43
1.9
 44
5.0
 73
     0
 74
     0
 77
     1
 78
     8
 79
     2
140
12.5
141
0.0
147
3.0
171
     0
173
     1
176
     8
177
     8
271
     2
178
   256
179
     2
271
     2
272
     2
274
     0
340
10
341
49C3
343
49C3
344
49C3
  0
ENDTAB
  0
TABLE
  2
BLOCK_RECORD
  5
1
330
0
100
AcDbSymbolTable
 70
   189
  0
BLOCK_RECORD
  5
18
102
{ACAD_XDICTIONARY
360
9FD5
102
}
330
1
100
AcDbSymbolTableRecord
100
AcDbBlockTableRecord
  2
*MODEL_SPACE
340
40CD
  0
BLOCK_RECORD
  5
15
330
1
100
AcDbSymbolTableRecord
100
AcDbBlockTableRecord
  2
*PAPER_SPACE
340
40CE
  0
BLOCK_RECORD
  5
49C3
330
1
100
AcDbSymbolTableRecord
100
AcDbBlockTableRecord
  2
_OPEN
340
0
102
{BLKREFS
331
5FEA9
331
5FEAA
331
5FEB2
331
5FEB3
331
5FEBB
331
5FEBC
331
5FEC6
331
5FEC7
331
5FECF
331
5FED0
331
5FED8
331
5FED9
331
5FEE1
331
5FEE2
331
5FEEC
331
5FEED
331
5FEF5
331
5FEF6
331
5FF1B
331
5FF1C
331
5FF24
331
5FF25
331
5FF2D
331
5FF2E
331
5FF36
331
5FF37
331
5FF3F
331
5FF40
331
62294
331
62295
331
6229D
331
6229E
331
622A8
331
622A9
331
622BC
331
622BD
331
6295A
331
6295B
331
63378
331
63379
331
63381
331
63382
331
6338A
331
6338B
331
63393
331
63394
331
6339C
331
6339D
331
633A5
331
633A6
331
633AE
331
633AF
331
633B7
331
633B8
331
633C0
331
633C1
331
633C9
331
633CA
331
633D2
331
633D3
331
633DB
331
633DC
331
633E4
331
633E5
331
633EF
331
633F0
331
633F8
331
633F9
331
63401
331
63402
331
6340C
331
6340D
331
63415
331
63416
331
63420
331
63421
331
63E42
331
63E43
331
63E4B
331
63E4C
331
63E54
331
63E55
331
63E5D
331
63E5E
331
63E66
331
63E67
331
63E6F
331
63E70
331
63E78
331
63E79
331
63E81
331
63E82
331
63E8A
331
63E8B
331
63E93
331
63E94
331
63E9C
331
63E9D
331
63EA5
331
63EA6
331
63EB0
331
63EB1
331
63EB9
331
63EBA
331
63EC4
331
63EC5
331
63ECD
331
63ECE
331
63ED6
331
63ED7
331
63EDF
331
63EE0
331
63EE8
331
63EE9
331
63F81
331
63F82
331
6554D
331
6554E
331
65558
331
65559
331
65561
331
65562
331
6556C
331
6556D
331
65575
331
65576
331
6557E
331
6557F
331
65589
331
6558A
331
65594
331
65595
331
6559D
331
6559E
331
655A6
331
655A7
331
655AF
331
655B0
331
655B8
331
655B9
331
655C1
331
655C2
331
655CA
331
655CB
331
655D3
331
655D4
331
655DC
331
655DD
331
655E5
331
655E6
331
655EE
331
655EF
331
655F7
331
655F8
331
65600
331
65601
331
65609
331
6560A
331
66182
331
66183
331
6618B
331
6618C
331
66194
331
66195
331
6619D
331
6619E
331
661A6
331
661A7
331
661AF
331
661B0
331
661B8
331
661B9
331
661C1
331
661C2
331
661CA
331
661CB
331
661D3
331
661D4
331
661DC
331
661DD
331
661EE
331
661EF
331
661FB
331
661FC
331
66204
331
66205
331
6620D
331
6620E
331
66216
331
66217
331
66221
331
66222
331
6622A
331
6622B
331
665EA
331
665EB
331
665F5
331
665F6
331
665FE
331
665FF
331
6864D
331
6864E
331
68656
331
68657
331
6865F
331
68660
331
68668
331
68669
331
68675
331
68676
331
6867E
331
6867F
331
68689
331
6868A
331
68692
331
68693
331
6869B
331
6869C
331
686A4
331
686A5
331
686AD
331
686AE
331
686B6
331
686B7
331
686BF
331
686C0
331
686C8
331
686C9
331
686D1
331
686D2
331
686DA
331
686DB
331
686E3
331
686E4
331
686EC
331
686ED
331
686F5
331
686F6
331
686FE
331
686FF
331
68709
331
6870A
331
6917E
331
6917F
331
69187
331
69188
331
69190
331
69191
331
69199
331
6919A
331
691A2
331
691A3
331
691AB
331
691AC
331
691B4
331
691B5
331
691BD
331
691BE
331
691C6
331
691C7
331
691CF
331
691D0
331
691D8
331
691D9
331
691E3
331
691E4
331
691EC
331
691ED
331
691F5
331
691F6
331
691FE
331
691FF
331
69207
331
69208
331
69214
331
69215
331
6921D
331
6921E
331
69226
331
69227
331
69231
331
69232
331
6923A
331
6923B
331
69C57
331
69C58
331
69C60
331
69C61
331
69C69
331
69C6A
331
69C72
331
69C73
331
69C7B
331
69C7C
331
69C84
331
69C85
331
69C8D
331
69C8E
331
69C96
331
69C97
331
69C9F
331
69CA0
331
69CA8
331
69CA9
331
69CB1
331
69CB2
331
69CBC
331
69CBD
331
69CC5
331
69CC6
331
69CCE
331
69CCF
331
69CDB
331
69CDC
331
69CE4
331
69CE5
331
69CED
331
69CEE
331
69CF8
331
69CF9
331
69D01
331
69D02
331
69D0A
331
69D0B
331
69D13
331
69D14
331
6B223
331
6B224
331
6B22C
331
6B22D
331
6B235
331
6B236
331
6B23E
331
6B23F
331
6B247
331
6B248
331
6B250
331
6B251
331
6B259
331
6B25A
331
6B262
331
6B263
331
6B26B
331
6B26C
331
6B274
331
6B275
331
6B27D
331
6B27E
331
6B288
331
6B289
331
6B291
331
6B292
331
6B29A
331
6B29B
331
6B2A7
331
6B2A8
331
6B2B0
331
6B2B1
331
6B2B9
331
6B2BA
331
6B2C4
331
6B2C5
331
6B2CD
331
6B2CE
331
6B2D6
331
6B2D7
331
6B2DF
331
6B2E0
102
}
  0
ENDTAB
  0
ENDSEC
  0
SECTION
  2
BLOCKS
  0
BLOCK
  5
52
330
18
100
AcDbEntity
  8
0
100
AcDbBlockBegin
  2
*MODEL_SPACE
 70
     0
 10
0.0
 20
0.0
 30
0.0
  3
*MODEL_SPACE
  1
*MODEL_SPACE
  0
ENDBLK
  5
53
330
18
100
AcDbEntity
  8
0
100
AcDbBlockEnd
  0
BLOCK
  5
50
330
15
100
AcDbEntity
 67
     1
  8
0
100
AcDbBlockBegin
  2
*PAPER_SPACE
 70
     0
 10
0.0
 20
0.0
 30
0.0
  3
*PAPER_SPACE
  1
*PAPER_SPACE
  0
ENDBLK
  5
51
330
15
100
AcDbEntity
 67
     1
  8
0
100
AcDbBlockEnd
  0
BLOCK
  5
49C7
330
49C3
100
AcDbEntity
  8
0
100
AcDbBlockBegin
  2
_OPEN
 70
     0
 10
0.0
 20
0.0
 30
0.0
  3
_OPEN
  1
_OPEN
  0
LINE
  5
49C4
330
49C3
100
AcDbEntity
  8
0
  6
ByBlock
 62
     0
100
AcDbLine
 10
-1.0
 20
0.1666666666666667
 30
0.0
 11
0.0
 21
0.0
 31
0.0
  0
LINE
  5
49C5
330
49C3
100
AcDbEntity
  8
0
  6
ByBlock
 62
     0
100
AcDbLine
 10
0.0
 20
0.0
 30
0.0
 11
-1.0
 21
-0.1666666666666667
 31
0.0
  0
LINE
  5
49C6
330
49C3
100
AcDbEntity
  8
0
  6
ByBlock
 62
     0
100
AcDbLine
 10
0.0
 20
0.0
 30
0.0
 11
-1.0
 21
0.0
 31
0.0
  0
ENDBLK
  5
49C8
330
49C3
100
AcDbEntity
  8
0
100
AcDbBlockEnd
  0
ENDSEC
  0
SECTION
  2
ENTITIES
  0
TEXT
  5
6A829
330
18
100
AcDbEntity
  8
文字
100
AcDbText
 10
18541.38811060916
 20
-8309.152929080225
 30
0.0
 40
29.997
  1
SX-LB140E
100
AcDbText
  0
LINE
  5
6AEDD
330
18
100
AcDbEntity
  8
姿図
100
AcDbLine
 10
18832.07906044686
 20
-8172.229566272621
 30
0.0
 11
18792.27268162089
 21
-8179.301416181263
 31
0.0
  0
LINE
  5
6AEDE
330
18
100
AcDbEntity
  8
姿図
100
AcDbLine
 10
18792.27268162089
 20
-8178.082780551593
 30
0.0
 11
18792.27268162089
 21
-8185.306520447177
 31
0.0
  0
LINE
  5
6AEDF
330
18
100
AcDbEntity
  8
姿図
100
AcDbLine
 10
18832.07906044686
 20
-8140.543832661229
 30
0.0
 11
18832.07906044686
 21
-8138.869191732458
 31
0.0
  0
LINE
  5
6AEE0
330
18
100
AcDbEntity
  8
姿図
100
AcDbLine
 10
18832.07906044686
 20
-8160.030563468754
 30
0.0
 11
18829.80405243117
 21
-8160.030563468754
 31
0.0
  0
LINE
  5
6AEE1
330
18
100
AcDbEntity
  8
姿図
100
AcDbLine
 10
18832.07906044686
 20
-8155.158880766872
 30
0.0
 11
18830.26029421569
 21
-8156.935983314259
 31
0.0
  0
LINE
  5
6AEE2
330
18
100
AcDbEntity
  8
姿図
100
AcDbLine
 10
18832.07906044686
 20
-8150.287198064991
 30
0.0
 11
18830.26029421569
 21
-8152.064300612377
 31
0.0
  0
LINE
  5
6AEE3
330
18
100
AcDbEntity
  8
姿図
100
AcDbLine
 10
18832.07906044686
 20
-8145.415515363111
 30
0.0
 11
18830.26029421569
 21
-8147.192617910496
 31
0.0
  0
LINE
  5
6AEE4
330
18
100
AcDbEntity
  8
姿図
100
AcDbLine
 10
18832.07906044686
 20
-8140.543832661229
 30
0.0
 11
18830.26029421569
 21
-8142.320935208616
 31
0.0
  0
LINE
  5
6AEE5
330
18
100
AcDbEntity
  8
姿図
100
AcDbLine
 10
18829.74931206019
 20
-8162.683386481693
 30
0.0
 11
18829.74931206019
 21
-8167.650577721983
 31
0.0
  0
LINE
  5
6AEE6
330
18
100
AcDbEntity
  8
姿図
100
AcDbLine
 10
18832.07906044686
 20
-8160.030563468754
 30
0.0
 11
18832.07906044686
 21
-8158.355922539982
 31
0.0
  0
LINE
  5
6AEE7
330
18
100
AcDbEntity
  8
姿図
100
AcDbLine
 10
18832.07906044686
 20
-8172.229566272621
 30
0.0
 11
18832.07906044686
 21
-8169.469448703649
 31
0.0
  0
LINE
  5
6AEE8
330
18
100
AcDbEntity
  8
姿図
100
AcDbLine
 10
18832.07906044686
 20
-8163.582832105541
 30
0.0
 11
18830.90139047156
 21
-8163.582832105541
 31
0.0
  0
LINE
  5
6AEE9
330
18
100
AcDbEntity
  8
姿図
100
AcDbLine
 10
18832.07906044686
 20
-8163.582832105541
 30
0.0
 11
18832.07906044686
 21
-8161.806697787148
 31
0.0
  0
LINE
  5
6AEEA
330
18
100
AcDbEntity
  8
姿図
100
AcDbLine
 10
18832.07906044686
 20
-8145.415515363111
 30
0.0
 11
18832.07906044686
 21
-8143.740874434339
 31
0.0
  0
LINE
  5
6AEEB
330
18
100
AcDbEntity
  8
姿図
100
AcDbLine
 10
18832.07906044686
 20
-8150.287198064991
 30
0.0
 11
18832.07906044686
 21
-8148.612557136219
 31
0.0
  0
LINE
  5
6AEEC
330
18
100
AcDbEntity
  8
姿図
100
AcDbLine
 10
18832.07906044686
 20
-8155.158880766872
 30
0.0
 11
18832.07906044686
 21
-8153.484239838101
 31
0.0
  0
LINE
  5
6AEED
330
18
100
AcDbEntity
  8
姿図
100
AcDbLine
 10
18832.07906044686
 20
-8135.672149959348
 30
0.0
 11
18830.26029421569
 21
-8137.449252506734
 31
0.0
  0
LINE
  5
6AEEE
330
18
100
AcDbEntity
  8
姿図
100
AcDbLine
 10
18829.74931206019
 20
-8122.54967898014
 30
0.0
 11
18829.74931206019
 21
-8127.611435515899
 31
0.0
  0
LINE
  5
6AEEF
330
18
100
AcDbEntity
  8
姿図
100
AcDbLine
 10
18832.07906044686
 20
-8123.543689899458
 30
0.0
 11
18832.07906044686
 21
-8121.513822107006
 31
0.0
  0
LINE
  5
6AEF0
330
18
100
AcDbEntity
  8
姿図
100
AcDbLine
 10
18832.07906044686
 20
-8123.543689899458
 30
0.0
 11
18831.02251689932
 21
-8123.543689899458
 31
0.0
  0
LINE
  5
6AEF1
330
18
100
AcDbEntity
  8
姿図
100
AcDbLine
 10
18832.07906044686
 20
-8131.460174290014
 30
0.0
 11
18832.07906044686
 21
-8129.430306497563
 31
0.0
  0
LINE
  5
6AEF2
330
18
100
AcDbEntity
  8
姿図
100
AcDbLine
 10
18832.07906044686
 20
-8135.672149959348
 30
0.0
 11
18832.07906044686
 21
-8133.997509030576
 31
0.0
  0
LINE
  5
6AEF3
330
18
100
AcDbEntity
  8
姿図
100
AcDbLine
 10
18830.78113267967
 20
-8131.601272536987
 30
0.0
 11
18830.78113267967
 21
-8132.984196534888
 31
0.0
  0
LINE
  5
6AEF4
330
18
100
AcDbEntity
  8
姿図
100
AcDbLine
 10
18832.07906044686
 20
-8131.460174290014
 30
0.0
 11
18830.78113267967
 21
-8131.601272536987
 31
0.0
  0
LINE
  5
6AEF5
330
18
100
AcDbEntity
  8
姿図
100
AcDbLine
 10
18825.2045447158
 20
-8070.276292426441
 30
0.0
 11
18825.2045447158
 21
-8116.146780220528
 31
0.0
  0
LINE
  5
6AEF6
330
18
100
AcDbEntity
  8
姿図
100
AcDbLine
 10
18799.27063223968
 20
-8048.234585130287
 30
0.0
 11
18794.03279486323
 21
-8049.032401495151
 31
0.0
  0
LINE
  5
6AEF7
330
18
100
AcDbEntity
  8
姿図
100
AcDbLine
 10
18799.27063223968
 20
-8081.536794022149
 30
0.0
 11
18799.27063223968
 21
-8048.234585130287
 31
0.0
  0
LINE
  5
6AEF8
330
18
100
AcDbEntity
  8
姿図
100
AcDbLine
 10
18799.27063223968
 20
-8048.234585130287
 30
0.0
 11
18825.2045447158
 21
-8070.276292426441
 31
0.0
  0
LINE
  5
6AEF9
330
18
100
AcDbEntity
  8
姿図
100
AcDbLine
 10
18721.21158833603
 20
-8188.531754262884
 30
0.0
 11
18721.21158833603
 21
-8195.75549415847
 31
0.0
  0
LINE
  5
6AEFA
330
18
100
AcDbEntity
  8
姿図
100
AcDbLine
 10
18721.21158833603
 20
-8195.75549415847
 30
0.0
 11
18720.7915717913
 21
-8195.81725428108
 31
0.0
  0
LINE
  5
6AEFB
330
18
100
AcDbEntity
  8
姿図
100
AcDbLine
 10
18726.81799692074
 20
-8088.977728709855
 30
0.0
 11
18726.81799692074
 21
-7986.65576311471
 31
0.0
  0
LINE
  5
6AEFC
330
18
100
AcDbEntity
  8
姿図
100
AcDbLine
 10
18760.43717337245
 20
-8048.531525941734
 30
0.0
 11
18760.43717337245
 21
-8015.229317049875
 31
0.0
  0
LINE
  5
6AEFD
330
18
100
AcDbEntity
  8
姿図
100
AcDbLine
 10
18726.81799692074
 20
-7986.65576311471
 30
0.0
 11
18760.43717337245
 21
-8015.229317049875
 31
0.0
  0
LINE
  5
6AEFE
330
18
100
AcDbEntity
  8
姿図
100
AcDbLine
 10
18711.2603521653
 20
-8134.443016671799
 30
0.0
 11
18653.85763812521
 21
-8143.580787779014
 31
0.0
  0
LINE
  5
6AEFF
330
18
100
AcDbEntity
  8
姿図
100
AcDbLine
 10
18715.45715762498
 20
-8113.085287823798
 30
0.0
 11
18713.93228108813
 21
-8123.012561797243
 31
0.0
  0
LINE
  5
6AF00
330
18
100
AcDbEntity
  8
姿図
100
AcDbLine
 10
18715.45715762498
 20
-8113.085287823798
 30
0.0
 11
18713.93228108813
 21
-8123.012561797243
 31
0.0
  0
LINE
  5
6AF01
330
18
100
AcDbEntity
  8
姿図
100
AcDbLine
 10
18703.23628605164
 20
-8195.11928367996
 30
0.0
 11
18666.97411092537
 21
-8201.56148383524
 31
0.0
  0
LINE
  5
6AF02
330
18
100
AcDbEntity
  8
姿図
100
AcDbLine
 10
18682.16595294244
 20
-8165.673114610681
 30
0.0
 11
18682.25505447773
 21
-8165.227980521824
 31
0.0
  0
LINE
  5
6AF03
330
18
100
AcDbEntity
  8
姿図
100
AcDbLine
 10
18713.93228108813
 20
-8123.012561797243
 30
0.0
 11
18711.2603521653
 21
-8134.443016671799
 31
0.0
  0
LINE
  5
6AF04
330
18
100
AcDbEntity
  8
姿図
100
AcDbLine
 10
18654.4439148565
 20
-8143.434333604329
 30
0.0
 11
18721.21158833603
 21
-8195.75549415847
 31
0.0
  0
LINE
  5
6AF05
330
18
100
AcDbEntity
  8
姿図
100
AcDbLine
 10
18653.85763812521
 20
-8143.580787779014
 30
0.0
 11
18720.7915717913
 21
-8195.81725428108
 31
0.0
  0
LINE
  5
6AF06
330
18
100
AcDbEntity
  8
姿図
100
AcDbLine
 10
18711.2603521653
 20
-8134.443016671799
 30
0.0
 11
18776.63164275328
 21
-8187.6064119404
 31
0.0
  0
LINE
  5
6AF07
330
18
100
AcDbEntity
  8
姿図
100
AcDbLine
 10
18720.7915717913
 20
-8195.81725428108
 30
0.0
 11
18706.82524973616
 21
-8197.870891866032
 31
0.0
  0
LINE
  5
6AF08
330
18
100
AcDbEntity
  8
姿図
100
AcDbLine
 10
18721.21158833603
 20
-8188.531754262884
 30
0.0
 11
18665.83432269258
 21
-8141.674254193798
 31
0.0
  0
LINE
  5
6AF09
330
18
100
AcDbEntity
  8
姿図
100
AcDbLine
 10
18832.07906044686
 20
-8161.705204397525
 30
0.0
 11
18726.81799692074
 21
-8076.778725905988
 31
0.0
  0
LINE
  5
6AF0A
330
18
100
AcDbEntity
  8
姿図
100
AcDbLine
 10
18830.90139047156
 20
-8163.582832105541
 30
0.0
 11
18726.81799692074
 21
-8081.250419900593
 31
0.0
  0
LINE
  5
6AF0B
330
18
100
AcDbEntity
  8
姿図
100
AcDbLine
 10
18832.07906044686
 20
-8163.582832105541
 30
0.0
 11
18726.81799692074
 21
-8080.330994542775
 31
0.0
  0
LINE
  5
6AF0C
330
18
100
AcDbEntity
  8
姿図
100
AcDbLine
 10
18832.07906044686
 20
-8161.806697787148
 30
0.0
 11
18726.81799692074
 21
-8078.554860224382
 31
0.0
  0
LINE
  5
6AF0D
330
18
100
AcDbEntity
  8
姿図
100
AcDbLine
 10
18832.07906044686
 20
-8160.030563468754
 30
0.0
 11
18726.81799692074
 21
-8075.104084977216
 31
0.0
  0
LINE
  5
6AF0E
330
18
100
AcDbEntity
  8
姿図
100
AcDbLine
 10
18832.07906044686
 20
-8158.355922539982
 30
0.0
 11
18726.81799692074
 21
-8074.007260844728
 31
0.0
  0
LINE
  5
6AF0F
330
18
100
AcDbEntity
  8
姿図
100
AcDbLine
 10
18832.07906044686
 20
-8155.158880766872
 30
0.0
 11
18726.81799692074
 21
-8070.232402275335
 31
0.0
  0
LINE
  5
6AF10
330
18
100
AcDbEntity
  8
姿図
100
AcDbLine
 10
18832.07906044686
 20
-8153.484239838101
 30
0.0
 11
18726.81799692074
 21
-8069.135578142846
 31
0.0
  0
LINE
  5
6AF11
330
18
100
AcDbEntity
  8
姿図
100
AcDbLine
 10
18832.07906044686
 20
-8150.287198064991
 30
0.0
 11
18726.81799692074
 21
-8065.360719573453
 31
0.0
  0
LINE
  5
6AF12
330
18
100
AcDbEntity
  8
姿図
100
AcDbLine
 10
18832.07906044686
 20
-8148.612557136219
 30
0.0
 11
18726.81799692074
 21
-8064.263895440965
 31
0.0
  0
LINE
  5
6AF13
330
18
100
AcDbEntity
  8
姿図
100
AcDbLine
 10
18832.07906044686
 20
-8145.415515363111
 30
0.0
 11
18726.81799692074
 21
-8060.489036871573
 31
0.0
  0
LINE
  5
6AF14
330
18
100
AcDbEntity
  8
姿図
100
AcDbLine
 10
18832.07906044686
 20
-8143.740874434339
 30
0.0
 11
18726.81799692074
 21
-8059.392212739085
 31
0.0
  0
LINE
  5
6AF15
330
18
100
AcDbEntity
  8
姿図
100
AcDbLine
 10
18832.07906044686
 20
-8140.543832661229
 30
0.0
 11
18726.81799692074
 21
-8055.617354169692
 31
0.0
  0
LINE
  5
6AF16
330
18
100
AcDbEntity
  8
姿図
100
AcDbLine
 10
18832.07906044686
 20
-8138.869191732458
 30
0.0
 11
18726.81799692074
 21
-8054.520530037204
 31
0.0
  0
LINE
  5
6AF17
330
18
100
AcDbEntity
  8
姿図
100
AcDbLine
 10
18832.07906044686
 20
-8135.672149959348
 30
0.0
 11
18726.81799692074
 21
-8052.420312396584
 31
0.0
  0
LINE
  5
6AF18
330
18
100
AcDbEntity
  8
姿図
100
AcDbLine
 10
18832.07906044686
 20
-8133.997509030576
 30
0.0
 11
18726.81799692074
 21
-8050.745671467812
 31
0.0
  0
LINE
  5
6AF19
330
18
100
AcDbEntity
  8
姿図
100
AcDbLine
 10
18830.78113267967
 20
-8131.601272536987
 30
0.0
 11
18726.81799692074
 21
-8049.421294391374
 31
0.0
  0
LINE
  5
6AF1A
330
18
100
AcDbEntity
  8
姿図
100
AcDbLine
 10
18832.07906044686
 20
-8131.460174290014
 30
0.0
 11
18726.63322487491
 21
-8048.241162626364
 31
0.0
  0
LINE
  5
6AF1B
330
18
100
AcDbEntity
  8
姿図
100
AcDbLine
 10
18832.07906044686
 20
-8129.430306497563
 30
0.0
 11
18726.81799692074
 21
-8046.178468934797
 31
0.0
  0
LINE
  5
6AF1C
330
18
100
AcDbEntity
  8
姿図
100
AcDbLine
 10
18831.02251689932
 20
-8123.543689899458
 30
0.0
 11
18726.81799692074
 21
-8041.504810000817
 31
0.0
  0
LINE
  5
6AF1D
330
18
100
AcDbEntity
  8
姿図
100
AcDbLine
 10
18832.07906044686
 20
-8123.543689899458
 30
0.0
 11
18726.81799692074
 21
-8040.291852336692
 31
0.0
  0
LINE
  5
6AF1E
330
18
100
AcDbEntity
  8
姿図
100
AcDbLine
 10
18832.07906044686
 20
-8121.513822107006
 30
0.0
 11
18726.81799692074
 21
-8038.26198454424
 31
0.0
  0
LINE
  5
6AF1F
330
18
100
AcDbEntity
  8
姿図
100
AcDbLine
 10
18832.07906044686
 20
-8169.469448703649
 30
0.0
 11
18726.81799692074
 21
-8086.217611140883
 31
0.0
  0
LINE
  5
6AF20
330
18
100
AcDbEntity
  8
姿図
100
AcDbLine
 10
18832.07906044686
 20
-8172.229566272621
 30
0.0
 11
18726.81799692074
 21
-8088.977728709855
 31
0.0
  0
LINE
  5
6AF21
330
18
100
AcDbEntity
  8
姿図
100
AcDbLine
 10
18792.27268162089
 20
-8178.082780551593
 30
0.0
 11
18715.45715762498
 21
-8113.085287823798
 31
0.0
  0
LINE
  5
6AF22
330
18
100
AcDbEntity
  8
姿図
100
AcDbLine
 10
18792.27268162089
 20
-8185.306520447177
 30
0.0
 11
18713.93228108813
 21
-8123.012561797243
 31
0.0
  0
LINE
  5
6AF23
330
18
100
AcDbEntity
  8
姿図
100
AcDbLine
 10
18776.63164275328
 20
-8187.606411940398
 30
0.0
 11
18792.27268162089
 21
-8185.306520447177
 31
0.0
  0
LINE
  5
6AF24
330
18
100
AcDbEntity
  8
姿図
100
AcDbLine
 10
18760.43717337245
 20
-8020.478867352792
 30
0.0
 11
18799.27063223968
 21
-8053.484135433211
 31
0.0
  0
LINE
  5
6AF25
330
18
100
AcDbEntity
  8
姿図
100
AcDbLine
 10
18760.43717337245
 20
-8048.531525941734
 30
0.0
 11
18799.27063223968
 21
-8081.536794022149
 31
0.0
  0
LINE
  5
6AF26
330
18
100
AcDbEntity
  8
姿図
100
AcDbLine
 10
18628.07153611701
 20
-8129.439839531167
 30
0.0
 11
18628.07153611701
 21
-8137.491522742666
 31
0.0
  0
LINE
  5
6AF27
330
18
100
AcDbEntity
  8
姿図
100
AcDbLine
 10
18628.07153611701
 20
-8129.439839531167
 30
0.0
 11
18628.07153611701
 21
-8137.491522742666
 31
0.0
  0
LINE
  5
6AF28
330
18
100
AcDbEntity
  8
姿図
100
AcDbLine
 10
18561.71304739926
 20
-8118.309646272473
 30
0.0
 11
18561.71304739926
 21
-8115.549528703499
 31
0.0
  0
LINE
  5
6AF29
330
18
100
AcDbEntity
  8
姿図
100
AcDbLine
 10
18561.71304739926
 20
-8101.238960766725
 30
0.0
 11
18561.71304739926
 21
-8099.564319837953
 31
0.0
  0
LINE
  5
6AF2A
330
18
100
AcDbEntity
  8
姿図
100
AcDbLine
 10
18561.71304739926
 20
-8106.110643468606
 30
0.0
 11
18561.71304739926
 21
-8104.436002539835
 31
0.0
  0
LINE
  5
6AF2B
330
18
100
AcDbEntity
  8
姿図
100
AcDbLine
 10
18563.53181363043
 20
-8103.016063314111
 30
0.0
 11
18561.71304739926
 21
-8104.436002539835
 31
0.0
  0
LINE
  5
6AF2C
330
18
100
AcDbEntity
  8
姿図
100
AcDbLine
 10
18561.71304739926
 20
-8101.238960766725
 30
0.0
 11
18563.53181363043
 21
-8103.016063314111
 31
0.0
  0
LINE
  5
6AF2D
330
18
100
AcDbEntity
  8
姿図
100
AcDbLine
 10
18563.16682374579
 20
-8107.065328754621
 30
0.0
 11
18563.16682374579
 21
-8107.628505408889
 31
0.0
  0
LINE
  5
6AF2E
330
18
100
AcDbEntity
  8
姿図
100
AcDbLine
 10
18562.81501400298
 20
-8110.386566266339
 30
0.0
 11
18562.81501400298
 21
-8115.353757506631
 31
0.0
  0
LINE
  5
6AF2F
330
18
100
AcDbEntity
  8
姿図
100
AcDbLine
 10
18561.71304739926
 20
-8109.662912105394
 30
0.0
 11
18562.81501400298
 21
-8110.386566266339
 31
0.0
  0
LINE
  5
6AF30
330
18
100
AcDbEntity
  8
姿図
100
AcDbLine
 10
18561.71304739926
 20
-8107.886777787
 30
0.0
 11
18561.71304739926
 21
-8109.662912105394
 31
0.0
  0
LINE
  5
6AF31
330
18
100
AcDbEntity
  8
姿図
100
AcDbLine
 10
18561.71304739926
 20
-8106.110643468606
 30
0.0
 11
18563.16682374579
 21
-8107.065328754621
 31
0.0
  0
LINE
  5
6AF32
330
18
100
AcDbEntity
  8
姿図
100
AcDbLine
 10
18561.71304739926
 20
-8086.623912661082
 30
0.0
 11
18561.71304739926
 21
-8084.94927173231
 31
0.0
  0
LINE
  5
6AF33
330
18
100
AcDbEntity
  8
姿図
100
AcDbLine
 10
18561.71304739926
 20
-8091.495595362963
 30
0.0
 11
18561.71304739926
 21
-8089.82095443419
 31
0.0
  0
LINE
  5
6AF34
330
18
100
AcDbEntity
  8
姿図
100
AcDbLine
 10
18561.71304739926
 20
-8096.367278064843
 30
0.0
 11
18561.71304739926
 21
-8094.692637136071
 31
0.0
  0
LINE
  5
6AF35
330
18
100
AcDbEntity
  8
姿図
100
AcDbLine
 10
18563.53181363043
 20
-8098.14438061223
 30
0.0
 11
18561.71304739926
 21
-8099.564319837953
 31
0.0
  0
LINE
  5
6AF36
330
18
100
AcDbEntity
  8
姿図
100
AcDbLine
 10
18563.53181363043
 20
-8093.272697910348
 30
0.0
 11
18561.71304739926
 21
-8094.692637136071
 31
0.0
  0
LINE
  5
6AF37
330
18
100
AcDbEntity
  8
姿図
100
AcDbLine
 10
18561.71304739926
 20
-8091.495595362963
 30
0.0
 11
18563.53181363043
 21
-8093.272697910348
 31
0.0
  0
LINE
  5
6AF38
330
18
100
AcDbEntity
  8
姿図
100
AcDbLine
 10
18561.71304739926
 20
-8096.367278064843
 30
0.0
 11
18563.53181363043
 21
-8098.14438061223
 31
0.0
  0
LINE
  5
6AF39
330
18
100
AcDbEntity
  8
姿図
100
AcDbLine
 10
18563.53181363043
 20
-8088.401015208468
 30
0.0
 11
18561.71304739926
 21
-8089.82095443419
 31
0.0
  0
LINE
  5
6AF3A
330
18
100
AcDbEntity
  8
姿図
100
AcDbLine
 10
18561.71304739926
 20
-8086.623912661082
 30
0.0
 11
18563.53181363043
 21
-8088.401015208468
 31
0.0
  0
LINE
  5
6AF3B
330
18
100
AcDbEntity
  8
姿図
100
AcDbLine
 10
18563.16682374579
 20
-8078.494939575881
 30
0.0
 11
18563.16682374579
 21
-8079.81931665232
 31
0.0
  0
LINE
  5
6AF3C
330
18
100
AcDbEntity
  8
姿図
100
AcDbLine
 10
18563.88213312226
 20
-8070.451376041281
 30
0.0
 11
18563.88213312226
 21
-8075.125034975263
 31
0.0
  0
LINE
  5
6AF3D
330
18
100
AcDbEntity
  8
姿図
100
AcDbLine
 10
18561.71304739926
 20
-8069.623769899308
 30
0.0
 11
18561.71304739926
 21
-8067.593902106859
 31
0.0
  0
LINE
  5
6AF3E
330
18
100
AcDbEntity
  8
姿図
100
AcDbLine
 10
18561.71304739926
 20
-8081.7522299592
 30
0.0
 11
18561.71304739926
 21
-8080.07758903043
 31
0.0
  0
LINE
  5
6AF3F
330
18
100
AcDbEntity
  8
姿図
100
AcDbLine
 10
18561.71304739926
 20
-8077.540254289865
 30
0.0
 11
18561.71304739926
 21
-8075.510386497415
 31
0.0
  0
LINE
  5
6AF40
330
18
100
AcDbEntity
  8
姿図
100
AcDbLine
 10
18561.71304739926
 20
-8069.62376989931
 30
0.0
 11
18563.16682374579
 21
-8070.578455185325
 31
0.0
  0
LINE
  5
6AF41
330
18
100
AcDbEntity
  8
姿図
100
AcDbLine
 10
18563.53181363043
 20
-8083.529332506587
 30
0.0
 11
18561.71304739926
 21
-8084.94927173231
 31
0.0
  0
LINE
  5
6AF42
330
18
100
AcDbEntity
  8
姿図
100
AcDbLine
 10
18561.71304739926
 20
-8077.540254289866
 30
0.0
 11
18563.16682374579
 21
-8078.494939575881
 31
0.0
  0
LINE
  5
6AF43
330
18
100
AcDbEntity
  8
姿図
100
AcDbLine
 10
18561.71304739926
 20
-8081.7522299592
 30
0.0
 11
18563.53181363043
 21
-8083.529332506587
 31
0.0
  0
LINE
  5
6AF44
330
18
100
AcDbEntity
  8
姿図
100
AcDbLine
 10
18567.23269226931
 20
-8066.613302986285
 30
0.0
 11
18567.23269226931
 21
-8015.007081556754
 31
0.0
  0
LINE
  5
6AF45
330
18
100
AcDbEntity
  8
姿図
100
AcDbLine
 10
18666.97411092537
 20
-8201.561483835241
 30
0.0
 11
18561.71304739926
 21
-8118.309646272473
 31
0.0
  0
LINE
  5
6AF46
330
18
100
AcDbEntity
  8
姿図
100
AcDbLine
 10
18726.81799692074
 20
-8074.007260844728
 30
0.0
 11
18563.53181363043
 21
-8103.016063314111
 31
0.0
  0
LINE
  5
6AF47
330
18
100
AcDbEntity
  8
姿図
100
AcDbLine
 10
18726.81799692074
 20
-8071.907043204106
 30
0.0
 11
18561.71304739926
 21
-8101.238960766725
 31
0.0
  0
LINE
  5
6AF48
330
18
100
AcDbEntity
  8
姿図
100
AcDbLine
 10
18726.81799692074
 20
-8075.104084977216
 30
0.0
 11
18561.71304739926
 21
-8104.436002539835
 31
0.0
  0
LINE
  5
6AF49
330
18
100
AcDbEntity
  8
姿図
100
AcDbLine
 10
18726.81799692074
 20
-8076.778725905988
 30
0.0
 11
18561.71304739926
 21
-8106.110643468606
 31
0.0
  0
LINE
  5
6AF4A
330
18
100
AcDbEntity
  8
姿図
100
AcDbLine
 10
18726.81799692074
 20
-8078.554860224382
 30
0.0
 11
18561.71304739926
 21
-8107.886777787
 31
0.0
  0
LINE
  5
6AF4B
330
18
100
AcDbEntity
  8
姿図
100
AcDbLine
 10
18726.81799692074
 20
-8081.250419900593
 30
0.0
 11
18562.81501400298
 21
-8110.386566266339
 31
0.0
  0
LINE
  5
6AF4C
330
18
100
AcDbEntity
  8
姿図
100
AcDbLine
 10
18726.81799692074
 20
-8080.330994542775
 30
0.0
 11
18561.71304739926
 21
-8109.662912105394
 31
0.0
  0
LINE
  5
6AF4D
330
18
100
AcDbEntity
  8
姿図
100
AcDbLine
 10
18726.81799692074
 20
-8080.330994542775
 30
0.0
 11
18561.71304739926
 21
-8109.662912105394
 31
0.0
  0
LINE
  5
6AF4E
330
18
100
AcDbEntity
  8
姿図
100
AcDbLine
 10
18726.81799692074
 20
-8086.217611140883
 30
0.0
 11
18561.71304739926
 21
-8115.549528703499
 31
0.0
  0
LINE
  5
6AF4F
330
18
100
AcDbEntity
  8
姿図
100
AcDbLine
 10
18726.81799692074
 20
-8088.977728709855
 30
0.0
 11
18561.71304739926
 21
-8118.309646272473
 31
0.0
  0
LINE
  5
6AF50
330
18
100
AcDbEntity
  8
姿図
100
AcDbLine
 10
18715.45715762498
 20
-8113.085287823798
 30
0.0
 11
18628.07153611701
 21
-8129.439839531167
 31
0.0
  0
LINE
  5
6AF51
330
18
100
AcDbEntity
  8
姿図
100
AcDbLine
 10
18713.93228108813
 20
-8123.012561797243
 30
0.0
 11
18628.07153611701
 21
-8137.491522742666
 31
0.0
  0
LINE
  5
6AF52
330
18
100
AcDbEntity
  8
姿図
100
AcDbLine
 10
18726.81799692074
 20
-7986.65576311471
 30
0.0
 11
18567.23269226931
 21
-8015.007081556754
 31
0.0
  0
LINE
  5
6AF53
330
18
100
AcDbEntity
  8
姿図
100
AcDbLine
 10
18726.81799692074
 20
-8041.504810000817
 30
0.0
 11
18563.16682374579
 21
-8070.578455185323
 31
0.0
  0
LINE
  5
6AF54
330
18
100
AcDbEntity
  8
姿図
100
AcDbLine
 10
18726.81799692074
 20
-8040.291852336692
 30
0.0
 11
18561.71304739926
 21
-8069.62376989931
 31
0.0
  0
LINE
  5
6AF55
330
18
100
AcDbEntity
  8
姿図
100
AcDbLine
 10
18726.81799692074
 20
-8046.178468934797
 30
0.0
 11
18561.71304739926
 21
-8075.510386497415
 31
0.0
  0
LINE
  5
6AF56
330
18
100
AcDbEntity
  8
姿図
100
AcDbLine
 10
18726.81799692074
 20
-8049.421294391374
 30
0.0
 11
18563.16682374579
 21
-8078.494939575881
 31
0.0
  0
LINE
  5
6AF57
330
18
100
AcDbEntity
  8
姿図
100
AcDbLine
 10
18726.81799692074
 20
-8048.208336727248
 30
0.0
 11
18561.71304739926
 21
-8077.540254289866
 31
0.0
  0
LINE
  5
6AF58
330
18
100
AcDbEntity
  8
姿図
100
AcDbLine
 10
18726.81799692074
 20
-8050.745671467812
 30
0.0
 11
18561.71304739926
 21
-8080.07758903043
 31
0.0
  0
LINE
  5
6AF59
330
18
100
AcDbEntity
  8
姿図
100
AcDbLine
 10
18726.81799692074
 20
-8069.135578142846
 30
0.0
 11
18563.53181363043
 21
-8098.14438061223
 31
0.0
  0
LINE
  5
6AF5A
330
18
100
AcDbEntity
  8
姿図
100
AcDbLine
 10
18726.81799692074
 20
-8064.263895440965
 30
0.0
 11
18563.53181363043
 21
-8093.272697910348
 31
0.0
  0
LINE
  5
6AF5B
330
18
100
AcDbEntity
  8
姿図
100
AcDbLine
 10
18726.81799692074
 20
-8059.392212739085
 30
0.0
 11
18563.53181363043
 21
-8088.401015208468
 31
0.0
  0
LINE
  5
6AF5C
330
18
100
AcDbEntity
  8
姿図
100
AcDbLine
 10
18726.81799692074
 20
-8054.520530037204
 30
0.0
 11
18563.53181363043
 21
-8083.529332506587
 31
0.0
  0
LINE
  5
6AF5D
330
18
100
AcDbEntity
  8
姿図
100
AcDbLine
 10
18726.81799692074
 20
-8052.420312396584
 30
0.0
 11
18561.71304739926
 21
-8081.7522299592
 31
0.0
  0
LINE
  5
6AF5E
330
18
100
AcDbEntity
  8
姿図
100
AcDbLine
 10
18726.81799692074
 20
-8055.617354169692
 30
0.0
 11
18561.71304739926
 21
-8084.94927173231
 31
0.0
  0
LINE
  5
6AF5F
330
18
100
AcDbEntity
  8
姿図
100
AcDbLine
 10
18726.81799692074
 20
-8057.291995098463
 30
0.0
 11
18561.71304739926
 21
-8086.623912661082
 31
0.0
  0
LINE
  5
6AF60
330
18
100
AcDbEntity
  8
姿図
100
AcDbLine
 10
18726.81799692074
 20
-8060.489036871573
 30
0.0
 11
18561.71304739926
 21
-8089.820954434192
 31
0.0
  0
LINE
  5
6AF61
330
18
100
AcDbEntity
  8
姿図
100
AcDbLine
 10
18726.81799692074
 20
-8062.163677800345
 30
0.0
 11
18561.71304739926
 21
-8091.495595362963
 31
0.0
  0
LINE
  5
6AF62
330
18
100
AcDbEntity
  8
姿図
100
AcDbLine
 10
18726.81799692074
 20
-8065.360719573453
 30
0.0
 11
18561.71304739926
 21
-8094.692637136073
 31
0.0
  0
LINE
  5
6AF63
330
18
100
AcDbEntity
  8
姿図
100
AcDbLine
 10
18726.81799692074
 20
-8067.035360502226
 30
0.0
 11
18561.71304739926
 21
-8096.367278064843
 31
0.0
  0
LINE
  5
6AF64
330
18
100
AcDbEntity
  8
姿図
100
AcDbLine
 10
18726.81799692074
 20
-8070.232402275335
 30
0.0
 11
18561.71304739926
 21
-8099.564319837953
 31
0.0
  0
LINE
  5
6AF65
330
18
100
AcDbEntity
  8
姿図
100
AcDbLine
 10
18726.81799692074
 20
-8038.26198454424
 30
0.0
 11
18561.71304739926
 21
-8067.593902106859
 31
0.0
  0
LINE
  5
6AF66
330
18
100
AcDbEntity
  8
姿図
100
AcDbLine
 10
18628.07153611701
 20
-8137.491522742666
 30
0.0
 11
18706.82524973616
 21
-8197.870891866032
 31
0.0
  0
LINE
  5
6AF67
330
18
100
AcDbEntity
  8
姿図
100
AcDbLine
 10
18628.07153611701
 20
-8137.491522742666
 30
0.0
 11
18653.85763812521
 21
-8143.580787779014
 31
0.0
  0
LINE
  5
6AF68
330
18
100
AcDbEntity
  8
姿図
100
AcDbLine
 10
18682.04978641593
 20
-8155.394976654688
 30
0.0
 11
18682.04978641592
 21
-8139.092961682128
 31
0.0
  0
ENDSEC
  0
SECTION
  2
OBJECTS
  0
DICTIONARY
  5
C
330
0
100
AcDbDictionary
281
     1
  3
ACAD_GROUP
350
D
  3
ACAD_IMAGE_VARS
350
6B362
  3
ACAD_LAYOUT
350
40CB
  3
ACAD_MLINESTYLE
350
E
  3
ACAD_PLOTSETTINGS
350
40CC
  3
ACAD_PLOTSTYLENAME
350
40C9
  3
ACAD_SCALELIST
350
6573F
  3
AcadDim
350
FCCB
  3
AcDbVariableDictionary
350
6377
  3
APPDATA
350
6B361
  3
DWGPROPS
350
6B385
  0
DICTIONARY
  5
640A8
330
2
100
AcDbDictionary
280
     1
281
     1
  3
ACAD_LAYERSTATES
360
640A9
  0
DICTIONARY
  5
66604
330
F
100
AcDbDictionary
280
     1
281
     1
  3
ADSK_XREC_LAYER_RECONCILED
360
66605
  0
DICTIONARY
  5
6660C
330
4C
100
AcDbDictionary
280
     1
281
     1
  3
ADSK_XREC_LAYER_RECONCILED
360
6660D
  0
DICTIONARY
  5
6660E
330
4D
100
AcDbDictionary
280
     1
281
     1
  3
ADSK_XREC_LAYER_RECONCILED
360
6660F
  0
DICTIONARY
  5
66612
330
40D4
100
AcDbDictionary
280
     1
281
     1
  3
ADSK_XREC_LAYER_RECONCILED
360
66613
  0
DICTIONARY
  5
6661A
330
640A6
100
AcDbDictionary
280
     1
281
     1
  3
ADSK_XREC_LAYER_RECONCILED
360
6661B
  0
DICTIONARY
  5
9FD5
330
18
100
AcDbDictionary
280
     1
281
     1
  3
ACAD_SORTENTS
360
62911
  0
DICTIONARY
  5
D
102
{ACAD_REACTORS
330
C
102
}
330
C
100
AcDbDictionary
281
     1
  0
RASTERVARIABLES
  5
6B362
102
{ACAD_REACTORS
330
C
102
}
330
C
100
AcDbRasterVariables
 90
        0
 70
     1
 71
     1
 72
     0
  0
DICTIONARY
  5
40CB
102
{ACAD_REACTORS
330
C
102
}
330
C
100
AcDbDictionary
281
     1
  3
Model
350
40CD
  3
ﾚｲｱｳﾄ1
350
40CE
  0
DICTIONARY
  5
E
102
{ACAD_REACTORS
330
C
102
}
330
C
100
AcDbDictionary
281
     1
  3
STANDARD
350
1B
  0
DICTIONARY
  5
40CC
102
{ACAD_REACTORS
330
C
102
}
330
C
100
AcDbDictionary
281
     1
  0
ACDBDICTIONARYWDFLT
  5
40C9
102
{ACAD_REACTORS
330
C
102
}
330
C
100
AcDbDictionary
281
     1
  3
Normal
350
40CA
100
AcDbDictionaryWithDefault
340
40CA
  0
DICTIONARY
  5
6573F
102
{ACAD_REACTORS
330
C
102
}
330
C
100
AcDbDictionary
281
     1
  3
A0
350
65740
  3
A1
350
65741
  3
A2
350
65742
  3
A3
350
65743
  3
A4
350
65744
  3
A5
350
65745
  3
A6
350
65746
  3
A7
350
65747
  3
A8
350
65748
  3
A9
350
65749
  3
B0
350
6574A
  3
B1
350
6574B
  3
B2
350
6574C
  3
B3
350
6574D
  3
B4
350
6574E
  3
B5
350
6574F
  3
B6
350
65750
  3
B7
350
65751
  3
B8
350
65752
  3
B9
350
65753
  3
C0
350
65754
  3
C1
350
65755
  3
C2
350
65756
  3
C3
350
65757
  3
C4
350
65758
  3
C5
350
65759
  3
C6
350
6575A
  3
C7
350
6575B
  3
C8
350
6575C
  3
C9
350
6575D
  3
D0
350
6575E
  3
D1
350
6575F
  3
D2
350
65760
  0
XRECORD
  5
FCCB
102
{ACAD_REACTORS
330
C
102
}
330
C
100
AcDbXrecord
280
     1
 90
   990106
  3

 60
     0
 61
     0
 62
     1
 63
     3
 64
     0
 65
     0
 66
     0
 67
     3
 68
     1
 69
     0
 70
     0
 71
     0
 72
     0
 40
2.0
170
     0
  0
DICTIONARY
  5
6377
102
{ACAD_REACTORS
330
C
102
}
330
C
100
AcDbDictionary
281
     1
  3
DIMASSOC
350
73F2
  3
INDEXCTL
350
66631
  3
PROJECTNAME
350
61970
  3
SORTENTS
350
6378
  0
DICTIONARY
  5
6B361
102
{ACAD_REACTORS
330
C
102
}
330
C
100
AcDbDictionary
281
     1
  0
XRECORD
  5
6B385
102
{ACAD_REACTORS
330
C
102
}
330
C
100
AcDbXrecord
280
     1
  1
DWGPROPS COOKIE
  2

  3

  4

  6

  7

  8
SPAX
  9

300
=
301
=
302
=
303
=
304
=
305
=
306
=
307
=
308
=
309
=
 40
0.0
 41
2449505.547222222
 42
2456822.117113078
  1

 90
        0
  0
DICTIONARY
  5
640A9
102
{ACAD_REACTORS
330
640A8
102
}
330
640A8
100
AcDbDictionary
281
     1
  0
XRECORD
  5
66605
102
{ACAD_REACTORS
330
66604
102
}
330
66604
100
AcDbXrecord
280
     1
290
     1
  0
XRECORD
  5
6660D
102
{ACAD_REACTORS
330
6660C
102
}
330
6660C
100
AcDbXrecord
280
     1
290
     1
  0
XRECORD
  5
6660F
102
{ACAD_REACTORS
330
6660E
102
}
330
6660E
100
AcDbXrecord
280
     1
290
     1
  0
XRECORD
  5
66613
102
{ACAD_REACTORS
330
66612
102
}
330
66612
100
AcDbXrecord
280
     1
290
     1
  0
XRECORD
  5
6661B
102
{ACAD_REACTORS
330
6661A
102
}
330
6661A
100
AcDbXrecord
280
     1
290
     1
  0
SORTENTSTABLE
  5
62911
102
{ACAD_REACTORS
330
9FD5
102
}
330
9FD5
100
AcDbSortentsTable
330
18
331
0
  5
456CE
  0
LAYOUT
  5
40CD
102
{ACAD_REACTORS
330
40CB
102
}
330
40CB
100
AcDbPlotSettings
  1

  2
JUST PDF 2.pc3
  4
A4
  6
CUT1
 40
3.174999952316284
 41
3.174999952316284
 42
3.175003051757812
 43
3.17498779296875
 44
209.8886566162109
 45
297.0530090332031
 46
14.27
 47
9.86
 48
18467.99320138554
 49
-7566.553700475488
140
20217.94538633461
141
-4856.626949088823
142
1.0
143
10.0
 70
 11940
 72
     1
 73
     0
 74
     4
  7
spax form.ctb
 75
     0
147
0.1
148
-18467.99320138554
149
7566.553700475488
100
AcDbLayout
  1
Model
 70
     1
 71
     0
 10
0.0
 20
0.0
 11
12.0
 21
9.0
 12
0.0
 22
0.0
 32
0.0
 14
18541.38811060916
 24
-8309.152929080225
 34
0.0
 15
18832.07906044686
 25
-7986.65576311471
 35
0.0
146
0.0
 13
0.0
 23
0.0
 33
0.0
 16
1.0
 26
0.0
 36
0.0
 17
0.0
 27
1.0
 37
0.0
 76
     0
330
18
331
69D42
1001
ACAD_PSEXT
1000
DWG To PDF.pc3
1000
PDF
1000
ファイル
1000

1070
     0
  0
LAYOUT
  5
40CE
102
{ACAD_REACTORS
330
40CB
102
}
330
40CB
100
AcDbPlotSettings
  1

  2
なし
  4

  6

 40
0.0
 41
0.0
 42
0.0
 43
0.0
 44
0.0
 45
0.0
 46
0.0
 47
0.0
 48
0.0
 49
0.0
140
0.0
141
0.0
142
1.0
143
1.0
 70
   688
 72
     0
 73
     0
 74
     5
  7
monochrome.ctb
 75
    16
147
1.0
148
0.0
149
0.0
100
AcDbLayout
  1
ﾚｲｱｳﾄ1
 70
     0
 71
     1
 10
0.0
 20
0.0
 11
12.0
 21
9.0
 12
0.0
 22
0.0
 32
0.0
 14
1.000000000000000E+20
 24
1.000000000000000E+20
 34
1.000000000000000E+20
 15
-1.000000000000000E+20
 25
-1.000000000000000E+20
 35
-1.000000000000000E+20
146
0.0
 13
0.0
 23
0.0
 33
0.0
 16
1.0
 26
0.0
 36
0.0
 17
0.0
 27
1.0
 37
0.0
 76
     0
330
15
  0
MLINESTYLE
  5
1B
102
{ACAD_REACTORS
330
E
102
}
330
E
100
AcDbMlineStyle
  2
STANDARD
 70
     0
  3

 62
     0
 51
90.0
 52
90.0
 71
     2
 49
0.5
 62
   256
  6
BYLAYER
 49
-0.5
 62
   256
  6
BYLAYER
  0
ACDBPLACEHOLDER
  5
40CA
102
{ACAD_REACTORS
330
40C9
102
}
330
40C9
  0
SCALE
  5
65740
102
{ACAD_REACTORS
330
6573F
102
}
330
6573F
100
AcDbScale
 70
     0
300
1:1
140
1.0
141
1.0
290
     1
1001
ACAD
1000
AcRTDxfName
1000
SCALE
1000
AcRTDxfName
1000
SCALE
  0
SCALE
  5
65741
102
{ACAD_REACTORS
330
6573F
102
}
330
6573F
100
AcDbScale
 70
     0
300
1:2
140
1.0
141
2.0
290
     0
1001
ACAD
1000
AcRTDxfName
1000
SCALE
1000
AcRTDxfName
1000
SCALE
  0
SCALE
  5
65742
102
{ACAD_REACTORS
330
6573F
102
}
330
6573F
100
AcDbScale
 70
     0
300
1:4
140
1.0
141
4.0
290
     0
1001
ACAD
1000
AcRTDxfName
1000
SCALE
1000
AcRTDxfName
1000
SCALE
  0
SCALE
  5
65743
102
{ACAD_REACTORS
330
6573F
102
}
330
6573F
100
AcDbScale
 70
     0
300
1:5
140
1.0
141
5.0
290
     0
1001
ACAD
1000
AcRTDxfName
1000
SCALE
1000
AcRTDxfName
1000
SCALE
  0
SCALE
  5
65744
102
{ACAD_REACTORS
330
6573F
102
}
330
6573F
100
AcDbScale
 70
     0
300
1:8
140
1.0
141
8.0
290
     0
1001
ACAD
1000
AcRTDxfName
1000
SCALE
1000
AcRTDxfName
1000
SCALE
  0
SCALE
  5
65745
102
{ACAD_REACTORS
330
6573F
102
}
330
6573F
100
AcDbScale
 70
     0
300
1:10
140
1.0
141
10.0
290
     0
1001
ACAD
1000
AcRTDxfName
1000
SCALE
1000
AcRTDxfName
1000
SCALE
  0
SCALE
  5
65746
102
{ACAD_REACTORS
330
6573F
102
}
330
6573F
100
AcDbScale
 70
     0
300
1:16
140
1.0
141
16.0
290
     0
1001
ACAD
1000
AcRTDxfName
1000
SCALE
1000
AcRTDxfName
1000
SCALE
  0
SCALE
  5
65747
102
{ACAD_REACTORS
330
6573F
102
}
330
6573F
100
AcDbScale
 70
     0
300
1:20
140
1.0
141
20.0
290
     0
1001
ACAD
1000
AcRTDxfName
1000
SCALE
1000
AcRTDxfName
1000
SCALE
  0
SCALE
  5
65748
102
{ACAD_REACTORS
330
6573F
102
}
330
6573F
100
AcDbScale
 70
     0
300
1:30
140
1.0
141
30.0
290
     0
1001
ACAD
1000
AcRTDxfName
1000
SCALE
1000
AcRTDxfName
1000
SCALE
  0
SCALE
  5
65749
102
{ACAD_REACTORS
330
6573F
102
}
330
6573F
100
AcDbScale
 70
     0
300
1:40
140
1.0
141
40.0
290
     0
1001
ACAD
1000
AcRTDxfName
1000
SCALE
1000
AcRTDxfName
1000
SCALE
  0
SCALE
  5
6574A
102
{ACAD_REACTORS
330
6573F
102
}
330
6573F
100
AcDbScale
 70
     0
300
1:50
140
1.0
141
50.0
290
     0
1001
ACAD
1000
AcRTDxfName
1000
SCALE
1000
AcRTDxfName
1000
SCALE
  0
SCALE
  5
6574B
102
{ACAD_REACTORS
330
6573F
102
}
330
6573F
100
AcDbScale
 70
     0
300
1:100
140
1.0
141
100.0
290
     0
1001
ACAD
1000
AcRTDxfName
1000
SCALE
1000
AcRTDxfName
1000
SCALE
  0
SCALE
  5
6574C
102
{ACAD_REACTORS
330
6573F
102
}
330
6573F
100
AcDbScale
 70
     0
300
2:1
140
2.0
141
1.0
290
     0
1001
ACAD
1000
AcRTDxfName
1000
SCALE
1000
AcRTDxfName
1000
SCALE
  0
SCALE
  5
6574D
102
{ACAD_REACTORS
330
6573F
102
}
330
6573F
100
AcDbScale
 70
     0
300
4:1
140
4.0
141
1.0
290
     0
1001
ACAD
1000
AcRTDxfName
1000
SCALE
1000
AcRTDxfName
1000
SCALE
  0
SCALE
  5
6574E
102
{ACAD_REACTORS
330
6573F
102
}
330
6573F
100
AcDbScale
 70
     0
300
8:1
140
8.0
141
1.0
290
     0
1001
ACAD
1000
AcRTDxfName
1000
SCALE
1000
AcRTDxfName
1000
SCALE
  0
SCALE
  5
6574F
102
{ACAD_REACTORS
330
6573F
102
}
330
6573F
100
AcDbScale
 70
     0
300
10:1
140
10.0
141
1.0
290
     0
1001
ACAD
1000
AcRTDxfName
1000
SCALE
1000
AcRTDxfName
1000
SCALE
  0
SCALE
  5
65750
102
{ACAD_REACTORS
330
6573F
102
}
330
6573F
100
AcDbScale
 70
     0
300
100:1
140
100.0
141
1.0
290
     0
1001
ACAD
1000
AcRTDxfName
1000
SCALE
1000
AcRTDxfName
1000
SCALE
  0
SCALE
  5
65751
102
{ACAD_REACTORS
330
6573F
102
}
330
6573F
100
AcDbScale
 70
     0
300
1/128" = 1'-0"
140
0.0078125
141
12.0
290
     0
1001
ACAD
1000
AcRTDxfName
1000
SCALE
1000
AcRTDxfName
1000
SCALE
  0
SCALE
  5
65752
102
{ACAD_REACTORS
330
6573F
102
}
330
6573F
100
AcDbScale
 70
     0
300
1/64" = 1'-0"
140
0.015625
141
12.0
290
     0
1001
ACAD
1000
AcRTDxfName
1000
SCALE
1000
AcRTDxfName
1000
SCALE
  0
SCALE
  5
65753
102
{ACAD_REACTORS
330
6573F
102
}
330
6573F
100
AcDbScale
 70
     0
300
1/32" = 1'-0"
140
0.03125
141
12.0
290
     0
1001
ACAD
1000
AcRTDxfName
1000
SCALE
1000
AcRTDxfName
1000
SCALE
  0
SCALE
  5
65754
102
{ACAD_REACTORS
330
6573F
102
}
330
6573F
100
AcDbScale
 70
     0
300
1/16" = 1'-0"
140
0.0625
141
12.0
290
     0
1001
ACAD
1000
AcRTDxfName
1000
SCALE
1000
AcRTDxfName
1000
SCALE
  0
SCALE
  5
65755
102
{ACAD_REACTORS
330
6573F
102
}
330
6573F
100
AcDbScale
 70
     0
300
3/32" = 1'-0"
140
0.09375
141
12.0
290
     0
1001
ACAD
1000
AcRTDxfName
1000
SCALE
1000
AcRTDxfName
1000
SCALE
  0
SCALE
  5
65756
102
{ACAD_REACTORS
330
6573F
102
}
330
6573F
100
AcDbScale
 70
     0
300
1/8" = 1'-0"
140
0.125
141
12.0
290
     0
1001
ACAD
1000
AcRTDxfName
1000
SCALE
1000
AcRTDxfName
1000
SCALE
  0
SCALE
  5
65757
102
{ACAD_REACTORS
330
6573F
102
}
330
6573F
100
AcDbScale
 70
     0
300
3/16" = 1'-0"
140
0.1875
141
12.0
290
     0
1001
ACAD
1000
AcRTDxfName
1000
SCALE
1000
AcRTDxfName
1000
SCALE
  0
SCALE
  5
65758
102
{ACAD_REACTORS
330
6573F
102
}
330
6573F
100
AcDbScale
 70
     0
300
1/4" = 1'-0"
140
0.25
141
12.0
290
     0
1001
ACAD
1000
AcRTDxfName
1000
SCALE
1000
AcRTDxfName
1000
SCALE
  0
SCALE
  5
65759
102
{ACAD_REACTORS
330
6573F
102
}
330
6573F
100
AcDbScale
 70
     0
300
3/8" = 1'-0"
140
0.375
141
12.0
290
     0
1001
ACAD
1000
AcRTDxfName
1000
SCALE
1000
AcRTDxfName
1000
SCALE
  0
SCALE
  5
6575A
102
{ACAD_REACTORS
330
6573F
102
}
330
6573F
100
AcDbScale
 70
     0
300
1/2" = 1'-0"
140
0.5
141
12.0
290
     0
1001
ACAD
1000
AcRTDxfName
1000
SCALE
1000
AcRTDxfName
1000
SCALE
  0
SCALE
  5
6575B
102
{ACAD_REACTORS
330
6573F
102
}
330
6573F
100
AcDbScale
 70
     0
300
3/4" = 1'-0"
140
0.75
141
12.0
290
     0
1001
ACAD
1000
AcRTDxfName
1000
SCALE
1000
AcRTDxfName
1000
SCALE
  0
SCALE
  5
6575C
102
{ACAD_REACTORS
330
6573F
102
}
330
6573F
100
AcDbScale
 70
     0
300
1" = 1'-0"
140
1.0
141
12.0
290
     0
1001
ACAD
1000
AcRTDxfName
1000
SCALE
1000
AcRTDxfName
1000
SCALE
  0
SCALE
  5
6575D
102
{ACAD_REACTORS
330
6573F
102
}
330
6573F
100
AcDbScale
 70
     0
300
1-1/2" = 1'-0"
140
1.5
141
12.0
290
     0
1001
ACAD
1000
AcRTDxfName
1000
SCALE
1000
AcRTDxfName
1000
SCALE
  0
SCALE
  5
6575E
102
{ACAD_REACTORS
330
6573F
102
}
330
6573F
100
AcDbScale
 70
     0
300
3" = 1'-0"
140
3.0
141
12.0
290
     0
1001
ACAD
1000
AcRTDxfName
1000
SCALE
1000
AcRTDxfName
1000
SCALE
  0
SCALE
  5
6575F
102
{ACAD_REACTORS
330
6573F
102
}
330
6573F
100
AcDbScale
 70
     0
300
6" = 1'-0"
140
6.0
141
12.0
290
     0
1001
ACAD
1000
AcRTDxfName
1000
SCALE
1000
AcRTDxfName
1000
SCALE
  0
SCALE
  5
65760
102
{ACAD_REACTORS
330
6573F
102
}
330
6573F
100
AcDbScale
 70
     0
300
1'-0" = 1'-0"
140
12.0
141
12.0
290
     0
1001
ACAD
1000
AcRTDxfName
1000
SCALE
1000
AcRTDxfName
1000
SCALE
  0
DICTIONARYVAR
  5
73F2
102
{ACAD_REACTORS
330
6377
102
}
330
6377
100
DictionaryVariables
280
     0
  1
1
  0
DICTIONARYVAR
  5
66631
102
{ACAD_REACTORS
330
6377
102
}
330
6377
100
DictionaryVariables
280
     0
  1
0
  0
DICTIONARYVAR
  5
61970
102
{ACAD_REACTORS
330
6377
102
}
330
6377
100
DictionaryVariables
280
     0
  1

  0
DICTIONARYVAR
  5
6378
102
{ACAD_REACTORS
330
6377
102
}
330
6377
100
DictionaryVariables
280
     0
  1
127
  0
ENDSEC
  0
EOF
