  0
SECTION
  2
HEADER
  9
$ACADVER
  1
AC1015
  9
$ACADMAINTVER
 70
     6
  9
$DWGCODEPAGE
  3
ANSI_932
  9
$INSBASE
 10
0.0
 20
0.0
 30
0.0
  9
$EXTMIN
 10
13959.7820091902
 20
-8450.23812960124
 30
0.0
  9
$EXTMAX
 10
14388.27680455524
 20
-8029.435008419012
 30
0.0
  9
$LIMMIN
 10
0.0
 20
0.0
  9
$LIMMAX
 10
840.0
 20
594.0
  9
$ORTHOMODE
 70
     1
  9
$REGENMODE
 70
     1
  9
$FILLMODE
 70
     1
  9
$QTEXTMODE
 70
     0
  9
$MIRRTEXT
 70
     1
  9
$LTSCALE
 40
7.0
  9
$ATTMODE
 70
     0
  9
$TEXTSIZE
 40
6.0
  9
$TRACEWID
 40
1.0
  9
$TEXTSTYLE
  7
STANDARD
  9
$CLAYER
  8
寸法線
  9
$CELTYPE
  6
BYLAYER
  9
$CECOLOR
 62
   256
  9
$CELTSCALE
 40
1.0
  9
$DISPSILH
 70
     0
  9
$DIMSCALE
 40
1.0
  9
$DIMASZ
 40
2.5
  9
$DIMEXO
 40
1.5
  9
$DIMDLI
 40
5.0
  9
$DIMRND
 40
0.0
  9
$DIMDLE
 40
0.0
  9
$DIMEXE
 40
1.0
  9
$DIMTP
 40
0.0
  9
$DIMTM
 40
0.0
  9
$DIMTXT
 40
3.0
  9
$DIMCEN
 40
0.0
  9
$DIMTSZ
 40
0.0
  9
$DIMTOL
 70
     0
  9
$DIMLIM
 70
     0
  9
$DIMTIH
 70
     0
  9
$DIMTOH
 70
     0
  9
$DIMSE1
 70
     0
  9
$DIMSE2
 70
     0
  9
$DIMTAD
 70
     3
  9
$DIMZIN
 70
     8
  9
$DIMBLK
  1
Open30
  9
$DIMASO
 70
     1
  9
$DIMSHO
 70
     0
  9
$DIMPOST
  1

  9
$DIMAPOST
  1

  9
$DIMALT
 70
     0
  9
$DIMALTD
 70
     0
  9
$DIMALTF
 40
25.4
  9
$DIMLFAC
 40
1.0
  9
$DIMTOFL
 70
     1
  9
$DIMTVP
 40
0.0
  9
$DIMTIX
 70
     0
  9
$DIMSOXD
 70
     0
  9
$DIMSAH
 70
     0
  9
$DIMBLK1
  1
Open30
  9
$DIMBLK2
  1
OPEN
  9
$DIMSTYLE
  2
STANDERD
  9
$DIMCLRD
 70
     8
  9
$DIMCLRE
 70
     8
  9
$DIMCLRT
 70
   256
  9
$DIMTFAC
 40
1.0
  9
$DIMGAP
 40
1.0
  9
$DIMJUST
 70
     0
  9
$DIMSD1
 70
     0
  9
$DIMSD2
 70
     0
  9
$DIMTOLJ
 70
     1
  9
$DIMTZIN
 70
     0
  9
$DIMALTZ
 70
     0
  9
$DIMALTTZ
 70
     0
  9
$DIMUPT
 70
     0
  9
$DIMDEC
 70
     2
  9
$DIMTDEC
 70
     2
  9
$DIMALTU
 70
     2
  9
$DIMALTTD
 70
     0
  9
$DIMTXSTY
  7
STANDARD
  9
$DIMAUNIT
 70
     0
  9
$DIMADEC
 70
     0
  9
$DIMALTRND
 40
0.0
  9
$DIMAZIN
 70
     2
  9
$DIMDSEP
 70
    46
  9
$DIMATFIT
 70
     3
  9
$DIMFRAC
 70
     0
  9
$DIMLDRBLK
  1
Open30
  9
$DIMLUNIT
 70
     2
  9
$DIMLWD
 70
    -2
  9
$DIMLWE
 70
    -2
  9
$DIMTMOVE
 70
     0
  9
$LUNITS
 70
     2
  9
$LUPREC
 70
     2
  9
$SKETCHINC
 40
0.1
  9
$FILLETRAD
 40
0.6
  9
$AUNITS
 70
     0
  9
$AUPREC
 70
     2
  9
$MENU
  1
ACAD
  9
$ELEVATION
 40
0.0
  9
$PELEVATION
 40
0.0
  9
$THICKNESS
 40
0.0
  9
$LIMCHECK
 70
     0
  9
$CHAMFERA
 40
0.0
  9
$CHAMFERB
 40
0.0
  9
$CHAMFERC
 40
0.0
  9
$CHAMFERD
 40
0.0
  9
$SKPOLY
 70
     0
  9
$TDCREATE
 40
2449505.922222222
  9
$TDUCREATE
 40
2449505.547222222
  9
$TDUPDATE
 40
2456822.492846852
  9
$TDUUPDATE
 40
2456822.117846852
  9
$TDINDWG
 40
2.5677834606
  9
$TDUSRTIMER
 40
2456822.117714236
  9
$USRTIMER
 70
     1
  9
$ANGBASE
 50
0.0
  9
$ANGDIR
 70
     0
  9
$PDMODE
 70
     3
  9
$PDSIZE
 40
0.0
  9
$PLINEWID
 40
0.0
  9
$SPLFRAME
 70
     0
  9
$SPLINETYPE
 70
     6
  9
$SPLINESEGS
 70
     8
  9
$HANDSEED
  5
68873
  9
$SURFTAB1
 70
     6
  9
$SURFTAB2
 70
     6
  9
$SURFTYPE
 70
     6
  9
$SURFU
 70
     6
  9
$SURFV
 70
     6
  9
$UCSBASE
  2

  9
$UCSNAME
  2

  9
$UCSORG
 10
0.0
 20
0.0
 30
0.0
  9
$UCSXDIR
 10
1.0
 20
0.0
 30
0.0
  9
$UCSYDIR
 10
0.0
 20
1.0
 30
0.0
  9
$UCSORTHOREF
  2

  9
$UCSORTHOVIEW
 70
     0
  9
$UCSORGTOP
 10
0.0
 20
0.0
 30
0.0
  9
$UCSORGBOTTOM
 10
0.0
 20
0.0
 30
0.0
  9
$UCSORGLEFT
 10
0.0
 20
0.0
 30
0.0
  9
$UCSORGRIGHT
 10
0.0
 20
0.0
 30
0.0
  9
$UCSORGFRONT
 10
0.0
 20
0.0
 30
0.0
  9
$UCSORGBACK
 10
0.0
 20
0.0
 30
0.0
  9
$PUCSBASE
  2

  9
$PUCSNAME
  2

  9
$PUCSORG
 10
0.0
 20
0.0
 30
0.0
  9
$PUCSXDIR
 10
1.0
 20
0.0
 30
0.0
  9
$PUCSYDIR
 10
0.0
 20
1.0
 30
0.0
  9
$PUCSORTHOREF
  2

  9
$PUCSORTHOVIEW
 70
     0
  9
$PUCSORGTOP
 10
0.0
 20
0.0
 30
0.0
  9
$PUCSORGBOTTOM
 10
0.0
 20
0.0
 30
0.0
  9
$PUCSORGLEFT
 10
0.0
 20
0.0
 30
0.0
  9
$PUCSORGRIGHT
 10
0.0
 20
0.0
 30
0.0
  9
$PUCSORGFRONT
 10
0.0
 20
0.0
 30
0.0
  9
$PUCSORGBACK
 10
0.0
 20
0.0
 30
0.0
  9
$USERI1
 70
     0
  9
$USERI2
 70
     0
  9
$USERI3
 70
     0
  9
$USERI4
 70
     0
  9
$USERI5
 70
     0
  9
$USERR1
 40
0.0
  9
$USERR2
 40
0.0
  9
$USERR3
 40
0.0
  9
$USERR4
 40
0.0
  9
$USERR5
 40
0.0
  9
$WORLDVIEW
 70
     0
  9
$SHADEDGE
 70
     3
  9
$SHADEDIF
 70
    70
  9
$TILEMODE
 70
     1
  9
$MAXACTVP
 70
    16
  9
$PINSBASE
 10
0.0
 20
0.0
 30
0.0
  9
$PLIMCHECK
 70
     0
  9
$PEXTMIN
 10
1.000000000000000E+20
 20
1.000000000000000E+20
 30
1.000000000000000E+20
  9
$PEXTMAX
 10
-1.000000000000000E+20
 20
-1.000000000000000E+20
 30
-1.000000000000000E+20
  9
$PLIMMIN
 10
0.0
 20
0.0
  9
$PLIMMAX
 10
0.0
 20
0.0
  9
$UNITMODE
 70
     0
  9
$VISRETAIN
 70
     0
  9
$PLINEGEN
 70
     0
  9
$PSLTSCALE
 70
     0
  9
$TREEDEPTH
 70
  3020
  9
$CMLSTYLE
  2
STANDARD
  9
$CMLJUST
 70
     0
  9
$CMLSCALE
 40
1.0
  9
$PROXYGRAPHICS
 70
     1
  9
$MEASUREMENT
 70
     0
  9
$CELWEIGHT
370
    -1
  9
$ENDCAPS
280
     0
  9
$JOINSTYLE
280
     0
  9
$LWDISPLAY
290
     0
  9
$INSUNITS
 70
     0
  9
$HYPERLINKBASE
  1

  9
$STYLESHEET
  1
spax form.ctb
  9
$XEDIT
290
     1
  9
$CEPSNTYPE
380
     0
  9
$PSTYLEMODE
290
     1
  9
$FINGERPRINTGUID
  2
{C1CFCF3E-DF91-11D3-B30C-0060B0FA8DFC}
  9
$VERSIONGUID
  2
{AD87B925-924D-4611-8D88-ABC7C1C15B29}
  9
$EXTNAMES
290
     1
  9
$PSVPSCALE
 40
0.0
  9
$OLESTARTUP
290
     0
  0
ENDSEC
  0
SECTION
  2
CLASSES
  0
CLASS
  1
LWPOLYLINE
  2
AcDbPolyline
  3
ObjectDBX Classes
 90
        0
280
     0
281
     1
  0
CLASS
  1
ACDBDICTIONARYWDFLT
  2
AcDbDictionaryWithDefault
  3
ObjectDBX Classes
 90
        0
280
     0
281
     0
  0
CLASS
  1
ACDBPLACEHOLDER
  2
AcDbPlaceHolder
  3
ObjectDBX Classes
 90
        0
280
     0
281
     0
  0
CLASS
  1
LAYOUT
  2
AcDbLayout
  3
ObjectDBX Classes
 90
        0
280
     0
281
     0
  0
CLASS
  1
DICTIONARYVAR
  2
AcDbDictionaryVar
  3
ObjectDBX Classes
 90
        0
280
     0
281
     0
  0
CLASS
  1
LONG_TRANSACTION
  2
AcDbLongTransaction
  3
ObjectDBX Classes
 90
        0
280
     0
281
     0
  0
CLASS
  1
LWPOLYLINE
  2
AcDbPolyline
  3
ObjectDBX Classes
 90
        0
280
     0
281
     1
  0
CLASS
  1
HATCH
  2
AcDbHatch
  3
ObjectDBX Classes
 90
        0
280
     0
281
     1
  0
CLASS
  1
XRECORD
  2
AcDbXrecord
  3
ObjectDBX Classes
 90
        0
280
     0
281
     0
  0
CLASS
  1
SORTENTSTABLE
  2
AcDbSortentsTable
  3
ObjectDBX Classes
 90
        0
280
     0
281
     0
  0
CLASS
  1
MATERIAL
  2
AcDbMaterial
  3
ObjectDBX Classes
 90
     1153
280
     0
281
     0
  0
CLASS
  1
VISUALSTYLE
  2
AcDbVisualStyle
  3
ObjectDBX Classes
 90
     4095
280
     0
281
     0
  0
CLASS
  1
TABLESTYLE
  2
AcDbTableStyle
  3
ObjectDBX Classes
 90
     4095
280
     0
281
     0
  0
CLASS
  1
SCALE
  2
AcDbScale
  3
ObjectDBX Classes
 90
     1153
280
     0
281
     0
  0
CLASS
  1
MLEADERSTYLE
  2
AcDbMLeaderStyle
  3
ACDB_MLEADERSTYLE_CLASS
 90
     4095
280
     0
281
     0
  0
CLASS
  1
CELLSTYLEMAP
  2
AcDbCellStyleMap
  3
ObjectDBX Classes
 90
     1152
280
     0
281
     0
  0
CLASS
  1
RASTERVARIABLES
  2
AcDbRasterVariables
  3
ISM
 90
        0
280
     0
281
     0
  0
CLASS
  1
SUN
  2
AcDbSun
  3
SCENEOE
 90
     1153
280
     0
281
     0
  0
ENDSEC
  0
SECTION
  2
TABLES
  0
TABLE
  2
VPORT
  5
8
330
0
100
AcDbSymbolTable
 70
     1
  0
VPORT
  5
67D79
330
8
100
AcDbSymbolTableRecord
100
AcDbViewportTableRecord
  2
*Active
 70
     0
 10
0.0
 20
0.0
 11
1.0
 21
1.0
 12
14174.02940687272
 22
-8239.836569010127
 13
0.0
 23
0.0
 14
1.0
 24
1.0
 15
20.0
 25
20.0
 16
0.0
 26
0.0
 36
1.0
 17
0.0
 27
0.0
 37
0.0
 40
429.2191836058736
 41
2.027568922305764
 42
50.0
 43
0.0
 44
0.0
 50
0.0
 51
0.0
 71
    16
 72
  2000
 73
     1
 74
     0
 75
     0
 76
     0
 77
     0
 78
     1
281
     0
 65
     1
110
0.0
120
0.0
130
0.0
111
1.0
121
0.0
131
0.0
112
0.0
122
1.0
132
0.0
 79
     0
146
0.0
  0
ENDTAB
  0
TABLE
  2
LTYPE
  5
5
330
0
100
AcDbSymbolTable
 70
     4
  0
LTYPE
  5
12
330
5
100
AcDbSymbolTableRecord
100
AcDbLinetypeTableRecord
  2
BYBLOCK
 70
     0
  3

 72
    65
 73
     0
 40
0.0
  0
LTYPE
  5
13
330
5
100
AcDbSymbolTableRecord
100
AcDbLinetypeTableRecord
  2
BYLAYER
 70
     0
  3

 72
    65
 73
     0
 40
0.0
  0
LTYPE
  5
14
330
5
100
AcDbSymbolTableRecord
100
AcDbLinetypeTableRecord
  2
CONTINUOUS
 70
     0
  3
Solid line
 72
    65
 73
     0
 40
0.0
  0
LTYPE
  5
3D
330
5
100
AcDbSymbolTableRecord
100
AcDbLinetypeTableRecord
  2
PHANTOM
 70
     0
  3
_____ _ _ _____ _ _ _____ _ _ _____ _ _ ____
 72
    65
 73
     6
 40
2.5
 49
1.25
 74
     0
 49
-0.25
 74
     0
 49
0.25
 74
     0
 49
-0.25
 74
     0
 49
0.25
 74
     0
 49
-0.25
 74
     0
  0
LTYPE
  5
40D2
330
5
100
AcDbSymbolTableRecord
100
AcDbLinetypeTableRecord
  2
CENTER
 70
     0
  3
____ _ ____ _ ____ _ ____ _ ____ _ ____ _ ____ 
 72
    65
 73
     4
 40
2.0
 49
1.25
 74
     0
 49
-0.25
 74
     0
 49
0.25
 74
     0
 49
-0.25
 74
     0
  0
LTYPE
  5
A244
330
5
100
AcDbSymbolTableRecord
100
AcDbLinetypeTableRecord
  2
HIDDEN
 70
     0
  3
_ _ _ _ _ _ _ _ _ _ _ _ _ _ _ _ _ _ _ _ _ _ _
 72
    65
 73
     2
 40
0.375
 49
0.25
 74
     0
 49
-0.125
 74
     0
  0
ENDTAB
  0
TABLE
  2
LAYER
  5
2
102
{ACAD_XDICTIONARY
360
64D7F
102
}
330
0
100
AcDbSymbolTable
 70
    12
  0
LAYER
  5
F
102
{ACAD_XDICTIONARY
360
65CAE
102
}
330
2
100
AcDbSymbolTableRecord
100
AcDbLayerTableRecord
  2
0
 70
     0
 62
     7
  6
CONTINUOUS
370
    -3
390
40CA
  0
LAYER
  5
4C
102
{ACAD_XDICTIONARY
360
65CB6
102
}
330
2
100
AcDbSymbolTableRecord
100
AcDbLayerTableRecord
  2
寸法線
 70
     0
 62
     7
  6
CONTINUOUS
370
    -3
390
40CA
  0
LAYER
  5
4D
102
{ACAD_XDICTIONARY
360
65CB8
102
}
330
2
100
AcDbSymbolTableRecord
100
AcDbLayerTableRecord
  2
姿図
 70
     0
 62
     8
  6
CONTINUOUS
370
    -3
390
40CA
  0
LAYER
  5
40D4
102
{ACAD_XDICTIONARY
360
65CBC
102
}
330
2
100
AcDbSymbolTableRecord
100
AcDbLayerTableRecord
  2
文字
 70
     0
 62
     7
  6
CONTINUOUS
370
    -3
390
40CA
  0
LAYER
  5
64E19
102
{ACAD_XDICTIONARY
360
65CC2
102
}
330
2
100
AcDbSymbolTableRecord
100
AcDbLayerTableRecord
  2
C-SUNPO
 70
     0
 62
     7
  6
CONTINUOUS
370
    -3
390
40CA
  0
ENDTAB
  0
TABLE
  2
STYLE
  5
3
330
0
100
AcDbSymbolTable
 70
     1
  0
STYLE
  5
10
330
3
100
AcDbSymbolTableRecord
100
AcDbTextStyleTableRecord
  2
STANDARD
 70
     0
 40
0.0
 41
1.0
 50
0.0
 71
     0
 42
6.0
  3
MONOTXT
  4
BIGFONT
  0
ENDTAB
  0
TABLE
  2
VIEW
  5
6
330
0
100
AcDbSymbolTable
 70
     1
  0
VIEW
  5
41
330
6
100
AcDbSymbolTableRecord
100
AcDbViewTableRecord
  2
CUT1
 70
     0
 40
612.7795527156796
 10
420.0000000000169
 20
306.3897763578398
 41
840.0000000000338
 11
0.0
 21
0.0
 31
1.0
 12
0.0
 22
0.0
 32
0.0
 42
50.0
 43
0.0
 44
0.0
 50
0.0
 71
     0
281
     0
 72
     0
  0
ENDTAB
  0
TABLE
  2
UCS
  5
7
330
0
100
AcDbSymbolTable
 70
     0
  0
ENDTAB
  0
TABLE
  2
APPID
  5
9
330
0
100
AcDbSymbolTable
 70
     6
  0
APPID
  5
11
330
9
100
AcDbSymbolTableRecord
100
AcDbRegAppTableRecord
  2
ACAD
 70
     0
  0
APPID
  5
64E75
330
9
100
AcDbSymbolTableRecord
100
AcDbRegAppTableRecord
  2
ACAD_MLEADERVER
 70
     0
  0
APPID
  5
658D5
330
9
100
AcDbSymbolTableRecord
100
AcDbRegAppTableRecord
  2
ACAD_EXEMPT_FROM_CAD_STANDARDS
 70
     0
  0
APPID
  5
6686C
330
9
100
AcDbSymbolTableRecord
100
AcDbRegAppTableRecord
  2
ACAD_PSEXT
 70
     0
  0
APPID
  5
687EA
330
9
100
AcDbSymbolTableRecord
100
AcDbRegAppTableRecord
  2
ACAD_DSTYLE_DIMJAG
 70
     0
  0
APPID
  5
687EB
330
9
100
AcDbSymbolTableRecord
100
AcDbRegAppTableRecord
  2
ACAD_DSTYLE_DIMTALN
 70
     0
  0
ENDTAB
  0
TABLE
  2
DIMSTYLE
  5
A
330
0
100
AcDbSymbolTable
 70
     5
100
AcDbDimStyleTable
  0
DIMSTYLE
105
1B3A
330
A
100
AcDbSymbolTableRecord
100
AcDbDimStyleTableRecord
  2
STANDARD
 70
     0
 40
2.0
 41
10.0
 42
3.0
 43
7.149999999999999
 44
2.0
 73
     0
 74
     0
 77
     3
 78
     8
 79
     2
140
18.0
141
0.0
147
4.0
176
     8
177
     8
178
     0
179
     2
271
     2
272
     2
288
     1
340
10
341
49C3
342
49C3
  0
DIMSTYLE
105
A246
330
A
100
AcDbSymbolTableRecord
100
AcDbDimStyleTableRecord
  2
STANDERD
 70
     0
 41
2.5
 42
1.5
 43
5.0
 44
1.0
 73
     0
 74
     0
 77
     3
 78
     8
 79
     2
140
3.0
141
0.0
147
1.0
171
     0
172
     1
176
     8
177
     8
271
     2
178
   256
271
     2
272
     2
274
     0
340
10
341
63331
342
63331
343
63331
344
49C3
  0
DIMSTYLE
105
64E1A
330
A
100
AcDbSymbolTableRecord
100
AcDbDimStyleTableRecord
  2
STANDARD-5
 70
     0
 41
7.5
 42
7.5
 43
1.9
 44
5.0
 73
     0
 74
     0
 77
     1
 78
     8
 79
     2
140
8.0
141
0.0
147
3.0
171
     0
173
     1
176
     8
177
     8
271
     2
178
   256
179
     2
271
     2
272
     2
274
     0
340
10
341
49C3
343
49C3
344
49C3
  0
ENDTAB
  0
TABLE
  2
BLOCK_RECORD
  5
1
330
0
100
AcDbSymbolTable
 70
   147
  0
BLOCK_RECORD
  5
18
102
{ACAD_XDICTIONARY
360
9FD5
102
}
330
1
100
AcDbSymbolTableRecord
100
AcDbBlockTableRecord
  2
*MODEL_SPACE
340
40CD
  0
BLOCK_RECORD
  5
15
330
1
100
AcDbSymbolTableRecord
100
AcDbBlockTableRecord
  2
*PAPER_SPACE
340
40CE
  0
BLOCK_RECORD
  5
49C3
330
1
100
AcDbSymbolTableRecord
100
AcDbBlockTableRecord
  2
_OPEN
340
0
102
{BLKREFS
331
63384
331
63385
331
6338D
331
6338E
331
63396
331
63397
331
6339F
331
633A0
331
633A8
331
633A9
331
633B1
331
633B2
331
633BA
331
633BB
331
633C3
331
633C4
331
633CE
331
633CF
331
633D9
331
633DA
331
633E4
331
633E5
331
633ED
331
633EE
331
633F8
331
633F9
331
63403
331
63404
331
6340C
331
6340D
331
63417
331
63418
331
63420
331
63421
331
6342B
331
6342C
331
63434
331
63435
331
6343D
331
6343E
331
63446
331
63447
331
6344F
331
63450
331
63458
331
63459
331
63461
331
63462
331
6346A
331
6346B
331
63473
331
63474
331
6347E
331
6347F
331
63489
331
6348A
331
63492
331
63493
331
6349D
331
6349E
331
634A6
331
634A7
331
634B1
331
634B2
331
63F81
331
63F82
331
64247
331
64248
331
64250
331
64251
331
64259
331
6425A
331
64262
331
64263
331
6426B
331
6426C
331
64274
331
64275
331
6427D
331
6427E
331
64286
331
64287
331
6428F
331
64290
331
64298
331
64299
331
642A1
331
642A2
331
642B5
331
642B6
331
642BE
331
642BF
331
642C9
331
642CA
331
642E4
331
642E5
331
64CE5
331
64CE6
331
64CF0
331
64CF1
331
64CF9
331
64CFA
331
64D02
331
64D03
331
64D0B
331
64D0C
331
64D14
331
64D15
331
64D1D
331
64D1E
331
64D26
331
64D27
331
64D2F
331
64D30
331
64D38
331
64D39
331
64D41
331
64D42
331
64D4C
331
64D4D
331
64D55
331
64D56
331
64D60
331
64D61
331
64D69
331
64D6A
331
64D72
331
64D73
331
6583B
331
6583C
331
65863
331
65864
331
6586C
331
6586D
331
65875
331
65876
331
6587E
331
6587F
331
65887
331
65888
331
65892
331
65893
331
6589B
331
6589C
331
658A4
331
658A5
331
658AD
331
658AE
331
658B6
331
658B7
331
658BF
331
658C0
331
658C8
331
658C9
331
65D09
331
65D0A
331
65D12
331
65D13
331
65D2D
331
65D2E
331
667B3
331
667B4
331
667BE
331
667BF
331
667C7
331
667C8
331
667D0
331
667D1
331
667DB
331
667DC
331
667E4
331
667E5
331
667ED
331
667EE
331
667F6
331
667F7
331
66801
331
66802
331
6680A
331
6680B
331
66813
331
66814
331
6681C
331
6681D
331
66825
331
66826
331
6682E
331
6682F
331
66837
331
66838
331
66840
331
66841
331
6724D
331
6724E
331
67256
331
67257
331
6725F
331
67260
331
67268
331
67269
331
67271
331
67272
331
6727A
331
6727B
331
67283
331
67284
331
6728E
331
6728F
331
67297
331
67298
331
672A0
331
672A1
331
672A9
331
672AA
331
672B2
331
672B3
331
672BB
331
672BC
331
672C6
331
672C7
331
672D1
331
672D2
331
672DA
331
672DB
331
67CB7
331
67CB8
331
67CC0
331
67CC1
331
67CC9
331
67CCA
331
67CD2
331
67CD3
331
67CDB
331
67CDC
331
67CE6
331
67CE7
331
67CF1
331
67CF2
331
67CFA
331
67CFB
331
67D03
331
67D04
331
67D0C
331
67D0D
331
67D15
331
67D16
331
67D1E
331
67D1F
331
67D27
331
67D28
331
67D32
331
67D33
331
67D3B
331
67D3C
331
67D44
331
67D45
331
68749
331
6874A
331
68752
331
68753
331
6875B
331
6875C
331
68764
331
68765
331
6876D
331
6876E
331
68776
331
68777
331
6877F
331
68780
331
68788
331
68789
331
68791
331
68792
331
6879C
331
6879D
331
687A5
331
687A6
331
687AE
331
687AF
331
687B7
331
687B8
331
687C2
331
687C3
331
687CD
331
687CE
331
687D6
331
687D7
102
}
  0
BLOCK_RECORD
  5
63331
330
1
100
AcDbSymbolTableRecord
100
AcDbBlockTableRecord
  2
_Open30
340
0
  0
ENDTAB
  0
ENDSEC
  0
SECTION
  2
BLOCKS
  0
BLOCK
  5
52
330
18
100
AcDbEntity
  8
0
100
AcDbBlockBegin
  2
*MODEL_SPACE
 70
     0
 10
0.0
 20
0.0
 30
0.0
  3
*MODEL_SPACE
  1
*MODEL_SPACE
  0
ENDBLK
  5
53
330
18
100
AcDbEntity
  8
0
100
AcDbBlockEnd
  0
BLOCK
  5
50
330
15
100
AcDbEntity
 67
     1
  8
0
100
AcDbBlockBegin
  2
*PAPER_SPACE
 70
     0
 10
0.0
 20
0.0
 30
0.0
  3
*PAPER_SPACE
  1
*PAPER_SPACE
  0
ENDBLK
  5
51
330
15
100
AcDbEntity
 67
     1
  8
0
100
AcDbBlockEnd
  0
BLOCK
  5
49C7
330
49C3
100
AcDbEntity
  8
0
100
AcDbBlockBegin
  2
_OPEN
 70
     0
 10
0.0
 20
0.0
 30
0.0
  3
_OPEN
  1
_OPEN
  0
LINE
  5
49C4
330
49C3
100
AcDbEntity
  8
0
  6
ByBlock
 62
     0
100
AcDbLine
 10
-1.0
 20
0.1666666666666667
 30
0.0
 11
0.0
 21
0.0
 31
0.0
  0
LINE
  5
49C5
330
49C3
100
AcDbEntity
  8
0
  6
ByBlock
 62
     0
100
AcDbLine
 10
0.0
 20
0.0
 30
0.0
 11
-1.0
 21
-0.1666666666666667
 31
0.0
  0
LINE
  5
49C6
330
49C3
100
AcDbEntity
  8
0
  6
ByBlock
 62
     0
100
AcDbLine
 10
0.0
 20
0.0
 30
0.0
 11
-1.0
 21
0.0
 31
0.0
  0
ENDBLK
  5
49C8
330
49C3
100
AcDbEntity
  8
0
100
AcDbBlockEnd
  0
BLOCK
  5
63335
330
63331
100
AcDbEntity
  8
0
100
AcDbBlockBegin
  2
_Open30
 70
     0
 10
0.0
 20
0.0
 30
0.0
  3
_Open30
  1
_Open30
  0
LINE
  5
63332
330
63331
100
AcDbEntity
  8
0
  6
ByBlock
 62
     0
370
    -2
100
AcDbLine
 10
-1.0
 20
0.26794919
 30
0.0
 11
0.0
 21
0.0
 31
0.0
  0
LINE
  5
63333
330
63331
100
AcDbEntity
  8
0
  6
ByBlock
 62
     0
370
    -2
100
AcDbLine
 10
0.0
 20
0.0
 30
0.0
 11
-1.0
 21
-0.26794919
 31
0.0
  0
LINE
  5
63334
330
63331
100
AcDbEntity
  8
0
  6
ByBlock
 62
     0
370
    -2
100
AcDbLine
 10
0.0
 20
0.0
 30
0.0
 11
-1.0
 21
0.0
 31
0.0
  0
ENDBLK
  5
63336
330
63331
100
AcDbEntity
  8
0
100
AcDbBlockEnd
  0
ENDSEC
  0
SECTION
  2
ENTITIES
  0
TEXT
  5
681F4
330
18
100
AcDbEntity
  8
文字
100
AcDbText
 10
13978.31780455524
 20
-8450.23812960124
 30
0.0
 40
29.997
  1
SX-LB140S/1200
100
AcDbText
  0
LINE
  5
68361
330
18
100
AcDbEntity
  8
姿図
100
AcDbLine
 10
14181.09436329073
 20
-8350.994040284104
 30
0.0
 11
13959.7820091902
 21
-8163.088891576775
 31
0.0
  0
LINE
  5
68362
330
18
100
AcDbEntity
  8
姿図
100
AcDbLine
 10
14220.92280195737
 20
-8349.721765197504
 30
0.0
 11
14000.99375173571
 21
-8162.991109988843
 31
0.0
  0
LINE
  5
68363
330
18
100
AcDbEntity
  8
姿図
100
AcDbLine
 10
14180.29554381188
 20
-8247.35770391789
 30
0.0
 11
13980.81941935337
 21
-8077.819291542441
 31
0.0
  0
LINE
  5
68364
330
18
100
AcDbEntity
  8
姿図
100
AcDbLine
 10
14314.79493910047
 20
-8325.821058341875
 30
0.0
 11
14094.05687424213
 21
-8138.323624449065
 31
0.0
  0
LINE
  5
68365
330
18
100
AcDbEntity
  8
姿図
100
AcDbLine
 10
14314.79493910048
 20
-8333.044798237472
 30
0.0
 11
14094.05687424212
 21
-8145.547364344651
 31
0.0
  0
LINE
  5
68366
330
18
100
AcDbEntity
  8
姿図
100
AcDbLine
 10
14079.87716982779
 20
-8148.976981864638
 30
0.0
 11
14299.6202739731
 21
-8335.740671546215
 31
0.0
  0
LINE
  5
68367
330
18
100
AcDbEntity
  8
姿図
100
AcDbLine
 10
14344.86265946994
 20
-8300.876201251007
 30
0.0
 11
14124.88695871168
 21
-8113.914823447149
 31
0.0
  0
LINE
  5
68368
330
18
100
AcDbEntity
  8
姿図
100
AcDbLine
 10
14346.01219717717
 20
-8270.979620808122
 30
0.0
 11
14124.88695871168
 21
-8083.041229848541
 31
0.0
  0
LINE
  5
68369
330
18
100
AcDbEntity
  8
姿図
100
AcDbLine
 10
14346.01219717717
 20
-8273.009488600574
 30
0.0
 11
14124.88695871168
 21
-8085.071097640994
 31
0.0
  0
LINE
  5
6836A
330
18
100
AcDbEntity
  8
姿図
100
AcDbLine
 10
14344.95565362963
 20
-8273.009488600574
 30
0.0
 11
14124.88695871168
 21
-8085.969073356842
 31
0.0
  0
LINE
  5
6836B
330
18
100
AcDbEntity
  8
姿図
100
AcDbLine
 10
14344.83452720188
 20
-8313.04863080666
 30
0.0
 11
14124.88695871168
 21
-8126.111163132788
 31
0.0
  0
LINE
  5
6836C
330
18
100
AcDbEntity
  8
姿図
100
AcDbLine
 10
14140.38516148143
 20
-8055.731090621517
 30
0.0
 11
14332.77565240491
 21
-8221.247293254013
 31
0.0
  0
LINE
  5
6836D
330
18
100
AcDbEntity
  8
姿図
100
AcDbLine
 10
14140.38516148143
 20
-8045.231990015678
 30
0.0
 11
14332.77565240491
 21
-8210.748192648174
 31
0.0
  0
LINE
  5
6836E
330
18
100
AcDbEntity
  8
姿図
100
AcDbLine
 10
14140.38516148143
 20
-8047.85676516714
 30
0.0
 11
14332.77565240491
 21
-8213.372967799633
 31
0.0
  0
LINE
  5
6836F
330
18
100
AcDbEntity
  8
姿図
100
AcDbLine
 10
14344.71426940999
 20
-8281.067071238107
 30
0.0
 11
14124.88695871168
 21
-8094.23181286456
 31
0.0
  0
LINE
  5
68370
330
18
100
AcDbEntity
  8
姿図
100
AcDbLine
 10
14346.01219717717
 20
-8280.925972991132
 30
0.0
 11
14124.88695871168
 21
-8092.987582031552
 31
0.0
  0
LINE
  5
68371
330
18
100
AcDbEntity
  8
姿図
100
AcDbLine
 10
14346.01219717717
 20
-8285.137948660467
 30
0.0
 11
14124.88695871168
 21
-8097.199557700887
 31
0.0
  0
LINE
  5
68372
330
18
100
AcDbEntity
  8
姿図
100
AcDbLine
 10
14346.01219717717
 20
-8290.009631362347
 30
0.0
 11
14124.88695871168
 21
-8102.071240402767
 31
0.0
  0
LINE
  5
68373
330
18
100
AcDbEntity
  8
姿図
100
AcDbLine
 10
14346.01219717717
 20
-8294.881314064229
 30
0.0
 11
14124.88695871168
 21
-8106.942923104649
 31
0.0
  0
LINE
  5
68374
330
18
100
AcDbEntity
  8
姿図
100
AcDbLine
 10
14346.01219717717
 20
-8299.75299676611
 30
0.0
 11
14124.88695871168
 21
-8111.81460580653
 31
0.0
  0
LINE
  5
68375
330
18
100
AcDbEntity
  8
姿図
100
AcDbLine
 10
14346.01219717717
 20
-8304.62467946799
 30
0.0
 11
14124.88695871168
 21
-8116.68628850841
 31
0.0
  0
LINE
  5
68376
330
18
100
AcDbEntity
  8
姿図
100
AcDbLine
 10
14346.01219717717
 20
-8309.496362169872
 30
0.0
 11
14124.88695871168
 21
-8121.557971210292
 31
0.0
  0
LINE
  5
68377
330
18
100
AcDbEntity
  8
姿図
100
AcDbLine
 10
14346.01219717717
 20
-8278.896105198679
 30
0.0
 11
14124.88695871168
 21
-8090.957714239099
 31
0.0
  0
LINE
  5
68378
330
18
100
AcDbEntity
  8
姿図
100
AcDbLine
 10
14346.01219717717
 20
-8283.463307731694
 30
0.0
 11
14124.88695871168
 21
-8095.524916772114
 31
0.0
  0
LINE
  5
68379
330
18
100
AcDbEntity
  8
姿図
100
AcDbLine
 10
14346.01219717717
 20
-8288.334990433576
 30
0.0
 11
14124.88695871168
 21
-8100.396599473996
 31
0.0
  0
LINE
  5
6837A
330
18
100
AcDbEntity
  8
姿図
100
AcDbLine
 10
14346.01219717717
 20
-8293.206673135455
 30
0.0
 11
14124.88695871168
 21
-8105.268282175875
 31
0.0
  0
LINE
  5
6837B
330
18
100
AcDbEntity
  8
姿図
100
AcDbLine
 10
14346.01219717717
 20
-8298.078355837337
 30
0.0
 11
14124.88695871168
 21
-8110.139964877757
 31
0.0
  0
LINE
  5
6837C
330
18
100
AcDbEntity
  8
姿図
100
AcDbLine
 10
14346.01219717717
 20
-8302.950038539218
 30
0.0
 11
14124.88695871168
 21
-8115.011647579639
 31
0.0
  0
LINE
  5
6837D
330
18
100
AcDbEntity
  8
姿図
100
AcDbLine
 10
14346.01219717717
 20
-8307.821721241098
 30
0.0
 11
14124.88695871168
 21
-8119.883330281518
 31
0.0
  0
LINE
  5
6837E
330
18
100
AcDbEntity
  8
姿図
100
AcDbLine
 10
14346.01219717717
 20
-8311.272496488264
 30
0.0
 11
14124.88695871168
 21
-8123.334105528684
 31
0.0
  0
LINE
  5
6837F
330
18
100
AcDbEntity
  8
姿図
100
AcDbLine
 10
14346.01219717717
 20
-8318.935247404765
 30
0.0
 11
14124.88695871168
 21
-8130.996856445185
 31
0.0
  0
LINE
  5
68380
330
18
100
AcDbEntity
  8
姿図
100
AcDbLine
 10
14346.01219717717
 20
-8321.695364973739
 30
0.0
 11
14124.88695871168
 21
-8133.756974014159
 31
0.0
  0
LINE
  5
68381
330
18
100
AcDbEntity
  8
姿図
100
AcDbLine
 10
14236.68238278599
 20
-8346.92197798927
 30
0.0
 11
14016.75333256432
 21
-8160.191322780609
 31
0.0
  0
LINE
  5
68382
330
18
100
AcDbEntity
  8
姿図
100
AcDbLine
 10
14236.68238278599
 20
-8344.161860420298
 30
0.0
 11
14016.75333256432
 21
-8157.431205211633
 31
0.0
  0
LINE
  5
68383
330
18
100
AcDbEntity
  8
姿図
100
AcDbLine
 10
14000.99375173571
 20
-8155.767370093257
 30
0.0
 11
13959.7820091902
 21
-8163.088891576775
 31
0.0
  0
LINE
  5
68384
330
18
100
AcDbEntity
  8
姿図
100
AcDbLine
 10
13980.30165406024
 20
-8154.652015377764
 30
0.0
 11
13965.30165406025
 21
-8157.316858344097
 31
0.0
  0
LINE
  5
68385
330
18
100
AcDbEntity
  8
姿図
100
AcDbLine
 10
14003.75386930468
 20
-8152.516900531622
 30
0.0
 11
13965.30165406025
 21
-8159.348174887229
 31
0.0
  0
LINE
  5
68386
330
18
100
AcDbEntity
  8
姿図
100
AcDbLine
 10
14124.88695871168
 20
-8029.435008419012
 30
0.0
 11
13965.30165406024
 21
-8061.786326861058
 31
0.0
  0
LINE
  5
68387
330
18
100
AcDbEntity
  8
姿図
100
AcDbLine
 10
13960.88397579391
 20
-8155.165811570643
 30
0.0
 11
13960.88397579391
 21
-8160.133002810933
 31
0.0
  0
LINE
  5
68388
330
18
100
AcDbEntity
  8
姿図
100
AcDbLine
 10
13965.30165406025
 20
-8159.348174887229
 30
0.0
 11
13965.30165406024
 21
-8061.786326861058
 31
0.0
  0
LINE
  5
68389
330
18
100
AcDbEntity
  8
姿図
100
AcDbLine
 10
13965.30165406025
 20
-8159.348174887229
 30
0.0
 11
13959.7820091902
 21
-8160.328774007803
 31
0.0
  0
LINE
  5
6838A
330
18
100
AcDbEntity
  8
姿図
100
AcDbLine
 10
13959.7820091902
 20
-8114.403015203612
 30
0.0
 11
13961.23578553672
 21
-8115.357700489627
 31
0.0
  0
LINE
  5
6838B
330
18
100
AcDbEntity
  8
姿図
100
AcDbLine
 10
13959.7820091902
 20
-8114.403015203612
 30
0.0
 11
13959.7820091902
 21
-8112.373147411161
 31
0.0
  0
LINE
  5
6838C
330
18
100
AcDbEntity
  8
姿図
100
AcDbLine
 10
13965.30165406025
 20
-8113.422416083038
 30
0.0
 11
13959.7820091902
 21
-8114.403015203612
 31
0.0
  0
LINE
  5
6838D
330
18
100
AcDbEntity
  8
姿図
100
AcDbLine
 10
13965.30165406025
 20
-8114.635373747164
 30
0.0
 11
13961.23578553672
 21
-8115.357700489627
 31
0.0
  0
LINE
  5
6838E
330
18
100
AcDbEntity
  8
姿図
100
AcDbLine
 10
13965.30165406024
 20
-8111.392548290589
 30
0.0
 11
13959.7820091902
 21
-8112.373147411163
 31
0.0
  0
ELLIPSE
  5
6838F
330
18
100
AcDbEntity
  8
姿図
100
AcDbEllipse
 10
13972.51896717654
 20
-8147.038928624957
 30
0.0
 11
0.0
 21
-3.508473521634005
 31
0.0
210
0.0
220
0.0
230
1.0
 40
0.6840581766403772
 41
0.0
 42
6.283185307179586
  0
ELLIPSE
  5
68390
330
18
100
AcDbEntity
  8
姿図
100
AcDbEllipse
 10
13972.91896717654
 20
-8147.038928624957
 30
0.0
 11
1.557139847723761E-15
 21
3.508473521634053
 31
0.0
210
0.0
220
0.0
230
1.0
 40
0.6840581766403936
 41
0.0834300866107265
 42
3.058162566979068
  0
LINE
  5
68391
330
18
100
AcDbEntity
  8
姿図
100
AcDbLine
 10
13959.7820091902
 20
-8131.403157965386
 30
0.0
 11
13959.7820091902
 21
-8129.728517036612
 31
0.0
  0
LINE
  5
68392
330
18
100
AcDbEntity
  8
姿図
100
AcDbLine
 10
13961.60077542136
 20
-8133.18026051277
 30
0.0
 11
13959.7820091902
 21
-8134.600199738494
 31
0.0
  0
LINE
  5
68393
330
18
100
AcDbEntity
  8
姿図
100
AcDbLine
 10
13959.7820091902
 20
-8131.403157965386
 30
0.0
 11
13961.60077542136
 21
-8133.18026051277
 31
0.0
  0
LINE
  5
68394
330
18
100
AcDbEntity
  8
姿図
100
AcDbLine
 10
13961.60077542136
 20
-8128.308577810891
 30
0.0
 11
13959.7820091902
 21
-8129.728517036612
 31
0.0
  0
LINE
  5
68395
330
18
100
AcDbEntity
  8
姿図
100
AcDbLine
 10
13959.7820091902
 20
-8122.31949959417
 30
0.0
 11
13961.23578553672
 21
-8123.274184880183
 31
0.0
  0
LINE
  5
68396
330
18
100
AcDbEntity
  8
姿図
100
AcDbLine
 10
13959.7820091902
 20
-8126.531475263504
 30
0.0
 11
13961.60077542136
 21
-8128.308577810891
 31
0.0
  0
LINE
  5
68397
330
18
100
AcDbEntity
  8
姿図
100
AcDbLine
 10
13961.23578553672
 20
-8123.274184880183
 30
0.0
 11
13961.23578553672
 21
-8124.598561956622
 31
0.0
  0
LINE
  5
68398
330
18
100
AcDbEntity
  8
姿図
100
AcDbLine
 10
13959.7820091902
 20
-8126.531475263504
 30
0.0
 11
13959.7820091902
 21
-8124.856834334732
 31
0.0
  0
LINE
  5
68399
330
18
100
AcDbEntity
  8
姿図
100
AcDbLine
 10
13959.7820091902
 20
-8122.319499594169
 30
0.0
 11
13959.7820091902
 21
-8120.289631801719
 31
0.0
  0
LINE
  5
6839A
330
18
100
AcDbEntity
  8
姿図
100
AcDbLine
 10
13961.23578553672
 20
-8151.844574058923
 30
0.0
 11
13961.23578553672
 21
-8152.407750713193
 31
0.0
  0
LINE
  5
6839B
330
18
100
AcDbEntity
  8
姿図
100
AcDbLine
 10
13959.7820091902
 20
-8150.889888772908
 30
0.0
 11
13961.23578553672
 21
-8151.844574058923
 31
0.0
  0
LINE
  5
6839C
330
18
100
AcDbEntity
  8
姿図
100
AcDbLine
 10
13959.7820091902
 20
-8154.442157409696
 30
0.0
 11
13960.88397579391
 21
-8155.165811570643
 31
0.0
  0
LINE
  5
6839D
330
18
100
AcDbEntity
  8
姿図
100
AcDbLine
 10
13959.7820091902
 20
-8152.666023091304
 30
0.0
 11
13959.7820091902
 21
-8154.442157409696
 31
0.0
  0
LINE
  5
6839E
330
18
100
AcDbEntity
  8
姿図
100
AcDbLine
 10
13959.7820091902
 20
-8150.889888772908
 30
0.0
 11
13959.7820091902
 21
-8149.215247844137
 31
0.0
  0
LINE
  5
6839F
330
18
100
AcDbEntity
  8
姿図
100
AcDbLine
 10
13959.7820091902
 20
-8146.018206071029
 30
0.0
 11
13959.7820091902
 21
-8144.343565142255
 31
0.0
  0
LINE
  5
683A0
330
18
100
AcDbEntity
  8
姿図
100
AcDbLine
 10
13959.7820091902
 20
-8141.146523369147
 30
0.0
 11
13959.7820091902
 21
-8139.471882440375
 31
0.0
  0
LINE
  5
683A1
330
18
100
AcDbEntity
  8
姿図
100
AcDbLine
 10
13961.60077542136
 20
-8147.795308618413
 30
0.0
 11
13959.7820091902
 21
-8149.215247844137
 31
0.0
  0
LINE
  5
683A2
330
18
100
AcDbEntity
  8
姿図
100
AcDbLine
 10
13959.7820091902
 20
-8146.018206071029
 30
0.0
 11
13961.60077542136
 21
-8147.795308618413
 31
0.0
  0
LINE
  5
683A3
330
18
100
AcDbEntity
  8
姿図
100
AcDbLine
 10
13961.60077542136
 20
-8142.923625916534
 30
0.0
 11
13959.7820091902
 21
-8144.343565142255
 31
0.0
  0
LINE
  5
683A4
330
18
100
AcDbEntity
  8
姿図
100
AcDbLine
 10
13961.60077542136
 20
-8138.051943214652
 30
0.0
 11
13959.7820091902
 21
-8139.471882440375
 31
0.0
  0
LINE
  5
683A5
330
18
100
AcDbEntity
  8
姿図
100
AcDbLine
 10
13959.7820091902
 20
-8136.274840667265
 30
0.0
 11
13961.60077542136
 21
-8138.051943214652
 31
0.0
  0
LINE
  5
683A6
330
18
100
AcDbEntity
  8
姿図
100
AcDbLine
 10
13959.7820091902
 20
-8141.146523369147
 30
0.0
 11
13961.60077542136
 21
-8142.923625916534
 31
0.0
  0
LINE
  5
683A7
330
18
100
AcDbEntity
  8
姿図
100
AcDbLine
 10
13959.7820091902
 20
-8136.274840667265
 30
0.0
 11
13959.7820091902
 21
-8134.600199738494
 31
0.0
  0
LINE
  5
683A8
330
18
100
AcDbEntity
  8
姿図
100
AcDbLine
 10
13965.30165406025
 20
-8130.42255884481
 30
0.0
 11
13959.7820091902
 21
-8131.403157965386
 31
0.0
  0
LINE
  5
683A9
330
18
100
AcDbEntity
  8
姿図
100
AcDbLine
 10
13965.30165406025
 20
-8132.522776485432
 30
0.0
 11
13961.60077542136
 21
-8133.18026051277
 31
0.0
  0
LINE
  5
683AA
330
18
100
AcDbEntity
  8
姿図
100
AcDbLine
 10
13965.30165406025
 20
-8133.61960061792
 30
0.0
 11
13959.7820091902
 21
-8134.600199738494
 31
0.0
  0
LINE
  5
683AB
330
18
100
AcDbEntity
  8
姿図
100
AcDbLine
 10
13965.30165406025
 20
-8119.309032681145
 30
0.0
 11
13959.7820091902
 21
-8120.289631801719
 31
0.0
  0
LINE
  5
683AC
330
18
100
AcDbEntity
  8
姿図
100
AcDbLine
 10
13965.30165406025
 20
-8121.338900473596
 30
0.0
 11
13959.7820091902
 21
-8122.31949959417
 31
0.0
  0
LINE
  5
683AD
330
18
100
AcDbEntity
  8
姿図
100
AcDbLine
 10
13965.30165406025
 20
-8123.876235214158
 30
0.0
 11
13959.7820091902
 21
-8124.856834334732
 31
0.0
  0
LINE
  5
683AE
330
18
100
AcDbEntity
  8
姿図
100
AcDbLine
 10
13965.30165406025
 20
-8122.551858137722
 30
0.0
 11
13961.23578553672
 21
-8123.274184880185
 31
0.0
  0
LINE
  5
683AF
330
18
100
AcDbEntity
  8
姿図
100
AcDbLine
 10
13965.30165406025
 20
-8127.651093783552
 30
0.0
 11
13961.60077542136
 21
-8128.308577810891
 31
0.0
  0
LINE
  5
683B0
330
18
100
AcDbEntity
  8
姿図
100
AcDbLine
 10
13965.30165406025
 20
-8125.55087614293
 30
0.0
 11
13959.7820091902
 21
-8126.531475263504
 31
0.0
  0
LINE
  5
683B1
330
18
100
AcDbEntity
  8
姿図
100
AcDbLine
 10
13965.30165406025
 20
-8128.74791791604
 30
0.0
 11
13959.7820091902
 21
-8129.728517036614
 31
0.0
  0
LINE
  5
683B2
330
18
100
AcDbEntity
  8
姿図
100
AcDbLine
 10
13965.30165406025
 20
-8137.394459187313
 30
0.0
 11
13961.60077542136
 21
-8138.051943214652
 31
0.0
  0
LINE
  5
683B3
330
18
100
AcDbEntity
  8
姿図
100
AcDbLine
 10
13965.30165406025
 20
-8138.491283319801
 30
0.0
 11
13959.7820091902
 21
-8139.471882440375
 31
0.0
  0
LINE
  5
683B4
330
18
100
AcDbEntity
  8
姿図
100
AcDbLine
 10
13965.30165406025
 20
-8140.165924248573
 30
0.0
 11
13959.7820091902
 21
-8141.146523369147
 31
0.0
  0
LINE
  5
683B5
330
18
100
AcDbEntity
  8
姿図
100
AcDbLine
 10
13965.30165406025
 20
-8142.266141889195
 30
0.0
 11
13961.60077542136
 21
-8142.923625916534
 31
0.0
  0
LINE
  5
683B6
330
18
100
AcDbEntity
  8
姿図
100
AcDbLine
 10
13965.30165406025
 20
-8143.362966021683
 30
0.0
 11
13959.7820091902
 21
-8144.343565142255
 31
0.0
  0
LINE
  5
683B7
330
18
100
AcDbEntity
  8
姿図
100
AcDbLine
 10
13965.30165406025
 20
-8145.037606950455
 30
0.0
 11
13959.7820091902
 21
-8146.018206071029
 31
0.0
  0
LINE
  5
683B8
330
18
100
AcDbEntity
  8
姿図
100
AcDbLine
 10
13965.30165406025
 20
-8147.137824591075
 30
0.0
 11
13961.60077542136
 21
-8147.795308618413
 31
0.0
  0
LINE
  5
683B9
330
18
100
AcDbEntity
  8
姿図
100
AcDbLine
 10
13965.30165406025
 20
-8148.234648723563
 30
0.0
 11
13959.7820091902
 21
-8149.215247844137
 31
0.0
  0
LINE
  5
683BA
330
18
100
AcDbEntity
  8
姿図
100
AcDbLine
 10
13965.30165406025
 20
-8149.909289652334
 30
0.0
 11
13959.7820091902
 21
-8150.889888772908
 31
0.0
  0
LINE
  5
683BB
330
18
100
AcDbEntity
  8
姿図
100
AcDbLine
 10
13965.30165406025
 20
-8151.68542397073
 30
0.0
 11
13959.7820091902
 21
-8152.666023091304
 31
0.0
  0
LINE
  5
683BC
330
18
100
AcDbEntity
  8
姿図
100
AcDbLine
 10
13965.30165406025
 20
-8153.461558289124
 30
0.0
 11
13959.7820091902
 21
-8154.442157409696
 31
0.0
  0
LINE
  5
683BD
330
18
100
AcDbEntity
  8
姿図
100
AcDbLine
 10
13965.30165406025
 20
-8154.380983646939
 30
0.0
 11
13960.88397579391
 21
-8155.165811570643
 31
0.0
  0
LINE
  5
683BE
330
18
100
AcDbEntity
  8
姿図
100
AcDbLine
 10
13965.30165406025
 20
-8153.461558289124
 30
0.0
 11
13959.7820091902
 21
-8154.442157409696
 31
0.0
  0
LINE
  5
683BF
330
18
100
AcDbEntity
  8
姿図
100
AcDbLine
 10
13965.30165406025
 20
-8135.294241546693
 30
0.0
 11
13959.7820091902
 21
-8136.274840667265
 31
0.0
  0
LINE
  5
683C0
330
18
100
AcDbEntity
  8
姿図
100
AcDbLine
 10
13961.95109491319
 20
-8115.230621345585
 30
0.0
 11
13961.95109491319
 21
-8119.904280279567
 31
0.0
  0
ELLIPSE
  5
683C1
330
18
100
AcDbEntity
  8
姿図
100
AcDbEllipse
 10
13972.51896717654
 20
-8115.827186191862
 30
0.0
 11
0.0
 21
-3.508473521634005
 31
0.0
210
0.0
220
0.0
230
1.0
 40
0.6840581766403772
 41
0.0
 42
6.283185307179586
  0
ELLIPSE
  5
683C2
330
18
100
AcDbEntity
  8
姿図
100
AcDbEllipse
 10
13972.91896717654
 20
-8115.827186191862
 30
0.0
 11
1.557139847723761E-15
 21
3.508473521634053
 31
0.0
210
0.0
220
0.0
230
1.0
 40
0.6840581766403936
 41
0.0834300866107265
 42
3.058162566979068
  0
LINE
  5
683C3
330
18
100
AcDbEntity
  8
姿図
100
AcDbLine
 10
13959.7820091902
 20
-8163.088891576775
 30
0.0
 11
13959.7820091902
 21
-8160.328774007803
 31
0.0
  0
LINE
  5
683C4
330
18
100
AcDbEntity
  8
姿図
100
AcDbLine
 10
14102.88695871168
 20
-8053.65661020096
 30
0.0
 11
13980.30165406024
 21
-8077.434649326049
 31
0.0
  0
LINE
  5
683C5
330
18
100
AcDbEntity
  8
姿図
100
AcDbLine
 10
14102.96904360998
 20
-8054.118653739737
 30
0.0
 11
13980.81941935337
 21
-8077.819291542441
 31
0.0
  0
LINE
  5
683C6
330
18
100
AcDbEntity
  8
姿図
100
AcDbLine
 10
14016.75333256432
 20
-8160.191322780609
 30
0.0
 11
14000.99375173571
 21
-8162.991109988843
 31
0.0
  0
LINE
  5
683C7
330
18
100
AcDbEntity
  8
姿図
100
AcDbLine
 10
13980.30165406024
 20
-8154.652015377764
 30
0.0
 11
13980.30165406024
 21
-8077.434649326049
 31
0.0
  0
LINE
  5
683C8
330
18
100
AcDbEntity
  8
姿図
100
AcDbLine
 10
13980.81941935337
 20
-8154.289472216489
 30
0.0
 11
13980.81941935337
 21
-8077.819291542441
 31
0.0
  0
LINE
  5
683C9
330
18
100
AcDbEntity
  8
姿図
100
AcDbLine
 10
13980.81941935337
 20
-8154.289472216489
 30
0.0
 11
13980.30165406024
 21
-8154.652015377764
 31
0.0
  0
LINE
  5
683CA
330
18
100
AcDbEntity
  8
姿図
100
AcDbLine
 10
14000.99375173571
 20
-8155.767370093257
 30
0.0
 11
14000.99375173571
 21
-8162.991109988843
 31
0.0
  0
LINE
  5
683CB
330
18
100
AcDbEntity
  8
姿図
100
AcDbLine
 10
14016.75333256432
 20
-8157.431205211633
 30
0.0
 11
14016.75333256432
 21
-8160.191322780609
 31
0.0
  0
ARC
  5
683CC
330
18
100
AcDbEntity
  8
姿図
100
AcDbCircle
 10
14004.25386930468
 20
-8159.143983192542
 30
0.0
 40
0.5
100
AcDbArc
 50
180.0
 51
280.0738452396293
  0
LINE
  5
683CD
330
18
100
AcDbEntity
  8
姿図
100
AcDbLine
 10
14012.33272438375
 20
-8158.216553652761
 30
0.0
 11
14004.34132795231
 21
-8159.636274757528
 31
0.0
  0
ARC
  5
683CE
330
18
100
AcDbEntity
  8
姿図
100
AcDbCircle
 10
14011.74526573613
 20
-8157.574592538336
 30
0.0
 40
1.0
100
AcDbArc
 50
0.0
 51
68.11232009500681
  0
ARC
  5
683CF
330
18
100
AcDbEntity
  8
姿図
100
AcDbCircle
 10
14012.24526573613
 20
-8157.724262087775
 30
0.0
 40
0.5
100
AcDbArc
 50
280.0738452396293
 51
0.0
  0
LINE
  5
683D0
330
18
100
AcDbEntity
  8
姿図
100
AcDbLine
 10
14012.74526573613
 20
-8157.574592538336
 30
0.0
 11
14012.74526573613
 21
-8157.724262087775
 31
0.0
  0
LINE
  5
683D1
330
18
100
AcDbEntity
  8
姿図
100
AcDbLine
 10
14003.75386930468
 20
-8155.277018100594
 30
0.0
 11
14008.48056940409
 21
-8158.900912859612
 31
0.0
  0
LINE
  5
683D2
330
18
100
AcDbEntity
  8
姿図
100
AcDbLine
 10
14005.9865020414
 20
-8154.183339395291
 30
0.0
 11
14006.35929030623
 21
-8153.255422960689
 31
0.0
  0
LINE
  5
683D3
330
18
100
AcDbEntity
  8
姿図
100
AcDbLine
 10
14003.75386930468
 20
-8152.516900531622
 30
0.0
 11
14003.75386930468
 21
-8159.143983192542
 31
0.0
  0
LINE
  5
683D4
330
18
100
AcDbEntity
  8
姿図
100
AcDbLine
 10
14005.9865020414
 20
-8154.183339395291
 30
0.0
 11
14012.11805400096
 21
-8156.646676103734
 31
0.0
  0
LINE
  5
683D5
330
18
100
AcDbEntity
  8
姿図
100
AcDbLine
 10
14006.35929030623
 20
-8153.255422960689
 30
0.0
 11
14016.75333256432
 21
-8157.431205211633
 31
0.0
  0
LINE
  5
683D6
330
18
100
AcDbEntity
  8
姿図
100
AcDbLine
 10
14124.88695871168
 20
-8133.756974014159
 30
0.0
 11
14094.05687424213
 21
-8138.323624449065
 31
0.0
  0
LINE
  5
683D7
330
18
100
AcDbEntity
  8
姿図
100
AcDbLine
 10
14119.88695871168
 20
-8129.853820890832
 30
0.0
 11
14102.88695871168
 21
-8132.873976252677
 31
0.0
  0
LINE
  5
683D8
330
18
100
AcDbEntity
  8
姿図
100
AcDbLine
 10
14119.88695871168
 20
-8131.885137433965
 30
0.0
 11
14092.05687424212
 21
-8135.918819275605
 31
0.0
  0
LINE
  5
683D9
330
18
100
AcDbEntity
  8
姿図
100
AcDbLine
 10
14094.05687424212
 20
-8145.547364344651
 30
0.0
 11
14079.87716982779
 21
-8148.976981864638
 31
0.0
  0
LINE
  5
683DA
330
18
100
AcDbEntity
  8
姿図
100
AcDbLine
 10
14079.87716982779
 20
-8148.976981864638
 30
0.0
 11
14083.68147967887
 21
-8143.419992639452
 31
0.0
  0
LINE
  5
683DB
330
18
100
AcDbEntity
  8
姿図
100
AcDbLine
 10
14083.99346453511
 20
-8142.964273585952
 30
0.0
 11
14085.91408042198
 21
-8140.158812882999
 31
0.0
  0
LINE
  5
683DC
330
18
100
AcDbEntity
  8
姿図
100
AcDbLine
 10
14089.39426125901
 20
-8145.204268514553
 30
0.0
 11
14086.28196929776
 21
-8142.729466427474
 31
0.0
  0
LINE
  5
683DD
330
18
100
AcDbEntity
  8
姿図
100
AcDbLine
 10
14092.05687424212
 20
-8143.871360197028
 30
0.0
 11
14089.23749627845
 21
-8145.282745314529
 31
0.0
  0
LINE
  5
683DE
330
18
100
AcDbEntity
  8
姿図
100
AcDbLine
 10
14092.05687424213
 20
-8135.918819275605
 30
0.0
 11
14092.05687424212
 21
-8143.871360197028
 31
0.0
  0
ARC
  5
683DF
330
18
100
AcDbEntity
  8
姿図
100
AcDbCircle
 10
14085.97077565409
 20
-8143.323952800867
 30
0.0
 40
0.5
100
AcDbArc
 50
51.50932280862754
 51
100.0738452396294
  0
LINE
  5
683E0
330
18
100
AcDbEntity
  8
姿図
100
AcDbLine
 10
14089.23749627845
 20
-8145.282745314529
 30
0.0
 11
14086.28196929775
 21
-8142.932598081788
 31
0.0
  0
ARC
  5
683E1
330
18
100
AcDbEntity
  8
姿図
100
AcDbCircle
 10
14085.97077565409
 20
-8143.120821146553
 30
0.0
 40
0.5
100
AcDbArc
 50
51.50932280862754
 51
100.0738452396294
  0
LINE
  5
683E2
330
18
100
AcDbEntity
  8
姿図
100
AcDbLine
 10
14086.28196929775
 20
-8142.932598081788
 30
0.0
 11
14086.28196929776
 21
-8142.729466427474
 31
0.0
  0
LINE
  5
683E3
330
18
100
AcDbEntity
  8
姿図
100
AcDbLine
 10
14086.61089567255
 20
-8145.749377191198
 30
0.0
 11
14084.70300046388
 21
-8146.088326599685
 31
0.0
  0
LINE
  5
683E4
330
18
100
AcDbEntity
  8
姿図
100
AcDbLine
 10
14089.23749627845
 20
-8145.282745314529
 30
0.0
 11
14086.61089567255
 21
-8145.749377191198
 31
0.0
  0
LINE
  5
683E5
330
18
100
AcDbEntity
  8
姿図
100
AcDbLine
 10
14086.04285083219
 20
-8142.626043248196
 30
0.0
 11
14087.08178974484
 21
-8141.108455940852
 31
0.0
  0
LINE
  5
683E6
330
18
100
AcDbEntity
  8
姿図
100
AcDbLine
 10
14087.08178974484
 20
-8141.108455940855
 30
0.0
 11
14087.54872266267
 21
-8143.736751062188
 31
0.0
  0
LINE
  5
683E7
330
18
100
AcDbEntity
  8
姿図
100
AcDbLine
 10
14085.91408042198
 20
-8140.158812882999
 30
0.0
 11
14087.08178974484
 21
-8141.108455940852
 31
0.0
  0
ARC
  5
683E8
330
18
100
AcDbEntity
  8
姿図
100
AcDbCircle
 10
14083.7145439543
 20
-8143.31852303728
 30
0.0
 40
0.1
100
AcDbArc
 50
100.0738452396294
 51
231.5093228086275
  0
LINE
  5
683E9
330
18
100
AcDbEntity
  8
姿図
100
AcDbLine
 10
14083.61760302359
 20
-8143.031047712968
 30
0.0
 11
14083.61760302359
 21
-8143.293978059115
 31
0.0
  0
LINE
  5
683EA
330
18
100
AcDbEntity
  8
姿図
100
AcDbLine
 10
14085.88331700647
 20
-8142.831661235879
 30
0.0
 11
14083.69705222478
 21
-8143.220064724283
 31
0.0
  0
LINE
  5
683EB
330
18
100
AcDbEntity
  8
姿図
100
AcDbLine
 10
14085.88331700647
 20
-8142.628529581567
 30
0.0
 11
14083.61760302359
 21
-8143.031047712968
 31
0.0
  0
LINE
  5
683EC
330
18
100
AcDbEntity
  8
姿図
100
AcDbLine
 10
14086.61089567254
 20
-8145.749377191196
 30
0.0
 11
14083.65230522557
 21
-8143.396793981095
 31
0.0
  0
ARC
  5
683ED
330
18
100
AcDbEntity
  8
姿図
100
AcDbCircle
 10
14084.61554181625
 20
-8145.5960350347
 30
0.0
 40
0.5
100
AcDbArc
 50
145.6044933459079
 51
280.0738452396293
  0
LINE
  5
683EE
330
18
100
AcDbEntity
  8
姿図
100
AcDbLine
 10
14084.20296291499
 20
-8145.313583888073
 30
0.0
 11
14084.85854912285
 21
-8144.355963285157
 31
0.0
  0
LINE
  5
683EF
330
18
100
AcDbEntity
  8
姿図
100
AcDbLine
 10
14094.05687424213
 20
-8138.323624449065
 30
0.0
 11
14094.05687424213
 21
-8145.547364344651
 31
0.0
  0
ELLIPSE
  5
683F0
330
18
100
AcDbEntity
  8
姿図
100
AcDbEllipse
 10
14111.12084563035
 20
-8091.345828422178
 30
0.0
 11
1.557139847723761E-15
 21
3.508473521634053
 31
0.0
210
0.0
220
0.0
230
1.0
 40
0.6840581766403936
 41
0.0834300866107265
 42
3.058162566979068
  0
ELLIPSE
  5
683F1
330
18
100
AcDbEntity
  8
姿図
100
AcDbEllipse
 10
14110.72084563035
 20
-8091.345828422178
 30
0.0
 11
0.0
 21
-3.508473521634005
 31
0.0
210
0.0
220
0.0
230
1.0
 40
0.6840581766403772
 41
0.0
 42
6.283185307179586
  0
LINE
  5
683F2
330
18
100
AcDbEntity
  8
姿図
100
AcDbLine
 10
14102.88695871168
 20
-8132.873976252677
 30
0.0
 11
14102.88695871168
 21
-8053.65661020096
 31
0.0
  0
ELLIPSE
  5
683F3
330
18
100
AcDbEntity
  8
姿図
100
AcDbEllipse
 10
14110.32084563035
 20
-8122.557570855271
 30
0.0
 11
0.0
 21
-3.508473521634005
 31
0.0
210
0.0
220
0.0
230
1.0
 40
0.6840581766403772
 41
0.0
 42
6.283185307179586
  0
ELLIPSE
  5
683F4
330
18
100
AcDbEntity
  8
姿図
100
AcDbEllipse
 10
14110.72084563035
 20
-8122.557570855271
 30
0.0
 11
1.557139847723761E-15
 21
3.508473521634053
 31
0.0
210
0.0
220
0.0
230
1.0
 40
0.6840581766403936
 41
0.0834300866107265
 42
3.058162566979068
  0
LINE
  5
683F5
330
18
100
AcDbEntity
  8
姿図
100
AcDbLine
 10
14119.88695871168
 20
-8097.56590125623
 30
0.0
 11
14119.88695871168
 21
-8030.32328940779
 31
0.0
  0
LINE
  5
683F6
330
18
100
AcDbEntity
  8
姿図
100
AcDbLine
 10
14124.88695871168
 20
-8085.969073356842
 30
0.0
 11
14124.88695871168
 21
-8029.435008419012
 31
0.0
  0
LINE
  5
683F7
330
18
100
AcDbEntity
  8
姿図
100
AcDbLine
 10
14124.88695871168
 20
-8029.435008419012
 30
0.0
 11
14140.38516148143
 21
-8042.607214864218
 31
0.0
  0
LINE
  5
683F8
330
18
100
AcDbEntity
  8
姿図
100
AcDbLine
 10
14124.88695871168
 20
-8095.524916772112
 30
0.0
 11
14121.53639956463
 21
-8096.120164370534
 31
0.0
  0
LINE
  5
683F9
330
18
100
AcDbEntity
  8
姿図
100
AcDbLine
 10
14124.88695871168
 20
-8097.199557700884
 30
0.0
 11
14121.53639956463
 21
-8097.794805299305
 31
0.0
  0
LINE
  5
683FA
330
18
100
AcDbEntity
  8
姿図
100
AcDbLine
 10
14124.88695871168
 20
-8105.268282175874
 30
0.0
 11
14121.53639956463
 21
-8105.863529774297
 31
0.0
  0
LINE
  5
683FB
330
18
100
AcDbEntity
  8
姿図
100
AcDbLine
 10
14124.88695871168
 20
-8106.942923104645
 30
0.0
 11
14121.53639956463
 21
-8107.538170703065
 31
0.0
  0
LINE
  5
683FC
330
18
100
AcDbEntity
  8
姿図
100
AcDbLine
 10
14124.88695871168
 20
-8110.139964877755
 30
0.0
 11
14121.53639956463
 21
-8110.735212476178
 31
0.0
  0
LINE
  5
683FD
330
18
100
AcDbEntity
  8
姿図
100
AcDbLine
 10
14124.88695871168
 20
-8111.814605806527
 30
0.0
 11
14121.53639956463
 21
-8112.409853404948
 31
0.0
  0
LINE
  5
683FE
330
18
100
AcDbEntity
  8
姿図
100
AcDbLine
 10
14124.88695871168
 20
-8115.011647579637
 30
0.0
 11
14121.53639956463
 21
-8115.606895178058
 31
0.0
  0
LINE
  5
683FF
330
18
100
AcDbEntity
  8
姿図
100
AcDbLine
 10
14124.88695871168
 20
-8116.686288508408
 30
0.0
 11
14121.53639956463
 21
-8117.28153610683
 31
0.0
  0
LINE
  5
68400
330
18
100
AcDbEntity
  8
姿図
100
AcDbLine
 10
14124.88695871168
 20
-8125.110239847078
 30
0.0
 11
14121.53639956463
 21
-8125.705487445501
 31
0.0
  0
LINE
  5
68401
330
18
100
AcDbEntity
  8
姿図
100
AcDbLine
 10
14121.53639956463
 20
-8112.409853404948
 30
0.0
 11
14121.53639956463
 21
-8110.735212476176
 31
0.0
  0
LINE
  5
68402
330
18
100
AcDbEntity
  8
姿図
100
AcDbLine
 10
14121.53639956463
 20
-8117.281536106828
 30
0.0
 11
14121.53639956463
 21
-8115.606895178058
 31
0.0
  0
LINE
  5
68403
330
18
100
AcDbEntity
  8
姿図
100
AcDbLine
 10
14121.53639956463
 20
-8097.794805299305
 30
0.0
 11
14121.53639956463
 21
-8096.120164370534
 31
0.0
  0
LINE
  5
68404
330
18
100
AcDbEntity
  8
姿図
100
AcDbLine
 10
14121.53639956463
 20
-8107.538170703066
 30
0.0
 11
14121.53639956463
 21
-8105.863529774295
 31
0.0
  0
LINE
  5
68405
330
18
100
AcDbEntity
  8
姿図
100
AcDbLine
 10
14121.53639956463
 20
-8123.929353127103
 30
0.0
 11
14121.53639956463
 21
-8125.705487445499
 31
0.0
  0
LINE
  5
68406
330
18
100
AcDbEntity
  8
姿図
100
AcDbLine
 10
14121.53639956463
 20
-8125.705487445499
 30
0.0
 11
14122.63836616834
 21
-8126.429141606444
 31
0.0
  0
LINE
  5
68407
330
18
100
AcDbEntity
  8
姿図
100
AcDbLine
 10
14121.53639956463
 20
-8093.582829629971
 30
0.0
 11
14122.64288310099
 21
-8094.599213636147
 31
0.0
  0
LINE
  5
68408
330
18
100
AcDbEntity
  8
姿図
100
AcDbLine
 10
14121.53639956463
 20
-8097.794805299305
 30
0.0
 11
14123.35516579579
 21
-8099.57190784669
 31
0.0
  0
LINE
  5
68409
330
18
100
AcDbEntity
  8
姿図
100
AcDbLine
 10
14123.35516579579
 20
-8104.443590548572
 30
0.0
 11
14123.35516579579
 21
-8105.54041468106
 31
0.0
  0
LINE
  5
6840A
330
18
100
AcDbEntity
  8
姿図
100
AcDbLine
 10
14123.35516579579
 20
-8109.315273250451
 30
0.0
 11
14123.35516579579
 21
-8110.412097382941
 31
0.0
  0
LINE
  5
6840B
330
18
100
AcDbEntity
  8
姿図
100
AcDbLine
 10
14122.64288310099
 20
-8094.599213636147
 30
0.0
 11
14122.64288310099
 21
-8095.923590712582
 31
0.0
  0
LINE
  5
6840C
330
18
100
AcDbEntity
  8
姿図
100
AcDbLine
 10
14123.35516579579
 20
-8114.080519842877
 30
0.0
 11
14123.35516579579
 21
-8115.283780084823
 31
0.0
  0
LINE
  5
6840D
330
18
100
AcDbEntity
  8
姿図
100
AcDbLine
 10
14121.53639956463
 20
-8107.538170703065
 30
0.0
 11
14123.3551657958
 21
-8109.208837140999
 31
0.0
  0
LINE
  5
6840E
330
18
100
AcDbEntity
  8
姿図
100
AcDbLine
 10
14121.53639956463
 20
-8112.409853404948
 30
0.0
 11
14123.3551657958
 21
-8114.080519842882
 31
0.0
  0
LINE
  5
6840F
330
18
100
AcDbEntity
  8
姿図
100
AcDbLine
 10
14121.53639956463
 20
-8117.281536106828
 30
0.0
 11
14123.3551657958
 21
-8118.952202544762
 31
0.0
  0
LINE
  5
68410
330
18
100
AcDbEntity
  8
姿図
100
AcDbLine
 10
14124.88695871168
 20
-8133.756974014159
 30
0.0
 11
14124.88695871168
 21
-8085.969073356842
 31
0.0
  0
LINE
  5
68411
330
18
100
AcDbEntity
  8
姿図
100
AcDbLine
 10
14119.88695871168
 20
-8131.885137433963
 30
0.0
 11
14119.88695871168
 21
-8121.112367648653
 31
0.0
  0
LINE
  5
68412
330
18
100
AcDbEntity
  8
姿図
  6
Continuous
370
     0
100
AcDbLine
 10
14124.88695871168
 20
-8125.015945803425
 30
0.0
 11
14117.82819465398
 21
-8119.505058368359
 31
0.0
  0
LINE
  5
68413
330
18
100
AcDbEntity
  8
姿図
  6
Continuous
370
     0
100
AcDbLine
 10
14124.88695871168
 20
-8124.76221232937
 30
0.0
 11
14117.95127114341
 21
-8119.347412633406
 31
0.0
  0
ARC
  5
68414
330
18
100
AcDbEntity
  8
姿図
  6
Continuous
370
     0
100
AcDbCircle
 10
14118.12797034318
 20
-8116.416860901227
 30
0.0
 40
0.5871021973724699
100
AcDbArc
 50
43.97061442796326
 51
173.0481439441934
  0
LINE
  5
68415
330
18
100
AcDbEntity
  8
姿図
  6
Continuous
370
     0
100
AcDbLine
 10
14117.37071677524
 20
-8118.460517177329
 30
0.0
 11
14117.54518440114
 21
-8116.345800814519
 31
0.0
  0
ARC
  5
68416
330
18
100
AcDbEntity
  8
姿図
  6
Continuous
370
     0
100
AcDbCircle
 10
14118.56665359057
 20
-8118.559183958638
 30
0.0
 40
1.2
100
AcDbArc
 50
175.2836838794859
 51
232.0202851621429
  0
LINE
  5
68417
330
18
100
AcDbEntity
  8
姿図
  6
Continuous
370
     0
100
AcDbLine
 10
14117.57003957779
 20
-8118.476961640881
 30
0.0
 11
14117.7445072037
 21
-8116.362245278069
 31
0.0
  0
ARC
  5
68418
330
18
100
AcDbEntity
  8
姿図
  6
Continuous
370
     0
100
AcDbCircle
 10
14118.24281421008
 20
-8116.403356436949
 30
0.0
 40
0.5
100
AcDbArc
 50
52.02028516214293
 51
175.2836838794859
  0
ARC
  5
68419
330
18
100
AcDbEntity
  8
姿図
  6
Continuous
370
     0
100
AcDbCircle
 10
14118.56665359057
 20
-8118.559183958638
 30
0.0
 40
1.0
100
AcDbArc
 50
175.2836838795905
 51
232.0202851621429
  0
LINE
  5
6841A
330
18
100
AcDbEntity
  8
姿図
  6
Continuous
370
     0
100
AcDbLine
 10
14124.88695871168
 20
-8120.956210218525
 30
0.0
 11
14118.55050543366
 21
-8116.009242099564
 31
0.0
  0
LINE
  5
6841B
330
18
100
AcDbEntity
  8
姿図
  6
Continuous
370
     0
100
AcDbLine
 10
14124.88695871168
 20
-8101.469479411004
 30
0.0
 11
14118.55050543366
 21
-8096.522511292042
 31
0.0
  0
ARC
  5
6841C
330
18
100
AcDbEntity
  8
姿図
  6
Continuous
370
     0
100
AcDbCircle
 10
14118.56665359057
 20
-8099.072453151115
 30
0.0
 40
1.0
100
AcDbArc
 50
175.2836838795905
 51
232.0202851621429
  0
ARC
  5
6841D
330
18
100
AcDbEntity
  8
姿図
  6
Continuous
370
     0
100
AcDbCircle
 10
14118.24281421009
 20
-8096.916625629427
 30
0.0
 40
0.5
100
AcDbArc
 50
52.02028516214293
 51
175.2836838794859
  0
LINE
  5
6841E
330
18
100
AcDbEntity
  8
姿図
  6
Continuous
370
     0
100
AcDbLine
 10
14117.5700395778
 20
-8098.990230833359
 30
0.0
 11
14117.7445072037
 21
-8096.875514470548
 31
0.0
  0
ARC
  5
6841F
330
18
100
AcDbEntity
  8
姿図
  6
Continuous
370
     0
100
AcDbCircle
 10
14118.56665359057
 20
-8099.072453151115
 30
0.0
 40
1.2
100
AcDbArc
 50
175.2836838794859
 51
232.0202851621429
  0
LINE
  5
68420
330
18
100
AcDbEntity
  8
姿図
  6
Continuous
370
     0
100
AcDbLine
 10
14117.37071677524
 20
-8098.973786369806
 30
0.0
 11
14117.54518440114
 21
-8096.859070006998
 31
0.0
  0
ARC
  5
68421
330
18
100
AcDbEntity
  8
姿図
  6
Continuous
370
     0
100
AcDbCircle
 10
14118.12797034318
 20
-8096.930130093704
 30
0.0
 40
0.5871021973724699
100
AcDbArc
 50
43.97061442796326
 51
173.0481439441934
  0
LINE
  5
68422
330
18
100
AcDbEntity
  8
姿図
  6
Continuous
370
     0
100
AcDbLine
 10
14124.88695871168
 20
-8105.275481521847
 30
0.0
 11
14117.95127114341
 21
-8099.860681825885
 31
0.0
  0
LINE
  5
68423
330
18
100
AcDbEntity
  8
姿図
  6
Continuous
370
     0
100
AcDbLine
 10
14124.88695871168
 20
-8105.529214995902
 30
0.0
 11
14117.82819465398
 21
-8100.018327560838
 31
0.0
  0
LINE
  5
68424
330
18
100
AcDbEntity
  8
姿図
100
AcDbLine
 10
14122.73946370824
 20
-8086.350589153853
 30
0.0
 11
14122.73946370824
 21
-8091.339230036108
 31
0.0
  0
LINE
  5
68425
330
18
100
AcDbEntity
  8
姿図
100
AcDbLine
 10
14121.53639956463
 20
-8085.666345239417
 30
0.0
 11
14122.642883101
 21
-8086.367747297314
 31
0.0
  0
LINE
  5
68426
330
18
100
AcDbEntity
  8
姿図
100
AcDbLine
 10
14124.88695871168
 20
-8085.969073356842
 30
0.0
 11
14122.642883101
 21
-8086.367747297314
 31
0.0
  0
LINE
  5
68427
330
18
100
AcDbEntity
  8
姿図
100
AcDbLine
 10
14124.88695871168
 20
-8085.071097640996
 30
0.0
 11
14121.53639956463
 21
-8085.666345239417
 31
0.0
  0
LINE
  5
68428
330
18
100
AcDbEntity
  8
姿図
100
AcDbLine
 10
14121.53639956463
 20
-8085.666345239415
 30
0.0
 11
14121.53639956463
 21
-8083.636477446964
 31
0.0
  0
LINE
  5
68429
330
18
100
AcDbEntity
  8
姿図
100
AcDbLine
 10
14124.88695871168
 20
-8083.041229848544
 30
0.0
 11
14121.53639956463
 21
-8083.636477446964
 31
0.0
  0
LINE
  5
6842A
330
18
100
AcDbEntity
  8
姿図
100
AcDbLine
 10
14123.1320654392
 20
-8123.645873194941
 30
0.0
 11
14121.53639956463
 21
-8123.929353127107
 31
0.0
  0
LINE
  5
6842B
330
18
100
AcDbEntity
  8
姿図
100
AcDbLine
 10
14123.35516579579
 20
-8118.952202544753
 30
0.0
 11
14123.35516579579
 21
-8119.760315545709
 31
0.0
  0
LINE
  5
6842C
330
18
100
AcDbEntity
  8
姿図
100
AcDbLine
 10
14124.88695871168
 20
-8119.883330281516
 30
0.0
 11
14123.76747678946
 21
-8120.082213183274
 31
0.0
  0
LINE
  5
6842D
330
18
100
AcDbEntity
  8
姿図
100
AcDbLine
 10
14119.88695871168
 20
-8117.052632063753
 30
0.0
 11
14119.88695871168
 21
-8101.625636841127
 31
0.0
  0
LINE
  5
6842E
330
18
100
AcDbEntity
  8
姿図
100
AcDbLine
 10
14124.88695871168
 20
-8100.396599473994
 30
0.0
 11
14123.76747678946
 21
-8100.595482375753
 31
0.0
  0
LINE
  5
6842F
330
18
100
AcDbEntity
  8
姿図
100
AcDbLine
 10
14123.35516579579
 20
-8099.57190784669
 30
0.0
 11
14123.35516579579
 21
-8100.273584738183
 31
0.0
  0
LINE
  5
68430
330
18
100
AcDbEntity
  8
姿図
100
AcDbLine
 10
14123.32735325522
 20
-8104.311606637941
 30
0.0
 11
14123.3551657958
 21
-8104.337154439121
 31
0.0
  0
LINE
  5
68431
330
18
100
AcDbEntity
  8
姿図
100
AcDbLine
 10
14123.47022575706
 20
-8104.42314943334
 30
0.0
 11
14123.35516579579
 21
-8104.443590548572
 31
0.0
  0
LINE
  5
68432
330
18
100
AcDbEntity
  8
姿図
100
AcDbLine
 10
14124.88695871168
 20
-8090.957714239099
 30
0.0
 11
14121.53639956463
 21
-8091.552961837519
 31
0.0
  0
LINE
  5
68433
330
18
100
AcDbEntity
  8
姿図
100
AcDbLine
 10
14121.53639956463
 20
-8093.58282962997
 30
0.0
 11
14121.53639956463
 21
-8091.552961837519
 31
0.0
  0
LINE
  5
68434
330
18
100
AcDbEntity
  8
姿図
100
AcDbLine
 10
14124.88695871168
 20
-8126.029665204893
 30
0.0
 11
14122.63836616834
 21
-8126.429141606444
 31
0.0
  0
LINE
  5
68435
330
18
100
AcDbEntity
  8
姿図
100
AcDbLine
 10
14124.88695871168
 20
-8125.110239847078
 30
0.0
 11
14121.53639956463
 21
-8125.705487445501
 31
0.0
  0
LINE
  5
68436
330
18
100
AcDbEntity
  8
姿図
100
AcDbLine
 10
14124.88695871168
 20
-8113.914823447149
 30
0.0
 11
14123.35516579579
 21
-8114.186955952333
 31
0.0
  0
LINE
  5
68437
330
18
100
AcDbEntity
  8
姿図
100
AcDbLine
 10
14124.88695871168
 20
-8118.786506149028
 30
0.0
 11
14123.35516579579
 21
-8119.058638654215
 31
0.0
  0
LINE
  5
68438
330
18
100
AcDbEntity
  8
姿図
100
AcDbLine
 10
14124.88695871168
 20
-8109.043140745267
 30
0.0
 11
14123.35516579579
 21
-8109.315273250453
 31
0.0
  0
LINE
  5
68439
330
18
100
AcDbEntity
  8
姿図
100
AcDbLine
 10
14124.88695871168
 20
-8099.299775341506
 30
0.0
 11
14123.35516579579
 21
-8099.57190784669
 31
0.0
  0
LINE
  5
6843A
330
18
100
AcDbEntity
  8
姿図
100
AcDbLine
 10
14124.88695871168
 20
-8094.200539695676
 30
0.0
 11
14122.64288310099
 21
-8094.599213636147
 31
0.0
  0
LINE
  5
6843B
330
18
100
AcDbEntity
  8
姿図
100
AcDbLine
 10
14124.88695871168
 20
-8092.98758203155
 30
0.0
 11
14121.53639956463
 21
-8093.582829629971
 31
0.0
  0
LINE
  5
6843C
330
18
100
AcDbEntity
  8
姿図
100
AcDbLine
 10
14140.38516148144
 20
-8096.213436293749
 30
0.0
 11
14140.38516148143
 21
-8042.607214864218
 31
0.0
  0
LINE
  5
6843D
330
18
100
AcDbEntity
  8
姿図
100
AcDbLine
 10
14332.77565240491
 20
-8208.01112860149
 30
0.0
 11
14343.6824487905
 21
-8217.28101465093
 31
0.0
  0
LINE
  5
6843E
330
18
100
AcDbEntity
  8
姿図
100
AcDbLine
 10
14314.79493910047
 20
-8327.241304348003
 30
0.0
 11
14346.01219717717
 21
-8321.695364973739
 31
0.0
  0
LINE
  5
6843F
330
18
100
AcDbEntity
  8
姿図
100
AcDbLine
 10
14181.09436329073
 20
-8350.9940402841
 30
0.0
 11
14215.2702631904
 21
-8344.922479853047
 31
0.0
  0
LINE
  5
68440
330
18
100
AcDbEntity
  8
姿図
100
AcDbLine
 10
14220.92280195737
 20
-8349.721765197504
 30
0.0
 11
14236.68238278599
 21
-8346.92197798927
 31
0.0
  0
LINE
  5
68441
330
18
100
AcDbEntity
  8
姿図
100
AcDbLine
 10
14236.68238278599
 20
-8344.161860420298
 30
0.0
 11
14236.68238278599
 21
-8346.92197798927
 31
0.0
  0
LINE
  5
68442
330
18
100
AcDbEntity
  8
姿図
100
AcDbLine
 10
14180.29554381188
 20
-8247.35770391789
 30
0.0
 11
14192.97910712555
 21
-8245.104390285589
 31
0.0
  0
LINE
  5
68443
330
18
100
AcDbEntity
  8
姿図
100
AcDbLine
 10
14180.29554381188
 20
-8247.35770391789
 30
0.0
 11
14180.29554381188
 21
-8296.286641679668
 31
0.0
  0
LINE
  5
68444
330
18
100
AcDbEntity
  8
姿図
100
AcDbLine
 10
14195.81330910501
 20
-8309.461992901526
 30
0.0
 11
14195.81330910501
 21
-8247.513230467608
 31
0.0
  0
LINE
  5
68445
330
18
100
AcDbEntity
  8
姿図
100
AcDbLine
 10
14195.29554381188
 20
-8309.02238452631
 30
0.0
 11
14195.29554381188
 21
-8247.073172260047
 31
0.0
  0
LINE
  5
68446
330
18
100
AcDbEntity
  8
姿図
100
AcDbLine
 10
14314.79493910047
 20
-8333.044798237474
 30
0.0
 11
14299.62027397311
 21
-8335.740671546213
 31
0.0
  0
LINE
  5
68447
330
18
100
AcDbEntity
  8
姿図
100
AcDbLine
 10
14314.79493910047
 20
-8325.82105834189
 30
0.0
 11
14314.79493910047
 21
-8333.044798237474
 31
0.0
  0
LINE
  5
68448
330
18
100
AcDbEntity
  8
姿図
100
AcDbLine
 10
14332.77565240491
 20
-8208.01112860149
 30
0.0
 11
14329.94319625407
 21
-8208.340836277875
 31
0.0
  0
LINE
  5
68449
330
18
100
AcDbEntity
  8
姿図
100
AcDbLine
 10
14332.77565240491
 20
-8259.729638926246
 30
0.0
 11
14332.77565240491
 21
-8208.011128601493
 31
0.0
  0
LINE
  5
6844A
330
18
100
AcDbEntity
  8
姿図
100
AcDbLine
 10
14346.01219717717
 20
-8321.695364973739
 30
0.0
 11
14346.01219717717
 21
-8318.935247404765
 31
0.0
  0
LINE
  5
6844B
330
18
100
AcDbEntity
  8
姿図
100
AcDbLine
 10
14343.6824487905
 20
-8217.281014650931
 30
0.0
 11
14343.6824487905
 21
-8268.99952497569
 31
0.0
  0
LINE
  5
6844C
330
18
100
AcDbEntity
  8
姿図
100
AcDbLine
 10
14346.01219717717
 20
-8273.009488600574
 30
0.0
 11
14344.95565362963
 21
-8273.009488600574
 31
0.0
  0
LINE
  5
6844D
330
18
100
AcDbEntity
  8
姿図
100
AcDbLine
 10
14346.01219717717
 20
-8273.009488600574
 30
0.0
 11
14346.01219717717
 21
-8270.979620808122
 31
0.0
  0
LINE
  5
6844E
330
18
100
AcDbEntity
  8
姿図
100
AcDbLine
 10
14343.6824487905
 20
-8272.015477681258
 30
0.0
 11
14343.6824487905
 21
-8277.077234217015
 31
0.0
  0
LINE
  5
6844F
330
18
100
AcDbEntity
  8
姿図
100
AcDbLine
 10
14346.01219717717
 20
-8313.04863080666
 30
0.0
 11
14346.01219717717
 21
-8311.272496488264
 31
0.0
  0
LINE
  5
68450
330
18
100
AcDbEntity
  8
姿図
100
AcDbLine
 10
14343.6824487905
 20
-8312.149185182809
 30
0.0
 11
14343.6824487905
 21
-8317.1163764231
 31
0.0
  0
LINE
  5
68451
330
18
100
AcDbEntity
  8
姿図
100
AcDbLine
 10
14346.01219717717
 20
-8313.04863080666
 30
0.0
 11
14344.83452720188
 21
-8313.04863080666
 31
0.0
  0
LINE
  5
68452
330
18
100
AcDbEntity
  8
姿図
100
AcDbLine
 10
14346.01219717717
 20
-8285.137948660466
 30
0.0
 11
14344.193430946
 21
-8286.91505120785
 31
0.0
  0
LINE
  5
68453
330
18
100
AcDbEntity
  8
姿図
100
AcDbLine
 10
14346.01219717717
 20
-8280.92597299113
 30
0.0
 11
14344.71426940999
 21
-8281.067071238105
 31
0.0
  0
LINE
  5
68454
330
18
100
AcDbEntity
  8
姿図
100
AcDbLine
 10
14346.01219717717
 20
-8290.009631362345
 30
0.0
 11
14344.193430946
 21
-8291.786733909732
 31
0.0
  0
LINE
  5
68455
330
18
100
AcDbEntity
  8
姿図
100
AcDbLine
 10
14344.71426940999
 20
-8281.067071238105
 30
0.0
 11
14344.71426940999
 21
-8282.449995236006
 31
0.0
  0
LINE
  5
68456
330
18
100
AcDbEntity
  8
姿図
100
AcDbLine
 10
14346.01219717717
 20
-8290.009631362345
 30
0.0
 11
14346.01219717717
 21
-8288.334990433576
 31
0.0
  0
LINE
  5
68457
330
18
100
AcDbEntity
  8
姿図
100
AcDbLine
 10
14346.01219717717
 20
-8285.137948660466
 30
0.0
 11
14346.01219717717
 21
-8283.463307731694
 31
0.0
  0
LINE
  5
68458
330
18
100
AcDbEntity
  8
姿図
100
AcDbLine
 10
14346.01219717717
 20
-8280.92597299113
 30
0.0
 11
14346.01219717717
 21
-8278.896105198679
 31
0.0
  0
LINE
  5
68459
330
18
100
AcDbEntity
  8
姿図
100
AcDbLine
 10
14346.01219717717
 20
-8294.881314064227
 30
0.0
 11
14344.193430946
 21
-8296.658416611614
 31
0.0
  0
LINE
  5
6845A
330
18
100
AcDbEntity
  8
姿図
100
AcDbLine
 10
14346.01219717717
 20
-8299.752996766108
 30
0.0
 11
14344.193430946
 21
-8301.530099313493
 31
0.0
  0
LINE
  5
6845B
330
18
100
AcDbEntity
  8
姿図
100
AcDbLine
 10
14346.01219717717
 20
-8304.624679467988
 30
0.0
 11
14344.193430946
 21
-8306.401782015375
 31
0.0
  0
LINE
  5
6845C
330
18
100
AcDbEntity
  8
姿図
100
AcDbLine
 10
14346.01219717717
 20
-8304.624679467988
 30
0.0
 11
14346.01219717717
 21
-8302.950038539218
 31
0.0
  0
LINE
  5
6845D
330
18
100
AcDbEntity
  8
姿図
100
AcDbLine
 10
14346.01219717717
 20
-8299.752996766108
 30
0.0
 11
14346.01219717717
 21
-8298.078355837337
 31
0.0
  0
LINE
  5
6845E
330
18
100
AcDbEntity
  8
姿図
100
AcDbLine
 10
14346.01219717717
 20
-8294.881314064227
 30
0.0
 11
14346.01219717717
 21
-8293.206673135455
 31
0.0
  0
LINE
  5
6845F
330
18
100
AcDbEntity
  8
姿図
100
AcDbLine
 10
14346.01219717717
 20
-8309.49636216987
 30
0.0
 11
14343.73718916148
 21
-8309.49636216987
 31
0.0
  0
LINE
  5
68460
330
18
100
AcDbEntity
  8
姿図
100
AcDbLine
 10
14346.01219717717
 20
-8309.49636216987
 30
0.0
 11
14346.01219717717
 21
-8307.821721241098
 31
0.0
  0
ENDSEC
  0
SECTION
  2
OBJECTS
  0
DICTIONARY
  5
C
330
0
100
AcDbDictionary
281
     1
  3
ACAD_GROUP
350
D
  3
ACAD_IMAGE_VARS
350
6884F
  3
ACAD_LAYOUT
350
40CB
  3
ACAD_MLINESTYLE
350
E
  3
ACAD_PLOTSETTINGS
350
40CC
  3
ACAD_PLOTSTYLENAME
350
40C9
  3
ACAD_SCALELIST
350
64E51
  3
AcadDim
350
FCCB
  3
AcDbVariableDictionary
350
6377
  3
APPDATA
350
6884E
  3
DWGPROPS
350
68872
  0
DICTIONARY
  5
64D7F
330
2
100
AcDbDictionary
280
     1
281
     1
  3
ACAD_LAYERSTATES
360
64D80
  0
DICTIONARY
  5
65CAE
330
F
100
AcDbDictionary
280
     1
281
     1
  3
ADSK_XREC_LAYER_RECONCILED
360
65CAF
  0
DICTIONARY
  5
65CB6
330
4C
100
AcDbDictionary
280
     1
281
     1
  3
ADSK_XREC_LAYER_RECONCILED
360
65CB7
  0
DICTIONARY
  5
65CB8
330
4D
100
AcDbDictionary
280
     1
281
     1
  3
ADSK_XREC_LAYER_RECONCILED
360
65CB9
  0
DICTIONARY
  5
65CBC
330
40D4
100
AcDbDictionary
280
     1
281
     1
  3
ADSK_XREC_LAYER_RECONCILED
360
65CBD
  0
DICTIONARY
  5
65CC2
330
64E19
100
AcDbDictionary
280
     1
281
     1
  3
ADSK_XREC_LAYER_RECONCILED
360
65CC3
  0
DICTIONARY
  5
9FD5
330
18
100
AcDbDictionary
280
     1
281
     1
  3
ACAD_SORTENTS
360
625EB
  0
DICTIONARY
  5
D
102
{ACAD_REACTORS
330
C
102
}
330
C
100
AcDbDictionary
281
     1
  0
RASTERVARIABLES
  5
6884F
102
{ACAD_REACTORS
330
C
102
}
330
C
100
AcDbRasterVariables
 90
        0
 70
     1
 71
     1
 72
     0
  0
DICTIONARY
  5
40CB
102
{ACAD_REACTORS
330
C
102
}
330
C
100
AcDbDictionary
281
     1
  3
Model
350
40CD
  3
ﾚｲｱｳﾄ1
350
40CE
  0
DICTIONARY
  5
E
102
{ACAD_REACTORS
330
C
102
}
330
C
100
AcDbDictionary
281
     1
  3
STANDARD
350
1B
  0
DICTIONARY
  5
40CC
102
{ACAD_REACTORS
330
C
102
}
330
C
100
AcDbDictionary
281
     1
  0
ACDBDICTIONARYWDFLT
  5
40C9
102
{ACAD_REACTORS
330
C
102
}
330
C
100
AcDbDictionary
281
     1
  3
Normal
350
40CA
100
AcDbDictionaryWithDefault
340
40CA
  0
DICTIONARY
  5
64E51
102
{ACAD_REACTORS
330
C
102
}
330
C
100
AcDbDictionary
281
     1
  3
A0
350
64E52
  3
A1
350
64E53
  3
A2
350
64E54
  3
A3
350
64E55
  3
A4
350
64E56
  3
A5
350
64E57
  3
A6
350
64E58
  3
A7
350
64E59
  3
A8
350
64E5A
  3
A9
350
64E5B
  3
B0
350
64E5C
  3
B1
350
64E5D
  3
B2
350
64E5E
  3
B3
350
64E5F
  3
B4
350
64E60
  3
B5
350
64E61
  3
B6
350
64E62
  3
B7
350
64E63
  3
B8
350
64E64
  3
B9
350
64E65
  3
C0
350
64E66
  3
C1
350
64E67
  3
C2
350
64E68
  3
C3
350
64E69
  3
C4
350
64E6A
  3
C5
350
64E6B
  3
C6
350
64E6C
  3
C7
350
64E6D
  3
C8
350
64E6E
  3
C9
350
64E6F
  3
D0
350
64E70
  3
D1
350
64E71
  3
D2
350
64E72
  0
XRECORD
  5
FCCB
102
{ACAD_REACTORS
330
C
102
}
330
C
100
AcDbXrecord
280
     1
 90
   990106
  3

 60
     0
 61
     0
 62
     1
 63
     3
 64
     0
 65
     0
 66
     0
 67
     3
 68
     1
 69
     0
 70
     0
 71
     0
 72
     0
 40
2.0
170
     0
  0
DICTIONARY
  5
6377
102
{ACAD_REACTORS
330
C
102
}
330
C
100
AcDbDictionary
281
     1
  3
DIMASSOC
350
73F2
  3
INDEXCTL
350
65CD7
  3
PROJECTNAME
350
61970
  3
SORTENTS
350
6378
  0
DICTIONARY
  5
6884E
102
{ACAD_REACTORS
330
C
102
}
330
C
100
AcDbDictionary
281
     1
  0
XRECORD
  5
68872
102
{ACAD_REACTORS
330
C
102
}
330
C
100
AcDbXrecord
280
     1
  1
DWGPROPS COOKIE
  2

  3

  4

  6

  7

  8
SPAX
  9

300
=
301
=
302
=
303
=
304
=
305
=
306
=
307
=
308
=
309
=
 40
0.0
 41
2449505.547222222
 42
2456822.117846852
  1

 90
        0
  0
DICTIONARY
  5
64D80
102
{ACAD_REACTORS
330
64D7F
102
}
330
64D7F
100
AcDbDictionary
281
     1
  0
XRECORD
  5
65CAF
102
{ACAD_REACTORS
330
65CAE
102
}
330
65CAE
100
AcDbXrecord
280
     1
290
     1
  0
XRECORD
  5
65CB7
102
{ACAD_REACTORS
330
65CB6
102
}
330
65CB6
100
AcDbXrecord
280
     1
290
     1
  0
XRECORD
  5
65CB9
102
{ACAD_REACTORS
330
65CB8
102
}
330
65CB8
100
AcDbXrecord
280
     1
290
     1
  0
XRECORD
  5
65CBD
102
{ACAD_REACTORS
330
65CBC
102
}
330
65CBC
100
AcDbXrecord
280
     1
290
     1
  0
XRECORD
  5
65CC3
102
{ACAD_REACTORS
330
65CC2
102
}
330
65CC2
100
AcDbXrecord
280
     1
290
     1
  0
SORTENTSTABLE
  5
625EB
102
{ACAD_REACTORS
330
9FD5
102
}
330
9FD5
100
AcDbSortentsTable
330
18
331
0
  5
444A0
  0
LAYOUT
  5
40CD
102
{ACAD_REACTORS
330
40CB
102
}
330
40CB
100
AcDbPlotSettings
  1

  2
JUST PDF 2.pc3
  4
A4
  6
CUT1
 40
3.174999952316284
 41
3.174999952316284
 42
3.175003051757812
 43
3.17498779296875
 44
209.8886566162109
 45
297.0530090332031
 46
14.27
 47
9.86
 48
13937.24528697271
 49
-7566.553700475487
140
15687.19747192177
141
-4856.626949088822
142
1.0
143
10.0
 70
 11940
 72
     1
 73
     0
 74
     4
  7
spax form.ctb
 75
     0
147
0.1
148
-13937.24528697271
149
7566.553700475487
100
AcDbLayout
  1
Model
 70
     1
 71
     0
 10
0.0
 20
0.0
 11
12.0
 21
9.0
 12
0.0
 22
0.0
 32
0.0
 14
13959.7820091902
 24
-8450.23812960124
 34
0.0
 15
14388.27680455524
 25
-8029.435008419012
 35
0.0
146
0.0
 13
0.0
 23
0.0
 33
0.0
 16
1.0
 26
0.0
 36
0.0
 17
0.0
 27
1.0
 37
0.0
 76
     0
330
18
331
67D79
1001
ACAD_PSEXT
1000
DWG To PDF.pc3
1000
PDF
1000
ファイル
1000

1070
     0
  0
LAYOUT
  5
40CE
102
{ACAD_REACTORS
330
40CB
102
}
330
40CB
100
AcDbPlotSettings
  1

  2
なし
  4

  6

 40
0.0
 41
0.0
 42
0.0
 43
0.0
 44
0.0
 45
0.0
 46
0.0
 47
0.0
 48
0.0
 49
0.0
140
0.0
141
0.0
142
1.0
143
1.0
 70
   688
 72
     0
 73
     0
 74
     5
  7
spax form.ctb
 75
    16
147
1.0
148
0.0
149
0.0
100
AcDbLayout
  1
ﾚｲｱｳﾄ1
 70
     0
 71
     1
 10
0.0
 20
0.0
 11
12.0
 21
9.0
 12
0.0
 22
0.0
 32
0.0
 14
1.000000000000000E+20
 24
1.000000000000000E+20
 34
1.000000000000000E+20
 15
-1.000000000000000E+20
 25
-1.000000000000000E+20
 35
-1.000000000000000E+20
146
0.0
 13
0.0
 23
0.0
 33
0.0
 16
1.0
 26
0.0
 36
0.0
 17
0.0
 27
1.0
 37
0.0
 76
     0
330
15
  0
MLINESTYLE
  5
1B
102
{ACAD_REACTORS
330
E
102
}
330
E
100
AcDbMlineStyle
  2
STANDARD
 70
     0
  3

 62
     0
 51
90.0
 52
90.0
 71
     2
 49
0.5
 62
   256
  6
BYLAYER
 49
-0.5
 62
   256
  6
BYLAYER
  0
ACDBPLACEHOLDER
  5
40CA
102
{ACAD_REACTORS
330
40C9
102
}
330
40C9
  0
SCALE
  5
64E52
102
{ACAD_REACTORS
330
64E51
102
}
330
64E51
100
AcDbScale
 70
     0
300
1:1
140
1.0
141
1.0
290
     1
1001
ACAD
1000
AcRTDxfName
1000
SCALE
1000
AcRTDxfName
1000
SCALE
  0
SCALE
  5
64E53
102
{ACAD_REACTORS
330
64E51
102
}
330
64E51
100
AcDbScale
 70
     0
300
1:2
140
1.0
141
2.0
290
     0
1001
ACAD
1000
AcRTDxfName
1000
SCALE
1000
AcRTDxfName
1000
SCALE
  0
SCALE
  5
64E54
102
{ACAD_REACTORS
330
64E51
102
}
330
64E51
100
AcDbScale
 70
     0
300
1:4
140
1.0
141
4.0
290
     0
1001
ACAD
1000
AcRTDxfName
1000
SCALE
1000
AcRTDxfName
1000
SCALE
  0
SCALE
  5
64E55
102
{ACAD_REACTORS
330
64E51
102
}
330
64E51
100
AcDbScale
 70
     0
300
1:5
140
1.0
141
5.0
290
     0
1001
ACAD
1000
AcRTDxfName
1000
SCALE
1000
AcRTDxfName
1000
SCALE
  0
SCALE
  5
64E56
102
{ACAD_REACTORS
330
64E51
102
}
330
64E51
100
AcDbScale
 70
     0
300
1:8
140
1.0
141
8.0
290
     0
1001
ACAD
1000
AcRTDxfName
1000
SCALE
1000
AcRTDxfName
1000
SCALE
  0
SCALE
  5
64E57
102
{ACAD_REACTORS
330
64E51
102
}
330
64E51
100
AcDbScale
 70
     0
300
1:10
140
1.0
141
10.0
290
     0
1001
ACAD
1000
AcRTDxfName
1000
SCALE
1000
AcRTDxfName
1000
SCALE
  0
SCALE
  5
64E58
102
{ACAD_REACTORS
330
64E51
102
}
330
64E51
100
AcDbScale
 70
     0
300
1:16
140
1.0
141
16.0
290
     0
1001
ACAD
1000
AcRTDxfName
1000
SCALE
1000
AcRTDxfName
1000
SCALE
  0
SCALE
  5
64E59
102
{ACAD_REACTORS
330
64E51
102
}
330
64E51
100
AcDbScale
 70
     0
300
1:20
140
1.0
141
20.0
290
     0
1001
ACAD
1000
AcRTDxfName
1000
SCALE
1000
AcRTDxfName
1000
SCALE
  0
SCALE
  5
64E5A
102
{ACAD_REACTORS
330
64E51
102
}
330
64E51
100
AcDbScale
 70
     0
300
1:30
140
1.0
141
30.0
290
     0
1001
ACAD
1000
AcRTDxfName
1000
SCALE
1000
AcRTDxfName
1000
SCALE
  0
SCALE
  5
64E5B
102
{ACAD_REACTORS
330
64E51
102
}
330
64E51
100
AcDbScale
 70
     0
300
1:40
140
1.0
141
40.0
290
     0
1001
ACAD
1000
AcRTDxfName
1000
SCALE
1000
AcRTDxfName
1000
SCALE
  0
SCALE
  5
64E5C
102
{ACAD_REACTORS
330
64E51
102
}
330
64E51
100
AcDbScale
 70
     0
300
1:50
140
1.0
141
50.0
290
     0
1001
ACAD
1000
AcRTDxfName
1000
SCALE
1000
AcRTDxfName
1000
SCALE
  0
SCALE
  5
64E5D
102
{ACAD_REACTORS
330
64E51
102
}
330
64E51
100
AcDbScale
 70
     0
300
1:100
140
1.0
141
100.0
290
     0
1001
ACAD
1000
AcRTDxfName
1000
SCALE
1000
AcRTDxfName
1000
SCALE
  0
SCALE
  5
64E5E
102
{ACAD_REACTORS
330
64E51
102
}
330
64E51
100
AcDbScale
 70
     0
300
2:1
140
2.0
141
1.0
290
     0
1001
ACAD
1000
AcRTDxfName
1000
SCALE
1000
AcRTDxfName
1000
SCALE
  0
SCALE
  5
64E5F
102
{ACAD_REACTORS
330
64E51
102
}
330
64E51
100
AcDbScale
 70
     0
300
4:1
140
4.0
141
1.0
290
     0
1001
ACAD
1000
AcRTDxfName
1000
SCALE
1000
AcRTDxfName
1000
SCALE
  0
SCALE
  5
64E60
102
{ACAD_REACTORS
330
64E51
102
}
330
64E51
100
AcDbScale
 70
     0
300
8:1
140
8.0
141
1.0
290
     0
1001
ACAD
1000
AcRTDxfName
1000
SCALE
1000
AcRTDxfName
1000
SCALE
  0
SCALE
  5
64E61
102
{ACAD_REACTORS
330
64E51
102
}
330
64E51
100
AcDbScale
 70
     0
300
10:1
140
10.0
141
1.0
290
     0
1001
ACAD
1000
AcRTDxfName
1000
SCALE
1000
AcRTDxfName
1000
SCALE
  0
SCALE
  5
64E62
102
{ACAD_REACTORS
330
64E51
102
}
330
64E51
100
AcDbScale
 70
     0
300
100:1
140
100.0
141
1.0
290
     0
1001
ACAD
1000
AcRTDxfName
1000
SCALE
1000
AcRTDxfName
1000
SCALE
  0
SCALE
  5
64E63
102
{ACAD_REACTORS
330
64E51
102
}
330
64E51
100
AcDbScale
 70
     0
300
1/128" = 1'-0"
140
0.0078125
141
12.0
290
     0
1001
ACAD
1000
AcRTDxfName
1000
SCALE
1000
AcRTDxfName
1000
SCALE
  0
SCALE
  5
64E64
102
{ACAD_REACTORS
330
64E51
102
}
330
64E51
100
AcDbScale
 70
     0
300
1/64" = 1'-0"
140
0.015625
141
12.0
290
     0
1001
ACAD
1000
AcRTDxfName
1000
SCALE
1000
AcRTDxfName
1000
SCALE
  0
SCALE
  5
64E65
102
{ACAD_REACTORS
330
64E51
102
}
330
64E51
100
AcDbScale
 70
     0
300
1/32" = 1'-0"
140
0.03125
141
12.0
290
     0
1001
ACAD
1000
AcRTDxfName
1000
SCALE
1000
AcRTDxfName
1000
SCALE
  0
SCALE
  5
64E66
102
{ACAD_REACTORS
330
64E51
102
}
330
64E51
100
AcDbScale
 70
     0
300
1/16" = 1'-0"
140
0.0625
141
12.0
290
     0
1001
ACAD
1000
AcRTDxfName
1000
SCALE
1000
AcRTDxfName
1000
SCALE
  0
SCALE
  5
64E67
102
{ACAD_REACTORS
330
64E51
102
}
330
64E51
100
AcDbScale
 70
     0
300
3/32" = 1'-0"
140
0.09375
141
12.0
290
     0
1001
ACAD
1000
AcRTDxfName
1000
SCALE
1000
AcRTDxfName
1000
SCALE
  0
SCALE
  5
64E68
102
{ACAD_REACTORS
330
64E51
102
}
330
64E51
100
AcDbScale
 70
     0
300
1/8" = 1'-0"
140
0.125
141
12.0
290
     0
1001
ACAD
1000
AcRTDxfName
1000
SCALE
1000
AcRTDxfName
1000
SCALE
  0
SCALE
  5
64E69
102
{ACAD_REACTORS
330
64E51
102
}
330
64E51
100
AcDbScale
 70
     0
300
3/16" = 1'-0"
140
0.1875
141
12.0
290
     0
1001
ACAD
1000
AcRTDxfName
1000
SCALE
1000
AcRTDxfName
1000
SCALE
  0
SCALE
  5
64E6A
102
{ACAD_REACTORS
330
64E51
102
}
330
64E51
100
AcDbScale
 70
     0
300
1/4" = 1'-0"
140
0.25
141
12.0
290
     0
1001
ACAD
1000
AcRTDxfName
1000
SCALE
1000
AcRTDxfName
1000
SCALE
  0
SCALE
  5
64E6B
102
{ACAD_REACTORS
330
64E51
102
}
330
64E51
100
AcDbScale
 70
     0
300
3/8" = 1'-0"
140
0.375
141
12.0
290
     0
1001
ACAD
1000
AcRTDxfName
1000
SCALE
1000
AcRTDxfName
1000
SCALE
  0
SCALE
  5
64E6C
102
{ACAD_REACTORS
330
64E51
102
}
330
64E51
100
AcDbScale
 70
     0
300
1/2" = 1'-0"
140
0.5
141
12.0
290
     0
1001
ACAD
1000
AcRTDxfName
1000
SCALE
1000
AcRTDxfName
1000
SCALE
  0
SCALE
  5
64E6D
102
{ACAD_REACTORS
330
64E51
102
}
330
64E51
100
AcDbScale
 70
     0
300
3/4" = 1'-0"
140
0.75
141
12.0
290
     0
1001
ACAD
1000
AcRTDxfName
1000
SCALE
1000
AcRTDxfName
1000
SCALE
  0
SCALE
  5
64E6E
102
{ACAD_REACTORS
330
64E51
102
}
330
64E51
100
AcDbScale
 70
     0
300
1" = 1'-0"
140
1.0
141
12.0
290
     0
1001
ACAD
1000
AcRTDxfName
1000
SCALE
1000
AcRTDxfName
1000
SCALE
  0
SCALE
  5
64E6F
102
{ACAD_REACTORS
330
64E51
102
}
330
64E51
100
AcDbScale
 70
     0
300
1-1/2" = 1'-0"
140
1.5
141
12.0
290
     0
1001
ACAD
1000
AcRTDxfName
1000
SCALE
1000
AcRTDxfName
1000
SCALE
  0
SCALE
  5
64E70
102
{ACAD_REACTORS
330
64E51
102
}
330
64E51
100
AcDbScale
 70
     0
300
3" = 1'-0"
140
3.0
141
12.0
290
     0
1001
ACAD
1000
AcRTDxfName
1000
SCALE
1000
AcRTDxfName
1000
SCALE
  0
SCALE
  5
64E71
102
{ACAD_REACTORS
330
64E51
102
}
330
64E51
100
AcDbScale
 70
     0
300
6" = 1'-0"
140
6.0
141
12.0
290
     0
1001
ACAD
1000
AcRTDxfName
1000
SCALE
1000
AcRTDxfName
1000
SCALE
  0
SCALE
  5
64E72
102
{ACAD_REACTORS
330
64E51
102
}
330
64E51
100
AcDbScale
 70
     0
300
1'-0" = 1'-0"
140
12.0
141
12.0
290
     0
1001
ACAD
1000
AcRTDxfName
1000
SCALE
1000
AcRTDxfName
1000
SCALE
  0
DICTIONARYVAR
  5
73F2
102
{ACAD_REACTORS
330
6377
102
}
330
6377
100
DictionaryVariables
280
     0
  1
1
  0
DICTIONARYVAR
  5
65CD7
102
{ACAD_REACTORS
330
6377
102
}
330
6377
100
DictionaryVariables
280
     0
  1
0
  0
DICTIONARYVAR
  5
61970
102
{ACAD_REACTORS
330
6377
102
}
330
6377
100
DictionaryVariables
280
     0
  1

  0
DICTIONARYVAR
  5
6378
102
{ACAD_REACTORS
330
6377
102
}
330
6377
100
DictionaryVariables
280
     0
  1
127
  0
ENDSEC
  0
EOF
