  0
SECTION
  2
HEADER
  9
$ACADVER
  1
AC1015
  9
$ACADMAINTVER
 70
     6
  9
$DWGCODEPAGE
  3
ANSI_932
  9
$INSBASE
 10
0.0
 20
0.0
 30
0.0
  9
$EXTMIN
 10
7149.069432007858
 20
-8537.200834662148
 30
0.0
  9
$EXTMAX
 10
7529.031432007859
 20
-8224.470308324839
 30
0.0
  9
$LIMMIN
 10
0.0
 20
0.0
  9
$LIMMAX
 10
840.0
 20
594.0
  9
$ORTHOMODE
 70
     1
  9
$REGENMODE
 70
     1
  9
$FILLMODE
 70
     1
  9
$QTEXTMODE
 70
     0
  9
$MIRRTEXT
 70
     1
  9
$LTSCALE
 40
7.0
  9
$ATTMODE
 70
     0
  9
$TEXTSIZE
 40
6.0
  9
$TRACEWID
 40
1.0
  9
$TEXTSTYLE
  7
STANDARD
  9
$CLAYER
  8
寸法線
  9
$CELTYPE
  6
BYLAYER
  9
$CECOLOR
 62
   256
  9
$CELTSCALE
 40
1.0
  9
$DISPSILH
 70
     0
  9
$DIMSCALE
 40
1.0
  9
$DIMASZ
 40
10.0
  9
$DIMEXO
 40
3.0
  9
$DIMDLI
 40
7.149999999999999
  9
$DIMRND
 40
0.0
  9
$DIMDLE
 40
0.0
  9
$DIMEXE
 40
2.0
  9
$DIMTP
 40
0.0
  9
$DIMTM
 40
0.0
  9
$DIMTXT
 40
18.0
  9
$DIMCEN
 40
0.0
  9
$DIMTSZ
 40
0.0
  9
$DIMTOL
 70
     0
  9
$DIMLIM
 70
     0
  9
$DIMTIH
 70
     0
  9
$DIMTOH
 70
     0
  9
$DIMSE1
 70
     0
  9
$DIMSE2
 70
     0
  9
$DIMTAD
 70
     3
  9
$DIMZIN
 70
     8
  9
$DIMBLK
  1
OPEN
  9
$DIMASO
 70
     1
  9
$DIMSHO
 70
     0
  9
$DIMPOST
  1

  9
$DIMAPOST
  1

  9
$DIMALT
 70
     0
  9
$DIMALTD
 70
     2
  9
$DIMALTF
 40
25.4
  9
$DIMLFAC
 40
1.0
  9
$DIMTOFL
 70
     0
  9
$DIMTVP
 40
0.0
  9
$DIMTIX
 70
     0
  9
$DIMSOXD
 70
     0
  9
$DIMSAH
 70
     0
  9
$DIMBLK1
  1

  9
$DIMBLK2
  1

  9
$DIMSTYLE
  2
STANDARD
  9
$DIMCLRD
 70
     8
  9
$DIMCLRE
 70
     8
  9
$DIMCLRT
 70
     0
  9
$DIMTFAC
 40
1.0
  9
$DIMGAP
 40
4.0
  9
$DIMJUST
 70
     0
  9
$DIMSD1
 70
     0
  9
$DIMSD2
 70
     0
  9
$DIMTOLJ
 70
     1
  9
$DIMTZIN
 70
     0
  9
$DIMALTZ
 70
     0
  9
$DIMALTTZ
 70
     0
  9
$DIMUPT
 70
     1
  9
$DIMDEC
 70
     2
  9
$DIMTDEC
 70
     2
  9
$DIMALTU
 70
     2
  9
$DIMALTTD
 70
     2
  9
$DIMTXSTY
  7
STANDARD
  9
$DIMAUNIT
 70
     0
  9
$DIMADEC
 70
     2
  9
$DIMALTRND
 40
0.0
  9
$DIMAZIN
 70
     2
  9
$DIMDSEP
 70
    46
  9
$DIMATFIT
 70
     3
  9
$DIMFRAC
 70
     0
  9
$DIMLDRBLK
  1
OPEN
  9
$DIMLUNIT
 70
     2
  9
$DIMLWD
 70
    -2
  9
$DIMLWE
 70
    -2
  9
$DIMTMOVE
 70
     0
  9
$LUNITS
 70
     2
  9
$LUPREC
 70
     2
  9
$SKETCHINC
 40
0.1
  9
$FILLETRAD
 40
0.6
  9
$AUNITS
 70
     0
  9
$AUPREC
 70
     2
  9
$MENU
  1
ACAD
  9
$ELEVATION
 40
0.0
  9
$PELEVATION
 40
0.0
  9
$THICKNESS
 40
0.0
  9
$LIMCHECK
 70
     0
  9
$CHAMFERA
 40
0.0
  9
$CHAMFERB
 40
0.0
  9
$CHAMFERC
 40
0.0
  9
$CHAMFERD
 40
0.0
  9
$SKPOLY
 70
     0
  9
$TDCREATE
 40
2449505.922222222
  9
$TDUCREATE
 40
2449505.547222222
  9
$TDUPDATE
 40
2456822.492295127
  9
$TDUUPDATE
 40
2456822.117295127
  9
$TDINDWG
 40
2.5867119444
  9
$TDUSRTIMER
 40
2456822.117154167
  9
$USRTIMER
 70
     1
  9
$ANGBASE
 50
0.0
  9
$ANGDIR
 70
     0
  9
$PDMODE
 70
     3
  9
$PDSIZE
 40
0.0
  9
$PLINEWID
 40
0.0
  9
$SPLFRAME
 70
     0
  9
$SPLINETYPE
 70
     6
  9
$SPLINESEGS
 70
     8
  9
$HANDSEED
  5
69754
  9
$SURFTAB1
 70
     6
  9
$SURFTAB2
 70
     6
  9
$SURFTYPE
 70
     6
  9
$SURFU
 70
     6
  9
$SURFV
 70
     6
  9
$UCSBASE
  2

  9
$UCSNAME
  2

  9
$UCSORG
 10
0.0
 20
0.0
 30
0.0
  9
$UCSXDIR
 10
1.0
 20
0.0
 30
0.0
  9
$UCSYDIR
 10
0.0
 20
1.0
 30
0.0
  9
$UCSORTHOREF
  2

  9
$UCSORTHOVIEW
 70
     0
  9
$UCSORGTOP
 10
0.0
 20
0.0
 30
0.0
  9
$UCSORGBOTTOM
 10
0.0
 20
0.0
 30
0.0
  9
$UCSORGLEFT
 10
0.0
 20
0.0
 30
0.0
  9
$UCSORGRIGHT
 10
0.0
 20
0.0
 30
0.0
  9
$UCSORGFRONT
 10
0.0
 20
0.0
 30
0.0
  9
$UCSORGBACK
 10
0.0
 20
0.0
 30
0.0
  9
$PUCSBASE
  2

  9
$PUCSNAME
  2

  9
$PUCSORG
 10
0.0
 20
0.0
 30
0.0
  9
$PUCSXDIR
 10
1.0
 20
0.0
 30
0.0
  9
$PUCSYDIR
 10
0.0
 20
1.0
 30
0.0
  9
$PUCSORTHOREF
  2

  9
$PUCSORTHOVIEW
 70
     0
  9
$PUCSORGTOP
 10
0.0
 20
0.0
 30
0.0
  9
$PUCSORGBOTTOM
 10
0.0
 20
0.0
 30
0.0
  9
$PUCSORGLEFT
 10
0.0
 20
0.0
 30
0.0
  9
$PUCSORGRIGHT
 10
0.0
 20
0.0
 30
0.0
  9
$PUCSORGFRONT
 10
0.0
 20
0.0
 30
0.0
  9
$PUCSORGBACK
 10
0.0
 20
0.0
 30
0.0
  9
$USERI1
 70
     0
  9
$USERI2
 70
     0
  9
$USERI3
 70
     0
  9
$USERI4
 70
     0
  9
$USERI5
 70
     0
  9
$USERR1
 40
0.0
  9
$USERR2
 40
0.0
  9
$USERR3
 40
0.0
  9
$USERR4
 40
0.0
  9
$USERR5
 40
0.0
  9
$WORLDVIEW
 70
     0
  9
$SHADEDGE
 70
     3
  9
$SHADEDIF
 70
    70
  9
$TILEMODE
 70
     1
  9
$MAXACTVP
 70
    16
  9
$PINSBASE
 10
0.0
 20
0.0
 30
0.0
  9
$PLIMCHECK
 70
     0
  9
$PEXTMIN
 10
1.000000000000000E+20
 20
1.000000000000000E+20
 30
1.000000000000000E+20
  9
$PEXTMAX
 10
-1.000000000000000E+20
 20
-1.000000000000000E+20
 30
-1.000000000000000E+20
  9
$PLIMMIN
 10
0.0
 20
0.0
  9
$PLIMMAX
 10
0.0
 20
0.0
  9
$UNITMODE
 70
     0
  9
$VISRETAIN
 70
     0
  9
$PLINEGEN
 70
     0
  9
$PSLTSCALE
 70
     0
  9
$TREEDEPTH
 70
  3020
  9
$CMLSTYLE
  2
STANDARD
  9
$CMLJUST
 70
     0
  9
$CMLSCALE
 40
1.0
  9
$PROXYGRAPHICS
 70
     1
  9
$MEASUREMENT
 70
     0
  9
$CELWEIGHT
370
    -1
  9
$ENDCAPS
280
     0
  9
$JOINSTYLE
280
     0
  9
$LWDISPLAY
290
     0
  9
$INSUNITS
 70
     0
  9
$HYPERLINKBASE
  1

  9
$STYLESHEET
  1
spax form.ctb
  9
$XEDIT
290
     1
  9
$CEPSNTYPE
380
     0
  9
$PSTYLEMODE
290
     1
  9
$FINGERPRINTGUID
  2
{C1CFCF3E-DF91-11D3-B30C-0060B0FA8DFC}
  9
$VERSIONGUID
  2
{14E92594-484D-47BB-9E25-762C9D6CBD4D}
  9
$EXTNAMES
290
     1
  9
$PSVPSCALE
 40
0.0
  9
$OLESTARTUP
290
     0
  0
ENDSEC
  0
SECTION
  2
CLASSES
  0
CLASS
  1
LWPOLYLINE
  2
AcDbPolyline
  3
ObjectDBX Classes
 90
        0
280
     0
281
     1
  0
CLASS
  1
ACDBDICTIONARYWDFLT
  2
AcDbDictionaryWithDefault
  3
ObjectDBX Classes
 90
        0
280
     0
281
     0
  0
CLASS
  1
ACDBPLACEHOLDER
  2
AcDbPlaceHolder
  3
ObjectDBX Classes
 90
        0
280
     0
281
     0
  0
CLASS
  1
LAYOUT
  2
AcDbLayout
  3
ObjectDBX Classes
 90
        0
280
     0
281
     0
  0
CLASS
  1
DICTIONARYVAR
  2
AcDbDictionaryVar
  3
ObjectDBX Classes
 90
        0
280
     0
281
     0
  0
CLASS
  1
LONG_TRANSACTION
  2
AcDbLongTransaction
  3
ObjectDBX Classes
 90
        0
280
     0
281
     0
  0
CLASS
  1
LWPOLYLINE
  2
AcDbPolyline
  3
ObjectDBX Classes
 90
        0
280
     0
281
     1
  0
CLASS
  1
HATCH
  2
AcDbHatch
  3
ObjectDBX Classes
 90
        0
280
     0
281
     1
  0
CLASS
  1
XRECORD
  2
AcDbXrecord
  3
ObjectDBX Classes
 90
        0
280
     0
281
     0
  0
CLASS
  1
SORTENTSTABLE
  2
AcDbSortentsTable
  3
ObjectDBX Classes
 90
        0
280
     0
281
     0
  0
CLASS
  1
MATERIAL
  2
AcDbMaterial
  3
ObjectDBX Classes
 90
     1153
280
     0
281
     0
  0
CLASS
  1
VISUALSTYLE
  2
AcDbVisualStyle
  3
ObjectDBX Classes
 90
     4095
280
     0
281
     0
  0
CLASS
  1
TABLESTYLE
  2
AcDbTableStyle
  3
ObjectDBX Classes
 90
     4095
280
     0
281
     0
  0
CLASS
  1
SCALE
  2
AcDbScale
  3
ObjectDBX Classes
 90
     1153
280
     0
281
     0
  0
CLASS
  1
MLEADERSTYLE
  2
AcDbMLeaderStyle
  3
ACDB_MLEADERSTYLE_CLASS
 90
     4095
280
     0
281
     0
  0
CLASS
  1
CELLSTYLEMAP
  2
AcDbCellStyleMap
  3
ObjectDBX Classes
 90
     1152
280
     0
281
     0
  0
CLASS
  1
RASTERVARIABLES
  2
AcDbRasterVariables
  3
ISM
 90
        0
280
     0
281
     0
  0
CLASS
  1
SUN
  2
AcDbSun
  3
SCENEOE
 90
     1153
280
     0
281
     0
  0
ENDSEC
  0
SECTION
  2
TABLES
  0
TABLE
  2
VPORT
  5
8
330
0
100
AcDbSymbolTable
 70
     1
  0
VPORT
  5
68C57
330
8
100
AcDbSymbolTableRecord
100
AcDbViewportTableRecord
  2
*Active
 70
     0
 10
0.0
 20
0.0
 11
1.0
 21
1.0
 12
7339.050432007858
 22
-8380.835571493493
 13
0.0
 23
0.0
 14
1.0
 24
1.0
 15
20.0
 25
20.0
 16
0.0
 26
0.0
 36
1.0
 17
0.0
 27
0.0
 37
0.0
 40
318.9851368640553
 41
2.027568922305764
 42
50.0
 43
0.0
 44
0.0
 50
0.0
 51
0.0
 71
    16
 72
  2000
 73
     1
 74
     0
 75
     0
 76
     0
 77
     0
 78
     1
281
     0
 65
     1
110
0.0
120
0.0
130
0.0
111
1.0
121
0.0
131
0.0
112
0.0
122
1.0
132
0.0
 79
     0
146
0.0
  0
ENDTAB
  0
TABLE
  2
LTYPE
  5
5
330
0
100
AcDbSymbolTable
 70
     5
  0
LTYPE
  5
12
330
5
100
AcDbSymbolTableRecord
100
AcDbLinetypeTableRecord
  2
BYBLOCK
 70
     0
  3

 72
    65
 73
     0
 40
0.0
  0
LTYPE
  5
13
330
5
100
AcDbSymbolTableRecord
100
AcDbLinetypeTableRecord
  2
BYLAYER
 70
     0
  3

 72
    65
 73
     0
 40
0.0
  0
LTYPE
  5
14
330
5
100
AcDbSymbolTableRecord
100
AcDbLinetypeTableRecord
  2
CONTINUOUS
 70
     0
  3
Solid line
 72
    65
 73
     0
 40
0.0
  0
LTYPE
  5
3D
330
5
100
AcDbSymbolTableRecord
100
AcDbLinetypeTableRecord
  2
PHANTOM
 70
     0
  3
_____ _ _ _____ _ _ _____ _ _ _____ _ _ ____
 72
    65
 73
     6
 40
2.5
 49
1.25
 74
     0
 49
-0.25
 74
     0
 49
0.25
 74
     0
 49
-0.25
 74
     0
 49
0.25
 74
     0
 49
-0.25
 74
     0
  0
LTYPE
  5
40D2
330
5
100
AcDbSymbolTableRecord
100
AcDbLinetypeTableRecord
  2
CENTER
 70
     0
  3
____ _ ____ _ ____ _ ____ _ ____ _ ____ _ ____ 
 72
    65
 73
     4
 40
2.0
 49
1.25
 74
     0
 49
-0.25
 74
     0
 49
0.25
 74
     0
 49
-0.25
 74
     0
  0
LTYPE
  5
A244
330
5
100
AcDbSymbolTableRecord
100
AcDbLinetypeTableRecord
  2
HIDDEN
 70
     0
  3
_ _ _ _ _ _ _ _ _ _ _ _ _ _ _ _ _ _ _ _ _ _ _
 72
    65
 73
     2
 40
0.375
 49
0.25
 74
     0
 49
-0.125
 74
     0
  0
ENDTAB
  0
TABLE
  2
LAYER
  5
2
102
{ACAD_XDICTIONARY
360
6479D
102
}
330
0
100
AcDbSymbolTable
 70
    12
  0
LAYER
  5
F
102
{ACAD_XDICTIONARY
360
66C54
102
}
330
2
100
AcDbSymbolTableRecord
100
AcDbLayerTableRecord
  2
0
 70
     0
 62
     7
  6
CONTINUOUS
370
    -3
390
40CA
  0
LAYER
  5
4C
102
{ACAD_XDICTIONARY
360
66C5C
102
}
330
2
100
AcDbSymbolTableRecord
100
AcDbLayerTableRecord
  2
寸法線
 70
     0
 62
     7
  6
CONTINUOUS
370
    -3
390
40CA
  0
LAYER
  5
4D
102
{ACAD_XDICTIONARY
360
66C5E
102
}
330
2
100
AcDbSymbolTableRecord
100
AcDbLayerTableRecord
  2
姿図
 70
     0
 62
     8
  6
CONTINUOUS
370
    -3
390
40CA
  0
LAYER
  5
40D4
102
{ACAD_XDICTIONARY
360
66C62
102
}
330
2
100
AcDbSymbolTableRecord
100
AcDbLayerTableRecord
  2
文字
 70
     0
 62
     7
  6
CONTINUOUS
370
    -3
390
40CA
  0
LAYER
  5
65D31
102
{ACAD_XDICTIONARY
360
66C68
102
}
330
2
100
AcDbSymbolTableRecord
100
AcDbLayerTableRecord
  2
C-SUNPO
 70
     0
 62
     7
  6
CONTINUOUS
370
    -3
390
40CA
  0
ENDTAB
  0
TABLE
  2
STYLE
  5
3
330
0
100
AcDbSymbolTable
 70
     1
  0
STYLE
  5
10
330
3
100
AcDbSymbolTableRecord
100
AcDbTextStyleTableRecord
  2
STANDARD
 70
     0
 40
0.0
 41
1.0
 50
0.0
 71
     0
 42
6.0
  3
MONOTXT
  4
BIGFONT
  0
ENDTAB
  0
TABLE
  2
VIEW
  5
6
330
0
100
AcDbSymbolTable
 70
     1
  0
VIEW
  5
41
330
6
100
AcDbSymbolTableRecord
100
AcDbViewTableRecord
  2
CUT1
 70
     0
 40
612.7795527156796
 10
420.0000000000169
 20
306.3897763578398
 41
840.0000000000338
 11
0.0
 21
0.0
 31
1.0
 12
0.0
 22
0.0
 32
0.0
 42
50.0
 43
0.0
 44
0.0
 50
0.0
 71
     0
281
     0
 72
     0
  0
ENDTAB
  0
TABLE
  2
UCS
  5
7
330
0
100
AcDbSymbolTable
 70
     0
  0
ENDTAB
  0
TABLE
  2
APPID
  5
9
330
0
100
AcDbSymbolTable
 70
     6
  0
APPID
  5
11
330
9
100
AcDbSymbolTableRecord
100
AcDbRegAppTableRecord
  2
ACAD
 70
     0
  0
APPID
  5
65D8D
330
9
100
AcDbSymbolTableRecord
100
AcDbRegAppTableRecord
  2
ACAD_MLEADERVER
 70
     0
  0
APPID
  5
66881
330
9
100
AcDbSymbolTableRecord
100
AcDbRegAppTableRecord
  2
ACAD_EXEMPT_FROM_CAD_STANDARDS
 70
     0
  0
APPID
  5
6774D
330
9
100
AcDbSymbolTableRecord
100
AcDbRegAppTableRecord
  2
ACAD_PSEXT
 70
     0
  0
APPID
  5
696CB
330
9
100
AcDbSymbolTableRecord
100
AcDbRegAppTableRecord
  2
ACAD_DSTYLE_DIMJAG
 70
     0
  0
APPID
  5
696CC
330
9
100
AcDbSymbolTableRecord
100
AcDbRegAppTableRecord
  2
ACAD_DSTYLE_DIMTALN
 70
     0
  0
ENDTAB
  0
TABLE
  2
DIMSTYLE
  5
A
330
0
100
AcDbSymbolTable
 70
     5
100
AcDbDimStyleTable
  0
DIMSTYLE
105
1B3A
330
A
100
AcDbSymbolTableRecord
100
AcDbDimStyleTableRecord
  2
STANDARD
 70
     0
 41
10.0
 42
3.0
 43
7.149999999999999
 44
2.0
 73
     0
 74
     0
 77
     3
 78
     8
 79
     2
140
18.0
141
0.0
147
4.0
176
     8
177
     8
178
     0
179
     2
271
     2
272
     2
288
     1
340
10
341
49C3
342
49C3
  0
DIMSTYLE
105
A246
330
A
100
AcDbSymbolTableRecord
100
AcDbDimStyleTableRecord
  2
STANDERD
 70
     0
 40
0.0
 41
4.0
 42
1.5
 43
3.75
 44
1.25
 73
     0
 74
     0
 77
     3
 78
     8
140
5.0
141
0.0
147
2.5
171
     0
173
     1
178
     0
288
     1
340
10
341
49C3
343
49C3
344
49C3
  0
DIMSTYLE
105
65D32
330
A
100
AcDbSymbolTableRecord
100
AcDbDimStyleTableRecord
  2
STANDARD-5
 70
     0
 41
7.5
 42
7.5
 43
1.9
 44
5.0
 73
     0
 74
     0
 77
     1
 78
     8
 79
     2
140
8.0
141
0.0
147
3.0
171
     0
173
     1
176
     8
177
     8
271
     2
178
   256
179
     2
271
     2
272
     2
274
     0
340
10
341
49C3
343
49C3
344
49C3
  0
ENDTAB
  0
TABLE
  2
BLOCK_RECORD
  5
1
330
0
100
AcDbSymbolTable
 70
   148
  0
BLOCK_RECORD
  5
18
330
1
100
AcDbSymbolTableRecord
100
AcDbBlockTableRecord
  2
*MODEL_SPACE
340
40CD
  0
BLOCK_RECORD
  5
15
330
1
100
AcDbSymbolTableRecord
100
AcDbBlockTableRecord
  2
*PAPER_SPACE
340
40CE
  0
BLOCK_RECORD
  5
49C3
330
1
100
AcDbSymbolTableRecord
100
AcDbBlockTableRecord
  2
_OPEN
340
0
102
{BLKREFS
331
5BD3D
331
5BD3E
331
5BD46
331
5BD47
331
5BD6A
331
5BD6B
331
5BDE2
331
5BDE3
331
5BDEB
331
5BDEC
331
5BDF4
331
5BDF5
331
5BDFD
331
5BDFE
331
5BE06
331
5BE07
331
5BE0F
331
5BE10
331
62286
331
62287
331
6228F
331
62290
331
6229A
331
6229B
331
622B0
331
622B1
331
622CB
331
622CC
331
622D4
331
622D5
331
626E3
331
626E4
331
630F3
331
630F4
331
630FC
331
630FD
331
63105
331
63106
331
6310E
331
6310F
331
63117
331
63118
331
63120
331
63121
331
63129
331
6312A
331
63132
331
63133
331
6313D
331
6313E
331
63148
331
63149
331
63151
331
63152
331
6315A
331
6315B
331
63163
331
63164
331
6316C
331
6316D
331
63177
331
63178
331
63180
331
63181
331
63B7F
331
63B80
331
63B88
331
63B89
331
63B91
331
63B92
331
63B9A
331
63B9B
331
63BA3
331
63BA4
331
63BAC
331
63BAD
331
63BB5
331
63BB6
331
63BBE
331
63BBF
331
63BC9
331
63BCA
331
63BD2
331
63BD3
331
63BDB
331
63BDC
331
63BE4
331
63BE5
331
63BED
331
63BEE
331
63BF6
331
63BF7
331
63BFF
331
63C00
331
63C0C
331
63C0D
331
64636
331
64637
331
6463F
331
64640
331
64648
331
64649
331
64651
331
64652
331
6465C
331
6465D
331
64665
331
64666
331
64670
331
64671
331
64679
331
6467A
331
64682
331
64683
331
6468B
331
6468C
331
64694
331
64695
331
6469D
331
6469E
331
646A6
331
646A7
331
646AF
331
646B0
331
646B8
331
646B9
331
646C3
331
646C4
331
667FB
331
667FC
331
66804
331
66805
331
6680D
331
6680E
331
6681A
331
6681B
331
66823
331
66824
331
6682C
331
6682D
331
66835
331
66836
331
6683E
331
6683F
331
66847
331
66848
331
66850
331
66851
331
66859
331
6685A
331
66862
331
66863
331
6686B
331
6686C
331
66C3A
331
66C3B
331
66C45
331
66C46
331
66C4E
331
66C4F
331
6768C
331
6768D
331
67695
331
67696
331
6769E
331
6769F
331
676A7
331
676A8
331
676B0
331
676B1
331
676B9
331
676BA
331
676C2
331
676C3
331
676CB
331
676CC
331
676D6
331
676D7
331
676DF
331
676E0
331
676E8
331
676E9
331
676F1
331
676F2
331
676FA
331
676FB
331
67703
331
67704
331
6770C
331
6770D
331
67719
331
6771A
331
6812E
331
6812F
331
68137
331
68138
331
68142
331
68143
331
6814B
331
6814C
331
68154
331
68155
331
6815D
331
6815E
331
68166
331
68167
331
6816F
331
68170
331
68178
331
68179
331
68181
331
68182
331
6818C
331
6818D
331
68195
331
68196
331
6819E
331
6819F
331
681A7
331
681A8
331
681B0
331
681B1
331
681B9
331
681BA
331
68B95
331
68B96
331
68B9E
331
68B9F
331
68BA7
331
68BA8
331
68BB0
331
68BB1
331
68BB9
331
68BBA
331
68BC2
331
68BC3
331
68BCB
331
68BCC
331
68BD4
331
68BD5
331
68BDD
331
68BDE
331
68BE6
331
68BE7
331
68BF1
331
68BF2
331
68BFA
331
68BFB
331
68C03
331
68C04
331
68C10
331
68C11
331
68C19
331
68C1A
331
68C22
331
68C23
331
69627
331
69628
331
69630
331
69631
331
6963B
331
6963C
331
69644
331
69645
331
6964D
331
6964E
331
69656
331
69657
331
6965F
331
69660
331
69668
331
69669
331
69671
331
69672
331
6967A
331
6967B
331
69683
331
69684
331
6968C
331
6968D
331
69697
331
69698
331
696A0
331
696A1
331
696A9
331
696AA
331
696B2
331
696B3
102
}
  0
ENDTAB
  0
ENDSEC
  0
SECTION
  2
BLOCKS
  0
BLOCK
  5
52
330
18
100
AcDbEntity
  8
0
100
AcDbBlockBegin
  2
*MODEL_SPACE
 70
     0
 10
0.0
 20
0.0
 30
0.0
  3
*MODEL_SPACE
  1
*MODEL_SPACE
  0
ENDBLK
  5
53
330
18
100
AcDbEntity
  8
0
100
AcDbBlockEnd
  0
BLOCK
  5
50
330
15
100
AcDbEntity
 67
     1
  8
0
100
AcDbBlockBegin
  2
*PAPER_SPACE
 70
     0
 10
0.0
 20
0.0
 30
0.0
  3
*PAPER_SPACE
  1
*PAPER_SPACE
  0
ENDBLK
  5
51
330
15
100
AcDbEntity
 67
     1
  8
0
100
AcDbBlockEnd
  0
BLOCK
  5
49C7
330
49C3
100
AcDbEntity
  8
0
100
AcDbBlockBegin
  2
_OPEN
 70
     0
 10
0.0
 20
0.0
 30
0.0
  3
_OPEN
  1
_OPEN
  0
LINE
  5
49C4
330
49C3
100
AcDbEntity
  8
0
  6
ByBlock
 62
     0
100
AcDbLine
 10
-1.0
 20
0.1666666666666667
 30
0.0
 11
0.0
 21
0.0
 31
0.0
  0
LINE
  5
49C5
330
49C3
100
AcDbEntity
  8
0
  6
ByBlock
 62
     0
100
AcDbLine
 10
0.0
 20
0.0
 30
0.0
 11
-1.0
 21
-0.1666666666666667
 31
0.0
  0
LINE
  5
49C6
330
49C3
100
AcDbEntity
  8
0
  6
ByBlock
 62
     0
100
AcDbLine
 10
0.0
 20
0.0
 30
0.0
 11
-1.0
 21
0.0
 31
0.0
  0
ENDBLK
  5
49C8
330
49C3
100
AcDbEntity
  8
0
100
AcDbBlockEnd
  0
ENDSEC
  0
SECTION
  2
ENTITIES
  0
TEXT
  5
68FB1
330
18
100
AcDbEntity
  8
文字
100
AcDbText
 10
7149.069432007858
 20
-8537.200834662148
 30
0.0
 40
29.997
  1
SX-LB140S/300
100
AcDbText
  0
LINE
  5
68FBB
330
18
100
AcDbEntity
  8
姿図
100
AcDbLine
 10
7383.629127197037
 20
-8250.766390527344
 30
0.0
 11
7467.377505448252
 21
-8322.945671387512
 31
0.0
  0
LINE
  5
68FBC
330
18
100
AcDbEntity
  8
姿図
100
AcDbLine
 10
7480.614050220507
 20
-8412.970874621762
 30
0.0
 11
7368.130924427282
 21
-8317.36940543451
 31
0.0
  0
LINE
  5
68FBD
330
18
100
AcDbEntity
  8
姿図
100
AcDbLine
 10
7480.614050220507
 20
-8409.520099374597
 30
0.0
 11
7368.130924427282
 21
-8313.918630187345
 31
0.0
  0
LINE
  5
68FBE
330
18
100
AcDbEntity
  8
姿図
100
AcDbLine
 10
7480.614050220507
 20
-8404.648416672717
 30
0.0
 11
7368.130924427282
 21
-8309.046947485465
 31
0.0
  0
LINE
  5
68FBF
330
18
100
AcDbEntity
  8
姿図
100
AcDbLine
 10
7480.614050220507
 20
-8399.776733970835
 30
0.0
 11
7368.130924427282
 21
-8304.175264783584
 31
0.0
  0
LINE
  5
68FC0
330
18
100
AcDbEntity
  8
姿図
100
AcDbLine
 10
7480.614050220507
 20
-8394.905051268954
 30
0.0
 11
7368.130924427282
 21
-8299.303582081702
 31
0.0
  0
LINE
  5
68FC1
330
18
100
AcDbEntity
  8
姿図
100
AcDbLine
 10
7480.614050220507
 20
-8390.033368567074
 30
0.0
 11
7368.130924427282
 21
-8294.431899379822
 31
0.0
  0
LINE
  5
68FC2
330
18
100
AcDbEntity
  8
姿図
100
AcDbLine
 10
7480.614050220507
 20
-8385.161685865192
 30
0.0
 11
7368.130924427282
 21
-8289.56021667794
 31
0.0
  0
LINE
  5
68FC3
330
18
100
AcDbEntity
  8
姿図
100
AcDbLine
 10
7480.614050220507
 20
-8380.594483332177
 30
0.0
 11
7368.130924427282
 21
-8284.993014144926
 31
0.0
  0
LINE
  5
68FC4
330
18
100
AcDbEntity
  8
姿図
100
AcDbLine
 10
7480.614050220507
 20
-8411.19474030337
 30
0.0
 11
7368.130924427282
 21
-8315.593271116119
 31
0.0
  0
LINE
  5
68FC5
330
18
100
AcDbEntity
  8
姿図
100
AcDbLine
 10
7480.61405022051
 20
-8406.323057601488
 30
0.0
 11
7368.130924427283
 21
-8310.721588414237
 31
0.0
  0
LINE
  5
68FC6
330
18
100
AcDbEntity
  8
姿図
100
AcDbLine
 10
7480.61405022051
 20
-8401.451374899609
 30
0.0
 11
7368.130924427283
 21
-8305.849905712357
 31
0.0
  0
LINE
  5
68FC7
330
18
100
AcDbEntity
  8
姿図
100
AcDbLine
 10
7480.61405022051
 20
-8396.579692197727
 30
0.0
 11
7368.130924427283
 21
-8300.978223010476
 31
0.0
  0
LINE
  5
68FC8
330
18
100
AcDbEntity
  8
姿図
100
AcDbLine
 10
7480.61405022051
 20
-8391.708009495846
 30
0.0
 11
7368.130924427283
 21
-8296.106540308594
 31
0.0
  0
LINE
  5
68FC9
330
18
100
AcDbEntity
  8
姿図
100
AcDbLine
 10
7480.61405022051
 20
-8386.836326793966
 30
0.0
 11
7368.130924427283
 21
-8291.234857606714
 31
0.0
  0
LINE
  5
68FCA
330
18
100
AcDbEntity
  8
姿図
100
AcDbLine
 10
7480.61405022051
 20
-8382.62435112463
 30
0.0
 11
7368.130924427283
 21
-8287.022881937379
 31
0.0
  0
LINE
  5
68FCB
330
18
100
AcDbEntity
  8
姿図
100
AcDbLine
 10
7479.316122453329
 20
-8382.765449371605
 30
0.0
 11
7368.130924427282
 21
-8288.267112770387
 31
0.0
  0
LINE
  5
68FCC
330
18
100
AcDbEntity
  8
姿図
100
AcDbLine
 10
7479.436380245215
 20
-8414.747008940158
 30
0.0
 11
7368.130924427282
 21
-8320.146463038614
 31
0.0
  0
LINE
  5
68FCD
330
18
100
AcDbEntity
  8
姿図
100
AcDbLine
 10
7479.557506672967
 20
-8374.707866734072
 30
0.0
 11
7368.130924427283
 21
-8280.00437326267
 31
0.0
  0
LINE
  5
68FCE
330
18
100
AcDbEntity
  8
姿図
100
AcDbLine
 10
7480.614050220507
 20
-8374.707866734072
 30
0.0
 11
7368.130924427285
 21
-8279.10639754682
 31
0.0
  0
LINE
  5
68FCF
330
18
100
AcDbEntity
  8
姿図
100
AcDbLine
 10
7480.614050220507
 20
-8372.67799894162
 30
0.0
 11
7368.130924427282
 21
-8277.076529754368
 31
0.0
  0
LINE
  5
68FD0
330
18
100
AcDbEntity
  8
姿図
100
AcDbLine
 10
7479.464512513282
 20
-8402.574579384505
 30
0.0
 11
7368.130924427282
 21
-8307.950123352975
 31
0.0
  0
LINE
  5
68FD1
330
18
100
AcDbEntity
  8
姿図
100
AcDbLine
 10
7449.396792143818
 20
-8434.74317637097
 30
0.0
 11
7337.300839957727
 21
-8339.582664250478
 31
0.0
  0
LINE
  5
68FD2
330
18
100
AcDbEntity
  8
姿図
100
AcDbLine
 10
7449.396792143805
 20
-8427.519436475373
 30
0.0
 11
7337.300839957727
 21
-8332.358924354892
 31
0.0
  0
LINE
  5
68FD3
330
18
100
AcDbEntity
  8
姿図
100
AcDbLine
 10
7480.614050220507
 20
-8423.393743107237
 30
0.0
 11
7368.130924427282
 21
-8327.792273919986
 31
0.0
  0
LINE
  5
68FD4
330
18
100
AcDbEntity
  8
姿図
100
AcDbLine
 10
7480.614050220507
 20
-8420.633625538263
 30
0.0
 11
7368.130924427282
 21
-8325.032156351012
 31
0.0
  0
LINE
  5
68FD5
330
18
100
AcDbEntity
  8
姿図
100
AcDbLine
 10
7323.121135543392
 20
-8343.012281770465
 30
0.0
 11
7434.222127016442
 21
-8437.439049679713
 31
0.0
  0
LINE
  5
68FD6
330
18
100
AcDbEntity
  8
姿図
100
AcDbLine
 10
7383.629127197037
 20
-8242.892065072967
 30
0.0
 11
7467.377505448252
 21
-8315.071345933131
 31
0.0
  0
LINE
  5
68FD7
330
18
100
AcDbEntity
  8
姿図
100
AcDbLine
 10
7383.629127197037
 20
-8240.267289921505
 30
0.0
 11
7467.377505448252
 21
-8312.446570781673
 31
0.0
  0
LINE
  5
68FD9
330
18
100
AcDbEntity
  8
姿図
100
AcDbLine
 10
7224.063385068977
 20
-8348.324772122316
 30
0.0
 11
7224.063385068977
 21
-8271.854591448267
 31
0.0
  0
LINE
  5
68FDA
330
18
100
AcDbEntity
  8
姿図
100
AcDbLine
 10
7223.545619775847
 20
-8348.68731528359
 30
0.0
 11
7223.545619775847
 21
-8271.469949231876
 31
0.0
  0
LINE
  5
68FDB
330
18
100
AcDbEntity
  8
姿図
100
AcDbLine
 10
7208.545619775847
 20
-8353.383474793056
 30
0.0
 11
7208.545619775847
 21
-8254.821626766885
 31
0.0
  0
LINE
  5
68FDC
330
18
100
AcDbEntity
  8
姿図
100
AcDbLine
 10
7224.063385068974
 20
-8271.854591448267
 30
0.0
 11
7315.604283644491
 21
-8349.563562502439
 31
0.0
  0
LINE
  5
68FDD
330
18
100
AcDbEntity
  8
姿図
100
AcDbLine
 10
7363.130924427282
 20
-8325.92043733979
 30
0.0
 11
7363.130924427282
 21
-8315.14766755448
 31
0.0
  0
LINE
  5
68FDE
330
18
100
AcDbEntity
  8
姿図
100
AcDbLine
 10
7346.130924427282
 20
-8326.909276158503
 30
0.0
 11
7346.130924427283
 21
-8248.691910106787
 31
0.0
  0
LINE
  5
68FDF
330
18
100
AcDbEntity
  8
姿図
100
AcDbLine
 10
7368.130924427282
 20
-8327.792273919986
 30
0.0
 11
7368.130924427282
 21
-8280.00437326267
 31
0.0
  0
LINE
  5
68FE0
330
18
100
AcDbEntity
  8
姿図
100
AcDbLine
 10
7203.0259749058
 20
-8320.56677516933
 30
0.0
 11
7203.0259749058
 21
-8318.89213424056
 31
0.0
  0
LINE
  5
68FE1
330
18
100
AcDbEntity
  8
姿図
100
AcDbLine
 10
7208.545619775847
 20
-8319.586176048757
 30
0.0
 11
7203.0259749058
 21
-8320.56677516933
 31
0.0
  0
LINE
  5
68FE2
330
18
100
AcDbEntity
  8
姿図
100
AcDbLine
 10
7371.192303139754
 20
-8448.636688534847
 30
0.0
 11
7259.997298279923
 21
-8354.226622686436
 31
0.0
  0
LINE
  5
68FE3
330
18
100
AcDbEntity
  8
姿図
100
AcDbLine
 10
7355.432722311138
 20
-8451.436475743081
 30
0.0
 11
7244.237717451311
 21
-8357.02640989467
 31
0.0
  0
LINE
  5
68FE4
330
18
100
AcDbEntity
  8
姿図
100
AcDbLine
 10
7371.192303139755
 20
-8445.876570965875
 30
0.0
 11
7259.997298279925
 21
-8351.46650511746
 31
0.0
  0
LINE
  5
68FE5
330
18
100
AcDbEntity
  8
姿図
100
AcDbLine
 10
7315.604283644491
 20
-8452.708750829677
 30
0.0
 11
7203.0259749058
 21
-8357.124191482602
 31
0.0
  0
LINE
  5
68FE6
330
18
100
AcDbEntity
  8
姿図
100
AcDbLine
 10
7246.997835020285
 20
-8346.552200437449
 30
0.0
 11
7208.545619775847
 21
-8353.383474793056
 31
0.0
  0
LINE
  5
68FE7
330
18
100
AcDbEntity
  8
姿図
100
AcDbLine
 10
7208.545619775847
 20
-8348.416283552766
 30
0.0
 11
7204.127941509514
 21
-8349.20111147647
 31
0.0
  0
LINE
  5
68FE8
330
18
100
AcDbEntity
  8
姿図
100
AcDbLine
 10
7208.545619775847
 20
-8341.173124496901
 30
0.0
 11
7204.844741136965
 21
-8341.83060852424
 31
0.0
  0
LINE
  5
68FE9
330
18
100
AcDbEntity
  8
姿図
100
AcDbLine
 10
7208.545619775847
 20
-8336.301441795022
 30
0.0
 11
7204.844741136965
 21
-8336.95892582236
 31
0.0
  0
LINE
  5
68FEA
330
18
100
AcDbEntity
  8
姿図
100
AcDbLine
 10
7208.545619775847
 20
-8331.42975909314
 30
0.0
 11
7204.844741136965
 21
-8332.087243120479
 31
0.0
  0
LINE
  5
68FEB
330
18
100
AcDbEntity
  8
姿図
100
AcDbLine
 10
7208.545619775847
 20
-8321.686393689379
 30
0.0
 11
7204.844741136965
 21
-8322.343877716718
 31
0.0
  0
LINE
  5
68FEC
330
18
100
AcDbEntity
  8
姿図
100
AcDbLine
 10
7208.545619775847
 20
-8326.558076391259
 30
0.0
 11
7204.844741136965
 21
-8327.215560418597
 31
0.0
  0
LINE
  5
68FED
330
18
100
AcDbEntity
  8
姿図
100
AcDbLine
 10
7204.479751252322
 20
-8345.87987396475
 30
0.0
 11
7204.479751252322
 21
-8346.44305061902
 31
0.0
  0
LINE
  5
68FEE
330
18
100
AcDbEntity
  8
姿図
100
AcDbLine
 10
7223.545619775847
 20
-8348.68731528359
 30
0.0
 11
7208.545619775847
 21
-8351.352158249923
 31
0.0
  0
ELLIPSE
  5
68FEF
330
18
100
AcDbEntity
  8
姿図
100
AcDbEllipse
 10
7216.16293289214
 20
-8341.074228530784
 30
0.0
 11
1.557139847723761E-15
 21
3.508473521634053
 31
0.0
210
0.0
220
0.0
230
1.0
 40
0.6840581766403936
 41
0.0834300866107265
 42
3.058162566979068
  0
ELLIPSE
  5
68FF0
330
18
100
AcDbEntity
  8
姿図
100
AcDbEllipse
 10
7215.762932892139
 20
-8341.074228530784
 30
0.0
 11
0.0
 21
-3.508473521634005
 31
0.0
210
0.0
220
0.0
230
1.0
 40
0.6840581766403772
 41
0.0
 42
6.283185307179586
  0
LINE
  5
68FF1
330
18
100
AcDbEntity
  8
姿図
100
AcDbLine
 10
7224.063385068977
 20
-8348.324772122316
 30
0.0
 11
7223.545619775847
 21
-8348.68731528359
 31
0.0
  0
LINE
  5
68FF2
330
18
100
AcDbEntity
  8
姿図
100
AcDbLine
 10
7204.127941509514
 20
-8349.20111147647
 30
0.0
 11
7204.127941509514
 21
-8354.16830271676
 31
0.0
  0
LINE
  5
68FF3
330
18
100
AcDbEntity
  8
姿図
100
AcDbLine
 10
7259.997298279923
 20
-8354.226622686436
 30
0.0
 11
7244.237717451311
 21
-8357.02640989467
 31
0.0
  0
LINE
  5
68FF4
330
18
100
AcDbEntity
  8
姿図
100
AcDbLine
 10
7244.237717451311
 20
-8349.802669999084
 30
0.0
 11
7244.237717451311
 21
-8357.02640989467
 31
0.0
  0
LINE
  5
68FF5
330
18
100
AcDbEntity
  8
姿図
100
AcDbLine
 10
7249.603256021834
 20
-8347.290722866515
 30
0.0
 11
7259.997298279923
 21
-8351.46650511746
 31
0.0
  0
LINE
  5
68FF6
330
18
100
AcDbEntity
  8
姿図
100
AcDbLine
 10
7249.230467757003
 20
-8348.218639301118
 30
0.0
 11
7255.36201971656
 21
-8350.68197600956
 31
0.0
  0
LINE
  5
68FF7
330
18
100
AcDbEntity
  8
姿図
100
AcDbLine
 10
7246.997835020285
 20
-8346.552200437449
 30
0.0
 11
7246.997835020287
 21
-8353.179283098369
 31
0.0
  0
LINE
  5
68FF8
330
18
100
AcDbEntity
  8
姿図
100
AcDbLine
 10
7249.230467757003
 20
-8348.218639301118
 30
0.0
 11
7249.603256021834
 21
-8347.290722866515
 31
0.0
  0
LINE
  5
68FF9
330
18
100
AcDbEntity
  8
姿図
100
AcDbLine
 10
7246.997835020287
 20
-8349.312318006421
 30
0.0
 11
7251.724535119694
 21
-8352.936212765439
 31
0.0
  0
LINE
  5
68FFA
330
18
100
AcDbEntity
  8
姿図
100
AcDbLine
 10
7255.989231451729
 20
-8351.609892444163
 30
0.0
 11
7255.989231451729
 21
-8351.759561993602
 31
0.0
  0
ARC
  5
68FFB
330
18
100
AcDbEntity
  8
姿図
100
AcDbCircle
 10
7255.489231451729
 20
-8351.759561993602
 30
0.0
 40
0.5
100
AcDbArc
 50
280.0738452396548
 51
0.0
  0
ARC
  5
68FFC
330
18
100
AcDbEntity
  8
姿図
100
AcDbCircle
 10
7254.989231451729
 20
-8351.609892444163
 30
0.0
 40
1.0
100
AcDbArc
 50
0.0
 51
68.11232009496965
  0
LINE
  5
68FFD
330
18
100
AcDbEntity
  8
姿図
100
AcDbLine
 10
7255.576690099353
 20
-8352.251853558588
 30
0.0
 11
7247.585293667909
 21
-8353.671574663354
 31
0.0
  0
ARC
  5
68FFE
330
18
100
AcDbEntity
  8
姿図
100
AcDbCircle
 10
7247.497835020287
 20
-8353.179283098369
 30
0.0
 40
0.5
100
AcDbArc
 50
180.0
 51
280.0738452396548
  0
LINE
  5
68FFF
330
18
100
AcDbEntity
  8
姿図
100
AcDbLine
 10
7259.997298279925
 20
-8351.46650511746
 30
0.0
 11
7259.997298279923
 21
-8354.226622686436
 31
0.0
  0
LINE
  5
69000
330
18
100
AcDbEntity
  8
姿図
100
AcDbLine
 10
7203.0259749058
 20
-8357.124191482602
 30
0.0
 11
7203.0259749058
 21
-8354.36407391363
 31
0.0
  0
LINE
  5
69001
330
18
100
AcDbEntity
  8
姿図
100
AcDbLine
 10
7203.0259749058
 20
-8330.310140573092
 30
0.0
 11
7203.0259749058
 21
-8328.63549964432
 31
0.0
  0
LINE
  5
69002
330
18
100
AcDbEntity
  8
姿図
100
AcDbLine
 10
7203.0259749058
 20
-8335.181823274974
 30
0.0
 11
7203.0259749058
 21
-8333.507182346202
 31
0.0
  0
LINE
  5
69003
330
18
100
AcDbEntity
  8
姿図
100
AcDbLine
 10
7203.0259749058
 20
-8340.053505976855
 30
0.0
 11
7203.0259749058
 21
-8338.378865048082
 31
0.0
  0
LINE
  5
69004
330
18
100
AcDbEntity
  8
姿図
100
AcDbLine
 10
7203.0259749058
 20
-8344.925188678735
 30
0.0
 11
7203.0259749058
 21
-8343.250547749964
 31
0.0
  0
LINE
  5
69005
330
18
100
AcDbEntity
  8
姿図
100
AcDbLine
 10
7203.0259749058
 20
-8346.70132299713
 30
0.0
 11
7203.0259749058
 21
-8348.477457315523
 31
0.0
  0
LINE
  5
69006
330
18
100
AcDbEntity
  8
姿図
100
AcDbLine
 10
7203.0259749058
 20
-8325.438457871212
 30
0.0
 11
7203.0259749058
 21
-8323.763816942439
 31
0.0
  0
LINE
  5
69007
330
18
100
AcDbEntity
  8
姿図
100
AcDbLine
 10
7244.237717451311
 20
-8349.802669999084
 30
0.0
 11
7203.0259749058
 21
-8357.124191482602
 31
0.0
  0
LINE
  5
69008
330
18
100
AcDbEntity
  8
姿図
100
AcDbLine
 10
7208.545619775847
 20
-8329.32954145252
 30
0.0
 11
7203.0259749058
 21
-8330.310140573092
 31
0.0
  0
LINE
  5
69009
330
18
100
AcDbEntity
  8
姿図
100
AcDbLine
 10
7208.545619775847
 20
-8347.49685819495
 30
0.0
 11
7203.0259749058
 21
-8348.477457315523
 31
0.0
  0
LINE
  5
6900A
330
18
100
AcDbEntity
  8
姿図
100
AcDbLine
 10
7208.545619775847
 20
-8347.49685819495
 30
0.0
 11
7203.0259749058
 21
-8348.477457315523
 31
0.0
  0
LINE
  5
6900B
330
18
100
AcDbEntity
  8
姿図
100
AcDbLine
 10
7208.545619775847
 20
-8345.720723876557
 30
0.0
 11
7203.0259749058
 21
-8346.70132299713
 31
0.0
  0
LINE
  5
6900C
330
18
100
AcDbEntity
  8
姿図
100
AcDbLine
 10
7208.545619775847
 20
-8343.944589558161
 30
0.0
 11
7203.0259749058
 21
-8344.925188678735
 31
0.0
  0
LINE
  5
6900D
330
18
100
AcDbEntity
  8
姿図
100
AcDbLine
 10
7208.545619775847
 20
-8342.26994862939
 30
0.0
 11
7203.0259749058
 21
-8343.250547749964
 31
0.0
  0
LINE
  5
6900E
330
18
100
AcDbEntity
  8
姿図
100
AcDbLine
 10
7208.545619775847
 20
-8339.072906856281
 30
0.0
 11
7203.0259749058
 21
-8340.053505976855
 31
0.0
  0
LINE
  5
6900F
330
18
100
AcDbEntity
  8
姿図
100
AcDbLine
 10
7208.545619775847
 20
-8337.39826592751
 30
0.0
 11
7203.0259749058
 21
-8338.378865048082
 31
0.0
  0
LINE
  5
69010
330
18
100
AcDbEntity
  8
姿図
100
AcDbLine
 10
7208.545619775847
 20
-8334.2012241544
 30
0.0
 11
7203.0259749058
 21
-8335.181823274974
 31
0.0
  0
LINE
  5
69011
330
18
100
AcDbEntity
  8
姿図
100
AcDbLine
 10
7208.545619775847
 20
-8332.526583225628
 30
0.0
 11
7203.0259749058
 21
-8333.507182346202
 31
0.0
  0
LINE
  5
69012
330
18
100
AcDbEntity
  8
姿図
100
AcDbLine
 10
7208.545619775847
 20
-8322.783217821867
 30
0.0
 11
7203.0259749058
 21
-8323.76381694244
 31
0.0
  0
LINE
  5
69013
330
18
100
AcDbEntity
  8
姿図
100
AcDbLine
 10
7208.545619775847
 20
-8327.654900523747
 30
0.0
 11
7203.0259749058
 21
-8328.63549964432
 31
0.0
  0
LINE
  5
69014
330
18
100
AcDbEntity
  8
姿図
100
AcDbLine
 10
7208.545619775847
 20
-8324.457858750637
 30
0.0
 11
7203.0259749058
 21
-8325.438457871212
 31
0.0
  0
LINE
  5
69015
330
18
100
AcDbEntity
  8
姿図
100
AcDbLine
 10
7203.0259749058
 20
-8335.181823274974
 30
0.0
 11
7204.844741136965
 21
-8336.95892582236
 31
0.0
  0
LINE
  5
69016
330
18
100
AcDbEntity
  8
姿図
100
AcDbLine
 10
7203.0259749058
 20
-8330.310140573092
 30
0.0
 11
7204.844741136965
 21
-8332.087243120479
 31
0.0
  0
LINE
  5
69017
330
18
100
AcDbEntity
  8
姿図
100
AcDbLine
 10
7204.844741136965
 20
-8332.087243120479
 30
0.0
 11
7203.0259749058
 21
-8333.507182346202
 31
0.0
  0
LINE
  5
69018
330
18
100
AcDbEntity
  8
姿図
100
AcDbLine
 10
7204.844741136965
 20
-8336.95892582236
 30
0.0
 11
7203.0259749058
 21
-8338.378865048082
 31
0.0
  0
LINE
  5
69019
330
18
100
AcDbEntity
  8
姿図
100
AcDbLine
 10
7203.0259749058
 20
-8340.053505976855
 30
0.0
 11
7204.844741136965
 21
-8341.83060852424
 31
0.0
  0
LINE
  5
6901A
330
18
100
AcDbEntity
  8
姿図
100
AcDbLine
 10
7204.844741136965
 20
-8341.83060852424
 30
0.0
 11
7203.0259749058
 21
-8343.250547749964
 31
0.0
  0
LINE
  5
6901B
330
18
100
AcDbEntity
  8
姿図
100
AcDbLine
 10
7203.0259749058
 20
-8348.477457315523
 30
0.0
 11
7204.127941509514
 21
-8349.20111147647
 31
0.0
  0
LINE
  5
6901C
330
18
100
AcDbEntity
  8
姿図
100
AcDbLine
 10
7203.0259749058
 20
-8344.925188678735
 30
0.0
 11
7204.479751252322
 21
-8345.87987396475
 31
0.0
  0
LINE
  5
6901D
330
18
100
AcDbEntity
  8
姿図
100
AcDbLine
 10
7203.0259749058
 20
-8320.56677516933
 30
0.0
 11
7204.844741136965
 21
-8322.343877716718
 31
0.0
  0
LINE
  5
6901E
330
18
100
AcDbEntity
  8
姿図
100
AcDbLine
 10
7204.844741136965
 20
-8322.343877716718
 30
0.0
 11
7203.0259749058
 21
-8323.763816942439
 31
0.0
  0
LINE
  5
6901F
330
18
100
AcDbEntity
  8
姿図
100
AcDbLine
 10
7203.0259749058
 20
-8325.438457871212
 30
0.0
 11
7204.844741136965
 21
-8327.215560418597
 31
0.0
  0
LINE
  5
69020
330
18
100
AcDbEntity
  8
姿図
100
AcDbLine
 10
7204.844741136965
 20
-8327.215560418597
 30
0.0
 11
7203.0259749058
 21
-8328.63549964432
 31
0.0
  0
LINE
  5
69021
330
18
100
AcDbEntity
  8
姿図
100
AcDbLine
 10
7208.545619775847
 20
-8353.383474793056
 30
0.0
 11
7203.0259749058
 21
-8354.36407391363
 31
0.0
  0
LINE
  5
69022
330
18
100
AcDbEntity
  8
姿図
100
AcDbLine
 10
7315.604283644491
 20
-8349.563562502435
 30
0.0
 11
7328.178571286777
 21
-8347.329662370421
 31
0.0
  0
LINE
  5
69023
330
18
100
AcDbEntity
  8
姿図
100
AcDbLine
 10
7315.604283644491
 20
-8452.708750829677
 30
0.0
 11
7349.780183544165
 21
-8446.637190398624
 31
0.0
  0
LINE
  5
69024
330
18
100
AcDbEntity
  8
姿図
100
AcDbLine
 10
7315.604283644491
 20
-8398.67958952281
 30
0.0
 11
7315.604283644491
 21
-8349.563562502435
 31
0.0
  0
LINE
  5
69025
330
18
100
AcDbEntity
  8
姿図
100
AcDbLine
 10
7363.130924427282
 20
-8323.889120796659
 30
0.0
 11
7346.130924427282
 21
-8326.909276158503
 31
0.0
  0
LINE
  5
69026
330
18
100
AcDbEntity
  8
姿図
100
AcDbLine
 10
7355.432722311139
 20
-8451.436475743081
 30
0.0
 11
7371.192303139755
 21
-8448.636688534847
 31
0.0
  0
LINE
  5
69027
330
18
100
AcDbEntity
  8
姿図
100
AcDbLine
 10
7371.192303139755
 20
-8445.876570965875
 30
0.0
 11
7371.192303139755
 21
-8448.636688534847
 31
0.0
  0
LINE
  5
69028
330
18
100
AcDbEntity
  8
姿図
100
AcDbLine
 10
7337.300839957727
 20
-8332.358924354892
 30
0.0
 11
7337.300839957727
 21
-8339.582664250478
 31
0.0
  0
LINE
  5
69029
330
18
100
AcDbEntity
  8
姿図
100
AcDbLine
 10
7330.604283644488
 20
-8411.415332369455
 30
0.0
 11
7330.604283644488
 21
-8349.372346425187
 31
0.0
  0
LINE
  5
6902A
330
18
100
AcDbEntity
  8
姿図
100
AcDbLine
 10
7331.122048937618
 20
-8411.85494074467
 30
0.0
 11
7331.122048937619
 21
-8349.81240463275
 31
0.0
  0
LINE
  5
6902B
330
18
100
AcDbEntity
  8
姿図
100
AcDbLine
 10
7327.446928630588
 20
-8339.3488837939
 30
0.0
 11
7328.102514838451
 21
-8338.391263190984
 31
0.0
  0
ARC
  5
6902C
330
18
100
AcDbEntity
  8
姿図
100
AcDbCircle
 10
7327.859507531855
 20
-8339.631334940526
 30
0.0
 40
0.5
100
AcDbArc
 50
145.6044933459087
 51
280.0738452396548
  0
LINE
  5
6902D
330
18
100
AcDbEntity
  8
姿図
100
AcDbLine
 10
7329.854861388146
 20
-8339.784677097023
 30
0.0
 11
7326.896270941172
 21
-8337.432093886922
 31
0.0
  0
LINE
  5
6902E
330
18
100
AcDbEntity
  8
姿図
100
AcDbLine
 10
7329.127282722072
 20
-8336.663829487394
 30
0.0
 11
7326.861568739193
 21
-8337.066347618795
 31
0.0
  0
LINE
  5
6902F
330
18
100
AcDbEntity
  8
姿図
100
AcDbLine
 10
7329.127282722071
 20
-8336.866961141706
 30
0.0
 11
7326.941017940379
 21
-8337.25536463011
 31
0.0
  0
LINE
  5
69030
330
18
100
AcDbEntity
  8
姿図
100
AcDbLine
 10
7326.861568739193
 20
-8337.066347618795
 30
0.0
 11
7326.861568739194
 21
-8337.329277964942
 31
0.0
  0
ARC
  5
69031
330
18
100
AcDbEntity
  8
姿図
100
AcDbCircle
 10
7326.958509669904
 20
-8337.353822943107
 30
0.0
 40
0.1
100
AcDbArc
 50
100.0738452396548
 51
231.5093228086374
  0
LINE
  5
69032
330
18
100
AcDbEntity
  8
姿図
100
AcDbLine
 10
7329.158046137582
 20
-8334.194112788826
 30
0.0
 11
7330.325755460437
 21
-8335.143755846679
 31
0.0
  0
LINE
  5
69033
330
18
100
AcDbEntity
  8
姿図
100
AcDbLine
 10
7330.325755460441
 20
-8335.143755846682
 30
0.0
 11
7330.792688378276
 21
-8337.772050968015
 31
0.0
  0
LINE
  5
69034
330
18
100
AcDbEntity
  8
姿図
100
AcDbLine
 10
7329.286816547792
 20
-8336.661343154023
 30
0.0
 11
7330.325755460437
 21
-8335.143755846679
 31
0.0
  0
LINE
  5
69035
330
18
100
AcDbEntity
  8
姿図
100
AcDbLine
 10
7332.481461994046
 20
-8339.318045220356
 30
0.0
 11
7329.854861388147
 21
-8339.784677097025
 31
0.0
  0
LINE
  5
69036
330
18
100
AcDbEntity
  8
姿図
100
AcDbLine
 10
7329.854861388147
 20
-8339.784677097025
 30
0.0
 11
7327.946966179478
 21
-8340.123626505512
 31
0.0
  0
LINE
  5
69037
330
18
100
AcDbEntity
  8
姿図
100
AcDbLine
 10
7329.525935013356
 20
-8336.967897987615
 30
0.0
 11
7329.525935013357
 21
-8336.764766333301
 31
0.0
  0
ARC
  5
69038
330
18
100
AcDbEntity
  8
姿図
100
AcDbCircle
 10
7329.214741369695
 20
-8337.15612105238
 30
0.0
 40
0.5
100
AcDbArc
 50
51.50932280863741
 51
100.0738452396548
  0
LINE
  5
69039
330
18
100
AcDbEntity
  8
姿図
100
AcDbLine
 10
7332.481461994046
 20
-8339.318045220356
 30
0.0
 11
7329.525935013356
 21
-8336.967897987615
 31
0.0
  0
ARC
  5
6903A
330
18
100
AcDbEntity
  8
姿図
100
AcDbCircle
 10
7329.214741369694
 20
-8337.359252706694
 30
0.0
 40
0.5
100
AcDbArc
 50
51.50932280863741
 51
100.0738452396548
  0
LINE
  5
6903B
330
18
100
AcDbEntity
  8
姿図
100
AcDbLine
 10
7335.300839957727
 20
-8329.954119181431
 30
0.0
 11
7335.300839957727
 21
-8337.906660102855
 31
0.0
  0
LINE
  5
6903C
330
18
100
AcDbEntity
  8
姿図
100
AcDbLine
 10
7335.300839957727
 20
-8337.906660102855
 30
0.0
 11
7332.481461994046
 21
-8339.318045220356
 31
0.0
  0
LINE
  5
6903D
330
18
100
AcDbEntity
  8
姿図
100
AcDbLine
 10
7332.638226974612
 20
-8339.23956842038
 30
0.0
 11
7329.525935013357
 21
-8336.764766333301
 31
0.0
  0
LINE
  5
6903E
330
18
100
AcDbEntity
  8
姿図
100
AcDbLine
 10
7327.237430250711
 20
-8336.99957349178
 30
0.0
 11
7329.158046137581
 21
-8334.194112788826
 31
0.0
  0
LINE
  5
6903F
330
18
100
AcDbEntity
  8
姿図
100
AcDbLine
 10
7323.121135543391
 20
-8343.012281770465
 30
0.0
 11
7326.92544539447
 21
-8337.455292545279
 31
0.0
  0
LINE
  5
69040
330
18
100
AcDbEntity
  8
姿図
100
AcDbLine
 10
7337.300839957725
 20
-8339.582664250478
 30
0.0
 11
7323.121135543391
 21
-8343.012281770465
 31
0.0
  0
LINE
  5
69041
330
18
100
AcDbEntity
  8
姿図
100
AcDbLine
 10
7368.130924427282
 20
-8327.792273919986
 30
0.0
 11
7337.300839957727
 21
-8332.358924354892
 31
0.0
  0
LINE
  5
69042
330
18
100
AcDbEntity
  8
姿図
100
AcDbLine
 10
7363.130924427283
 20
-8325.920437339792
 30
0.0
 11
7335.300839957725
 21
-8329.954119181431
 31
0.0
  0
LINE
  5
69043
330
18
100
AcDbEntity
  8
姿図
100
AcDbLine
 10
7346.21300932558
 20
-8249.153953645564
 30
0.0
 11
7224.063385068977
 21
-8271.854591448267
 31
0.0
  0
LINE
  5
69044
330
18
100
AcDbEntity
  8
姿図
100
AcDbLine
 10
7346.130924427283
 20
-8248.691910106787
 30
0.0
 11
7223.545619775847
 21
-8271.469949231876
 31
0.0
  0
LINE
  5
69045
330
18
100
AcDbEntity
  8
姿図
100
AcDbLine
 10
7368.130924427285
 20
-8224.470308324839
 30
0.0
 11
7208.545619775847
 21
-8254.821626766885
 31
0.0
  0
ELLIPSE
  5
69046
330
18
100
AcDbEntity
  8
姿図
100
AcDbEllipse
 10
7216.16293289214
 20
-8309.862486097689
 30
0.0
 11
1.557139847723761E-15
 21
3.508473521634053
 31
0.0
210
0.0
220
0.0
230
1.0
 40
0.6840581766403936
 41
0.0834300866107265
 42
3.058162566979068
  0
ELLIPSE
  5
69047
330
18
100
AcDbEntity
  8
姿図
100
AcDbEllipse
 10
7215.762932892139
 20
-8309.862486097689
 30
0.0
 11
0.0
 21
-3.508473521634005
 31
0.0
210
0.0
220
0.0
230
1.0
 40
0.6840581766403772
 41
0.0
 42
6.283185307179586
  0
LINE
  5
69048
330
18
100
AcDbEntity
  8
姿図
100
AcDbLine
 10
7205.195060628794
 20
-8309.265921251412
 30
0.0
 11
7205.195060628794
 21
-8313.939580185393
 31
0.0
  0
LINE
  5
69049
330
18
100
AcDbEntity
  8
姿図
100
AcDbLine
 10
7208.545619775847
 20
-8316.587158043549
 30
0.0
 11
7204.479751252322
 21
-8317.309484786012
 31
0.0
  0
LINE
  5
6904A
330
18
100
AcDbEntity
  8
姿図
100
AcDbLine
 10
7204.479751252322
 20
-8317.30948478601
 30
0.0
 11
7204.479751252322
 21
-8318.633861862449
 31
0.0
  0
LINE
  5
6904B
330
18
100
AcDbEntity
  8
姿図
100
AcDbLine
 10
7208.545619775847
 20
-8308.67067365299
 30
0.0
 11
7204.479751252322
 21
-8309.393000395454
 31
0.0
  0
LINE
  5
6904C
330
18
100
AcDbEntity
  8
姿図
100
AcDbLine
 10
7203.0259749058
 20
-8316.354799499995
 30
0.0
 11
7203.0259749058
 21
-8314.324931707546
 31
0.0
  0
LINE
  5
6904D
330
18
100
AcDbEntity
  8
姿図
100
AcDbLine
 10
7203.0259749058
 20
-8308.438315109439
 30
0.0
 11
7203.0259749058
 21
-8306.408447316988
 31
0.0
  0
LINE
  5
6904E
330
18
100
AcDbEntity
  8
姿図
100
AcDbLine
 10
7208.545619775847
 20
-8317.911535119985
 30
0.0
 11
7203.0259749058
 21
-8318.89213424056
 31
0.0
  0
LINE
  5
6904F
330
18
100
AcDbEntity
  8
姿図
100
AcDbLine
 10
7208.545619775847
 20
-8315.374200379423
 30
0.0
 11
7203.0259749058
 21
-8316.354799499997
 31
0.0
  0
LINE
  5
69050
330
18
100
AcDbEntity
  8
姿図
100
AcDbLine
 10
7208.545619775847
 20
-8313.344332586972
 30
0.0
 11
7203.0259749058
 21
-8314.324931707546
 31
0.0
  0
LINE
  5
69051
330
18
100
AcDbEntity
  8
姿図
100
AcDbLine
 10
7203.0259749058
 20
-8316.354799499997
 30
0.0
 11
7204.479751252322
 21
-8317.30948478601
 31
0.0
  0
LINE
  5
69052
330
18
100
AcDbEntity
  8
姿図
100
AcDbLine
 10
7208.545619775847
 20
-8305.427848196416
 30
0.0
 11
7203.0259749058
 21
-8306.40844731699
 31
0.0
  0
LINE
  5
69053
330
18
100
AcDbEntity
  8
姿図
100
AcDbLine
 10
7208.545619775847
 20
-8307.457715988865
 30
0.0
 11
7203.0259749058
 21
-8308.438315109439
 31
0.0
  0
LINE
  5
69054
330
18
100
AcDbEntity
  8
姿図
100
AcDbLine
 10
7203.0259749058
 20
-8308.438315109439
 30
0.0
 11
7204.479751252322
 21
-8309.393000395454
 31
0.0
  0
LINE
  5
69055
330
18
100
AcDbEntity
  8
姿図
100
AcDbLine
 10
7368.130924427282
 20
-8224.470308324839
 30
0.0
 11
7383.629127197037
 21
-8237.642514770045
 31
0.0
  0
ELLIPSE
  5
69056
330
18
100
AcDbEntity
  8
姿図
100
AcDbEllipse
 10
7353.964811345953
 20
-8316.592870761098
 30
0.0
 11
1.557139847723761E-15
 21
3.508473521634053
 31
0.0
210
0.0
220
0.0
230
1.0
 40
0.6840581766403936
 41
0.0834300866107265
 42
3.058162566979068
  0
ELLIPSE
  5
69057
330
18
100
AcDbEntity
  8
姿図
100
AcDbEllipse
 10
7353.564811345954
 20
-8316.592870761098
 30
0.0
 11
0.0
 21
-3.508473521634005
 31
0.0
210
0.0
220
0.0
230
1.0
 40
0.6840581766403772
 41
0.0
 42
6.283185307179586
  0
LINE
  5
69058
330
18
100
AcDbEntity
  8
姿図
  6
Continuous
370
     0
100
AcDbLine
 10
7368.130924427282
 20
-8299.56451490173
 30
0.0
 11
7361.072160369584
 21
-8294.053627466665
 31
0.0
  0
LINE
  5
69059
330
18
100
AcDbEntity
  8
姿図
  6
Continuous
370
     0
100
AcDbLine
 10
7368.130924427282
 20
-8299.310781427674
 30
0.0
 11
7361.195236859015
 21
-8293.895981731712
 31
0.0
  0
ARC
  5
6905A
330
18
100
AcDbEntity
  8
姿図
  6
Continuous
370
     0
100
AcDbCircle
 10
7361.371936058782
 20
-8290.96542999953
 30
0.0
 40
0.5871021973724699
100
AcDbArc
 50
43.97061442796876
 51
173.0481439441934
  0
LINE
  5
6905B
330
18
100
AcDbEntity
  8
姿図
  6
Continuous
370
     0
100
AcDbLine
 10
7360.614682490843
 20
-8293.009086275633
 30
0.0
 11
7360.789150116741
 21
-8290.894369912825
 31
0.0
  0
ARC
  5
6905C
330
18
100
AcDbEntity
  8
姿図
  6
Continuous
370
     0
100
AcDbCircle
 10
7361.810619306176
 20
-8293.107753056942
 30
0.0
 40
1.2
100
AcDbArc
 50
175.2836838794859
 51
232.0202851621353
  0
LINE
  5
6905D
330
18
100
AcDbEntity
  8
姿図
  6
Continuous
370
     0
100
AcDbLine
 10
7360.814005293398
 20
-8293.025530739185
 30
0.0
 11
7360.988472919298
 21
-8290.910814376375
 31
0.0
  0
ARC
  5
6905E
330
18
100
AcDbEntity
  8
姿図
  6
Continuous
370
     0
100
AcDbCircle
 10
7361.486779925686
 20
-8290.951925535253
 30
0.0
 40
0.5
100
AcDbArc
 50
52.02028516213533
 51
175.2836838794859
  0
ARC
  5
6905F
330
18
100
AcDbEntity
  8
姿図
  6
Continuous
370
     0
100
AcDbCircle
 10
7361.810619306174
 20
-8293.107753056942
 30
0.0
 40
1.0
100
AcDbArc
 50
175.2836838795905
 51
232.0202851621353
  0
LINE
  5
69060
330
18
100
AcDbEntity
  8
姿図
  6
Continuous
370
     0
100
AcDbLine
 10
7368.130924427282
 20
-8295.50477931683
 30
0.0
 11
7361.794471149266
 21
-8290.557811197868
 31
0.0
  0
LINE
  5
69061
330
18
100
AcDbEntity
  8
姿図
  6
Continuous
370
     0
100
AcDbLine
 10
7368.13092442728
 20
-8314.991510124351
 30
0.0
 11
7361.794471149264
 21
-8310.044542005391
 31
0.0
  0
ARC
  5
69062
330
18
100
AcDbEntity
  8
姿図
  6
Continuous
370
     0
100
AcDbCircle
 10
7361.810619306174
 20
-8312.594483864465
 30
0.0
 40
1.0
100
AcDbArc
 50
175.2836838795905
 51
232.0202851621353
  0
ARC
  5
69063
330
18
100
AcDbEntity
  8
姿図
  6
Continuous
370
     0
100
AcDbCircle
 10
7361.486779925686
 20
-8310.438656342776
 30
0.0
 40
0.5
100
AcDbArc
 50
52.02028516213533
 51
175.2836838794859
  0
LINE
  5
69064
330
18
100
AcDbEntity
  8
姿図
  6
Continuous
370
     0
100
AcDbLine
 10
7360.814005293396
 20
-8312.512261546708
 30
0.0
 11
7360.988472919298
 21
-8310.397545183896
 31
0.0
  0
ARC
  5
69065
330
18
100
AcDbEntity
  8
姿図
  6
Continuous
370
     0
100
AcDbCircle
 10
7361.810619306174
 20
-8312.594483864465
 30
0.0
 40
1.2
100
AcDbArc
 50
175.2836838794859
 51
232.0202851621353
  0
LINE
  5
69066
330
18
100
AcDbEntity
  8
姿図
  6
Continuous
370
     0
100
AcDbLine
 10
7360.614682490841
 20
-8312.495817083156
 30
0.0
 11
7360.789150116741
 21
-8310.381100720346
 31
0.0
  0
ARC
  5
69067
330
18
100
AcDbEntity
  8
姿図
  6
Continuous
370
     0
100
AcDbCircle
 10
7361.37193605878
 20
-8310.452160807054
 30
0.0
 40
0.5871021973724699
100
AcDbArc
 50
43.97061442796876
 51
173.0481439441934
  0
LINE
  5
69068
330
18
100
AcDbEntity
  8
姿図
  6
Continuous
370
     0
100
AcDbLine
 10
7368.13092442728
 20
-8318.797512235196
 30
0.0
 11
7361.195236859015
 21
-8313.382712539233
 31
0.0
  0
LINE
  5
69069
330
18
100
AcDbEntity
  8
姿図
  6
Continuous
370
     0
100
AcDbLine
 10
7368.13092442728
 20
-8319.051245709252
 30
0.0
 11
7361.072160369584
 21
-8313.540358274186
 31
0.0
  0
ELLIPSE
  5
6906A
330
18
100
AcDbEntity
  8
姿図
100
AcDbEllipse
 10
7353.964811345953
 20
-8285.381128328005
 30
0.0
 11
0.0
 21
-3.508473521634005
 31
0.0
210
0.0
220
0.0
230
1.0
 40
0.6840581766403772
 41
0.0
 42
6.283185307179586
  0
ELLIPSE
  5
6906B
330
18
100
AcDbEntity
  8
姿図
100
AcDbEllipse
 10
7354.364811345953
 20
-8285.381128328005
 30
0.0
 11
1.557139847723761E-15
 21
3.508473521634053
 31
0.0
210
0.0
220
0.0
230
1.0
 40
0.6840581766403936
 41
0.0834300866107265
 42
3.058162566979068
  0
LINE
  5
6906C
330
18
100
AcDbEntity
  8
姿図
100
AcDbLine
 10
7363.130924427283
 20
-8291.601201162057
 30
0.0
 11
7363.130924427283
 21
-8225.358589313617
 31
0.0
  0
LINE
  5
6906D
330
18
100
AcDbEntity
  8
姿図
100
AcDbLine
 10
7364.780365280229
 20
-8311.316836012655
 30
0.0
 11
7366.599131511404
 21
-8312.98750245059
 31
0.0
  0
LINE
  5
6906E
330
18
100
AcDbEntity
  8
姿図
100
AcDbLine
 10
7364.780365280229
 20
-8306.445153310775
 30
0.0
 11
7366.599131511404
 21
-8308.11581974871
 31
0.0
  0
LINE
  5
6906F
330
18
100
AcDbEntity
  8
姿図
100
AcDbLine
 10
7364.780365280229
 20
-8301.573470608892
 30
0.0
 11
7366.599131511404
 21
-8303.244137046826
 31
0.0
  0
LINE
  5
69070
330
18
100
AcDbEntity
  8
姿図
100
AcDbLine
 10
7366.599131511395
 20
-8308.115819748704
 30
0.0
 11
7366.599131511395
 21
-8309.31907999065
 31
0.0
  0
LINE
  5
69071
330
18
100
AcDbEntity
  8
姿図
100
AcDbLine
 10
7365.886848816595
 20
-8288.634513541974
 30
0.0
 11
7365.886848816595
 21
-8289.958890618409
 31
0.0
  0
LINE
  5
69072
330
18
100
AcDbEntity
  8
姿図
100
AcDbLine
 10
7366.599131511397
 20
-8303.350573156278
 30
0.0
 11
7366.599131511395
 21
-8304.447397288768
 31
0.0
  0
LINE
  5
69073
330
18
100
AcDbEntity
  8
姿図
100
AcDbLine
 10
7366.599131511395
 20
-8298.478890454398
 30
0.0
 11
7366.599131511395
 21
-8299.575714586887
 31
0.0
  0
LINE
  5
69074
330
18
100
AcDbEntity
  8
姿図
100
AcDbLine
 10
7364.780365280229
 20
-8291.830105205132
 30
0.0
 11
7366.599131511395
 21
-8293.607207752517
 31
0.0
  0
LINE
  5
69075
330
18
100
AcDbEntity
  8
姿図
100
AcDbLine
 10
7364.780365280229
 20
-8287.618129535798
 30
0.0
 11
7365.886848816595
 21
-8288.634513541974
 31
0.0
  0
LINE
  5
69076
330
18
100
AcDbEntity
  8
姿図
100
AcDbLine
 10
7364.780365280229
 20
-8317.96465303293
 30
0.0
 11
7364.780365280229
 21
-8319.740787351326
 31
0.0
  0
LINE
  5
69077
330
18
100
AcDbEntity
  8
姿図
100
AcDbLine
 10
7364.780365280229
 20
-8301.573470608893
 30
0.0
 11
7364.780365280229
 21
-8299.898829680122
 31
0.0
  0
LINE
  5
69078
330
18
100
AcDbEntity
  8
姿図
100
AcDbLine
 10
7364.780365280229
 20
-8291.830105205132
 30
0.0
 11
7364.780365280229
 21
-8290.15546427636
 31
0.0
  0
LINE
  5
69079
330
18
100
AcDbEntity
  8
姿図
100
AcDbLine
 10
7364.780365280229
 20
-8311.316836012655
 30
0.0
 11
7364.780365280229
 21
-8309.642195083885
 31
0.0
  0
LINE
  5
6907A
330
18
100
AcDbEntity
  8
姿図
100
AcDbLine
 10
7364.780365280229
 20
-8306.445153310775
 30
0.0
 11
7364.780365280229
 21
-8304.770512382003
 31
0.0
  0
LINE
  5
6907B
330
18
100
AcDbEntity
  8
姿図
100
AcDbLine
 10
7368.130924427282
 20
-8319.145539752904
 30
0.0
 11
7364.780365280229
 21
-8319.740787351328
 31
0.0
  0
LINE
  5
6907C
330
18
100
AcDbEntity
  8
姿図
100
AcDbLine
 10
7368.130924427282
 20
-8310.721588414235
 30
0.0
 11
7364.780365280229
 21
-8311.316836012656
 31
0.0
  0
LINE
  5
6907D
330
18
100
AcDbEntity
  8
姿図
100
AcDbLine
 10
7368.130924427282
 20
-8309.046947485464
 30
0.0
 11
7364.780365280229
 21
-8309.642195083885
 31
0.0
  0
LINE
  5
6907E
330
18
100
AcDbEntity
  8
姿図
100
AcDbLine
 10
7368.130924427282
 20
-8305.849905712354
 30
0.0
 11
7364.780365280229
 21
-8306.445153310775
 31
0.0
  0
LINE
  5
6907F
330
18
100
AcDbEntity
  8
姿図
100
AcDbLine
 10
7368.130924427282
 20
-8304.175264783582
 30
0.0
 11
7364.780365280229
 21
-8304.770512382005
 31
0.0
  0
LINE
  5
69080
330
18
100
AcDbEntity
  8
姿図
100
AcDbLine
 10
7368.130924427282
 20
-8300.978223010472
 30
0.0
 11
7364.780365280229
 21
-8301.573470608892
 31
0.0
  0
LINE
  5
69081
330
18
100
AcDbEntity
  8
姿図
100
AcDbLine
 10
7368.130924427282
 20
-8299.3035820817
 30
0.0
 11
7364.780365280229
 21
-8299.898829680124
 31
0.0
  0
LINE
  5
69082
330
18
100
AcDbEntity
  8
姿図
100
AcDbLine
 10
7368.130924427282
 20
-8291.23485760671
 30
0.0
 11
7364.780365280229
 21
-8291.830105205132
 31
0.0
  0
LINE
  5
69083
330
18
100
AcDbEntity
  8
姿図
100
AcDbLine
 10
7368.130924427282
 20
-8289.560216677939
 30
0.0
 11
7364.780365280229
 21
-8290.15546427636
 31
0.0
  0
LINE
  5
69084
330
18
100
AcDbEntity
  8
姿図
100
AcDbLine
 10
7368.130924427282
 20
-8287.022881937377
 30
0.0
 11
7364.780365280229
 21
-8287.618129535798
 31
0.0
  0
LINE
  5
69085
330
18
100
AcDbEntity
  8
姿図
100
AcDbLine
 10
7368.130924427282
 20
-8288.235839601502
 30
0.0
 11
7365.886848816595
 21
-8288.634513541974
 31
0.0
  0
LINE
  5
69086
330
18
100
AcDbEntity
  8
姿図
100
AcDbLine
 10
7368.130924427282
 20
-8293.335075247332
 30
0.0
 11
7366.599131511395
 21
-8293.607207752517
 31
0.0
  0
LINE
  5
69087
330
18
100
AcDbEntity
  8
姿図
100
AcDbLine
 10
7368.130924427282
 20
-8303.078440651094
 30
0.0
 11
7366.599131511393
 21
-8303.35057315628
 31
0.0
  0
LINE
  5
69088
330
18
100
AcDbEntity
  8
姿図
100
AcDbLine
 10
7368.130924427282
 20
-8312.821806054855
 30
0.0
 11
7366.599131511395
 21
-8313.093938560041
 31
0.0
  0
LINE
  5
69089
330
18
100
AcDbEntity
  8
姿図
100
AcDbLine
 10
7368.130924427282
 20
-8307.950123352975
 30
0.0
 11
7366.599131511395
 21
-8308.22225585816
 31
0.0
  0
LINE
  5
6908A
330
18
100
AcDbEntity
  8
姿図
100
AcDbLine
 10
7368.130924427282
 20
-8319.145539752904
 30
0.0
 11
7364.780365280229
 21
-8319.740787351328
 31
0.0
  0
LINE
  5
6908B
330
18
100
AcDbEntity
  8
姿図
100
AcDbLine
 10
7364.780365280229
 20
-8287.618129535796
 30
0.0
 11
7364.780365280229
 21
-8285.588261743345
 31
0.0
  0
LINE
  5
6908C
330
18
100
AcDbEntity
  8
姿図
100
AcDbLine
 10
7368.130924427282
 20
-8284.993014144926
 30
0.0
 11
7364.780365280229
 21
-8285.588261743345
 31
0.0
  0
LINE
  5
6908D
330
18
100
AcDbEntity
  8
姿図
100
AcDbLine
 10
7366.71419147266
 20
-8298.458449339167
 30
0.0
 11
7366.599131511395
 21
-8298.478890454398
 31
0.0
  0
LINE
  5
6908E
330
18
100
AcDbEntity
  8
姿図
100
AcDbLine
 10
7366.571318970817
 20
-8298.346906543768
 30
0.0
 11
7366.599131511404
 21
-8298.372454344948
 31
0.0
  0
LINE
  5
6908F
330
18
100
AcDbEntity
  8
姿図
100
AcDbLine
 10
7366.599131511395
 20
-8293.607207752517
 30
0.0
 11
7366.599131511395
 21
-8294.30888464401
 31
0.0
  0
LINE
  5
69090
330
18
100
AcDbEntity
  8
姿図
100
AcDbLine
 10
7368.130924427282
 20
-8294.43189937982
 30
0.0
 11
7367.011442505057
 21
-8294.63078228158
 31
0.0
  0
LINE
  5
69091
330
18
100
AcDbEntity
  8
姿図
100
AcDbLine
 10
7363.130924427283
 20
-8311.08793196958
 30
0.0
 11
7363.130924427282
 21
-8295.660936746954
 31
0.0
  0
LINE
  5
69092
330
18
100
AcDbEntity
  8
姿図
100
AcDbLine
 10
7368.130924427282
 20
-8313.918630187343
 30
0.0
 11
7367.011442505057
 21
-8314.1175130891
 31
0.0
  0
LINE
  5
69093
330
18
100
AcDbEntity
  8
姿図
100
AcDbLine
 10
7366.599131511397
 20
-8312.98750245058
 30
0.0
 11
7366.599131511396
 21
-8313.795615451536
 31
0.0
  0
LINE
  5
69094
330
18
100
AcDbEntity
  8
姿図
100
AcDbLine
 10
7366.376031154798
 20
-8317.681173100767
 30
0.0
 11
7364.780365280229
 21
-8317.964653032934
 31
0.0
  0
LINE
  5
69095
330
18
100
AcDbEntity
  8
姿図
100
AcDbLine
 10
7368.130924427282
 20
-8277.076529754371
 30
0.0
 11
7364.780365280229
 21
-8277.67177735279
 31
0.0
  0
LINE
  5
69096
330
18
100
AcDbEntity
  8
姿図
100
AcDbLine
 10
7364.780365280229
 20
-8279.701645145242
 30
0.0
 11
7364.780365280229
 21
-8277.67177735279
 31
0.0
  0
LINE
  5
69097
330
18
100
AcDbEntity
  8
姿図
100
AcDbLine
 10
7368.130924427282
 20
-8279.106397546822
 30
0.0
 11
7364.780365280229
 21
-8279.701645145244
 31
0.0
  0
LINE
  5
69098
330
18
100
AcDbEntity
  8
姿図
100
AcDbLine
 10
7368.130924427282
 20
-8280.00437326267
 30
0.0
 11
7365.886848816597
 21
-8280.40304720314
 31
0.0
  0
LINE
  5
69099
330
18
100
AcDbEntity
  8
姿図
100
AcDbLine
 10
7364.780365280229
 20
-8279.701645145244
 30
0.0
 11
7365.886848816597
 21
-8280.40304720314
 31
0.0
  0
LINE
  5
6909A
330
18
100
AcDbEntity
  8
姿図
100
AcDbLine
 10
7368.130924427282
 20
-8280.00437326267
 30
0.0
 11
7368.130924427285
 21
-8224.470308324839
 31
0.0
  0
LINE
  5
6909B
330
18
100
AcDbEntity
  8
姿図
100
AcDbLine
 10
7365.983429423843
 20
-8280.38588905968
 30
0.0
 11
7365.983429423843
 21
-8285.374529941935
 31
0.0
  0
LINE
  5
6909C
330
18
100
AcDbEntity
  8
姿図
100
AcDbLine
 10
7383.629127197037
 20
-8290.248736199575
 30
0.0
 11
7383.629127197037
 21
-8237.642514770045
 31
0.0
  0
LINE
  5
6909D
330
18
100
AcDbEntity
  8
姿図
100
AcDbLine
 10
7364.780365280229
 20
-8319.740787351326
 30
0.0
 11
7365.882331883944
 21
-8320.464441512271
 31
0.0
  0
LINE
  5
6909E
330
18
100
AcDbEntity
  8
姿図
100
AcDbLine
 10
7368.130924427282
 20
-8320.06496511072
 30
0.0
 11
7365.882331883944
 21
-8320.464441512271
 31
0.0
  0
LINE
  5
69443
330
18
100
AcDbEntity
  8
姿図
100
AcDbLine
 10
7478.284301833837
 20
-8318.97939278443
 30
0.0
 11
7478.284301833838
 21
-8370.697903109189
 31
0.0
  0
LINE
  5
69444
330
18
100
AcDbEntity
  8
姿図
100
AcDbLine
 10
7467.377505448252
 20
-8361.428017059745
 30
0.0
 11
7467.377505448252
 21
-8309.709506734991
 31
0.0
  0
LINE
  5
69445
330
18
100
AcDbEntity
  8
姿図
100
AcDbLine
 10
7480.614050220507
 20
-8411.194740303368
 30
0.0
 11
7480.614050220507
 21
-8409.520099374597
 31
0.0
  0
LINE
  5
69446
330
18
100
AcDbEntity
  8
姿図
100
AcDbLine
 10
7480.614050220507
 20
-8396.579692197725
 30
0.0
 11
7480.614050220507
 21
-8394.905051268954
 31
0.0
  0
LINE
  5
69447
330
18
100
AcDbEntity
  8
姿図
100
AcDbLine
 10
7480.614050220507
 20
-8401.451374899607
 30
0.0
 11
7480.614050220507
 21
-8399.776733970835
 31
0.0
  0
LINE
  5
69448
330
18
100
AcDbEntity
  8
姿図
100
AcDbLine
 10
7480.614050220507
 20
-8406.323057601487
 30
0.0
 11
7480.614050220507
 21
-8404.648416672717
 31
0.0
  0
LINE
  5
69449
330
18
100
AcDbEntity
  8
姿図
100
AcDbLine
 10
7480.614050220507
 20
-8406.323057601487
 30
0.0
 11
7478.795283989342
 21
-8408.100160148873
 31
0.0
  0
LINE
  5
6944A
330
18
100
AcDbEntity
  8
姿図
100
AcDbLine
 10
7480.614050220507
 20
-8401.451374899607
 30
0.0
 11
7478.795283989342
 21
-8403.228477446992
 31
0.0
  0
LINE
  5
6944B
330
18
100
AcDbEntity
  8
姿図
100
AcDbLine
 10
7480.614050220507
 20
-8396.579692197725
 30
0.0
 11
7478.795283989342
 21
-8398.356794745112
 31
0.0
  0
LINE
  5
6944C
330
18
100
AcDbEntity
  8
姿図
100
AcDbLine
 10
7480.614050220507
 20
-8382.624351124628
 30
0.0
 11
7480.614050220507
 21
-8380.594483332177
 31
0.0
  0
LINE
  5
6944D
330
18
100
AcDbEntity
  8
姿図
100
AcDbLine
 10
7480.614050220507
 20
-8386.836326793964
 30
0.0
 11
7480.614050220507
 21
-8385.161685865192
 31
0.0
  0
LINE
  5
6944E
330
18
100
AcDbEntity
  8
姿図
100
AcDbLine
 10
7480.614050220507
 20
-8391.708009495844
 30
0.0
 11
7480.614050220507
 21
-8390.033368567074
 31
0.0
  0
LINE
  5
6944F
330
18
100
AcDbEntity
  8
姿図
100
AcDbLine
 10
7479.316122453327
 20
-8382.765449371604
 30
0.0
 11
7479.316122453327
 21
-8384.148373369504
 31
0.0
  0
LINE
  5
69450
330
18
100
AcDbEntity
  8
姿図
100
AcDbLine
 10
7480.614050220507
 20
-8391.708009495844
 30
0.0
 11
7478.795283989342
 21
-8393.48511204323
 31
0.0
  0
LINE
  5
69451
330
18
100
AcDbEntity
  8
姿図
100
AcDbLine
 10
7480.614050220507
 20
-8382.624351124628
 30
0.0
 11
7479.316122453327
 21
-8382.765449371604
 31
0.0
  0
LINE
  5
69452
330
18
100
AcDbEntity
  8
姿図
100
AcDbLine
 10
7480.614050220507
 20
-8386.836326793964
 30
0.0
 11
7478.795283989342
 21
-8388.613429341349
 31
0.0
  0
LINE
  5
69453
330
18
100
AcDbEntity
  8
姿図
100
AcDbLine
 10
7480.614050220507
 20
-8374.707866734072
 30
0.0
 11
7480.614050220507
 21
-8372.67799894162
 31
0.0
  0
LINE
  5
69454
330
18
100
AcDbEntity
  8
姿図
100
AcDbLine
 10
7480.614050220507
 20
-8374.707866734072
 30
0.0
 11
7479.557506672967
 21
-8374.707866734072
 31
0.0
  0
LINE
  5
69455
330
18
100
AcDbEntity
  8
姿図
100
AcDbLine
 10
7480.614050220507
 20
-8423.393743107237
 30
0.0
 11
7480.614050220507
 21
-8420.633625538263
 31
0.0
  0
LINE
  5
69456
330
18
100
AcDbEntity
  8
姿図
100
AcDbLine
 10
7480.614050220507
 20
-8414.747008940158
 30
0.0
 11
7479.436380245215
 21
-8414.747008940158
 31
0.0
  0
LINE
  5
69457
330
18
100
AcDbEntity
  8
姿図
100
AcDbLine
 10
7480.614050220507
 20
-8414.747008940158
 30
0.0
 11
7480.614050220507
 21
-8412.970874621762
 31
0.0
  0
LINE
  5
69458
330
18
100
AcDbEntity
  8
姿図
100
AcDbLine
 10
7449.396792143805
 20
-8434.743176370972
 30
0.0
 11
7434.222127016454
 21
-8437.439049679711
 31
0.0
  0
LINE
  5
69459
330
18
100
AcDbEntity
  8
姿図
100
AcDbLine
 10
7478.284301833837
 20
-8373.713855814756
 30
0.0
 11
7478.284301833837
 21
-8378.775612350513
 31
0.0
  0
LINE
  5
6945A
330
18
100
AcDbEntity
  8
姿図
100
AcDbLine
 10
7478.284301833837
 20
-8413.847563316307
 30
0.0
 11
7478.284301833837
 21
-8418.814754556599
 31
0.0
  0
LINE
  5
6945B
330
18
100
AcDbEntity
  8
姿図
100
AcDbLine
 10
7449.396792143805
 20
-8427.519436475388
 30
0.0
 11
7449.396792143805
 21
-8434.743176370972
 31
0.0
  0
LINE
  5
6945C
330
18
100
AcDbEntity
  8
姿図
100
AcDbLine
 10
7480.614050220507
 20
-8411.194740303368
 30
0.0
 11
7478.33904220482
 21
-8411.194740303368
 31
0.0
  0
LINE
  5
6945D
330
18
100
AcDbEntity
  8
姿図
100
AcDbLine
 10
7449.396792143805
 20
-8428.939682481501
 30
0.0
 11
7480.614050220512
 21
-8423.393743107237
 31
0.0
  0
LINE
  5
6945E
330
18
100
AcDbEntity
  8
姿図
100
AcDbLine
 10
7467.377505448252
 20
-8309.70950673499
 30
0.0
 11
7464.545049297407
 21
-8310.039214411374
 31
0.0
  0
LINE
  5
6945F
330
18
100
AcDbEntity
  8
姿図
100
AcDbLine
 10
7467.377505448252
 20
-8309.70950673499
 30
0.0
 11
7478.284301833837
 21
-8318.97939278443
 31
0.0
  0
ENDSEC
  0
SECTION
  2
OBJECTS
  0
DICTIONARY
  5
C
330
0
100
AcDbDictionary
281
     1
  3
ACAD_GROUP
350
D
  3
ACAD_IMAGE_VARS
350
69730
  3
ACAD_LAYOUT
350
40CB
  3
ACAD_MLINESTYLE
350
E
  3
ACAD_PLOTSETTINGS
350
40CC
  3
ACAD_PLOTSTYLENAME
350
40C9
  3
ACAD_SCALELIST
350
65D69
  3
AcadDim
350
FCCB
  3
AcDbVariableDictionary
350
6377
  3
APPDATA
350
6972F
  3
DWGPROPS
350
69753
  0
DICTIONARY
  5
6479D
330
2
100
AcDbDictionary
280
     1
281
     1
  3
ACAD_LAYERSTATES
360
6479E
  0
DICTIONARY
  5
66C54
330
F
100
AcDbDictionary
280
     1
281
     1
  3
ADSK_XREC_LAYER_RECONCILED
360
66C55
  0
DICTIONARY
  5
66C5C
330
4C
100
AcDbDictionary
280
     1
281
     1
  3
ADSK_XREC_LAYER_RECONCILED
360
66C5D
  0
DICTIONARY
  5
66C5E
330
4D
100
AcDbDictionary
280
     1
281
     1
  3
ADSK_XREC_LAYER_RECONCILED
360
66C5F
  0
DICTIONARY
  5
66C62
330
40D4
100
AcDbDictionary
280
     1
281
     1
  3
ADSK_XREC_LAYER_RECONCILED
360
66C63
  0
DICTIONARY
  5
66C68
330
65D31
100
AcDbDictionary
280
     1
281
     1
  3
ADSK_XREC_LAYER_RECONCILED
360
66C69
  0
DICTIONARY
  5
D
102
{ACAD_REACTORS
330
C
102
}
330
C
100
AcDbDictionary
281
     1
  0
RASTERVARIABLES
  5
69730
102
{ACAD_REACTORS
330
C
102
}
330
C
100
AcDbRasterVariables
 90
        0
 70
     1
 71
     1
 72
     0
  0
DICTIONARY
  5
40CB
102
{ACAD_REACTORS
330
C
102
}
330
C
100
AcDbDictionary
281
     1
  3
Model
350
40CD
  3
ﾚｲｱｳﾄ1
350
40CE
  0
DICTIONARY
  5
E
102
{ACAD_REACTORS
330
C
102
}
330
C
100
AcDbDictionary
281
     1
  3
STANDARD
350
1B
  0
DICTIONARY
  5
40CC
102
{ACAD_REACTORS
330
C
102
}
330
C
100
AcDbDictionary
281
     1
  0
ACDBDICTIONARYWDFLT
  5
40C9
102
{ACAD_REACTORS
330
C
102
}
330
C
100
AcDbDictionary
281
     1
  3
Normal
350
40CA
100
AcDbDictionaryWithDefault
340
40CA
  0
DICTIONARY
  5
65D69
102
{ACAD_REACTORS
330
C
102
}
330
C
100
AcDbDictionary
281
     1
  3
A0
350
65D6A
  3
A1
350
65D6B
  3
A2
350
65D6C
  3
A3
350
65D6D
  3
A4
350
65D6E
  3
A5
350
65D6F
  3
A6
350
65D70
  3
A7
350
65D71
  3
A8
350
65D72
  3
A9
350
65D73
  3
B0
350
65D74
  3
B1
350
65D75
  3
B2
350
65D76
  3
B3
350
65D77
  3
B4
350
65D78
  3
B5
350
65D79
  3
B6
350
65D7A
  3
B7
350
65D7B
  3
B8
350
65D7C
  3
B9
350
65D7D
  3
C0
350
65D7E
  3
C1
350
65D7F
  3
C2
350
65D80
  3
C3
350
65D81
  3
C4
350
65D82
  3
C5
350
65D83
  3
C6
350
65D84
  3
C7
350
65D85
  3
C8
350
65D86
  3
C9
350
65D87
  3
D0
350
65D88
  3
D1
350
65D89
  3
D2
350
65D8A
  0
XRECORD
  5
FCCB
102
{ACAD_REACTORS
330
C
102
}
330
C
100
AcDbXrecord
280
     1
 90
   990106
  3

 60
     0
 61
     0
 62
     1
 63
     3
 64
     0
 65
     0
 66
     0
 67
     3
 68
     1
 69
     0
 70
     0
 71
     0
 72
     0
 40
2.0
170
     0
  0
DICTIONARY
  5
6377
102
{ACAD_REACTORS
330
C
102
}
330
C
100
AcDbDictionary
281
     1
  3
DIMASSOC
350
73F2
  3
INDEXCTL
350
66C7D
  3
PROJECTNAME
350
61970
  3
SORTENTS
350
6378
  0
DICTIONARY
  5
6972F
102
{ACAD_REACTORS
330
C
102
}
330
C
100
AcDbDictionary
281
     1
  0
XRECORD
  5
69753
102
{ACAD_REACTORS
330
C
102
}
330
C
100
AcDbXrecord
280
     1
  1
DWGPROPS COOKIE
  2

  3

  4

  6

  7

  8
SPAX
  9

300
=
301
=
302
=
303
=
304
=
305
=
306
=
307
=
308
=
309
=
 40
0.0
 41
2449505.547222222
 42
2456822.117295127
  1

 90
        0
  0
DICTIONARY
  5
6479E
102
{ACAD_REACTORS
330
6479D
102
}
330
6479D
100
AcDbDictionary
281
     1
  0
XRECORD
  5
66C55
102
{ACAD_REACTORS
330
66C54
102
}
330
66C54
100
AcDbXrecord
280
     1
290
     1
  0
XRECORD
  5
66C5D
102
{ACAD_REACTORS
330
66C5C
102
}
330
66C5C
100
AcDbXrecord
280
     1
290
     1
  0
XRECORD
  5
66C5F
102
{ACAD_REACTORS
330
66C5E
102
}
330
66C5E
100
AcDbXrecord
280
     1
290
     1
  0
XRECORD
  5
66C63
102
{ACAD_REACTORS
330
66C62
102
}
330
66C62
100
AcDbXrecord
280
     1
290
     1
  0
XRECORD
  5
66C69
102
{ACAD_REACTORS
330
66C68
102
}
330
66C68
100
AcDbXrecord
280
     1
290
     1
  0
LAYOUT
  5
40CD
102
{ACAD_REACTORS
330
40CB
102
}
330
40CB
100
AcDbPlotSettings
  1

  2
JUST PDF 2.pc3
  4
A4
  6
CUT1
 40
3.174999952316284
 41
3.174999952316284
 42
3.175003051757812
 43
3.17498779296875
 44
209.8886566162109
 45
297.0530090332031
 46
14.27
 47
9.86
 48
7111.929939809845
 49
-7566.553700475487
140
8861.882124758908
141
-4856.626949088822
142
1.0
143
10.0
 70
 11940
 72
     1
 73
     0
 74
     4
  7
spax form.ctb
 75
     0
147
0.1
148
-7111.929939809845
149
7566.553700475487
100
AcDbLayout
  1
Model
 70
     1
 71
     0
 10
0.0
 20
0.0
 11
12.0
 21
9.0
 12
0.0
 22
0.0
 32
0.0
 14
7149.069432007858
 24
-8537.200834662148
 34
0.0
 15
7529.031432007859
 25
-8224.470308324839
 35
0.0
146
0.0
 13
0.0
 23
0.0
 33
0.0
 16
1.0
 26
0.0
 36
0.0
 17
0.0
 27
1.0
 37
0.0
 76
     0
330
18
331
68C57
1001
ACAD_PSEXT
1000
DWG To PDF.pc3
1000
PDF
1000
ファイル
1000

1070
     0
  0
LAYOUT
  5
40CE
102
{ACAD_REACTORS
330
40CB
102
}
330
40CB
100
AcDbPlotSettings
  1

  2
なし
  4

  6

 40
0.0
 41
0.0
 42
0.0
 43
0.0
 44
0.0
 45
0.0
 46
0.0
 47
0.0
 48
0.0
 49
0.0
140
0.0
141
0.0
142
1.0
143
1.0
 70
   688
 72
     0
 73
     0
 74
     5
  7
spax form.ctb
 75
    16
147
1.0
148
0.0
149
0.0
100
AcDbLayout
  1
ﾚｲｱｳﾄ1
 70
     0
 71
     1
 10
0.0
 20
0.0
 11
12.0
 21
9.0
 12
0.0
 22
0.0
 32
0.0
 14
1.000000000000000E+20
 24
1.000000000000000E+20
 34
1.000000000000000E+20
 15
-1.000000000000000E+20
 25
-1.000000000000000E+20
 35
-1.000000000000000E+20
146
0.0
 13
0.0
 23
0.0
 33
0.0
 16
1.0
 26
0.0
 36
0.0
 17
0.0
 27
1.0
 37
0.0
 76
     0
330
15
  0
MLINESTYLE
  5
1B
102
{ACAD_REACTORS
330
E
102
}
330
E
100
AcDbMlineStyle
  2
STANDARD
 70
     0
  3

 62
     0
 51
90.0
 52
90.0
 71
     2
 49
0.5
 62
   256
  6
BYLAYER
 49
-0.5
 62
   256
  6
BYLAYER
  0
ACDBPLACEHOLDER
  5
40CA
102
{ACAD_REACTORS
330
40C9
102
}
330
40C9
  0
SCALE
  5
65D6A
102
{ACAD_REACTORS
330
65D69
102
}
330
65D69
100
AcDbScale
 70
     0
300
1:1
140
1.0
141
1.0
290
     1
1001
ACAD
1000
AcRTDxfName
1000
SCALE
1000
AcRTDxfName
1000
SCALE
  0
SCALE
  5
65D6B
102
{ACAD_REACTORS
330
65D69
102
}
330
65D69
100
AcDbScale
 70
     0
300
1:2
140
1.0
141
2.0
290
     0
1001
ACAD
1000
AcRTDxfName
1000
SCALE
1000
AcRTDxfName
1000
SCALE
  0
SCALE
  5
65D6C
102
{ACAD_REACTORS
330
65D69
102
}
330
65D69
100
AcDbScale
 70
     0
300
1:4
140
1.0
141
4.0
290
     0
1001
ACAD
1000
AcRTDxfName
1000
SCALE
1000
AcRTDxfName
1000
SCALE
  0
SCALE
  5
65D6D
102
{ACAD_REACTORS
330
65D69
102
}
330
65D69
100
AcDbScale
 70
     0
300
1:5
140
1.0
141
5.0
290
     0
1001
ACAD
1000
AcRTDxfName
1000
SCALE
1000
AcRTDxfName
1000
SCALE
  0
SCALE
  5
65D6E
102
{ACAD_REACTORS
330
65D69
102
}
330
65D69
100
AcDbScale
 70
     0
300
1:8
140
1.0
141
8.0
290
     0
1001
ACAD
1000
AcRTDxfName
1000
SCALE
1000
AcRTDxfName
1000
SCALE
  0
SCALE
  5
65D6F
102
{ACAD_REACTORS
330
65D69
102
}
330
65D69
100
AcDbScale
 70
     0
300
1:10
140
1.0
141
10.0
290
     0
1001
ACAD
1000
AcRTDxfName
1000
SCALE
1000
AcRTDxfName
1000
SCALE
  0
SCALE
  5
65D70
102
{ACAD_REACTORS
330
65D69
102
}
330
65D69
100
AcDbScale
 70
     0
300
1:16
140
1.0
141
16.0
290
     0
1001
ACAD
1000
AcRTDxfName
1000
SCALE
1000
AcRTDxfName
1000
SCALE
  0
SCALE
  5
65D71
102
{ACAD_REACTORS
330
65D69
102
}
330
65D69
100
AcDbScale
 70
     0
300
1:20
140
1.0
141
20.0
290
     0
1001
ACAD
1000
AcRTDxfName
1000
SCALE
1000
AcRTDxfName
1000
SCALE
  0
SCALE
  5
65D72
102
{ACAD_REACTORS
330
65D69
102
}
330
65D69
100
AcDbScale
 70
     0
300
1:30
140
1.0
141
30.0
290
     0
1001
ACAD
1000
AcRTDxfName
1000
SCALE
1000
AcRTDxfName
1000
SCALE
  0
SCALE
  5
65D73
102
{ACAD_REACTORS
330
65D69
102
}
330
65D69
100
AcDbScale
 70
     0
300
1:40
140
1.0
141
40.0
290
     0
1001
ACAD
1000
AcRTDxfName
1000
SCALE
1000
AcRTDxfName
1000
SCALE
  0
SCALE
  5
65D74
102
{ACAD_REACTORS
330
65D69
102
}
330
65D69
100
AcDbScale
 70
     0
300
1:50
140
1.0
141
50.0
290
     0
1001
ACAD
1000
AcRTDxfName
1000
SCALE
1000
AcRTDxfName
1000
SCALE
  0
SCALE
  5
65D75
102
{ACAD_REACTORS
330
65D69
102
}
330
65D69
100
AcDbScale
 70
     0
300
1:100
140
1.0
141
100.0
290
     0
1001
ACAD
1000
AcRTDxfName
1000
SCALE
1000
AcRTDxfName
1000
SCALE
  0
SCALE
  5
65D76
102
{ACAD_REACTORS
330
65D69
102
}
330
65D69
100
AcDbScale
 70
     0
300
2:1
140
2.0
141
1.0
290
     0
1001
ACAD
1000
AcRTDxfName
1000
SCALE
1000
AcRTDxfName
1000
SCALE
  0
SCALE
  5
65D77
102
{ACAD_REACTORS
330
65D69
102
}
330
65D69
100
AcDbScale
 70
     0
300
4:1
140
4.0
141
1.0
290
     0
1001
ACAD
1000
AcRTDxfName
1000
SCALE
1000
AcRTDxfName
1000
SCALE
  0
SCALE
  5
65D78
102
{ACAD_REACTORS
330
65D69
102
}
330
65D69
100
AcDbScale
 70
     0
300
8:1
140
8.0
141
1.0
290
     0
1001
ACAD
1000
AcRTDxfName
1000
SCALE
1000
AcRTDxfName
1000
SCALE
  0
SCALE
  5
65D79
102
{ACAD_REACTORS
330
65D69
102
}
330
65D69
100
AcDbScale
 70
     0
300
10:1
140
10.0
141
1.0
290
     0
1001
ACAD
1000
AcRTDxfName
1000
SCALE
1000
AcRTDxfName
1000
SCALE
  0
SCALE
  5
65D7A
102
{ACAD_REACTORS
330
65D69
102
}
330
65D69
100
AcDbScale
 70
     0
300
100:1
140
100.0
141
1.0
290
     0
1001
ACAD
1000
AcRTDxfName
1000
SCALE
1000
AcRTDxfName
1000
SCALE
  0
SCALE
  5
65D7B
102
{ACAD_REACTORS
330
65D69
102
}
330
65D69
100
AcDbScale
 70
     0
300
1/128" = 1'-0"
140
0.0078125
141
12.0
290
     0
1001
ACAD
1000
AcRTDxfName
1000
SCALE
1000
AcRTDxfName
1000
SCALE
  0
SCALE
  5
65D7C
102
{ACAD_REACTORS
330
65D69
102
}
330
65D69
100
AcDbScale
 70
     0
300
1/64" = 1'-0"
140
0.015625
141
12.0
290
     0
1001
ACAD
1000
AcRTDxfName
1000
SCALE
1000
AcRTDxfName
1000
SCALE
  0
SCALE
  5
65D7D
102
{ACAD_REACTORS
330
65D69
102
}
330
65D69
100
AcDbScale
 70
     0
300
1/32" = 1'-0"
140
0.03125
141
12.0
290
     0
1001
ACAD
1000
AcRTDxfName
1000
SCALE
1000
AcRTDxfName
1000
SCALE
  0
SCALE
  5
65D7E
102
{ACAD_REACTORS
330
65D69
102
}
330
65D69
100
AcDbScale
 70
     0
300
1/16" = 1'-0"
140
0.0625
141
12.0
290
     0
1001
ACAD
1000
AcRTDxfName
1000
SCALE
1000
AcRTDxfName
1000
SCALE
  0
SCALE
  5
65D7F
102
{ACAD_REACTORS
330
65D69
102
}
330
65D69
100
AcDbScale
 70
     0
300
3/32" = 1'-0"
140
0.09375
141
12.0
290
     0
1001
ACAD
1000
AcRTDxfName
1000
SCALE
1000
AcRTDxfName
1000
SCALE
  0
SCALE
  5
65D80
102
{ACAD_REACTORS
330
65D69
102
}
330
65D69
100
AcDbScale
 70
     0
300
1/8" = 1'-0"
140
0.125
141
12.0
290
     0
1001
ACAD
1000
AcRTDxfName
1000
SCALE
1000
AcRTDxfName
1000
SCALE
  0
SCALE
  5
65D81
102
{ACAD_REACTORS
330
65D69
102
}
330
65D69
100
AcDbScale
 70
     0
300
3/16" = 1'-0"
140
0.1875
141
12.0
290
     0
1001
ACAD
1000
AcRTDxfName
1000
SCALE
1000
AcRTDxfName
1000
SCALE
  0
SCALE
  5
65D82
102
{ACAD_REACTORS
330
65D69
102
}
330
65D69
100
AcDbScale
 70
     0
300
1/4" = 1'-0"
140
0.25
141
12.0
290
     0
1001
ACAD
1000
AcRTDxfName
1000
SCALE
1000
AcRTDxfName
1000
SCALE
  0
SCALE
  5
65D83
102
{ACAD_REACTORS
330
65D69
102
}
330
65D69
100
AcDbScale
 70
     0
300
3/8" = 1'-0"
140
0.375
141
12.0
290
     0
1001
ACAD
1000
AcRTDxfName
1000
SCALE
1000
AcRTDxfName
1000
SCALE
  0
SCALE
  5
65D84
102
{ACAD_REACTORS
330
65D69
102
}
330
65D69
100
AcDbScale
 70
     0
300
1/2" = 1'-0"
140
0.5
141
12.0
290
     0
1001
ACAD
1000
AcRTDxfName
1000
SCALE
1000
AcRTDxfName
1000
SCALE
  0
SCALE
  5
65D85
102
{ACAD_REACTORS
330
65D69
102
}
330
65D69
100
AcDbScale
 70
     0
300
3/4" = 1'-0"
140
0.75
141
12.0
290
     0
1001
ACAD
1000
AcRTDxfName
1000
SCALE
1000
AcRTDxfName
1000
SCALE
  0
SCALE
  5
65D86
102
{ACAD_REACTORS
330
65D69
102
}
330
65D69
100
AcDbScale
 70
     0
300
1" = 1'-0"
140
1.0
141
12.0
290
     0
1001
ACAD
1000
AcRTDxfName
1000
SCALE
1000
AcRTDxfName
1000
SCALE
  0
SCALE
  5
65D87
102
{ACAD_REACTORS
330
65D69
102
}
330
65D69
100
AcDbScale
 70
     0
300
1-1/2" = 1'-0"
140
1.5
141
12.0
290
     0
1001
ACAD
1000
AcRTDxfName
1000
SCALE
1000
AcRTDxfName
1000
SCALE
  0
SCALE
  5
65D88
102
{ACAD_REACTORS
330
65D69
102
}
330
65D69
100
AcDbScale
 70
     0
300
3" = 1'-0"
140
3.0
141
12.0
290
     0
1001
ACAD
1000
AcRTDxfName
1000
SCALE
1000
AcRTDxfName
1000
SCALE
  0
SCALE
  5
65D89
102
{ACAD_REACTORS
330
65D69
102
}
330
65D69
100
AcDbScale
 70
     0
300
6" = 1'-0"
140
6.0
141
12.0
290
     0
1001
ACAD
1000
AcRTDxfName
1000
SCALE
1000
AcRTDxfName
1000
SCALE
  0
SCALE
  5
65D8A
102
{ACAD_REACTORS
330
65D69
102
}
330
65D69
100
AcDbScale
 70
     0
300
1'-0" = 1'-0"
140
12.0
141
12.0
290
     0
1001
ACAD
1000
AcRTDxfName
1000
SCALE
1000
AcRTDxfName
1000
SCALE
  0
DICTIONARYVAR
  5
73F2
102
{ACAD_REACTORS
330
6377
102
}
330
6377
100
DictionaryVariables
280
     0
  1
1
  0
DICTIONARYVAR
  5
66C7D
102
{ACAD_REACTORS
330
6377
102
}
330
6377
100
DictionaryVariables
280
     0
  1
0
  0
DICTIONARYVAR
  5
61970
102
{ACAD_REACTORS
330
6377
102
}
330
6377
100
DictionaryVariables
280
     0
  1

  0
DICTIONARYVAR
  5
6378
102
{ACAD_REACTORS
330
6377
102
}
330
6377
100
DictionaryVariables
280
     0
  1
96
  0
ENDSEC
  0
EOF
