  0
SECTION
  2
HEADER
  9
$ACADVER
  1
AC1015
  9
$ACADMAINTVER
 70
     6
  9
$DWGCODEPAGE
  3
ANSI_932
  9
$INSBASE
 10
0.0
 20
0.0
 30
0.0
  9
$EXTMIN
 10
9150.76168936196
 20
-8809.94096601065
 30
0.0
  9
$EXTMAX
 10
9530.72368936196
 20
-8457.189018204466
 30
0.0
  9
$LIMMIN
 10
0.0
 20
0.0
  9
$LIMMAX
 10
840.0
 20
594.0
  9
$ORTHOMODE
 70
     1
  9
$REGENMODE
 70
     1
  9
$FILLMODE
 70
     1
  9
$QTEXTMODE
 70
     0
  9
$MIRRTEXT
 70
     1
  9
$LTSCALE
 40
7.0
  9
$ATTMODE
 70
     0
  9
$TEXTSIZE
 40
6.0
  9
$TRACEWID
 40
1.0
  9
$TEXTSTYLE
  7
STANDARD
  9
$CLAYER
  8
寸法線
  9
$CELTYPE
  6
BYLAYER
  9
$CECOLOR
 62
   256
  9
$CELTSCALE
 40
1.0
  9
$DISPSILH
 70
     0
  9
$DIMSCALE
 40
1.0
  9
$DIMASZ
 40
10.0
  9
$DIMEXO
 40
3.0
  9
$DIMDLI
 40
7.149999999999999
  9
$DIMRND
 40
0.0
  9
$DIMDLE
 40
0.0
  9
$DIMEXE
 40
2.0
  9
$DIMTP
 40
0.0
  9
$DIMTM
 40
0.0
  9
$DIMTXT
 40
18.0
  9
$DIMCEN
 40
0.0
  9
$DIMTSZ
 40
0.0
  9
$DIMTOL
 70
     0
  9
$DIMLIM
 70
     0
  9
$DIMTIH
 70
     0
  9
$DIMTOH
 70
     0
  9
$DIMSE1
 70
     0
  9
$DIMSE2
 70
     0
  9
$DIMTAD
 70
     3
  9
$DIMZIN
 70
     8
  9
$DIMBLK
  1
OPEN
  9
$DIMASO
 70
     1
  9
$DIMSHO
 70
     0
  9
$DIMPOST
  1

  9
$DIMAPOST
  1

  9
$DIMALT
 70
     0
  9
$DIMALTD
 70
     2
  9
$DIMALTF
 40
25.4
  9
$DIMLFAC
 40
1.0
  9
$DIMTOFL
 70
     0
  9
$DIMTVP
 40
0.0
  9
$DIMTIX
 70
     0
  9
$DIMSOXD
 70
     0
  9
$DIMSAH
 70
     0
  9
$DIMBLK1
  1

  9
$DIMBLK2
  1

  9
$DIMSTYLE
  2
STANDARD
  9
$DIMCLRD
 70
     8
  9
$DIMCLRE
 70
     8
  9
$DIMCLRT
 70
     0
  9
$DIMTFAC
 40
1.0
  9
$DIMGAP
 40
4.0
  9
$DIMJUST
 70
     0
  9
$DIMSD1
 70
     0
  9
$DIMSD2
 70
     0
  9
$DIMTOLJ
 70
     1
  9
$DIMTZIN
 70
     0
  9
$DIMALTZ
 70
     0
  9
$DIMALTTZ
 70
     0
  9
$DIMUPT
 70
     1
  9
$DIMDEC
 70
     2
  9
$DIMTDEC
 70
     2
  9
$DIMALTU
 70
     2
  9
$DIMALTTD
 70
     2
  9
$DIMTXSTY
  7
STANDARD
  9
$DIMAUNIT
 70
     0
  9
$DIMADEC
 70
     2
  9
$DIMALTRND
 40
0.0
  9
$DIMAZIN
 70
     2
  9
$DIMDSEP
 70
    46
  9
$DIMATFIT
 70
     3
  9
$DIMFRAC
 70
     0
  9
$DIMLDRBLK
  1
OPEN
  9
$DIMLUNIT
 70
     2
  9
$DIMLWD
 70
    -2
  9
$DIMLWE
 70
    -2
  9
$DIMTMOVE
 70
     0
  9
$LUNITS
 70
     2
  9
$LUPREC
 70
     2
  9
$SKETCHINC
 40
0.1
  9
$FILLETRAD
 40
0.6
  9
$AUNITS
 70
     0
  9
$AUPREC
 70
     2
  9
$MENU
  1
ACAD
  9
$ELEVATION
 40
0.0
  9
$PELEVATION
 40
0.0
  9
$THICKNESS
 40
0.0
  9
$LIMCHECK
 70
     0
  9
$CHAMFERA
 40
0.0
  9
$CHAMFERB
 40
0.0
  9
$CHAMFERC
 40
0.0
  9
$CHAMFERD
 40
0.0
  9
$SKPOLY
 70
     0
  9
$TDCREATE
 40
2449505.922222222
  9
$TDUCREATE
 40
2449505.547222222
  9
$TDUPDATE
 40
2456822.49247309
  9
$TDUUPDATE
 40
2456822.11747309
  9
$TDINDWG
 40
2.6338930093
  9
$TDUSRTIMER
 40
2456822.117344386
  9
$USRTIMER
 70
     1
  9
$ANGBASE
 50
0.0
  9
$ANGDIR
 70
     0
  9
$PDMODE
 70
     3
  9
$PDSIZE
 40
0.0
  9
$PLINEWID
 40
0.0
  9
$SPLFRAME
 70
     0
  9
$SPLINETYPE
 70
     6
  9
$SPLINESEGS
 70
     8
  9
$HANDSEED
  5
6962A
  9
$SURFTAB1
 70
     6
  9
$SURFTAB2
 70
     6
  9
$SURFTYPE
 70
     6
  9
$SURFU
 70
     6
  9
$SURFV
 70
     6
  9
$UCSBASE
  2

  9
$UCSNAME
  2

  9
$UCSORG
 10
0.0
 20
0.0
 30
0.0
  9
$UCSXDIR
 10
1.0
 20
0.0
 30
0.0
  9
$UCSYDIR
 10
0.0
 20
1.0
 30
0.0
  9
$UCSORTHOREF
  2

  9
$UCSORTHOVIEW
 70
     0
  9
$UCSORGTOP
 10
0.0
 20
0.0
 30
0.0
  9
$UCSORGBOTTOM
 10
0.0
 20
0.0
 30
0.0
  9
$UCSORGLEFT
 10
0.0
 20
0.0
 30
0.0
  9
$UCSORGRIGHT
 10
0.0
 20
0.0
 30
0.0
  9
$UCSORGFRONT
 10
0.0
 20
0.0
 30
0.0
  9
$UCSORGBACK
 10
0.0
 20
0.0
 30
0.0
  9
$PUCSBASE
  2

  9
$PUCSNAME
  2

  9
$PUCSORG
 10
0.0
 20
0.0
 30
0.0
  9
$PUCSXDIR
 10
1.0
 20
0.0
 30
0.0
  9
$PUCSYDIR
 10
0.0
 20
1.0
 30
0.0
  9
$PUCSORTHOREF
  2

  9
$PUCSORTHOVIEW
 70
     0
  9
$PUCSORGTOP
 10
0.0
 20
0.0
 30
0.0
  9
$PUCSORGBOTTOM
 10
0.0
 20
0.0
 30
0.0
  9
$PUCSORGLEFT
 10
0.0
 20
0.0
 30
0.0
  9
$PUCSORGRIGHT
 10
0.0
 20
0.0
 30
0.0
  9
$PUCSORGFRONT
 10
0.0
 20
0.0
 30
0.0
  9
$PUCSORGBACK
 10
0.0
 20
0.0
 30
0.0
  9
$USERI1
 70
     0
  9
$USERI2
 70
     0
  9
$USERI3
 70
     0
  9
$USERI4
 70
     0
  9
$USERI5
 70
     0
  9
$USERR1
 40
0.0
  9
$USERR2
 40
0.0
  9
$USERR3
 40
0.0
  9
$USERR4
 40
0.0
  9
$USERR5
 40
0.0
  9
$WORLDVIEW
 70
     0
  9
$SHADEDGE
 70
     3
  9
$SHADEDIF
 70
    70
  9
$TILEMODE
 70
     1
  9
$MAXACTVP
 70
    16
  9
$PINSBASE
 10
0.0
 20
0.0
 30
0.0
  9
$PLIMCHECK
 70
     0
  9
$PEXTMIN
 10
1.000000000000000E+20
 20
1.000000000000000E+20
 30
1.000000000000000E+20
  9
$PEXTMAX
 10
-1.000000000000000E+20
 20
-1.000000000000000E+20
 30
-1.000000000000000E+20
  9
$PLIMMIN
 10
0.0
 20
0.0
  9
$PLIMMAX
 10
0.0
 20
0.0
  9
$UNITMODE
 70
     0
  9
$VISRETAIN
 70
     0
  9
$PLINEGEN
 70
     0
  9
$PSLTSCALE
 70
     0
  9
$TREEDEPTH
 70
  3020
  9
$CMLSTYLE
  2
STANDARD
  9
$CMLJUST
 70
     0
  9
$CMLSCALE
 40
1.0
  9
$PROXYGRAPHICS
 70
     1
  9
$MEASUREMENT
 70
     0
  9
$CELWEIGHT
370
    -1
  9
$ENDCAPS
280
     0
  9
$JOINSTYLE
280
     0
  9
$LWDISPLAY
290
     0
  9
$INSUNITS
 70
     0
  9
$HYPERLINKBASE
  1

  9
$STYLESHEET
  1
spax form.ctb
  9
$XEDIT
290
     1
  9
$CEPSNTYPE
380
     0
  9
$PSTYLEMODE
290
     1
  9
$FINGERPRINTGUID
  2
{C1CFCF3E-DF91-11D3-B30C-0060B0FA8DFC}
  9
$VERSIONGUID
  2
{363725F2-BDDE-42EB-8FC7-34B5B1E3F5BF}
  9
$EXTNAMES
290
     1
  9
$PSVPSCALE
 40
0.0
  9
$OLESTARTUP
290
     0
  0
ENDSEC
  0
SECTION
  2
CLASSES
  0
CLASS
  1
LWPOLYLINE
  2
AcDbPolyline
  3
ObjectDBX Classes
 90
        0
280
     0
281
     1
  0
CLASS
  1
ACDBDICTIONARYWDFLT
  2
AcDbDictionaryWithDefault
  3
ObjectDBX Classes
 90
        0
280
     0
281
     0
  0
CLASS
  1
ACDBPLACEHOLDER
  2
AcDbPlaceHolder
  3
ObjectDBX Classes
 90
        0
280
     0
281
     0
  0
CLASS
  1
LAYOUT
  2
AcDbLayout
  3
ObjectDBX Classes
 90
        0
280
     0
281
     0
  0
CLASS
  1
DICTIONARYVAR
  2
AcDbDictionaryVar
  3
ObjectDBX Classes
 90
        0
280
     0
281
     0
  0
CLASS
  1
LONG_TRANSACTION
  2
AcDbLongTransaction
  3
ObjectDBX Classes
 90
        0
280
     0
281
     0
  0
CLASS
  1
LWPOLYLINE
  2
AcDbPolyline
  3
ObjectDBX Classes
 90
        0
280
     0
281
     1
  0
CLASS
  1
HATCH
  2
AcDbHatch
  3
ObjectDBX Classes
 90
        0
280
     0
281
     1
  0
CLASS
  1
XRECORD
  2
AcDbXrecord
  3
ObjectDBX Classes
 90
        0
280
     0
281
     0
  0
CLASS
  1
SORTENTSTABLE
  2
AcDbSortentsTable
  3
ObjectDBX Classes
 90
        0
280
     0
281
     0
  0
CLASS
  1
MATERIAL
  2
AcDbMaterial
  3
ObjectDBX Classes
 90
     1153
280
     0
281
     0
  0
CLASS
  1
VISUALSTYLE
  2
AcDbVisualStyle
  3
ObjectDBX Classes
 90
     4095
280
     0
281
     0
  0
CLASS
  1
TABLESTYLE
  2
AcDbTableStyle
  3
ObjectDBX Classes
 90
     4095
280
     0
281
     0
  0
CLASS
  1
SCALE
  2
AcDbScale
  3
ObjectDBX Classes
 90
     1153
280
     0
281
     0
  0
CLASS
  1
MLEADERSTYLE
  2
AcDbMLeaderStyle
  3
ACDB_MLEADERSTYLE_CLASS
 90
     4095
280
     0
281
     0
  0
CLASS
  1
CELLSTYLEMAP
  2
AcDbCellStyleMap
  3
ObjectDBX Classes
 90
     1152
280
     0
281
     0
  0
CLASS
  1
RASTERVARIABLES
  2
AcDbRasterVariables
  3
ISM
 90
        0
280
     0
281
     0
  0
CLASS
  1
SUN
  2
AcDbSun
  3
SCENEOE
 90
     1153
280
     0
281
     0
  0
ENDSEC
  0
SECTION
  2
TABLES
  0
TABLE
  2
VPORT
  5
8
330
0
100
AcDbSymbolTable
 70
     1
  0
VPORT
  5
68B24
330
8
100
AcDbSymbolTableRecord
100
AcDbViewportTableRecord
  2
*Active
 70
     0
 10
0.0
 20
0.0
 11
1.0
 21
1.0
 12
9340.74268936196
 22
-8633.564992107558
 13
0.0
 23
0.0
 14
1.0
 24
1.0
 15
20.0
 25
20.0
 16
0.0
 26
0.0
 36
1.0
 17
0.0
 27
0.0
 37
0.0
 40
359.8069867623077
 41
2.027568922305764
 42
50.0
 43
0.0
 44
0.0
 50
0.0
 51
0.0
 71
    16
 72
  2000
 73
     1
 74
     0
 75
     0
 76
     0
 77
     0
 78
     1
281
     0
 65
     1
110
0.0
120
0.0
130
0.0
111
1.0
121
0.0
131
0.0
112
0.0
122
1.0
132
0.0
 79
     0
146
0.0
  0
ENDTAB
  0
TABLE
  2
LTYPE
  5
5
330
0
100
AcDbSymbolTable
 70
     5
  0
LTYPE
  5
12
330
5
100
AcDbSymbolTableRecord
100
AcDbLinetypeTableRecord
  2
BYBLOCK
 70
     0
  3

 72
    65
 73
     0
 40
0.0
  0
LTYPE
  5
13
330
5
100
AcDbSymbolTableRecord
100
AcDbLinetypeTableRecord
  2
BYLAYER
 70
     0
  3

 72
    65
 73
     0
 40
0.0
  0
LTYPE
  5
14
330
5
100
AcDbSymbolTableRecord
100
AcDbLinetypeTableRecord
  2
CONTINUOUS
 70
     0
  3
Solid line
 72
    65
 73
     0
 40
0.0
  0
LTYPE
  5
3D
330
5
100
AcDbSymbolTableRecord
100
AcDbLinetypeTableRecord
  2
PHANTOM
 70
     0
  3
_____ _ _ _____ _ _ _____ _ _ _____ _ _ ____
 72
    65
 73
     6
 40
2.5
 49
1.25
 74
     0
 49
-0.25
 74
     0
 49
0.25
 74
     0
 49
-0.25
 74
     0
 49
0.25
 74
     0
 49
-0.25
 74
     0
  0
LTYPE
  5
40D2
330
5
100
AcDbSymbolTableRecord
100
AcDbLinetypeTableRecord
  2
CENTER
 70
     0
  3
____ _ ____ _ ____ _ ____ _ ____ _ ____ _ ____ 
 72
    65
 73
     4
 40
2.0
 49
1.25
 74
     0
 49
-0.25
 74
     0
 49
0.25
 74
     0
 49
-0.25
 74
     0
  0
LTYPE
  5
A244
330
5
100
AcDbSymbolTableRecord
100
AcDbLinetypeTableRecord
  2
HIDDEN
 70
     0
  3
_ _ _ _ _ _ _ _ _ _ _ _ _ _ _ _ _ _ _ _ _ _ _
 72
    65
 73
     2
 40
0.375
 49
0.25
 74
     0
 49
-0.125
 74
     0
  0
ENDTAB
  0
TABLE
  2
LAYER
  5
2
102
{ACAD_XDICTIONARY
360
6475C
102
}
330
0
100
AcDbSymbolTable
 70
    12
  0
LAYER
  5
F
102
{ACAD_XDICTIONARY
360
6757C
102
}
330
2
100
AcDbSymbolTableRecord
100
AcDbLayerTableRecord
  2
0
 70
     0
 62
     7
  6
CONTINUOUS
370
    -3
390
40CA
  0
LAYER
  5
4C
102
{ACAD_XDICTIONARY
360
67584
102
}
330
2
100
AcDbSymbolTableRecord
100
AcDbLayerTableRecord
  2
寸法線
 70
     0
 62
     7
  6
CONTINUOUS
370
    -3
390
40CA
  0
LAYER
  5
4D
102
{ACAD_XDICTIONARY
360
67586
102
}
330
2
100
AcDbSymbolTableRecord
100
AcDbLayerTableRecord
  2
姿図
 70
     0
 62
     8
  6
CONTINUOUS
370
    -3
390
40CA
  0
LAYER
  5
40D4
102
{ACAD_XDICTIONARY
360
6758A
102
}
330
2
100
AcDbSymbolTableRecord
100
AcDbLayerTableRecord
  2
文字
 70
     0
 62
     7
  6
CONTINUOUS
370
    -3
390
40CA
  0
LAYER
  5
666E9
102
{ACAD_XDICTIONARY
360
67590
102
}
330
2
100
AcDbSymbolTableRecord
100
AcDbLayerTableRecord
  2
C-SUNPO
 70
     0
 62
     7
  6
CONTINUOUS
370
    -3
390
40CA
  0
ENDTAB
  0
TABLE
  2
STYLE
  5
3
330
0
100
AcDbSymbolTable
 70
     1
  0
STYLE
  5
10
330
3
100
AcDbSymbolTableRecord
100
AcDbTextStyleTableRecord
  2
STANDARD
 70
     0
 40
0.0
 41
1.0
 50
0.0
 71
     0
 42
6.0
  3
MONOTXT
  4
BIGFONT
  0
ENDTAB
  0
TABLE
  2
VIEW
  5
6
330
0
100
AcDbSymbolTable
 70
     1
  0
VIEW
  5
41
330
6
100
AcDbSymbolTableRecord
100
AcDbViewTableRecord
  2
CUT1
 70
     0
 40
612.7795527156796
 10
420.0000000000169
 20
306.3897763578398
 41
840.0000000000338
 11
0.0
 21
0.0
 31
1.0
 12
0.0
 22
0.0
 32
0.0
 42
50.0
 43
0.0
 44
0.0
 50
0.0
 71
     0
281
     0
 72
     0
  0
ENDTAB
  0
TABLE
  2
UCS
  5
7
330
0
100
AcDbSymbolTable
 70
     0
  0
ENDTAB
  0
TABLE
  2
APPID
  5
9
330
0
100
AcDbSymbolTable
 70
     6
  0
APPID
  5
11
330
9
100
AcDbSymbolTableRecord
100
AcDbRegAppTableRecord
  2
ACAD
 70
     0
  0
APPID
  5
66745
330
9
100
AcDbSymbolTableRecord
100
AcDbRegAppTableRecord
  2
ACAD_MLEADERVER
 70
     0
  0
APPID
  5
671A9
330
9
100
AcDbSymbolTableRecord
100
AcDbRegAppTableRecord
  2
ACAD_EXEMPT_FROM_CAD_STANDARDS
 70
     0
  0
APPID
  5
68079
330
9
100
AcDbSymbolTableRecord
100
AcDbRegAppTableRecord
  2
ACAD_PSEXT
 70
     0
  0
APPID
  5
695A5
330
9
100
AcDbSymbolTableRecord
100
AcDbRegAppTableRecord
  2
ACAD_DSTYLE_DIMJAG
 70
     0
  0
APPID
  5
695A6
330
9
100
AcDbSymbolTableRecord
100
AcDbRegAppTableRecord
  2
ACAD_DSTYLE_DIMTALN
 70
     0
  0
ENDTAB
  0
TABLE
  2
DIMSTYLE
  5
A
330
0
100
AcDbSymbolTable
 70
     5
100
AcDbDimStyleTable
  0
DIMSTYLE
105
1B3A
330
A
100
AcDbSymbolTableRecord
100
AcDbDimStyleTableRecord
  2
STANDARD
 70
     0
 41
10.0
 42
3.0
 43
7.149999999999999
 44
2.0
 73
     0
 74
     0
 77
     3
 78
     8
 79
     2
140
18.0
141
0.0
147
4.0
176
     8
177
     8
178
     0
179
     2
271
     2
272
     2
288
     1
340
10
341
49C3
342
49C3
  0
DIMSTYLE
105
A246
330
A
100
AcDbSymbolTableRecord
100
AcDbDimStyleTableRecord
  2
STANDERD
 70
     0
 40
0.0
 41
4.0
 42
1.5
 43
3.75
 44
1.25
 73
     0
 74
     0
 77
     3
 78
     8
140
5.0
141
0.0
147
2.5
171
     0
173
     1
178
     0
288
     1
340
10
341
49C3
343
49C3
344
49C3
  0
DIMSTYLE
105
666EA
330
A
100
AcDbSymbolTableRecord
100
AcDbDimStyleTableRecord
  2
STANDARD-5
 70
     0
 41
7.5
 42
7.5
 43
1.9
 44
5.0
 73
     0
 74
     0
 77
     1
 78
     8
 79
     2
140
8.0
141
0.0
147
3.0
171
     0
173
     1
176
     8
177
     8
271
     2
178
   256
179
     2
271
     2
272
     2
274
     0
340
10
341
49C3
343
49C3
344
49C3
  0
ENDTAB
  0
TABLE
  2
BLOCK_RECORD
  5
1
330
0
100
AcDbSymbolTable
 70
   149
  0
BLOCK_RECORD
  5
18
102
{ACAD_XDICTIONARY
360
9FD5
102
}
330
1
100
AcDbSymbolTableRecord
100
AcDbBlockTableRecord
  2
*MODEL_SPACE
340
40CD
  0
BLOCK_RECORD
  5
15
330
1
100
AcDbSymbolTableRecord
100
AcDbBlockTableRecord
  2
*PAPER_SPACE
340
40CE
  0
BLOCK_RECORD
  5
49C3
330
1
100
AcDbSymbolTableRecord
100
AcDbBlockTableRecord
  2
_OPEN
340
0
102
{BLKREFS
331
5A93A
331
5A93B
331
5A943
331
5A944
331
5A94C
331
5A94D
331
62288
331
62289
331
62293
331
62294
331
6229C
331
6229D
331
622C2
331
622C3
331
622CB
331
622CC
331
622D4
331
622D5
331
625DA
331
625DB
331
625E3
331
625E4
331
625EC
331
625ED
331
625F5
331
625F6
331
625FE
331
625FF
331
62607
331
62608
331
62698
331
62699
331
630A7
331
630A8
331
630B0
331
630B1
331
630BB
331
630BC
331
630C4
331
630C5
331
630CD
331
630CE
331
630D6
331
630D7
331
630DF
331
630E0
331
630E8
331
630E9
331
630F1
331
630F2
331
630FA
331
630FB
331
63105
331
63106
331
63110
331
63111
331
63119
331
6311A
331
63122
331
63123
331
6312B
331
6312C
331
63134
331
63135
331
63B2F
331
63B30
331
63B38
331
63B39
331
63B41
331
63B42
331
63B4A
331
63B4B
331
63B53
331
63B54
331
63B5C
331
63B5D
331
63B65
331
63B66
331
63B72
331
63B73
331
63B7B
331
63B7C
331
63B84
331
63B85
331
63B8F
331
63B90
331
63B98
331
63B99
331
63BA1
331
63BA2
331
63BAA
331
63BAB
331
63BB3
331
63BB4
331
63BBC
331
63BBD
331
645AA
331
645AB
331
645B3
331
645B4
331
645BE
331
645BF
331
645C7
331
645C8
331
645D2
331
645D3
331
645DB
331
645DC
331
645E6
331
645E7
331
645EF
331
645F0
331
645F8
331
645F9
331
64601
331
64602
331
6460A
331
6460B
331
64613
331
64614
331
6461C
331
6461D
331
64625
331
64626
331
6462E
331
6462F
331
64637
331
64638
331
665C2
331
665C3
331
665CB
331
665CC
331
665D4
331
665D5
331
665DF
331
665E0
331
665E8
331
665E9
331
665F1
331
665F2
331
665FA
331
665FB
331
66603
331
66604
331
6660C
331
6660D
331
66617
331
66618
331
66620
331
66621
331
66629
331
6662A
331
66634
331
66635
331
6663D
331
6663E
331
66646
331
66647
331
6664F
331
66650
331
6710F
331
67110
331
67118
331
67119
331
67121
331
67122
331
6712A
331
6712B
331
67133
331
67134
331
6713C
331
6713D
331
67145
331
67146
331
6714E
331
6714F
331
67157
331
67158
331
67160
331
67161
331
6716B
331
6716C
331
67174
331
67175
331
6717F
331
67180
331
67562
331
67563
331
6756D
331
6756E
331
67576
331
67577
331
67FBA
331
67FBB
331
67FC3
331
67FC4
331
67FCC
331
67FCD
331
67FD5
331
67FD6
331
67FDE
331
67FDF
331
67FE7
331
67FE8
331
67FF0
331
67FF1
331
67FFB
331
67FFC
331
68004
331
68005
331
6800D
331
6800E
331
68018
331
68019
331
68021
331
68022
331
6802A
331
6802B
331
68033
331
68034
331
6803E
331
6803F
331
68047
331
68048
331
68A6B
331
68A6C
331
68A74
331
68A75
331
68A7D
331
68A7E
331
68A88
331
68A89
331
68A93
331
68A94
331
68A9C
331
68A9D
331
68AA5
331
68AA6
331
68AAE
331
68AAF
331
68AB7
331
68AB8
331
68AC0
331
68AC1
331
68AC9
331
68ACA
331
68AD2
331
68AD3
331
68ADD
331
68ADE
331
68AE6
331
68AE7
331
68AEF
331
68AF0
331
68AF8
331
68AF9
331
694F8
331
694F9
331
69503
331
69504
331
6950E
331
6950F
331
69517
331
69518
331
69520
331
69521
331
69529
331
6952A
331
69534
331
69535
331
6953D
331
6953E
331
69546
331
69547
331
6954F
331
69550
331
69558
331
69559
331
69561
331
69562
331
6956A
331
6956B
331
69573
331
69574
331
6957C
331
6957D
331
69585
331
69586
102
}
  0
ENDTAB
  0
ENDSEC
  0
SECTION
  2
BLOCKS
  0
BLOCK
  5
52
330
18
100
AcDbEntity
  8
0
100
AcDbBlockBegin
  2
*MODEL_SPACE
 70
     0
 10
0.0
 20
0.0
 30
0.0
  3
*MODEL_SPACE
  1
*MODEL_SPACE
  0
ENDBLK
  5
53
330
18
100
AcDbEntity
  8
0
100
AcDbBlockEnd
  0
BLOCK
  5
50
330
15
100
AcDbEntity
 67
     1
  8
0
100
AcDbBlockBegin
  2
*PAPER_SPACE
 70
     0
 10
0.0
 20
0.0
 30
0.0
  3
*PAPER_SPACE
  1
*PAPER_SPACE
  0
ENDBLK
  5
51
330
15
100
AcDbEntity
 67
     1
  8
0
100
AcDbBlockEnd
  0
BLOCK
  5
49C7
330
49C3
100
AcDbEntity
  8
0
100
AcDbBlockBegin
  2
_OPEN
 70
     0
 10
0.0
 20
0.0
 30
0.0
  3
_OPEN
  1
_OPEN
  0
LINE
  5
49C4
330
49C3
100
AcDbEntity
  8
0
  6
ByBlock
 62
     0
100
AcDbLine
 10
-1.0
 20
0.1666666666666667
 30
0.0
 11
0.0
 21
0.0
 31
0.0
  0
LINE
  5
49C5
330
49C3
100
AcDbEntity
  8
0
  6
ByBlock
 62
     0
100
AcDbLine
 10
0.0
 20
0.0
 30
0.0
 11
-1.0
 21
-0.1666666666666667
 31
0.0
  0
LINE
  5
49C6
330
49C3
100
AcDbEntity
  8
0
  6
ByBlock
 62
     0
100
AcDbLine
 10
0.0
 20
0.0
 30
0.0
 11
-1.0
 21
0.0
 31
0.0
  0
ENDBLK
  5
49C8
330
49C3
100
AcDbEntity
  8
0
100
AcDbBlockEnd
  0
ENDSEC
  0
SECTION
  2
ENTITIES
  0
TEXT
  5
68BEE
330
18
100
AcDbEntity
  8
文字
100
AcDbText
 10
9150.76168936196
 20
-8809.94096601065
 30
0.0
 40
29.997
  1
SX-LB140S/600
100
AcDbText
  0
LINE
  5
69110
330
18
100
AcDbEntity
  8
姿図
100
AcDbLine
 10
9352.235394677034
 20
-8701.37997881847
 30
0.0
 11
9221.931029580674
 21
-8590.745119774296
 31
0.0
  0
LINE
  5
69111
330
18
100
AcDbEntity
  8
姿図
100
AcDbLine
 10
9367.99497550565
 20
-8698.580191610235
 30
0.0
 11
9237.690610409285
 21
-8587.945332566062
 31
0.0
  0
LINE
  5
69112
330
18
100
AcDbEntity
  8
姿図
100
AcDbLine
 10
9312.406956010387
 20
-8702.652253905064
 30
0.0
 11
9180.719287035163
 21
-8590.84290136223
 31
0.0
  0
LINE
  5
69113
330
18
100
AcDbEntity
  8
姿図
100
AcDbLine
 10
9367.994975505651
 20
-8695.820074041261
 30
0.0
 11
9237.690610409287
 21
-8585.185214997087
 31
0.0
  0
LINE
  5
69114
330
18
100
AcDbEntity
  8
姿図
100
AcDbLine
 10
9312.406956010387
 20
-8599.616983291598
 30
0.0
 11
9201.75669719834
 21
-8505.573301327895
 31
0.0
  0
LINE
  5
69115
330
18
100
AcDbEntity
  8
姿図
100
AcDbLine
 10
9345.824236556648
 20
-8457.189018204466
 30
0.0
 11
9186.238931905209
 21
-8489.54033664651
 31
0.0
  0
LINE
  5
69116
330
18
100
AcDbEntity
  8
姿図
100
AcDbLine
 10
9323.824236556646
 20
-8481.410619986415
 30
0.0
 11
9201.238931905209
 21
-8505.188659111504
 31
0.0
  0
LINE
  5
69117
330
18
100
AcDbEntity
  8
姿図
100
AcDbLine
 10
9323.906321454942
 20
-8481.872663525191
 30
0.0
 11
9201.75669719834
 21
-8505.573301327895
 31
0.0
  0
LINE
  5
69118
330
18
100
AcDbEntity
  8
姿図
100
AcDbLine
 10
9224.691147149648
 20
-8580.270910317075
 30
0.0
 11
9186.238931905209
 21
-8587.102184672684
 31
0.0
  0
LINE
  5
69119
330
18
100
AcDbEntity
  8
姿図
100
AcDbLine
 10
9221.931029580674
 20
-8583.521379878712
 30
0.0
 11
9180.719287035163
 21
-8590.84290136223
 31
0.0
  0
LINE
  5
6911A
330
18
100
AcDbEntity
  8
姿図
100
AcDbLine
 10
9181.821253638876
 20
-8582.919821356096
 30
0.0
 11
9181.821253638876
 21
-8587.887012596388
 31
0.0
  0
LINE
  5
6911B
330
18
100
AcDbEntity
  8
姿図
100
AcDbLine
 10
9186.238931905209
 20
-8587.102184672684
 30
0.0
 11
9186.238931905209
 21
-8489.54033664651
 31
0.0
  0
LINE
  5
6911C
330
18
100
AcDbEntity
  8
姿図
100
AcDbLine
 10
9186.238931905209
 20
-8587.102184672684
 30
0.0
 11
9180.719287035163
 21
-8588.082783793256
 31
0.0
  0
LINE
  5
6911D
330
18
100
AcDbEntity
  8
姿図
100
AcDbLine
 10
9201.238931905209
 20
-8582.406025163218
 30
0.0
 11
9201.238931905209
 21
-8505.188659111504
 31
0.0
  0
LINE
  5
6911E
330
18
100
AcDbEntity
  8
姿図
100
AcDbLine
 10
9201.75669719834
 20
-8582.043482001944
 30
0.0
 11
9201.75669719834
 21
-8505.573301327895
 31
0.0
  0
LINE
  5
6911F
330
18
100
AcDbEntity
  8
姿図
100
AcDbLine
 10
9180.719287035163
 20
-8542.157024989065
 30
0.0
 11
9182.173063381684
 21
-8543.11171027508
 31
0.0
  0
LINE
  5
69120
330
18
100
AcDbEntity
  8
姿図
100
AcDbLine
 10
9180.719287035163
 20
-8542.157024989065
 30
0.0
 11
9180.719287035163
 21
-8540.127157196614
 31
0.0
  0
LINE
  5
69121
330
18
100
AcDbEntity
  8
姿図
100
AcDbLine
 10
9186.238931905209
 20
-8541.176425868493
 30
0.0
 11
9180.719287035163
 21
-8542.157024989065
 31
0.0
  0
LINE
  5
69122
330
18
100
AcDbEntity
  8
姿図
100
AcDbLine
 10
9186.238931905209
 20
-8542.389383532616
 30
0.0
 11
9182.173063381684
 21
-8543.11171027508
 31
0.0
  0
LINE
  5
69123
330
18
100
AcDbEntity
  8
姿図
100
AcDbLine
 10
9186.238931905209
 20
-8539.146558076041
 30
0.0
 11
9180.719287035163
 21
-8540.127157196617
 31
0.0
  0
LINE
  5
69124
330
18
100
AcDbEntity
  8
姿図
100
AcDbLine
 10
9201.75669719834
 20
-8582.043482001944
 30
0.0
 11
9201.238931905209
 21
-8582.406025163218
 31
0.0
  0
ELLIPSE
  5
69125
330
18
100
AcDbEntity
  8
姿図
100
AcDbEllipse
 10
9193.456245021502
 20
-8574.79293841041
 30
0.0
 11
0.0
 21
-3.508473521634005
 31
0.0
210
0.0
220
0.0
230
1.0
 40
0.6840581766403772
 41
0.0
 42
6.283185307179586
  0
ELLIPSE
  5
69126
330
18
100
AcDbEntity
  8
姿図
100
AcDbEllipse
 10
9193.856245021503
 20
-8574.79293841041
 30
0.0
 11
1.557139847723761E-15
 21
3.508473521634053
 31
0.0
210
0.0
220
0.0
230
1.0
 40
0.6840581766403936
 41
0.0834300866107265
 42
3.058162566979068
  0
LINE
  5
69127
330
18
100
AcDbEntity
  8
姿図
100
AcDbLine
 10
9201.238931905209
 20
-8582.406025163218
 30
0.0
 11
9186.238931905209
 21
-8585.070868129551
 31
0.0
  0
LINE
  5
69128
330
18
100
AcDbEntity
  8
姿図
100
AcDbLine
 10
9180.719287035163
 20
-8559.15716775084
 30
0.0
 11
9180.719287035163
 21
-8557.482526822067
 31
0.0
  0
LINE
  5
69129
330
18
100
AcDbEntity
  8
姿図
100
AcDbLine
 10
9182.538053266328
 20
-8560.934270298225
 30
0.0
 11
9180.719287035163
 21
-8562.354209523946
 31
0.0
  0
LINE
  5
6912A
330
18
100
AcDbEntity
  8
姿図
100
AcDbLine
 10
9180.719287035163
 20
-8559.15716775084
 30
0.0
 11
9182.538053266328
 21
-8560.934270298225
 31
0.0
  0
LINE
  5
6912B
330
18
100
AcDbEntity
  8
姿図
100
AcDbLine
 10
9182.538053266328
 20
-8556.062587596345
 30
0.0
 11
9180.719287035163
 21
-8557.482526822067
 31
0.0
  0
LINE
  5
6912C
330
18
100
AcDbEntity
  8
姿図
100
AcDbLine
 10
9180.719287035163
 20
-8550.073509379625
 30
0.0
 11
9182.173063381684
 21
-8551.028194665636
 31
0.0
  0
LINE
  5
6912D
330
18
100
AcDbEntity
  8
姿図
100
AcDbLine
 10
9180.719287035163
 20
-8554.285485048957
 30
0.0
 11
9182.538053266328
 21
-8556.062587596345
 31
0.0
  0
LINE
  5
6912E
330
18
100
AcDbEntity
  8
姿図
100
AcDbLine
 10
9182.173063381684
 20
-8551.028194665636
 30
0.0
 11
9182.173063381684
 21
-8552.352571742074
 31
0.0
  0
LINE
  5
6912F
330
18
100
AcDbEntity
  8
姿図
100
AcDbLine
 10
9180.719287035163
 20
-8554.285485048957
 30
0.0
 11
9180.719287035163
 21
-8552.610844120187
 31
0.0
  0
LINE
  5
69130
330
18
100
AcDbEntity
  8
姿図
100
AcDbLine
 10
9180.719287035163
 20
-8550.073509379621
 30
0.0
 11
9180.719287035163
 21
-8548.043641587174
 31
0.0
  0
LINE
  5
69131
330
18
100
AcDbEntity
  8
姿図
100
AcDbLine
 10
9182.173063381684
 20
-8579.598583844378
 30
0.0
 11
9182.173063381684
 21
-8580.161760498646
 31
0.0
  0
LINE
  5
69132
330
18
100
AcDbEntity
  8
姿図
100
AcDbLine
 10
9180.719287035163
 20
-8578.643898558363
 30
0.0
 11
9182.173063381684
 21
-8579.598583844378
 31
0.0
  0
LINE
  5
69133
330
18
100
AcDbEntity
  8
姿図
100
AcDbLine
 10
9180.719287035163
 20
-8582.19616719515
 30
0.0
 11
9181.821253638876
 21
-8582.919821356096
 31
0.0
  0
LINE
  5
69134
330
18
100
AcDbEntity
  8
姿図
100
AcDbLine
 10
9180.719287035163
 20
-8580.420032876758
 30
0.0
 11
9180.719287035163
 21
-8582.19616719515
 31
0.0
  0
LINE
  5
69135
330
18
100
AcDbEntity
  8
姿図
100
AcDbLine
 10
9180.719287035163
 20
-8578.643898558363
 30
0.0
 11
9180.719287035163
 21
-8576.96925762959
 31
0.0
  0
LINE
  5
69136
330
18
100
AcDbEntity
  8
姿図
100
AcDbLine
 10
9180.719287035163
 20
-8573.772215856483
 30
0.0
 11
9180.719287035163
 21
-8572.09757492771
 31
0.0
  0
LINE
  5
69137
330
18
100
AcDbEntity
  8
姿図
100
AcDbLine
 10
9180.719287035163
 20
-8568.9005331546
 30
0.0
 11
9180.719287035163
 21
-8567.22589222583
 31
0.0
  0
LINE
  5
69138
330
18
100
AcDbEntity
  8
姿図
100
AcDbLine
 10
9182.538053266328
 20
-8575.549318403868
 30
0.0
 11
9180.719287035163
 21
-8576.96925762959
 31
0.0
  0
LINE
  5
69139
330
18
100
AcDbEntity
  8
姿図
100
AcDbLine
 10
9180.719287035163
 20
-8573.772215856483
 30
0.0
 11
9182.538053266328
 21
-8575.549318403868
 31
0.0
  0
LINE
  5
6913A
330
18
100
AcDbEntity
  8
姿図
100
AcDbLine
 10
9182.538053266328
 20
-8570.677635701988
 30
0.0
 11
9180.719287035163
 21
-8572.09757492771
 31
0.0
  0
LINE
  5
6913B
330
18
100
AcDbEntity
  8
姿図
100
AcDbLine
 10
9182.538053266328
 20
-8565.805953000105
 30
0.0
 11
9180.719287035163
 21
-8567.22589222583
 31
0.0
  0
LINE
  5
6913C
330
18
100
AcDbEntity
  8
姿図
100
AcDbLine
 10
9180.719287035163
 20
-8564.02885045272
 30
0.0
 11
9182.538053266328
 21
-8565.805953000105
 31
0.0
  0
LINE
  5
6913D
330
18
100
AcDbEntity
  8
姿図
100
AcDbLine
 10
9180.719287035163
 20
-8568.9005331546
 30
0.0
 11
9182.538053266328
 21
-8570.677635701988
 31
0.0
  0
LINE
  5
6913E
330
18
100
AcDbEntity
  8
姿図
100
AcDbLine
 10
9180.719287035163
 20
-8564.02885045272
 30
0.0
 11
9180.719287035163
 21
-8562.354209523946
 31
0.0
  0
LINE
  5
6913F
330
18
100
AcDbEntity
  8
姿図
100
AcDbLine
 10
9186.238931905209
 20
-8558.176568630264
 30
0.0
 11
9180.719287035163
 21
-8559.15716775084
 31
0.0
  0
LINE
  5
69140
330
18
100
AcDbEntity
  8
姿図
100
AcDbLine
 10
9186.238931905209
 20
-8560.276786270886
 30
0.0
 11
9182.538053266328
 21
-8560.934270298225
 31
0.0
  0
LINE
  5
69141
330
18
100
AcDbEntity
  8
姿図
100
AcDbLine
 10
9186.238931905209
 20
-8561.373610403374
 30
0.0
 11
9180.719287035163
 21
-8562.354209523946
 31
0.0
  0
LINE
  5
69142
330
18
100
AcDbEntity
  8
姿図
100
AcDbLine
 10
9186.238931905209
 20
-8547.063042466598
 30
0.0
 11
9180.719287035163
 21
-8548.043641587174
 31
0.0
  0
LINE
  5
69143
330
18
100
AcDbEntity
  8
姿図
100
AcDbLine
 10
9186.238931905209
 20
-8549.092910259049
 30
0.0
 11
9180.719287035163
 21
-8550.073509379625
 31
0.0
  0
LINE
  5
69144
330
18
100
AcDbEntity
  8
姿図
100
AcDbLine
 10
9186.238931905209
 20
-8551.630244999611
 30
0.0
 11
9180.719287035163
 21
-8552.610844120187
 31
0.0
  0
LINE
  5
69145
330
18
100
AcDbEntity
  8
姿図
100
AcDbLine
 10
9186.238931905209
 20
-8550.305867923176
 30
0.0
 11
9182.173063381684
 21
-8551.02819466564
 31
0.0
  0
LINE
  5
69146
330
18
100
AcDbEntity
  8
姿図
100
AcDbLine
 10
9186.238931905209
 20
-8555.405103569006
 30
0.0
 11
9182.538053266328
 21
-8556.062587596345
 31
0.0
  0
LINE
  5
69147
330
18
100
AcDbEntity
  8
姿図
100
AcDbLine
 10
9186.238931905209
 20
-8553.304885928384
 30
0.0
 11
9180.719287035163
 21
-8554.285485048957
 31
0.0
  0
LINE
  5
69148
330
18
100
AcDbEntity
  8
姿図
100
AcDbLine
 10
9186.238931905209
 20
-8556.501927701494
 30
0.0
 11
9180.719287035163
 21
-8557.482526822067
 31
0.0
  0
LINE
  5
69149
330
18
100
AcDbEntity
  8
姿図
100
AcDbLine
 10
9186.238931905209
 20
-8565.148468972766
 30
0.0
 11
9182.538053266328
 21
-8565.805953000105
 31
0.0
  0
LINE
  5
6914A
330
18
100
AcDbEntity
  8
姿図
100
AcDbLine
 10
9186.238931905209
 20
-8566.245293105254
 30
0.0
 11
9180.719287035163
 21
-8567.22589222583
 31
0.0
  0
LINE
  5
6914B
330
18
100
AcDbEntity
  8
姿図
100
AcDbLine
 10
9186.238931905209
 20
-8567.919934034027
 30
0.0
 11
9180.719287035163
 21
-8568.9005331546
 31
0.0
  0
LINE
  5
6914C
330
18
100
AcDbEntity
  8
姿図
100
AcDbLine
 10
9186.238931905209
 20
-8570.02015167465
 30
0.0
 11
9182.538053266328
 21
-8570.677635701988
 31
0.0
  0
LINE
  5
6914D
330
18
100
AcDbEntity
  8
姿図
100
AcDbLine
 10
9186.238931905209
 20
-8571.116975807137
 30
0.0
 11
9180.719287035163
 21
-8572.09757492771
 31
0.0
  0
LINE
  5
6914E
330
18
100
AcDbEntity
  8
姿図
100
AcDbLine
 10
9186.238931905209
 20
-8572.791616735907
 30
0.0
 11
9180.719287035163
 21
-8573.772215856483
 31
0.0
  0
LINE
  5
6914F
330
18
100
AcDbEntity
  8
姿図
100
AcDbLine
 10
9186.238931905209
 20
-8574.891834376529
 30
0.0
 11
9182.538053266328
 21
-8575.549318403868
 31
0.0
  0
LINE
  5
69150
330
18
100
AcDbEntity
  8
姿図
100
AcDbLine
 10
9186.238931905209
 20
-8575.988658509017
 30
0.0
 11
9180.719287035163
 21
-8576.96925762959
 31
0.0
  0
LINE
  5
69151
330
18
100
AcDbEntity
  8
姿図
100
AcDbLine
 10
9186.238931905209
 20
-8577.663299437787
 30
0.0
 11
9180.719287035163
 21
-8578.643898558363
 31
0.0
  0
LINE
  5
69152
330
18
100
AcDbEntity
  8
姿図
100
AcDbLine
 10
9186.238931905209
 20
-8579.439433756183
 30
0.0
 11
9180.719287035163
 21
-8580.420032876758
 31
0.0
  0
LINE
  5
69153
330
18
100
AcDbEntity
  8
姿図
100
AcDbLine
 10
9186.238931905209
 20
-8581.215568074578
 30
0.0
 11
9180.719287035163
 21
-8582.19616719515
 31
0.0
  0
LINE
  5
69154
330
18
100
AcDbEntity
  8
姿図
100
AcDbLine
 10
9186.238931905209
 20
-8582.134993432392
 30
0.0
 11
9181.821253638876
 21
-8582.919821356096
 31
0.0
  0
LINE
  5
69155
330
18
100
AcDbEntity
  8
姿図
100
AcDbLine
 10
9186.238931905209
 20
-8581.215568074578
 30
0.0
 11
9180.719287035163
 21
-8582.19616719515
 31
0.0
  0
LINE
  5
69156
330
18
100
AcDbEntity
  8
姿図
100
AcDbLine
 10
9186.238931905209
 20
-8563.048251332148
 30
0.0
 11
9180.719287035163
 21
-8564.02885045272
 31
0.0
  0
LINE
  5
69157
330
18
100
AcDbEntity
  8
姿図
100
AcDbLine
 10
9182.888372758156
 20
-8542.98463113104
 30
0.0
 11
9182.888372758156
 21
-8547.658290065021
 31
0.0
  0
ELLIPSE
  5
69158
330
18
100
AcDbEntity
  8
姿図
100
AcDbEllipse
 10
9193.456245021502
 20
-8543.581195977316
 30
0.0
 11
0.0
 21
-3.508473521634005
 31
0.0
210
0.0
220
0.0
230
1.0
 40
0.6840581766403772
 41
0.0
 42
6.283185307179586
  0
ELLIPSE
  5
69159
330
18
100
AcDbEntity
  8
姿図
100
AcDbEllipse
 10
9193.856245021503
 20
-8543.581195977316
 30
0.0
 11
1.557139847723761E-15
 21
3.508473521634053
 31
0.0
210
0.0
220
0.0
230
1.0
 40
0.6840581766403936
 41
0.0834300866107265
 42
3.058162566979068
  0
LINE
  5
6915A
330
18
100
AcDbEntity
  8
姿図
100
AcDbLine
 10
9180.719287035163
 20
-8590.84290136223
 30
0.0
 11
9180.719287035163
 21
-8588.082783793256
 31
0.0
  0
LINE
  5
6915B
330
18
100
AcDbEntity
  8
姿図
100
AcDbLine
 10
9237.690610409287
 20
-8585.185214997087
 30
0.0
 11
9237.690610409285
 21
-8587.945332566062
 31
0.0
  0
ARC
  5
6915C
330
18
100
AcDbEntity
  8
姿図
100
AcDbCircle
 10
9225.19114714965
 20
-8586.897992977996
 30
0.0
 40
0.5
100
AcDbArc
 50
180.0
 51
280.0738452396548
  0
LINE
  5
6915D
330
18
100
AcDbEntity
  8
姿図
100
AcDbLine
 10
9233.270002228715
 20
-8585.970563438215
 30
0.0
 11
9225.278605797272
 21
-8587.39028454298
 31
0.0
  0
ARC
  5
6915E
330
18
100
AcDbEntity
  8
姿図
100
AcDbCircle
 10
9232.682543581092
 20
-8585.328602323789
 30
0.0
 40
1.0
100
AcDbArc
 50
0.0
 51
68.11232009496965
  0
ARC
  5
6915F
330
18
100
AcDbEntity
  8
姿図
100
AcDbCircle
 10
9233.182543581092
 20
-8585.478271873228
 30
0.0
 40
0.5
100
AcDbArc
 50
280.0738452396548
 51
0.0
  0
LINE
  5
69160
330
18
100
AcDbEntity
  8
姿図
100
AcDbLine
 10
9233.682543581092
 20
-8585.328602323789
 30
0.0
 11
9233.682543581092
 21
-8585.478271873228
 31
0.0
  0
LINE
  5
69161
330
18
100
AcDbEntity
  8
姿図
100
AcDbLine
 10
9224.69114714965
 20
-8583.031027886049
 30
0.0
 11
9229.417847249057
 21
-8586.654922645066
 31
0.0
  0
LINE
  5
69162
330
18
100
AcDbEntity
  8
姿図
100
AcDbLine
 10
9226.923779886365
 20
-8581.937349180746
 30
0.0
 11
9227.296568151196
 21
-8581.009432746141
 31
0.0
  0
LINE
  5
69163
330
18
100
AcDbEntity
  8
姿図
100
AcDbLine
 10
9224.691147149648
 20
-8580.270910317075
 30
0.0
 11
9224.69114714965
 21
-8586.897992977996
 31
0.0
  0
LINE
  5
69164
330
18
100
AcDbEntity
  8
姿図
100
AcDbLine
 10
9226.923779886365
 20
-8581.937349180746
 30
0.0
 11
9233.055331845922
 21
-8584.400685889188
 31
0.0
  0
LINE
  5
69165
330
18
100
AcDbEntity
  8
姿図
100
AcDbLine
 10
9227.296568151196
 20
-8581.009432746141
 30
0.0
 11
9237.690610409285
 21
-8585.185214997087
 31
0.0
  0
LINE
  5
69166
330
18
100
AcDbEntity
  8
姿図
100
AcDbLine
 10
9221.931029580674
 20
-8583.521379878712
 30
0.0
 11
9221.931029580674
 21
-8590.745119774296
 31
0.0
  0
LINE
  5
69167
330
18
100
AcDbEntity
  8
姿図
100
AcDbLine
 10
9237.690610409285
 20
-8587.945332566062
 30
0.0
 11
9221.931029580674
 21
-8590.745119774296
 31
0.0
  0
LINE
  5
69168
330
18
100
AcDbEntity
  8
姿図
100
AcDbLine
 10
9476.251028257058
 20
-8652.520952783947
 30
0.0
 11
9345.824236556644
 21
-8541.668833232601
 31
0.0
  0
LINE
  5
69169
330
18
100
AcDbEntity
  8
姿図
100
AcDbLine
 10
9477.400565964284
 20
-8624.654240133514
 30
0.0
 11
9345.824236556648
 21
-8512.825107426448
 31
0.0
  0
LINE
  5
6916A
330
18
100
AcDbEntity
  8
姿図
100
AcDbLine
 10
9446.183307887582
 20
-8684.689549770414
 30
0.0
 11
9431.008642760231
 21
-8687.385423079151
 31
0.0
  0
LINE
  5
6916B
330
18
100
AcDbEntity
  8
姿図
100
AcDbLine
 10
9476.102638197106
 20
-8632.711822771045
 30
0.0
 11
9345.824236556644
 21
-8521.985822650015
 31
0.0
  0
LINE
  5
6916C
330
18
100
AcDbEntity
  8
姿図
100
AcDbLine
 10
9477.400565964286
 20
-8632.57072452407
 30
0.0
 11
9345.824236556646
 21
-8520.741591817005
 31
0.0
  0
LINE
  5
6916D
330
18
100
AcDbEntity
  8
姿図
100
AcDbLine
 10
9477.400565964286
 20
-8636.782700193406
 30
0.0
 11
9345.824236556646
 21
-8524.95356748634
 31
0.0
  0
LINE
  5
6916E
330
18
100
AcDbEntity
  8
姿図
100
AcDbLine
 10
9477.400565964286
 20
-8641.654382895285
 30
0.0
 11
9345.824236556646
 21
-8529.82525018822
 31
0.0
  0
LINE
  5
6916F
330
18
100
AcDbEntity
  8
姿図
100
AcDbLine
 10
9477.400565964286
 20
-8646.526065597169
 30
0.0
 11
9345.824236556646
 21
-8534.696932890103
 31
0.0
  0
LINE
  5
69170
330
18
100
AcDbEntity
  8
姿図
100
AcDbLine
 10
9477.400565964286
 20
-8651.397748299049
 30
0.0
 11
9345.824236556646
 21
-8539.568615591983
 31
0.0
  0
LINE
  5
69171
330
18
100
AcDbEntity
  8
姿図
100
AcDbLine
 10
9477.400565964286
 20
-8656.269431000928
 30
0.0
 11
9345.824236556646
 21
-8544.440298293863
 31
0.0
  0
LINE
  5
69172
330
18
100
AcDbEntity
  8
姿図
100
AcDbLine
 10
9477.400565964284
 20
-8661.141113702812
 30
0.0
 11
9345.824236556644
 21
-8549.311980995746
 31
0.0
  0
LINE
  5
69173
330
18
100
AcDbEntity
  8
姿図
100
AcDbLine
 10
9476.222895988993
 20
-8664.6933823396
 30
0.0
 11
9345.824236556644
 21
-8553.865172918242
 31
0.0
  0
LINE
  5
69174
330
18
100
AcDbEntity
  8
姿図
100
AcDbLine
 10
9476.344022416744
 20
-8624.654240133514
 30
0.0
 11
9345.824236556646
 21
-8513.723083142297
 31
0.0
  0
LINE
  5
69175
330
18
100
AcDbEntity
  8
姿図
100
AcDbLine
 10
9477.400565964284
 20
-8622.624372341063
 30
0.0
 11
9345.824236556644
 21
-8510.795239633993
 31
0.0
  0
LINE
  5
69176
330
18
100
AcDbEntity
  8
姿図
100
AcDbLine
 10
9477.400565964284
 20
-8630.540856731619
 30
0.0
 11
9345.824236556644
 21
-8518.711724024553
 31
0.0
  0
LINE
  5
69177
330
18
100
AcDbEntity
  8
姿図
100
AcDbLine
 10
9477.400565964284
 20
-8635.108059264632
 30
0.0
 11
9345.824236556644
 21
-8523.278926557567
 31
0.0
  0
LINE
  5
69178
330
18
100
AcDbEntity
  8
姿図
100
AcDbLine
 10
9477.400565964284
 20
-8639.979741966516
 30
0.0
 11
9345.824236556644
 21
-8528.15060925945
 31
0.0
  0
LINE
  5
69179
330
18
100
AcDbEntity
  8
姿図
100
AcDbLine
 10
9477.400565964284
 20
-8644.851424668395
 30
0.0
 11
9345.824236556644
 21
-8533.02229196133
 31
0.0
  0
LINE
  5
6917A
330
18
100
AcDbEntity
  8
姿図
100
AcDbLine
 10
9477.400565964284
 20
-8649.723107370275
 30
0.0
 11
9345.824236556644
 21
-8537.89397466321
 31
0.0
  0
LINE
  5
6917B
330
18
100
AcDbEntity
  8
姿図
100
AcDbLine
 10
9477.400565964284
 20
-8654.594790072159
 30
0.0
 11
9345.824236556644
 21
-8542.765657365093
 31
0.0
  0
LINE
  5
6917C
330
18
100
AcDbEntity
  8
姿図
100
AcDbLine
 10
9477.400565964284
 20
-8659.466472774038
 30
0.0
 11
9345.824236556644
 21
-8547.637340066973
 31
0.0
  0
LINE
  5
6917D
330
18
100
AcDbEntity
  8
姿図
100
AcDbLine
 10
9477.400565964284
 20
-8662.917248021204
 30
0.0
 11
9345.824236556644
 21
-8551.088115314138
 31
0.0
  0
LINE
  5
6917E
330
18
100
AcDbEntity
  8
姿図
100
AcDbLine
 10
9477.400565964284
 20
-8670.579998937705
 30
0.0
 11
9345.824236556644
 21
-8558.750866230639
 31
0.0
  0
LINE
  5
6917F
330
18
100
AcDbEntity
  8
姿図
100
AcDbLine
 10
9361.322439326399
 20
-8483.485100406971
 30
0.0
 11
9464.16402119203
 21
-8572.892044786953
 31
0.0
  0
LINE
  5
69180
330
18
100
AcDbEntity
  8
姿図
100
AcDbLine
 10
9361.322439326399
 20
-8475.610774952595
 30
0.0
 11
9464.16402119203
 21
-8565.017719332573
 31
0.0
  0
LINE
  5
69181
330
18
100
AcDbEntity
  8
姿図
100
AcDbLine
 10
9361.322439326399
 20
-8472.98599980113
 30
0.0
 11
9464.16402119203
 21
-8562.392944181112
 31
0.0
  0
LINE
  5
69182
330
18
100
AcDbEntity
  8
姿図
100
AcDbLine
 10
9477.400565964284
 20
-8673.340116506679
 30
0.0
 11
9345.824236556644
 21
-8561.510983799613
 31
0.0
  0
LINE
  5
69183
330
18
100
AcDbEntity
  8
姿図
100
AcDbLine
 10
9446.183307887595
 20
-8684.68954977041
 30
0.0
 11
9314.994152087089
 21
-8573.301374130104
 31
0.0
  0
LINE
  5
69184
330
18
100
AcDbEntity
  8
姿図
100
AcDbLine
 10
9446.183307887582
 20
-8677.465809874815
 30
0.0
 11
9314.994152087089
 21
-8566.07763423452
 31
0.0
  0
LINE
  5
69185
330
18
100
AcDbEntity
  8
姿図
100
AcDbLine
 10
9312.406956010387
 20
-8702.652253905064
 30
0.0
 11
9346.582855910061
 21
-8696.58069347401
 31
0.0
  0
LINE
  5
69186
330
18
100
AcDbEntity
  8
姿図
100
AcDbLine
 10
9367.994975505651
 20
-8695.820074041261
 30
0.0
 11
9367.994975505651
 21
-8698.580191610235
 31
0.0
  0
LINE
  5
69187
330
18
100
AcDbEntity
  8
姿図
100
AcDbLine
 10
9352.235394677034
 20
-8701.37997881847
 30
0.0
 11
9367.994975505651
 21
-8698.580191610235
 31
0.0
  0
LINE
  5
69188
330
18
100
AcDbEntity
  8
姿図
100
AcDbLine
 10
9345.824236556644
 20
-8457.189018204466
 30
0.0
 11
9361.322439326399
 21
-8470.36122464967
 31
0.0
  0
LINE
  5
69189
330
18
100
AcDbEntity
  8
姿図
100
AcDbLine
 10
9300.814447672754
 20
-8576.730991650093
 30
0.0
 11
9431.008642760218
 21
-8687.385423079155
 31
0.0
  0
LINE
  5
6918A
330
18
100
AcDbEntity
  8
姿図
100
AcDbLine
 10
9327.92472130352
 20
-8661.798443820062
 30
0.0
 11
9327.92472130352
 21
-8599.772509841307
 31
0.0
  0
LINE
  5
6918B
330
18
100
AcDbEntity
  8
姿図
100
AcDbLine
 10
9327.406956010389
 20
-8661.358835444844
 30
0.0
 11
9327.406956010389
 21
-8599.332451633745
 31
0.0
  0
LINE
  5
6918C
330
18
100
AcDbEntity
  8
姿図
100
AcDbLine
 10
9312.406956010387
 20
-8599.616983291598
 30
0.0
 11
9312.406956010387
 21
-8648.623092598198
 31
0.0
  0
LINE
  5
6918D
330
18
100
AcDbEntity
  8
姿図
100
AcDbLine
 10
9343.676741553205
 20
-8514.104598939306
 30
0.0
 11
9343.676741553205
 21
-8519.093239821563
 31
0.0
  0
LINE
  5
6918E
330
18
100
AcDbEntity
  8
姿図
100
AcDbLine
 10
9342.47367740959
 20
-8513.420355024871
 30
0.0
 11
9343.58016094596
 21
-8514.121757082768
 31
0.0
  0
LINE
  5
6918F
330
18
100
AcDbEntity
  8
姿図
100
AcDbLine
 10
9345.824236556644
 20
-8512.825107426448
 30
0.0
 11
9342.47367740959
 21
-8513.420355024871
 31
0.0
  0
LINE
  5
69190
330
18
100
AcDbEntity
  8
姿図
100
AcDbLine
 10
9345.824236556644
 20
-8513.723083142297
 30
0.0
 11
9343.58016094596
 21
-8514.121757082768
 31
0.0
  0
LINE
  5
69191
330
18
100
AcDbEntity
  8
姿図
100
AcDbLine
 10
9342.47367740959
 20
-8513.420355024868
 30
0.0
 11
9342.47367740959
 21
-8511.390487232416
 31
0.0
  0
LINE
  5
69192
330
18
100
AcDbEntity
  8
姿図
100
AcDbLine
 10
9345.824236556644
 20
-8510.795239633997
 30
0.0
 11
9342.47367740959
 21
-8511.390487232416
 31
0.0
  0
LINE
  5
69193
330
18
100
AcDbEntity
  8
姿図
100
AcDbLine
 10
9345.824236556644
 20
-8518.711724024553
 30
0.0
 11
9342.47367740959
 21
-8519.306971622973
 31
0.0
  0
LINE
  5
69194
330
18
100
AcDbEntity
  8
姿図
100
AcDbLine
 10
9342.47367740959
 20
-8521.336839415424
 30
0.0
 11
9342.47367740959
 21
-8519.306971622973
 31
0.0
  0
LINE
  5
69195
330
18
100
AcDbEntity
  8
姿図
100
AcDbLine
 10
9345.824236556644
 20
-8553.783674990347
 30
0.0
 11
9343.575644013306
 21
-8554.183151391899
 31
0.0
  0
LINE
  5
69196
330
18
100
AcDbEntity
  8
姿図
100
AcDbLine
 10
9345.824236556644
 20
-8552.86424963253
 30
0.0
 11
9342.47367740959
 21
-8553.459497230953
 31
0.0
  0
LINE
  5
69197
330
18
100
AcDbEntity
  8
姿図
100
AcDbLine
 10
9345.824236556644
 20
-8541.668833232601
 30
0.0
 11
9344.292443640757
 21
-8541.940965737787
 31
0.0
  0
LINE
  5
69198
330
18
100
AcDbEntity
  8
姿図
100
AcDbLine
 10
9345.824236556644
 20
-8546.540515934481
 30
0.0
 11
9344.292443640757
 21
-8546.812648439667
 31
0.0
  0
LINE
  5
69199
330
18
100
AcDbEntity
  8
姿図
100
AcDbLine
 10
9345.824236556644
 20
-8536.797150530721
 30
0.0
 11
9344.292443640756
 21
-8537.069283035908
 31
0.0
  0
LINE
  5
6919A
330
18
100
AcDbEntity
  8
姿図
100
AcDbLine
 10
9344.407503602022
 20
-8532.177159218794
 30
0.0
 11
9344.292443640757
 21
-8532.197600334024
 31
0.0
  0
LINE
  5
6919B
330
18
100
AcDbEntity
  8
姿図
100
AcDbLine
 10
9345.824236556644
 20
-8527.053785126958
 30
0.0
 11
9344.292443640757
 21
-8527.325917632144
 31
0.0
  0
LINE
  5
6919C
330
18
100
AcDbEntity
  8
姿図
100
AcDbLine
 10
9345.824236556644
 20
-8521.954549481128
 30
0.0
 11
9343.580160945958
 21
-8522.3532234216
 31
0.0
  0
LINE
  5
6919D
330
18
100
AcDbEntity
  8
姿図
100
AcDbLine
 10
9345.824236556644
 20
-8520.741591817005
 30
0.0
 11
9342.47367740959
 21
-8521.336839415424
 31
0.0
  0
LINE
  5
6919E
330
18
100
AcDbEntity
  8
姿図
100
AcDbLine
 10
9345.824236556644
 20
-8523.278926557567
 30
0.0
 11
9342.47367740959
 21
-8523.874174155986
 31
0.0
  0
LINE
  5
6919F
330
18
100
AcDbEntity
  8
姿図
100
AcDbLine
 10
9345.824236556644
 20
-8524.953567486336
 30
0.0
 11
9342.47367740959
 21
-8525.54881508476
 31
0.0
  0
LINE
  5
691A0
330
18
100
AcDbEntity
  8
姿図
100
AcDbLine
 10
9345.824236556644
 20
-8528.150609259446
 30
0.0
 11
9344.704754634418
 21
-8528.349492161207
 31
0.0
  0
LINE
  5
691A1
330
18
100
AcDbEntity
  8
姿図
100
AcDbLine
 10
9345.824236556644
 20
-8533.022291961326
 30
0.0
 11
9342.47367740959
 21
-8533.61753955975
 31
0.0
  0
LINE
  5
691A2
330
18
100
AcDbEntity
  8
姿図
100
AcDbLine
 10
9345.824236556644
 20
-8534.6969328901
 30
0.0
 11
9342.47367740959
 21
-8535.292180488519
 31
0.0
  0
LINE
  5
691A3
330
18
100
AcDbEntity
  8
姿図
100
AcDbLine
 10
9345.824236556644
 20
-8537.89397466321
 30
0.0
 11
9342.47367740959
 21
-8538.489222261633
 31
0.0
  0
LINE
  5
691A4
330
18
100
AcDbEntity
  8
姿図
100
AcDbLine
 10
9345.824236556644
 20
-8539.56861559198
 30
0.0
 11
9342.47367740959
 21
-8540.163863190402
 31
0.0
  0
LINE
  5
691A5
330
18
100
AcDbEntity
  8
姿図
100
AcDbLine
 10
9345.824236556644
 20
-8542.76565736509
 30
0.0
 11
9342.47367740959
 21
-8543.360904963512
 31
0.0
  0
LINE
  5
691A6
330
18
100
AcDbEntity
  8
姿図
100
AcDbLine
 10
9345.824236556644
 20
-8544.440298293863
 30
0.0
 11
9342.47367740959
 21
-8545.035545892282
 31
0.0
  0
LINE
  5
691A7
330
18
100
AcDbEntity
  8
姿図
100
AcDbLine
 10
9345.824236556644
 20
-8547.637340066969
 30
0.0
 11
9344.704754634418
 21
-8547.836222968726
 31
0.0
  0
LINE
  5
691A8
330
18
100
AcDbEntity
  8
姿図
100
AcDbLine
 10
9345.824236556644
 20
-8552.86424963253
 30
0.0
 11
9342.47367740959
 21
-8553.459497230953
 31
0.0
  0
LINE
  5
691A9
330
18
100
AcDbEntity
  8
姿図
100
AcDbLine
 10
9344.06934328416
 20
-8551.399882980393
 30
0.0
 11
9342.47367740959
 21
-8551.683362912561
 31
0.0
  0
LINE
  5
691AA
330
18
100
AcDbEntity
  8
姿図
100
AcDbLine
 10
9342.47367740959
 20
-8540.163863190402
 30
0.0
 11
9342.47367740959
 21
-8538.489222261629
 31
0.0
  0
LINE
  5
691AB
330
18
100
AcDbEntity
  8
姿図
100
AcDbLine
 10
9342.47367740959
 20
-8545.035545892282
 30
0.0
 11
9342.47367740959
 21
-8543.360904963512
 31
0.0
  0
LINE
  5
691AC
330
18
100
AcDbEntity
  8
姿図
100
AcDbLine
 10
9342.47367740959
 20
-8525.54881508476
 30
0.0
 11
9342.47367740959
 21
-8523.874174155986
 31
0.0
  0
LINE
  5
691AD
330
18
100
AcDbEntity
  8
姿図
100
AcDbLine
 10
9342.47367740959
 20
-8535.292180488519
 30
0.0
 11
9342.47367740959
 21
-8533.61753955975
 31
0.0
  0
LINE
  5
691AE
330
18
100
AcDbEntity
  8
姿図
100
AcDbLine
 10
9342.47367740959
 20
-8551.683362912558
 30
0.0
 11
9342.47367740959
 21
-8553.459497230953
 31
0.0
  0
LINE
  5
691AF
330
18
100
AcDbEntity
  8
姿図
100
AcDbLine
 10
9342.47367740959
 20
-8553.459497230953
 30
0.0
 11
9343.575644013306
 21
-8554.183151391899
 31
0.0
  0
LINE
  5
691B0
330
18
100
AcDbEntity
  8
姿図
100
AcDbLine
 10
9342.47367740959
 20
-8521.336839415424
 30
0.0
 11
9343.580160945958
 21
-8522.3532234216
 31
0.0
  0
LINE
  5
691B1
330
18
100
AcDbEntity
  8
姿図
100
AcDbLine
 10
9342.47367740959
 20
-8525.54881508476
 30
0.0
 11
9344.292443640757
 21
-8527.325917632144
 31
0.0
  0
LINE
  5
691B2
330
18
100
AcDbEntity
  8
姿図
100
AcDbLine
 10
9344.264631100179
 20
-8532.065616423395
 30
0.0
 11
9344.292443640767
 21
-8532.091164224574
 31
0.0
  0
LINE
  5
691B3
330
18
100
AcDbEntity
  8
姿図
100
AcDbLine
 10
9344.292443640757
 20
-8532.197600334024
 30
0.0
 11
9344.292443640757
 21
-8533.294424466512
 31
0.0
  0
LINE
  5
691B4
330
18
100
AcDbEntity
  8
姿図
100
AcDbLine
 10
9344.29244364076
 20
-8537.069283035904
 30
0.0
 11
9344.292443640757
 21
-8538.166107168396
 31
0.0
  0
LINE
  5
691B5
330
18
100
AcDbEntity
  8
姿図
100
AcDbLine
 10
9344.292443640757
 20
-8527.325917632144
 30
0.0
 11
9344.292443640757
 21
-8528.027594523635
 31
0.0
  0
LINE
  5
691B6
330
18
100
AcDbEntity
  8
姿図
100
AcDbLine
 10
9343.580160945958
 20
-8522.3532234216
 30
0.0
 11
9343.580160945958
 21
-8523.677600498035
 31
0.0
  0
LINE
  5
691B7
330
18
100
AcDbEntity
  8
姿図
100
AcDbLine
 10
9344.292443640757
 20
-8541.83452962833
 30
0.0
 11
9344.292443640757
 21
-8543.037789870275
 31
0.0
  0
LINE
  5
691B8
330
18
100
AcDbEntity
  8
姿図
100
AcDbLine
 10
9344.29244364076
 20
-8546.706212330206
 30
0.0
 11
9344.29244364076
 21
-8547.514325331162
 31
0.0
  0
LINE
  5
691B9
330
18
100
AcDbEntity
  8
姿図
100
AcDbLine
 10
9342.47367740959
 20
-8535.292180488519
 30
0.0
 11
9344.292443640767
 21
-8536.962846926453
 31
0.0
  0
LINE
  5
691BA
330
18
100
AcDbEntity
  8
姿図
100
AcDbLine
 10
9342.47367740959
 20
-8540.163863190402
 30
0.0
 11
9344.292443640767
 21
-8541.834529628337
 31
0.0
  0
LINE
  5
691BB
330
18
100
AcDbEntity
  8
姿図
100
AcDbLine
 10
9342.47367740959
 20
-8545.035545892282
 30
0.0
 11
9344.292443640767
 21
-8546.706212330217
 31
0.0
  0
LINE
  5
691BC
330
18
100
AcDbEntity
  8
姿図
100
AcDbLine
 10
9345.824236556644
 20
-8513.723083142297
 30
0.0
 11
9345.824236556648
 21
-8457.189018204466
 31
0.0
  0
LINE
  5
691BD
330
18
100
AcDbEntity
  8
姿図
100
AcDbLine
 10
9325.09051932407
 20
-8597.363669659295
 30
0.0
 11
9312.406956010387
 21
-8599.616983291598
 31
0.0
  0
LINE
  5
691BE
330
18
100
AcDbEntity
  8
姿図
100
AcDbLine
 10
9304.930742380073
 20
-8570.718283371407
 30
0.0
 11
9306.851358266944
 21
-8567.912822668452
 31
0.0
  0
LINE
  5
691BF
330
18
100
AcDbEntity
  8
姿図
100
AcDbLine
 10
9310.331539103974
 20
-8572.958278300008
 30
0.0
 11
9307.219247142719
 21
-8570.483476212929
 31
0.0
  0
LINE
  5
691C0
330
18
100
AcDbEntity
  8
姿図
100
AcDbLine
 10
9340.824236556646
 20
-8525.319911041683
 30
0.0
 11
9340.824236556646
 21
-8458.077299193243
 31
0.0
  0
ELLIPSE
  5
691C1
330
18
100
AcDbEntity
  8
姿図
100
AcDbEllipse
 10
9332.058123475315
 20
-8519.099838207632
 30
0.0
 11
1.557139847723761E-15
 21
3.508473521634053
 31
0.0
210
0.0
220
0.0
230
1.0
 40
0.6840581766403936
 41
0.0834300866107265
 42
3.058162566979068
  0
ELLIPSE
  5
691C2
330
18
100
AcDbEntity
  8
姿図
100
AcDbEllipse
 10
9331.658123475316
 20
-8519.099838207632
 30
0.0
 11
0.0
 21
-3.508473521634005
 31
0.0
210
0.0
220
0.0
230
1.0
 40
0.6840581766403772
 41
0.0
 42
6.283185307179586
  0
LINE
  5
691C3
330
18
100
AcDbEntity
  8
姿図
100
AcDbLine
 10
9345.824236556644
 20
-8561.510983799613
 30
0.0
 11
9345.824236556644
 21
-8513.723083142297
 31
0.0
  0
LINE
  5
691C4
330
18
100
AcDbEntity
  8
姿図
100
AcDbLine
 10
9323.824236556644
 20
-8560.62798603813
 30
0.0
 11
9323.824236556646
 21
-8481.410619986415
 31
0.0
  0
LINE
  5
691C5
330
18
100
AcDbEntity
  8
姿図
100
AcDbLine
 10
9340.824236556646
 20
-8559.63914721942
 30
0.0
 11
9312.994152087087
 21
-8563.672829061059
 31
0.0
  0
LINE
  5
691C6
330
18
100
AcDbEntity
  8
姿図
100
AcDbLine
 10
9340.824236556644
 20
-8557.607830676287
 30
0.0
 11
9323.824236556644
 21
-8560.62798603813
 31
0.0
  0
LINE
  5
691C7
330
18
100
AcDbEntity
  8
姿図
100
AcDbLine
 10
9345.824236556644
 20
-8561.510983799613
 30
0.0
 11
9314.994152087089
 21
-8566.07763423452
 31
0.0
  0
LINE
  5
691C8
330
18
100
AcDbEntity
  8
姿図
100
AcDbLine
 10
9306.851358266944
 20
-8567.912822668452
 30
0.0
 11
9308.0190675898
 21
-8568.862465726306
 31
0.0
  0
LINE
  5
691C9
330
18
100
AcDbEntity
  8
姿図
100
AcDbLine
 10
9308.019067589803
 20
-8568.86246572631
 30
0.0
 11
9308.486000507637
 21
-8571.490760847642
 31
0.0
  0
LINE
  5
691CA
330
18
100
AcDbEntity
  8
姿図
100
AcDbLine
 10
9306.980128677154
 20
-8570.380053033648
 30
0.0
 11
9308.0190675898
 21
-8568.862465726306
 31
0.0
  0
LINE
  5
691CB
330
18
100
AcDbEntity
  8
姿図
100
AcDbLine
 10
9312.994152087089
 20
-8571.625369982481
 30
0.0
 11
9310.174774123408
 21
-8573.036755099984
 31
0.0
  0
LINE
  5
691CC
330
18
100
AcDbEntity
  8
姿図
100
AcDbLine
 10
9305.14024075995
 20
-8573.067593673528
 30
0.0
 11
9305.795826967813
 21
-8572.109973070612
 31
0.0
  0
ARC
  5
691CD
330
18
100
AcDbEntity
  8
姿図
100
AcDbCircle
 10
9305.552819661218
 20
-8573.350044820152
 30
0.0
 40
0.5
100
AcDbArc
 50
145.6044933459087
 51
280.0738452396548
  0
LINE
  5
691CE
330
18
100
AcDbEntity
  8
姿図
100
AcDbLine
 10
9310.174774123408
 20
-8573.036755099984
 30
0.0
 11
9307.548173517509
 21
-8573.503386976652
 31
0.0
  0
LINE
  5
691CF
330
18
100
AcDbEntity
  8
姿図
100
AcDbLine
 10
9307.548173517509
 20
-8573.503386976652
 30
0.0
 11
9305.640278308842
 21
-8573.84233638514
 31
0.0
  0
LINE
  5
691D0
330
18
100
AcDbEntity
  8
姿図
100
AcDbLine
 10
9312.994152087089
 20
-8563.672829061059
 30
0.0
 11
9312.994152087089
 21
-8571.625369982481
 31
0.0
  0
LINE
  5
691D1
330
18
100
AcDbEntity
  8
姿図
100
AcDbLine
 10
9304.554880868556
 20
-8570.785057498422
 30
0.0
 11
9304.554880868556
 21
-8571.04798784457
 31
0.0
  0
ARC
  5
691D2
330
18
100
AcDbEntity
  8
姿図
100
AcDbCircle
 10
9304.651821799267
 20
-8571.072532822735
 30
0.0
 40
0.1
100
AcDbArc
 50
100.0738452396548
 51
231.5093228086374
  0
LINE
  5
691D3
330
18
100
AcDbEntity
  8
姿図
100
AcDbLine
 10
9307.548173517509
 20
-8573.503386976648
 30
0.0
 11
9304.589583070534
 21
-8571.150803766548
 31
0.0
  0
LINE
  5
691D4
330
18
100
AcDbEntity
  8
姿図
100
AcDbLine
 10
9307.219247142719
 20
-8570.686607867243
 30
0.0
 11
9307.219247142719
 21
-8570.483476212929
 31
0.0
  0
ARC
  5
691D5
330
18
100
AcDbEntity
  8
姿図
100
AcDbCircle
 10
9306.908053499057
 20
-8570.874830932007
 30
0.0
 40
0.5
100
AcDbArc
 50
51.50932280863741
 51
100.0738452396548
  0
LINE
  5
691D6
330
18
100
AcDbEntity
  8
姿図
100
AcDbLine
 10
9310.174774123408
 20
-8573.036755099984
 30
0.0
 11
9307.219247142719
 21
-8570.686607867243
 31
0.0
  0
ARC
  5
691D7
330
18
100
AcDbEntity
  8
姿図
100
AcDbCircle
 10
9306.908053499057
 20
-8571.077962586322
 30
0.0
 40
0.5
100
AcDbArc
 50
51.50932280863741
 51
100.0738452396548
  0
LINE
  5
691D8
330
18
100
AcDbEntity
  8
姿図
100
AcDbLine
 10
9306.820594851433
 20
-8570.38253936702
 30
0.0
 11
9304.554880868556
 21
-8570.785057498422
 31
0.0
  0
LINE
  5
691D9
330
18
100
AcDbEntity
  8
姿図
100
AcDbLine
 10
9306.820594851433
 20
-8570.585671021334
 30
0.0
 11
9304.63433006974
 21
-8570.974074509737
 31
0.0
  0
LINE
  5
691DA
330
18
100
AcDbEntity
  8
姿図
100
AcDbLine
 10
9314.994152087089
 20
-8566.07763423452
 30
0.0
 11
9314.994152087089
 21
-8573.301374130104
 31
0.0
  0
LINE
  5
691DB
330
18
100
AcDbEntity
  8
姿図
100
AcDbLine
 10
9300.814447672754
 20
-8576.730991650093
 30
0.0
 11
9304.618757523833
 21
-8571.174002424905
 31
0.0
  0
LINE
  5
691DC
330
18
100
AcDbEntity
  8
姿図
100
AcDbLine
 10
9314.994152087087
 20
-8573.301374130104
 30
0.0
 11
9300.814447672754
 21
-8576.730991650093
 31
0.0
  0
LINE
  5
691DD
330
18
100
AcDbEntity
  8
姿図
100
AcDbLine
 10
9340.824236556644
 20
-8559.639147219415
 30
0.0
 11
9340.824236556644
 21
-8548.866377434108
 31
0.0
  0
LINE
  5
691DE
330
18
100
AcDbEntity
  8
姿図
100
AcDbLine
 10
9340.824236556646
 20
-8544.806641849205
 30
0.0
 11
9340.824236556644
 21
-8529.379646626581
 31
0.0
  0
LINE
  5
691DF
330
18
100
AcDbEntity
  8
姿図
  6
Continuous
370
     0
100
AcDbLine
 10
9345.824236556642
 20
-8552.76995558888
 30
0.0
 11
9338.765472498946
 21
-8547.259068153813
 31
0.0
  0
LINE
  5
691E0
330
18
100
AcDbEntity
  8
姿図
  6
Continuous
370
     0
100
AcDbLine
 10
9345.824236556642
 20
-8552.516222114824
 30
0.0
 11
9338.888548988378
 21
-8547.101422418858
 31
0.0
  0
ARC
  5
691E1
330
18
100
AcDbEntity
  8
姿図
  6
Continuous
370
     0
100
AcDbCircle
 10
9339.065248188143
 20
-8544.170870686681
 30
0.0
 40
0.5871021973724699
100
AcDbArc
 50
43.97061442796876
 51
173.0481439441934
  0
LINE
  5
691E2
330
18
100
AcDbEntity
  8
姿図
  6
Continuous
370
     0
100
AcDbLine
 10
9338.307994620203
 20
-8546.214526962784
 30
0.0
 11
9338.482462246104
 21
-8544.099810599972
 31
0.0
  0
ARC
  5
691E3
330
18
100
AcDbEntity
  8
姿図
  6
Continuous
370
     0
100
AcDbCircle
 10
9339.503931435536
 20
-8546.313193744092
 30
0.0
 40
1.2
100
AcDbArc
 50
175.2836838794859
 51
232.0202851621353
  0
LINE
  5
691E4
330
18
100
AcDbEntity
  8
姿図
  6
Continuous
370
     0
100
AcDbLine
 10
9338.507317422758
 20
-8546.230971426336
 30
0.0
 11
9338.68178504866
 21
-8544.116255063524
 31
0.0
  0
ARC
  5
691E5
330
18
100
AcDbEntity
  8
姿図
  6
Continuous
370
     0
100
AcDbCircle
 10
9339.180092055049
 20
-8544.157366222404
 30
0.0
 40
0.5
100
AcDbArc
 50
52.02028516213533
 51
175.2836838794859
  0
ARC
  5
691E6
330
18
100
AcDbEntity
  8
姿図
  6
Continuous
370
     0
100
AcDbCircle
 10
9339.503931435536
 20
-8546.313193744092
 30
0.0
 40
1.0
100
AcDbArc
 50
175.2836838795905
 51
232.0202851621353
  0
LINE
  5
691E7
330
18
100
AcDbEntity
  8
姿図
  6
Continuous
370
     0
100
AcDbLine
 10
9345.824236556642
 20
-8548.710220003977
 30
0.0
 11
9339.487783278626
 21
-8543.763251885019
 31
0.0
  0
LINE
  5
691E8
330
18
100
AcDbEntity
  8
姿図
  6
Continuous
370
     0
100
AcDbLine
 10
9345.824236556644
 20
-8529.223489196458
 30
0.0
 11
9339.487783278628
 21
-8524.276521077496
 31
0.0
  0
ARC
  5
691E9
330
18
100
AcDbEntity
  8
姿図
  6
Continuous
370
     0
100
AcDbCircle
 10
9339.503931435536
 20
-8526.82646293657
 30
0.0
 40
1.0
100
AcDbArc
 50
175.2836838795905
 51
232.0202851621353
  0
ARC
  5
691EA
330
18
100
AcDbEntity
  8
姿図
  6
Continuous
370
     0
100
AcDbCircle
 10
9339.180092055049
 20
-8524.670635414881
 30
0.0
 40
0.5
100
AcDbArc
 50
52.02028516213533
 51
175.2836838794859
  0
LINE
  5
691EB
330
18
100
AcDbEntity
  8
姿図
  6
Continuous
370
     0
100
AcDbLine
 10
9338.50731742276
 20
-8526.744240618813
 30
0.0
 11
9338.68178504866
 21
-8524.629524256
 31
0.0
  0
ARC
  5
691EC
330
18
100
AcDbEntity
  8
姿図
  6
Continuous
370
     0
100
AcDbCircle
 10
9339.503931435538
 20
-8526.82646293657
 30
0.0
 40
1.2
100
AcDbArc
 50
175.2836838794859
 51
232.0202851621353
  0
LINE
  5
691ED
330
18
100
AcDbEntity
  8
姿図
  6
Continuous
370
     0
100
AcDbLine
 10
9338.307994620205
 20
-8526.72779615526
 30
0.0
 11
9338.482462246104
 21
-8524.613079792452
 31
0.0
  0
ARC
  5
691EE
330
18
100
AcDbEntity
  8
姿図
  6
Continuous
370
     0
100
AcDbCircle
 10
9339.065248188144
 20
-8524.684139879158
 30
0.0
 40
0.5871021973724699
100
AcDbArc
 50
43.97061442796876
 51
173.0481439441934
  0
LINE
  5
691EF
330
18
100
AcDbEntity
  8
姿図
  6
Continuous
370
     0
100
AcDbLine
 10
9345.824236556644
 20
-8533.029491307301
 30
0.0
 11
9338.888548988378
 21
-8527.61469161134
 31
0.0
  0
LINE
  5
691F0
330
18
100
AcDbEntity
  8
姿図
  6
Continuous
370
     0
100
AcDbLine
 10
9345.824236556644
 20
-8533.283224781357
 30
0.0
 11
9338.765472498946
 21
-8527.77233734629
 31
0.0
  0
ELLIPSE
  5
691F1
330
18
100
AcDbEntity
  8
姿図
100
AcDbEllipse
 10
9331.258123475316
 20
-8550.311580640726
 30
0.0
 11
0.0
 21
-3.508473521634005
 31
0.0
210
0.0
220
0.0
230
1.0
 40
0.6840581766403772
 41
0.0
 42
6.283185307179586
  0
ELLIPSE
  5
691F2
330
18
100
AcDbEntity
  8
姿図
100
AcDbEllipse
 10
9331.658123475316
 20
-8550.311580640726
 30
0.0
 11
1.557139847723761E-15
 21
3.508473521634053
 31
0.0
210
0.0
220
0.0
230
1.0
 40
0.6840581766403936
 41
0.0834300866107265
 42
3.058162566979068
  0
LINE
  5
691F3
330
18
100
AcDbEntity
  8
姿図
100
AcDbLine
 10
9361.322439326399
 20
-8523.967446079201
 30
0.0
 11
9361.322439326399
 21
-8470.36122464967
 31
0.0
  0
LINE
  5
691F4
330
18
100
AcDbEntity
  8
姿図
100
AcDbLine
 10
9446.183307887582
 20
-8678.886055880943
 30
0.0
 11
9477.40056596429
 21
-8673.340116506679
 31
0.0
  0
LINE
  5
691F5
330
18
100
AcDbEntity
  8
姿図
100
AcDbLine
 10
9464.16402119203
 20
-8559.655880134429
 30
0.0
 11
9475.070817577614
 21
-8568.925766183871
 31
0.0
  0
LINE
  5
691F6
330
18
100
AcDbEntity
  8
姿図
100
AcDbLine
 10
9464.16402119203
 20
-8559.655880134429
 30
0.0
 11
9461.331565041184
 21
-8559.985587810814
 31
0.0
  0
LINE
  5
691F7
330
18
100
AcDbEntity
  8
姿図
100
AcDbLine
 10
9477.400565964284
 20
-8664.6933823396
 30
0.0
 11
9477.400565964284
 21
-8662.917248021204
 31
0.0
  0
LINE
  5
691F8
330
18
100
AcDbEntity
  8
姿図
100
AcDbLine
 10
9475.070817577614
 20
-8663.793936715749
 30
0.0
 11
9475.070817577614
 21
-8668.76112795604
 31
0.0
  0
LINE
  5
691F9
330
18
100
AcDbEntity
  8
姿図
100
AcDbLine
 10
9446.183307887582
 20
-8677.46580987483
 30
0.0
 11
9446.183307887582
 21
-8684.689549770414
 31
0.0
  0
LINE
  5
691FA
330
18
100
AcDbEntity
  8
姿図
100
AcDbLine
 10
9477.400565964284
 20
-8664.6933823396
 30
0.0
 11
9476.222895988993
 21
-8664.6933823396
 31
0.0
  0
LINE
  5
691FB
330
18
100
AcDbEntity
  8
姿図
100
AcDbLine
 10
9477.400565964284
 20
-8673.340116506679
 30
0.0
 11
9477.400565964284
 21
-8670.579998937705
 31
0.0
  0
LINE
  5
691FC
330
18
100
AcDbEntity
  8
姿図
100
AcDbLine
 10
9477.400565964284
 20
-8624.654240133514
 30
0.0
 11
9476.344022416744
 21
-8624.654240133514
 31
0.0
  0
LINE
  5
691FD
330
18
100
AcDbEntity
  8
姿図
100
AcDbLine
 10
9477.400565964284
 20
-8624.654240133514
 30
0.0
 11
9477.400565964284
 21
-8622.624372341063
 31
0.0
  0
LINE
  5
691FE
330
18
100
AcDbEntity
  8
姿図
100
AcDbLine
 10
9477.400565964284
 20
-8636.782700193406
 30
0.0
 11
9475.58179973312
 21
-8638.55980274079
 31
0.0
  0
LINE
  5
691FF
330
18
100
AcDbEntity
  8
姿図
100
AcDbLine
 10
9477.400565964284
 20
-8632.57072452407
 30
0.0
 11
9476.102638197104
 21
-8632.711822771045
 31
0.0
  0
LINE
  5
69200
330
18
100
AcDbEntity
  8
姿図
100
AcDbLine
 10
9477.400565964284
 20
-8641.654382895285
 30
0.0
 11
9475.58179973312
 21
-8643.43148544267
 31
0.0
  0
LINE
  5
69201
330
18
100
AcDbEntity
  8
姿図
100
AcDbLine
 10
9476.102638197104
 20
-8632.711822771045
 30
0.0
 11
9476.102638197104
 21
-8634.094746768944
 31
0.0
  0
LINE
  5
69202
330
18
100
AcDbEntity
  8
姿図
100
AcDbLine
 10
9477.400565964284
 20
-8641.654382895285
 30
0.0
 11
9477.400565964284
 21
-8639.979741966516
 31
0.0
  0
LINE
  5
69203
330
18
100
AcDbEntity
  8
姿図
100
AcDbLine
 10
9477.400565964284
 20
-8636.782700193406
 30
0.0
 11
9477.400565964284
 21
-8635.108059264632
 31
0.0
  0
LINE
  5
69204
330
18
100
AcDbEntity
  8
姿図
100
AcDbLine
 10
9477.400565964284
 20
-8632.57072452407
 30
0.0
 11
9477.400565964284
 21
-8630.540856731619
 31
0.0
  0
LINE
  5
69205
330
18
100
AcDbEntity
  8
姿図
100
AcDbLine
 10
9477.400565964284
 20
-8646.526065597165
 30
0.0
 11
9475.58179973312
 21
-8648.303168144554
 31
0.0
  0
LINE
  5
69206
330
18
100
AcDbEntity
  8
姿図
100
AcDbLine
 10
9477.400565964284
 20
-8651.397748299049
 30
0.0
 11
9475.58179973312
 21
-8653.174850846433
 31
0.0
  0
LINE
  5
69207
330
18
100
AcDbEntity
  8
姿図
100
AcDbLine
 10
9477.400565964284
 20
-8656.269431000928
 30
0.0
 11
9475.58179973312
 21
-8658.046533548313
 31
0.0
  0
LINE
  5
69208
330
18
100
AcDbEntity
  8
姿図
100
AcDbLine
 10
9477.400565964284
 20
-8656.269431000928
 30
0.0
 11
9477.400565964284
 21
-8654.594790072159
 31
0.0
  0
LINE
  5
69209
330
18
100
AcDbEntity
  8
姿図
100
AcDbLine
 10
9477.400565964284
 20
-8651.397748299049
 30
0.0
 11
9477.400565964284
 21
-8649.723107370275
 31
0.0
  0
LINE
  5
6920A
330
18
100
AcDbEntity
  8
姿図
100
AcDbLine
 10
9477.400565964284
 20
-8646.526065597165
 30
0.0
 11
9477.400565964284
 21
-8644.851424668395
 31
0.0
  0
LINE
  5
6920B
330
18
100
AcDbEntity
  8
姿図
100
AcDbLine
 10
9475.070817577614
 20
-8623.660229214198
 30
0.0
 11
9475.070817577614
 21
-8628.721985749955
 31
0.0
  0
LINE
  5
6920C
330
18
100
AcDbEntity
  8
姿図
100
AcDbLine
 10
9477.400565964284
 20
-8661.141113702808
 30
0.0
 11
9475.125557948597
 21
-8661.141113702808
 31
0.0
  0
LINE
  5
6920D
330
18
100
AcDbEntity
  8
姿図
100
AcDbLine
 10
9477.400565964284
 20
-8661.141113702808
 30
0.0
 11
9477.400565964284
 21
-8659.466472774038
 31
0.0
  0
LINE
  5
6920E
330
18
100
AcDbEntity
  8
姿図
100
AcDbLine
 10
9475.070817577614
 20
-8568.925766183871
 30
0.0
 11
9475.070817577616
 21
-8620.644276508629
 31
0.0
  0
LINE
  5
6920F
330
18
100
AcDbEntity
  8
姿図
100
AcDbLine
 10
9464.16402119203
 20
-8611.374390459187
 30
0.0
 11
9464.16402119203
 21
-8559.655880134433
 31
0.0
  0
ENDSEC
  0
SECTION
  2
OBJECTS
  0
DICTIONARY
  5
C
330
0
100
AcDbDictionary
281
     1
  3
ACAD_GROUP
350
D
  3
ACAD_IMAGE_VARS
350
69606
  3
ACAD_LAYOUT
350
40CB
  3
ACAD_MLINESTYLE
350
E
  3
ACAD_PLOTSETTINGS
350
40CC
  3
ACAD_PLOTSTYLENAME
350
40C9
  3
ACAD_SCALELIST
350
66721
  3
AcadDim
350
FCCB
  3
AcDbVariableDictionary
350
6377
  3
APPDATA
350
69605
  3
DWGPROPS
350
69629
  0
DICTIONARY
  5
6475C
330
2
100
AcDbDictionary
280
     1
281
     1
  3
ACAD_LAYERSTATES
360
6475D
  0
DICTIONARY
  5
6757C
330
F
100
AcDbDictionary
280
     1
281
     1
  3
ADSK_XREC_LAYER_RECONCILED
360
6757D
  0
DICTIONARY
  5
67584
330
4C
100
AcDbDictionary
280
     1
281
     1
  3
ADSK_XREC_LAYER_RECONCILED
360
67585
  0
DICTIONARY
  5
67586
330
4D
100
AcDbDictionary
280
     1
281
     1
  3
ADSK_XREC_LAYER_RECONCILED
360
67587
  0
DICTIONARY
  5
6758A
330
40D4
100
AcDbDictionary
280
     1
281
     1
  3
ADSK_XREC_LAYER_RECONCILED
360
6758B
  0
DICTIONARY
  5
67590
330
666E9
100
AcDbDictionary
280
     1
281
     1
  3
ADSK_XREC_LAYER_RECONCILED
360
67591
  0
DICTIONARY
  5
9FD5
330
18
100
AcDbDictionary
280
     1
281
     1
  3
ACAD_SORTENTS
360
62664
  0
DICTIONARY
  5
D
102
{ACAD_REACTORS
330
C
102
}
330
C
100
AcDbDictionary
281
     1
  0
RASTERVARIABLES
  5
69606
102
{ACAD_REACTORS
330
C
102
}
330
C
100
AcDbRasterVariables
 90
        0
 70
     1
 71
     1
 72
     0
  0
DICTIONARY
  5
40CB
102
{ACAD_REACTORS
330
C
102
}
330
C
100
AcDbDictionary
281
     1
  3
Model
350
40CD
  3
ﾚｲｱｳﾄ1
350
40CE
  0
DICTIONARY
  5
E
102
{ACAD_REACTORS
330
C
102
}
330
C
100
AcDbDictionary
281
     1
  3
STANDARD
350
1B
  0
DICTIONARY
  5
40CC
102
{ACAD_REACTORS
330
C
102
}
330
C
100
AcDbDictionary
281
     1
  0
ACDBDICTIONARYWDFLT
  5
40C9
102
{ACAD_REACTORS
330
C
102
}
330
C
100
AcDbDictionary
281
     1
  3
Normal
350
40CA
100
AcDbDictionaryWithDefault
340
40CA
  0
DICTIONARY
  5
66721
102
{ACAD_REACTORS
330
C
102
}
330
C
100
AcDbDictionary
281
     1
  3
A0
350
66722
  3
A1
350
66723
  3
A2
350
66724
  3
A3
350
66725
  3
A4
350
66726
  3
A5
350
66727
  3
A6
350
66728
  3
A7
350
66729
  3
A8
350
6672A
  3
A9
350
6672B
  3
B0
350
6672C
  3
B1
350
6672D
  3
B2
350
6672E
  3
B3
350
6672F
  3
B4
350
66730
  3
B5
350
66731
  3
B6
350
66732
  3
B7
350
66733
  3
B8
350
66734
  3
B9
350
66735
  3
C0
350
66736
  3
C1
350
66737
  3
C2
350
66738
  3
C3
350
66739
  3
C4
350
6673A
  3
C5
350
6673B
  3
C6
350
6673C
  3
C7
350
6673D
  3
C8
350
6673E
  3
C9
350
6673F
  3
D0
350
66740
  3
D1
350
66741
  3
D2
350
66742
  0
XRECORD
  5
FCCB
102
{ACAD_REACTORS
330
C
102
}
330
C
100
AcDbXrecord
280
     1
 90
   990106
  3

 60
     0
 61
     0
 62
     1
 63
     3
 64
     0
 65
     0
 66
     0
 67
     3
 68
     1
 69
     0
 70
     0
 71
     0
 72
     0
 40
2.0
170
     0
  0
DICTIONARY
  5
6377
102
{ACAD_REACTORS
330
C
102
}
330
C
100
AcDbDictionary
281
     1
  3
DIMASSOC
350
73F2
  3
INDEXCTL
350
675A5
  3
PROJECTNAME
350
61970
  3
SORTENTS
350
6378
  0
DICTIONARY
  5
69605
102
{ACAD_REACTORS
330
C
102
}
330
C
100
AcDbDictionary
281
     1
  0
XRECORD
  5
69629
102
{ACAD_REACTORS
330
C
102
}
330
C
100
AcDbXrecord
280
     1
  1
DWGPROPS COOKIE
  2

  3

  4

  6

  7

  8
SPAX
  9

300
=
301
=
302
=
303
=
304
=
305
=
306
=
307
=
308
=
309
=
 40
0.0
 41
2449505.547222222
 42
2456822.11747309
  1

 90
        0
  0
DICTIONARY
  5
6475D
102
{ACAD_REACTORS
330
6475C
102
}
330
6475C
100
AcDbDictionary
281
     1
  0
XRECORD
  5
6757D
102
{ACAD_REACTORS
330
6757C
102
}
330
6757C
100
AcDbXrecord
280
     1
290
     1
  0
XRECORD
  5
67585
102
{ACAD_REACTORS
330
67584
102
}
330
67584
100
AcDbXrecord
280
     1
290
     1
  0
XRECORD
  5
67587
102
{ACAD_REACTORS
330
67586
102
}
330
67586
100
AcDbXrecord
280
     1
290
     1
  0
XRECORD
  5
6758B
102
{ACAD_REACTORS
330
6758A
102
}
330
6758A
100
AcDbXrecord
280
     1
290
     1
  0
XRECORD
  5
67591
102
{ACAD_REACTORS
330
67590
102
}
330
67590
100
AcDbXrecord
280
     1
290
     1
  0
SORTENTSTABLE
  5
62664
102
{ACAD_REACTORS
330
9FD5
102
}
330
9FD5
100
AcDbSortentsTable
330
18
331
0
  5
59D8D
  0
LAYOUT
  5
40CD
102
{ACAD_REACTORS
330
40CB
102
}
330
40CB
100
AcDbPlotSettings
  1

  2
JUST PDF 2.pc3
  4
A4
  6
CUT1
 40
3.174999952316284
 41
3.174999952316284
 42
3.175003051757812
 43
3.17498779296875
 44
209.8886566162109
 45
297.0530090332031
 46
14.27
 47
9.86
 48
9099.609044075549
 49
-7566.553700475487
140
10849.56122902461
141
-4856.626949088822
142
1.0
143
10.0
 70
 11940
 72
     1
 73
     0
 74
     4
  7
spax form.ctb
 75
     0
147
0.1
148
-9099.609044075549
149
7566.553700475487
100
AcDbLayout
  1
Model
 70
     1
 71
     0
 10
0.0
 20
0.0
 11
12.0
 21
9.0
 12
0.0
 22
0.0
 32
0.0
 14
9150.76168936196
 24
-8809.94096601065
 34
0.0
 15
9530.72368936196
 25
-8457.189018204466
 35
0.0
146
0.0
 13
0.0
 23
0.0
 33
0.0
 16
1.0
 26
0.0
 36
0.0
 17
0.0
 27
1.0
 37
0.0
 76
     0
330
18
331
68B24
1001
ACAD_PSEXT
1000
DWG To PDF.pc3
1000
PDF
1000
ファイル
1000

1070
     0
  0
LAYOUT
  5
40CE
102
{ACAD_REACTORS
330
40CB
102
}
330
40CB
100
AcDbPlotSettings
  1

  2
なし
  4

  6

 40
0.0
 41
0.0
 42
0.0
 43
0.0
 44
0.0
 45
0.0
 46
0.0
 47
0.0
 48
0.0
 49
0.0
140
0.0
141
0.0
142
1.0
143
1.0
 70
   688
 72
     0
 73
     0
 74
     5
  7
monochrome.ctb
 75
    16
147
1.0
148
0.0
149
0.0
100
AcDbLayout
  1
ﾚｲｱｳﾄ1
 70
     0
 71
     1
 10
0.0
 20
0.0
 11
12.0
 21
9.0
 12
0.0
 22
0.0
 32
0.0
 14
1.000000000000000E+20
 24
1.000000000000000E+20
 34
1.000000000000000E+20
 15
-1.000000000000000E+20
 25
-1.000000000000000E+20
 35
-1.000000000000000E+20
146
0.0
 13
0.0
 23
0.0
 33
0.0
 16
1.0
 26
0.0
 36
0.0
 17
0.0
 27
1.0
 37
0.0
 76
     0
330
15
  0
MLINESTYLE
  5
1B
102
{ACAD_REACTORS
330
E
102
}
330
E
100
AcDbMlineStyle
  2
STANDARD
 70
     0
  3

 62
     0
 51
90.0
 52
90.0
 71
     2
 49
0.5
 62
   256
  6
BYLAYER
 49
-0.5
 62
   256
  6
BYLAYER
  0
ACDBPLACEHOLDER
  5
40CA
102
{ACAD_REACTORS
330
40C9
102
}
330
40C9
  0
SCALE
  5
66722
102
{ACAD_REACTORS
330
66721
102
}
330
66721
100
AcDbScale
 70
     0
300
1:1
140
1.0
141
1.0
290
     1
1001
ACAD
1000
AcRTDxfName
1000
SCALE
1000
AcRTDxfName
1000
SCALE
  0
SCALE
  5
66723
102
{ACAD_REACTORS
330
66721
102
}
330
66721
100
AcDbScale
 70
     0
300
1:2
140
1.0
141
2.0
290
     0
1001
ACAD
1000
AcRTDxfName
1000
SCALE
1000
AcRTDxfName
1000
SCALE
  0
SCALE
  5
66724
102
{ACAD_REACTORS
330
66721
102
}
330
66721
100
AcDbScale
 70
     0
300
1:4
140
1.0
141
4.0
290
     0
1001
ACAD
1000
AcRTDxfName
1000
SCALE
1000
AcRTDxfName
1000
SCALE
  0
SCALE
  5
66725
102
{ACAD_REACTORS
330
66721
102
}
330
66721
100
AcDbScale
 70
     0
300
1:5
140
1.0
141
5.0
290
     0
1001
ACAD
1000
AcRTDxfName
1000
SCALE
1000
AcRTDxfName
1000
SCALE
  0
SCALE
  5
66726
102
{ACAD_REACTORS
330
66721
102
}
330
66721
100
AcDbScale
 70
     0
300
1:8
140
1.0
141
8.0
290
     0
1001
ACAD
1000
AcRTDxfName
1000
SCALE
1000
AcRTDxfName
1000
SCALE
  0
SCALE
  5
66727
102
{ACAD_REACTORS
330
66721
102
}
330
66721
100
AcDbScale
 70
     0
300
1:10
140
1.0
141
10.0
290
     0
1001
ACAD
1000
AcRTDxfName
1000
SCALE
1000
AcRTDxfName
1000
SCALE
  0
SCALE
  5
66728
102
{ACAD_REACTORS
330
66721
102
}
330
66721
100
AcDbScale
 70
     0
300
1:16
140
1.0
141
16.0
290
     0
1001
ACAD
1000
AcRTDxfName
1000
SCALE
1000
AcRTDxfName
1000
SCALE
  0
SCALE
  5
66729
102
{ACAD_REACTORS
330
66721
102
}
330
66721
100
AcDbScale
 70
     0
300
1:20
140
1.0
141
20.0
290
     0
1001
ACAD
1000
AcRTDxfName
1000
SCALE
1000
AcRTDxfName
1000
SCALE
  0
SCALE
  5
6672A
102
{ACAD_REACTORS
330
66721
102
}
330
66721
100
AcDbScale
 70
     0
300
1:30
140
1.0
141
30.0
290
     0
1001
ACAD
1000
AcRTDxfName
1000
SCALE
1000
AcRTDxfName
1000
SCALE
  0
SCALE
  5
6672B
102
{ACAD_REACTORS
330
66721
102
}
330
66721
100
AcDbScale
 70
     0
300
1:40
140
1.0
141
40.0
290
     0
1001
ACAD
1000
AcRTDxfName
1000
SCALE
1000
AcRTDxfName
1000
SCALE
  0
SCALE
  5
6672C
102
{ACAD_REACTORS
330
66721
102
}
330
66721
100
AcDbScale
 70
     0
300
1:50
140
1.0
141
50.0
290
     0
1001
ACAD
1000
AcRTDxfName
1000
SCALE
1000
AcRTDxfName
1000
SCALE
  0
SCALE
  5
6672D
102
{ACAD_REACTORS
330
66721
102
}
330
66721
100
AcDbScale
 70
     0
300
1:100
140
1.0
141
100.0
290
     0
1001
ACAD
1000
AcRTDxfName
1000
SCALE
1000
AcRTDxfName
1000
SCALE
  0
SCALE
  5
6672E
102
{ACAD_REACTORS
330
66721
102
}
330
66721
100
AcDbScale
 70
     0
300
2:1
140
2.0
141
1.0
290
     0
1001
ACAD
1000
AcRTDxfName
1000
SCALE
1000
AcRTDxfName
1000
SCALE
  0
SCALE
  5
6672F
102
{ACAD_REACTORS
330
66721
102
}
330
66721
100
AcDbScale
 70
     0
300
4:1
140
4.0
141
1.0
290
     0
1001
ACAD
1000
AcRTDxfName
1000
SCALE
1000
AcRTDxfName
1000
SCALE
  0
SCALE
  5
66730
102
{ACAD_REACTORS
330
66721
102
}
330
66721
100
AcDbScale
 70
     0
300
8:1
140
8.0
141
1.0
290
     0
1001
ACAD
1000
AcRTDxfName
1000
SCALE
1000
AcRTDxfName
1000
SCALE
  0
SCALE
  5
66731
102
{ACAD_REACTORS
330
66721
102
}
330
66721
100
AcDbScale
 70
     0
300
10:1
140
10.0
141
1.0
290
     0
1001
ACAD
1000
AcRTDxfName
1000
SCALE
1000
AcRTDxfName
1000
SCALE
  0
SCALE
  5
66732
102
{ACAD_REACTORS
330
66721
102
}
330
66721
100
AcDbScale
 70
     0
300
100:1
140
100.0
141
1.0
290
     0
1001
ACAD
1000
AcRTDxfName
1000
SCALE
1000
AcRTDxfName
1000
SCALE
  0
SCALE
  5
66733
102
{ACAD_REACTORS
330
66721
102
}
330
66721
100
AcDbScale
 70
     0
300
1/128" = 1'-0"
140
0.0078125
141
12.0
290
     0
1001
ACAD
1000
AcRTDxfName
1000
SCALE
1000
AcRTDxfName
1000
SCALE
  0
SCALE
  5
66734
102
{ACAD_REACTORS
330
66721
102
}
330
66721
100
AcDbScale
 70
     0
300
1/64" = 1'-0"
140
0.015625
141
12.0
290
     0
1001
ACAD
1000
AcRTDxfName
1000
SCALE
1000
AcRTDxfName
1000
SCALE
  0
SCALE
  5
66735
102
{ACAD_REACTORS
330
66721
102
}
330
66721
100
AcDbScale
 70
     0
300
1/32" = 1'-0"
140
0.03125
141
12.0
290
     0
1001
ACAD
1000
AcRTDxfName
1000
SCALE
1000
AcRTDxfName
1000
SCALE
  0
SCALE
  5
66736
102
{ACAD_REACTORS
330
66721
102
}
330
66721
100
AcDbScale
 70
     0
300
1/16" = 1'-0"
140
0.0625
141
12.0
290
     0
1001
ACAD
1000
AcRTDxfName
1000
SCALE
1000
AcRTDxfName
1000
SCALE
  0
SCALE
  5
66737
102
{ACAD_REACTORS
330
66721
102
}
330
66721
100
AcDbScale
 70
     0
300
3/32" = 1'-0"
140
0.09375
141
12.0
290
     0
1001
ACAD
1000
AcRTDxfName
1000
SCALE
1000
AcRTDxfName
1000
SCALE
  0
SCALE
  5
66738
102
{ACAD_REACTORS
330
66721
102
}
330
66721
100
AcDbScale
 70
     0
300
1/8" = 1'-0"
140
0.125
141
12.0
290
     0
1001
ACAD
1000
AcRTDxfName
1000
SCALE
1000
AcRTDxfName
1000
SCALE
  0
SCALE
  5
66739
102
{ACAD_REACTORS
330
66721
102
}
330
66721
100
AcDbScale
 70
     0
300
3/16" = 1'-0"
140
0.1875
141
12.0
290
     0
1001
ACAD
1000
AcRTDxfName
1000
SCALE
1000
AcRTDxfName
1000
SCALE
  0
SCALE
  5
6673A
102
{ACAD_REACTORS
330
66721
102
}
330
66721
100
AcDbScale
 70
     0
300
1/4" = 1'-0"
140
0.25
141
12.0
290
     0
1001
ACAD
1000
AcRTDxfName
1000
SCALE
1000
AcRTDxfName
1000
SCALE
  0
SCALE
  5
6673B
102
{ACAD_REACTORS
330
66721
102
}
330
66721
100
AcDbScale
 70
     0
300
3/8" = 1'-0"
140
0.375
141
12.0
290
     0
1001
ACAD
1000
AcRTDxfName
1000
SCALE
1000
AcRTDxfName
1000
SCALE
  0
SCALE
  5
6673C
102
{ACAD_REACTORS
330
66721
102
}
330
66721
100
AcDbScale
 70
     0
300
1/2" = 1'-0"
140
0.5
141
12.0
290
     0
1001
ACAD
1000
AcRTDxfName
1000
SCALE
1000
AcRTDxfName
1000
SCALE
  0
SCALE
  5
6673D
102
{ACAD_REACTORS
330
66721
102
}
330
66721
100
AcDbScale
 70
     0
300
3/4" = 1'-0"
140
0.75
141
12.0
290
     0
1001
ACAD
1000
AcRTDxfName
1000
SCALE
1000
AcRTDxfName
1000
SCALE
  0
SCALE
  5
6673E
102
{ACAD_REACTORS
330
66721
102
}
330
66721
100
AcDbScale
 70
     0
300
1" = 1'-0"
140
1.0
141
12.0
290
     0
1001
ACAD
1000
AcRTDxfName
1000
SCALE
1000
AcRTDxfName
1000
SCALE
  0
SCALE
  5
6673F
102
{ACAD_REACTORS
330
66721
102
}
330
66721
100
AcDbScale
 70
     0
300
1-1/2" = 1'-0"
140
1.5
141
12.0
290
     0
1001
ACAD
1000
AcRTDxfName
1000
SCALE
1000
AcRTDxfName
1000
SCALE
  0
SCALE
  5
66740
102
{ACAD_REACTORS
330
66721
102
}
330
66721
100
AcDbScale
 70
     0
300
3" = 1'-0"
140
3.0
141
12.0
290
     0
1001
ACAD
1000
AcRTDxfName
1000
SCALE
1000
AcRTDxfName
1000
SCALE
  0
SCALE
  5
66741
102
{ACAD_REACTORS
330
66721
102
}
330
66721
100
AcDbScale
 70
     0
300
6" = 1'-0"
140
6.0
141
12.0
290
     0
1001
ACAD
1000
AcRTDxfName
1000
SCALE
1000
AcRTDxfName
1000
SCALE
  0
SCALE
  5
66742
102
{ACAD_REACTORS
330
66721
102
}
330
66721
100
AcDbScale
 70
     0
300
1'-0" = 1'-0"
140
12.0
141
12.0
290
     0
1001
ACAD
1000
AcRTDxfName
1000
SCALE
1000
AcRTDxfName
1000
SCALE
  0
DICTIONARYVAR
  5
73F2
102
{ACAD_REACTORS
330
6377
102
}
330
6377
100
DictionaryVariables
280
     0
  1
1
  0
DICTIONARYVAR
  5
675A5
102
{ACAD_REACTORS
330
6377
102
}
330
6377
100
DictionaryVariables
280
     0
  1
0
  0
DICTIONARYVAR
  5
61970
102
{ACAD_REACTORS
330
6377
102
}
330
6377
100
DictionaryVariables
280
     0
  1

  0
DICTIONARYVAR
  5
6378
102
{ACAD_REACTORS
330
6377
102
}
330
6377
100
DictionaryVariables
280
     0
  1
127
  0
ENDSEC
  0
EOF
