  0
SECTION
  2
HEADER
  9
$ACADVER
  1
AC1015
  9
$ACADMAINTVER
 70
     6
  9
$DWGCODEPAGE
  3
ANSI_932
  9
$INSBASE
 10
0.0
 20
0.0
 30
0.0
  9
$EXTMIN
 10
11414.3790108402
 20
-8859.392266384197
 30
0.0
  9
$EXTMAX
 10
11794.34101084019
 20
-8518.919673639703
 30
0.0
  9
$LIMMIN
 10
0.0
 20
0.0
  9
$LIMMAX
 10
840.0
 20
594.0
  9
$ORTHOMODE
 70
     1
  9
$REGENMODE
 70
     1
  9
$FILLMODE
 70
     1
  9
$QTEXTMODE
 70
     0
  9
$MIRRTEXT
 70
     1
  9
$LTSCALE
 40
7.0
  9
$ATTMODE
 70
     0
  9
$TEXTSIZE
 40
6.0
  9
$TRACEWID
 40
1.0
  9
$TEXTSTYLE
  7
STANDARD
  9
$CLAYER
  8
寸法線
  9
$CELTYPE
  6
BYLAYER
  9
$CECOLOR
 62
   256
  9
$CELTSCALE
 40
1.0
  9
$DISPSILH
 70
     0
  9
$DIMSCALE
 40
1.0
  9
$DIMASZ
 40
10.0
  9
$DIMEXO
 40
3.0
  9
$DIMDLI
 40
7.149999999999999
  9
$DIMRND
 40
0.0
  9
$DIMDLE
 40
0.0
  9
$DIMEXE
 40
2.0
  9
$DIMTP
 40
0.0
  9
$DIMTM
 40
0.0
  9
$DIMTXT
 40
18.0
  9
$DIMCEN
 40
0.0
  9
$DIMTSZ
 40
0.0
  9
$DIMTOL
 70
     0
  9
$DIMLIM
 70
     0
  9
$DIMTIH
 70
     0
  9
$DIMTOH
 70
     0
  9
$DIMSE1
 70
     0
  9
$DIMSE2
 70
     0
  9
$DIMTAD
 70
     3
  9
$DIMZIN
 70
     8
  9
$DIMBLK
  1
OPEN
  9
$DIMASO
 70
     1
  9
$DIMSHO
 70
     0
  9
$DIMPOST
  1

  9
$DIMAPOST
  1

  9
$DIMALT
 70
     0
  9
$DIMALTD
 70
     2
  9
$DIMALTF
 40
25.4
  9
$DIMLFAC
 40
1.0
  9
$DIMTOFL
 70
     0
  9
$DIMTVP
 40
0.0
  9
$DIMTIX
 70
     0
  9
$DIMSOXD
 70
     0
  9
$DIMSAH
 70
     0
  9
$DIMBLK1
  1

  9
$DIMBLK2
  1

  9
$DIMSTYLE
  2
STANDARD
  9
$DIMCLRD
 70
     8
  9
$DIMCLRE
 70
     8
  9
$DIMCLRT
 70
     0
  9
$DIMTFAC
 40
1.0
  9
$DIMGAP
 40
4.0
  9
$DIMJUST
 70
     0
  9
$DIMSD1
 70
     0
  9
$DIMSD2
 70
     0
  9
$DIMTOLJ
 70
     1
  9
$DIMTZIN
 70
     0
  9
$DIMALTZ
 70
     0
  9
$DIMALTTZ
 70
     0
  9
$DIMUPT
 70
     1
  9
$DIMDEC
 70
     2
  9
$DIMTDEC
 70
     2
  9
$DIMALTU
 70
     2
  9
$DIMALTTD
 70
     2
  9
$DIMTXSTY
  7
STANDARD
  9
$DIMAUNIT
 70
     0
  9
$DIMADEC
 70
     2
  9
$DIMALTRND
 40
0.0
  9
$DIMAZIN
 70
     2
  9
$DIMDSEP
 70
    46
  9
$DIMATFIT
 70
     3
  9
$DIMFRAC
 70
     0
  9
$DIMLDRBLK
  1
OPEN
  9
$DIMLUNIT
 70
     2
  9
$DIMLWD
 70
    -2
  9
$DIMLWE
 70
    -2
  9
$DIMTMOVE
 70
     0
  9
$LUNITS
 70
     2
  9
$LUPREC
 70
     2
  9
$SKETCHINC
 40
0.1
  9
$FILLETRAD
 40
0.6
  9
$AUNITS
 70
     0
  9
$AUPREC
 70
     2
  9
$MENU
  1
ACAD
  9
$ELEVATION
 40
0.0
  9
$PELEVATION
 40
0.0
  9
$THICKNESS
 40
0.0
  9
$LIMCHECK
 70
     0
  9
$CHAMFERA
 40
0.0
  9
$CHAMFERB
 40
0.0
  9
$CHAMFERC
 40
0.0
  9
$CHAMFERD
 40
0.0
  9
$SKPOLY
 70
     0
  9
$TDCREATE
 40
2449505.922222222
  9
$TDUCREATE
 40
2449505.547222222
  9
$TDUPDATE
 40
2456822.492673935
  9
$TDUUPDATE
 40
2456822.117673935
  9
$TDINDWG
 40
2.5292296875
  9
$TDUSRTIMER
 40
2456822.117532998
  9
$USRTIMER
 70
     1
  9
$ANGBASE
 50
0.0
  9
$ANGDIR
 70
     0
  9
$PDMODE
 70
     3
  9
$PDSIZE
 40
0.0
  9
$PLINEWID
 40
0.0
  9
$SPLFRAME
 70
     0
  9
$SPLINETYPE
 70
     6
  9
$SPLINESEGS
 70
     8
  9
$HANDSEED
  5
680E6
  9
$SURFTAB1
 70
     6
  9
$SURFTAB2
 70
     6
  9
$SURFTYPE
 70
     6
  9
$SURFU
 70
     6
  9
$SURFV
 70
     6
  9
$UCSBASE
  2

  9
$UCSNAME
  2

  9
$UCSORG
 10
0.0
 20
0.0
 30
0.0
  9
$UCSXDIR
 10
1.0
 20
0.0
 30
0.0
  9
$UCSYDIR
 10
0.0
 20
1.0
 30
0.0
  9
$UCSORTHOREF
  2

  9
$UCSORTHOVIEW
 70
     0
  9
$UCSORGTOP
 10
0.0
 20
0.0
 30
0.0
  9
$UCSORGBOTTOM
 10
0.0
 20
0.0
 30
0.0
  9
$UCSORGLEFT
 10
0.0
 20
0.0
 30
0.0
  9
$UCSORGRIGHT
 10
0.0
 20
0.0
 30
0.0
  9
$UCSORGFRONT
 10
0.0
 20
0.0
 30
0.0
  9
$UCSORGBACK
 10
0.0
 20
0.0
 30
0.0
  9
$PUCSBASE
  2

  9
$PUCSNAME
  2

  9
$PUCSORG
 10
0.0
 20
0.0
 30
0.0
  9
$PUCSXDIR
 10
1.0
 20
0.0
 30
0.0
  9
$PUCSYDIR
 10
0.0
 20
1.0
 30
0.0
  9
$PUCSORTHOREF
  2

  9
$PUCSORTHOVIEW
 70
     0
  9
$PUCSORGTOP
 10
0.0
 20
0.0
 30
0.0
  9
$PUCSORGBOTTOM
 10
0.0
 20
0.0
 30
0.0
  9
$PUCSORGLEFT
 10
0.0
 20
0.0
 30
0.0
  9
$PUCSORGRIGHT
 10
0.0
 20
0.0
 30
0.0
  9
$PUCSORGFRONT
 10
0.0
 20
0.0
 30
0.0
  9
$PUCSORGBACK
 10
0.0
 20
0.0
 30
0.0
  9
$USERI1
 70
     0
  9
$USERI2
 70
     0
  9
$USERI3
 70
     0
  9
$USERI4
 70
     0
  9
$USERI5
 70
     0
  9
$USERR1
 40
0.0
  9
$USERR2
 40
0.0
  9
$USERR3
 40
0.0
  9
$USERR4
 40
0.0
  9
$USERR5
 40
0.0
  9
$WORLDVIEW
 70
     0
  9
$SHADEDGE
 70
     3
  9
$SHADEDIF
 70
    70
  9
$TILEMODE
 70
     1
  9
$MAXACTVP
 70
    16
  9
$PINSBASE
 10
0.0
 20
0.0
 30
0.0
  9
$PLIMCHECK
 70
     0
  9
$PEXTMIN
 10
1.000000000000000E+20
 20
1.000000000000000E+20
 30
1.000000000000000E+20
  9
$PEXTMAX
 10
-1.000000000000000E+20
 20
-1.000000000000000E+20
 30
-1.000000000000000E+20
  9
$PLIMMIN
 10
0.0
 20
0.0
  9
$PLIMMAX
 10
0.0
 20
0.0
  9
$UNITMODE
 70
     0
  9
$VISRETAIN
 70
     0
  9
$PLINEGEN
 70
     0
  9
$PSLTSCALE
 70
     0
  9
$TREEDEPTH
 70
  3020
  9
$CMLSTYLE
  2
STANDARD
  9
$CMLJUST
 70
     0
  9
$CMLSCALE
 40
1.0
  9
$PROXYGRAPHICS
 70
     1
  9
$MEASUREMENT
 70
     0
  9
$CELWEIGHT
370
    -1
  9
$ENDCAPS
280
     0
  9
$JOINSTYLE
280
     0
  9
$LWDISPLAY
290
     0
  9
$INSUNITS
 70
     0
  9
$HYPERLINKBASE
  1

  9
$STYLESHEET
  1
spax form.ctb
  9
$XEDIT
290
     1
  9
$CEPSNTYPE
380
     0
  9
$PSTYLEMODE
290
     1
  9
$FINGERPRINTGUID
  2
{C1CFCF3E-DF91-11D3-B30C-0060B0FA8DFC}
  9
$VERSIONGUID
  2
{9C82C0ED-A18B-41DE-A191-D0F653376EC6}
  9
$EXTNAMES
290
     1
  9
$PSVPSCALE
 40
0.0
  9
$OLESTARTUP
290
     0
  0
ENDSEC
  0
SECTION
  2
CLASSES
  0
CLASS
  1
LWPOLYLINE
  2
AcDbPolyline
  3
ObjectDBX Classes
 90
        0
280
     0
281
     1
  0
CLASS
  1
ACDBDICTIONARYWDFLT
  2
AcDbDictionaryWithDefault
  3
ObjectDBX Classes
 90
        0
280
     0
281
     0
  0
CLASS
  1
ACDBPLACEHOLDER
  2
AcDbPlaceHolder
  3
ObjectDBX Classes
 90
        0
280
     0
281
     0
  0
CLASS
  1
LAYOUT
  2
AcDbLayout
  3
ObjectDBX Classes
 90
        0
280
     0
281
     0
  0
CLASS
  1
DICTIONARYVAR
  2
AcDbDictionaryVar
  3
ObjectDBX Classes
 90
        0
280
     0
281
     0
  0
CLASS
  1
LONG_TRANSACTION
  2
AcDbLongTransaction
  3
ObjectDBX Classes
 90
        0
280
     0
281
     0
  0
CLASS
  1
LWPOLYLINE
  2
AcDbPolyline
  3
ObjectDBX Classes
 90
        0
280
     0
281
     1
  0
CLASS
  1
HATCH
  2
AcDbHatch
  3
ObjectDBX Classes
 90
        0
280
     0
281
     1
  0
CLASS
  1
XRECORD
  2
AcDbXrecord
  3
ObjectDBX Classes
 90
        0
280
     0
281
     0
  0
CLASS
  1
SORTENTSTABLE
  2
AcDbSortentsTable
  3
ObjectDBX Classes
 90
        0
280
     0
281
     0
  0
CLASS
  1
MATERIAL
  2
AcDbMaterial
  3
ObjectDBX Classes
 90
     1153
280
     0
281
     0
  0
CLASS
  1
VISUALSTYLE
  2
AcDbVisualStyle
  3
ObjectDBX Classes
 90
     4095
280
     0
281
     0
  0
CLASS
  1
TABLESTYLE
  2
AcDbTableStyle
  3
ObjectDBX Classes
 90
     4095
280
     0
281
     0
  0
CLASS
  1
SCALE
  2
AcDbScale
  3
ObjectDBX Classes
 90
     1153
280
     0
281
     0
  0
CLASS
  1
MLEADERSTYLE
  2
AcDbMLeaderStyle
  3
ACDB_MLEADERSTYLE_CLASS
 90
     4095
280
     0
281
     0
  0
CLASS
  1
CELLSTYLEMAP
  2
AcDbCellStyleMap
  3
ObjectDBX Classes
 90
     1152
280
     0
281
     0
  0
CLASS
  1
RASTERVARIABLES
  2
AcDbRasterVariables
  3
ISM
 90
        0
280
     0
281
     0
  0
CLASS
  1
SUN
  2
AcDbSun
  3
SCENEOE
 90
     1153
280
     0
281
     0
  0
ENDSEC
  0
SECTION
  2
TABLES
  0
TABLE
  2
VPORT
  5
8
330
0
100
AcDbSymbolTable
 70
     1
  0
VPORT
  5
675F2
330
8
100
AcDbSymbolTableRecord
100
AcDbViewportTableRecord
  2
*Active
 70
     0
 10
0.0
 20
0.0
 11
1.0
 21
1.0
 12
11604.3600108402
 22
-8689.15597001195
 13
0.0
 23
0.0
 14
1.0
 24
1.0
 15
20.0
 25
20.0
 16
0.0
 26
0.0
 36
1.0
 17
0.0
 27
0.0
 37
0.0
 40
347.2820445993842
 41
2.027568922305764
 42
50.0
 43
0.0
 44
0.0
 50
0.0
 51
0.0
 71
    16
 72
  2000
 73
     1
 74
     0
 75
     0
 76
     0
 77
     0
 78
     1
281
     0
 65
     1
110
0.0
120
0.0
130
0.0
111
1.0
121
0.0
131
0.0
112
0.0
122
1.0
132
0.0
 79
     0
146
0.0
  0
ENDTAB
  0
TABLE
  2
LTYPE
  5
5
330
0
100
AcDbSymbolTable
 70
     4
  0
LTYPE
  5
12
330
5
100
AcDbSymbolTableRecord
100
AcDbLinetypeTableRecord
  2
BYBLOCK
 70
     0
  3

 72
    65
 73
     0
 40
0.0
  0
LTYPE
  5
13
330
5
100
AcDbSymbolTableRecord
100
AcDbLinetypeTableRecord
  2
BYLAYER
 70
     0
  3

 72
    65
 73
     0
 40
0.0
  0
LTYPE
  5
14
330
5
100
AcDbSymbolTableRecord
100
AcDbLinetypeTableRecord
  2
CONTINUOUS
 70
     0
  3
Solid line
 72
    65
 73
     0
 40
0.0
  0
LTYPE
  5
3D
330
5
100
AcDbSymbolTableRecord
100
AcDbLinetypeTableRecord
  2
PHANTOM
 70
     0
  3
_____ _ _ _____ _ _ _____ _ _ _____ _ _ ____
 72
    65
 73
     6
 40
2.5
 49
1.25
 74
     0
 49
-0.25
 74
     0
 49
0.25
 74
     0
 49
-0.25
 74
     0
 49
0.25
 74
     0
 49
-0.25
 74
     0
  0
LTYPE
  5
40D2
330
5
100
AcDbSymbolTableRecord
100
AcDbLinetypeTableRecord
  2
CENTER
 70
     0
  3
____ _ ____ _ ____ _ ____ _ ____ _ ____ _ ____ 
 72
    65
 73
     4
 40
2.0
 49
1.25
 74
     0
 49
-0.25
 74
     0
 49
0.25
 74
     0
 49
-0.25
 74
     0
  0
LTYPE
  5
A244
330
5
100
AcDbSymbolTableRecord
100
AcDbLinetypeTableRecord
  2
HIDDEN
 70
     0
  3
_ _ _ _ _ _ _ _ _ _ _ _ _ _ _ _ _ _ _ _ _ _ _
 72
    65
 73
     2
 40
0.375
 49
0.25
 74
     0
 49
-0.125
 74
     0
  0
ENDTAB
  0
TABLE
  2
LAYER
  5
2
102
{ACAD_XDICTIONARY
360
63C2C
102
}
330
0
100
AcDbSymbolTable
 70
    12
  0
LAYER
  5
F
102
{ACAD_XDICTIONARY
360
655B6
102
}
330
2
100
AcDbSymbolTableRecord
100
AcDbLayerTableRecord
  2
0
 70
     0
 62
     7
  6
CONTINUOUS
370
    -3
390
40CA
  0
LAYER
  5
4B
102
{ACAD_XDICTIONARY
360
655BC
102
}
330
2
100
AcDbSymbolTableRecord
100
AcDbLayerTableRecord
  2
想像線
 70
     0
 62
     3
  6
PHANTOM
370
    -3
390
40CA
  0
LAYER
  5
4C
102
{ACAD_XDICTIONARY
360
655BE
102
}
330
2
100
AcDbSymbolTableRecord
100
AcDbLayerTableRecord
  2
寸法線
 70
     0
 62
     7
  6
CONTINUOUS
370
    -3
390
40CA
  0
LAYER
  5
4D
102
{ACAD_XDICTIONARY
360
655C0
102
}
330
2
100
AcDbSymbolTableRecord
100
AcDbLayerTableRecord
  2
姿図
 70
     0
 62
     8
  6
CONTINUOUS
370
    -3
390
40CA
  0
LAYER
  5
40D4
102
{ACAD_XDICTIONARY
360
655C4
102
}
330
2
100
AcDbSymbolTableRecord
100
AcDbLayerTableRecord
  2
文字
 70
     0
 62
     7
  6
CONTINUOUS
370
    -3
390
40CA
  0
LAYER
  5
64727
102
{ACAD_XDICTIONARY
360
655CA
102
}
330
2
100
AcDbSymbolTableRecord
100
AcDbLayerTableRecord
  2
C-SUNPO
 70
     0
 62
     7
  6
CONTINUOUS
370
    -3
390
40CA
  0
ENDTAB
  0
TABLE
  2
STYLE
  5
3
330
0
100
AcDbSymbolTable
 70
     1
  0
STYLE
  5
10
330
3
100
AcDbSymbolTableRecord
100
AcDbTextStyleTableRecord
  2
STANDARD
 70
     0
 40
0.0
 41
1.0
 50
0.0
 71
     0
 42
6.0
  3
MONOTXT
  4
BIGFONT
  0
ENDTAB
  0
TABLE
  2
VIEW
  5
6
330
0
100
AcDbSymbolTable
 70
     1
  0
VIEW
  5
41
330
6
100
AcDbSymbolTableRecord
100
AcDbViewTableRecord
  2
CUT1
 70
     0
 40
612.7795527156796
 10
420.0000000000169
 20
306.3897763578398
 41
840.0000000000338
 11
0.0
 21
0.0
 31
1.0
 12
0.0
 22
0.0
 32
0.0
 42
50.0
 43
0.0
 44
0.0
 50
0.0
 71
     0
281
     0
 72
     0
  0
ENDTAB
  0
TABLE
  2
UCS
  5
7
330
0
100
AcDbSymbolTable
 70
     0
  0
ENDTAB
  0
TABLE
  2
APPID
  5
9
330
0
100
AcDbSymbolTable
 70
     6
  0
APPID
  5
11
330
9
100
AcDbSymbolTableRecord
100
AcDbRegAppTableRecord
  2
ACAD
 70
     0
  0
APPID
  5
64783
330
9
100
AcDbSymbolTableRecord
100
AcDbRegAppTableRecord
  2
ACAD_MLEADERVER
 70
     0
  0
APPID
  5
651E3
330
9
100
AcDbSymbolTableRecord
100
AcDbRegAppTableRecord
  2
ACAD_EXEMPT_FROM_CAD_STANDARDS
 70
     0
  0
APPID
  5
660D7
330
9
100
AcDbSymbolTableRecord
100
AcDbRegAppTableRecord
  2
ACAD_PSEXT
 70
     0
  0
APPID
  5
68069
330
9
100
AcDbSymbolTableRecord
100
AcDbRegAppTableRecord
  2
ACAD_DSTYLE_DIMJAG
 70
     0
  0
APPID
  5
6806A
330
9
100
AcDbSymbolTableRecord
100
AcDbRegAppTableRecord
  2
ACAD_DSTYLE_DIMTALN
 70
     0
  0
ENDTAB
  0
TABLE
  2
DIMSTYLE
  5
A
330
0
100
AcDbSymbolTable
 70
     5
100
AcDbDimStyleTable
  0
DIMSTYLE
105
1B3A
330
A
100
AcDbSymbolTableRecord
100
AcDbDimStyleTableRecord
  2
STANDARD
 70
     0
 41
10.0
 42
3.0
 43
7.149999999999999
 44
2.0
 73
     0
 74
     0
 77
     3
 78
     8
 79
     2
140
18.0
141
0.0
147
4.0
176
     8
177
     8
178
     0
179
     2
271
     2
272
     2
288
     1
340
10
341
49C3
342
49C3
  0
DIMSTYLE
105
A246
330
A
100
AcDbSymbolTableRecord
100
AcDbDimStyleTableRecord
  2
STANDERD
 70
     0
 40
0.0
 41
4.0
 42
1.5
 43
3.75
 44
1.25
 73
     0
 74
     0
 77
     3
 78
     8
140
5.0
141
0.0
147
2.5
171
     0
173
     1
178
     0
288
     1
340
10
341
49C3
343
49C3
344
49C3
  0
DIMSTYLE
105
64728
330
A
100
AcDbSymbolTableRecord
100
AcDbDimStyleTableRecord
  2
STANDARD-5
 70
     0
 41
7.5
 42
7.5
 43
1.9
 44
5.0
 73
     0
 74
     0
 77
     1
 78
     8
 79
     2
140
8.0
141
0.0
147
3.0
171
     0
173
     1
176
     8
177
     8
271
     2
178
   256
179
     2
271
     2
272
     2
274
     0
340
10
341
49C3
343
49C3
344
49C3
  0
ENDTAB
  0
TABLE
  2
BLOCK_RECORD
  5
1
330
0
100
AcDbSymbolTable
 70
   149
  0
BLOCK_RECORD
  5
18
102
{ACAD_XDICTIONARY
360
9FD5
102
}
330
1
100
AcDbSymbolTableRecord
100
AcDbBlockTableRecord
  2
*MODEL_SPACE
340
40CD
  0
BLOCK_RECORD
  5
15
330
1
100
AcDbSymbolTableRecord
100
AcDbBlockTableRecord
  2
*PAPER_SPACE
340
40CE
  0
BLOCK_RECORD
  5
49C3
330
1
100
AcDbSymbolTableRecord
100
AcDbBlockTableRecord
  2
_OPEN
340
0
102
{BLKREFS
331
6227C
331
6227D
331
62287
331
62288
331
62290
331
62291
331
622C0
331
622C1
331
622CB
331
622CC
331
622D4
331
622D5
331
622DD
331
622DE
331
622E6
331
622E7
331
622EF
331
622F0
331
6261B
331
6261C
331
62624
331
62625
331
6262D
331
6262E
331
62636
331
62637
331
6263F
331
62640
331
62648
331
62649
331
626C4
331
626C5
331
630CD
331
630CE
331
630D6
331
630D7
331
630E1
331
630E2
331
630EA
331
630EB
331
630F3
331
630F4
331
630FE
331
630FF
331
63107
331
63108
331
63110
331
63111
331
63119
331
6311A
331
63122
331
63123
331
6312B
331
6312C
331
63134
331
63135
331
6313D
331
6313E
331
63146
331
63147
331
6314F
331
63150
331
6315A
331
6315B
331
63B54
331
63B55
331
63B5D
331
63B5E
331
63B66
331
63B67
331
63B6F
331
63B70
331
63B78
331
63B79
331
63B81
331
63B82
331
63B8A
331
63B8B
331
63B93
331
63B94
331
63B9C
331
63B9D
331
63BA7
331
63BA8
331
63BB0
331
63BB1
331
63BB9
331
63BBA
331
63BC4
331
63BC5
331
63BCF
331
63BD0
331
63BD8
331
63BD9
331
63BE1
331
63BE2
331
64620
331
64621
331
64629
331
6462A
331
64632
331
64633
331
6463B
331
6463C
331
64644
331
64645
331
6464D
331
6464E
331
64656
331
64657
331
6465F
331
64660
331
64668
331
64669
331
64671
331
64672
331
6467C
331
6467D
331
64685
331
64686
331
6468E
331
6468F
331
64699
331
6469A
331
646A2
331
646A3
331
646AB
331
646AC
331
65149
331
6514A
331
6516F
331
65170
331
6517A
331
6517B
331
65183
331
65184
331
6518C
331
6518D
331
65195
331
65196
331
6519E
331
6519F
331
651A7
331
651A8
331
651B0
331
651B1
331
651B9
331
651BA
331
651C2
331
651C3
331
651CB
331
651CC
331
651D4
331
651D5
331
6559C
331
6559D
331
655A7
331
655A8
331
655B0
331
655B1
331
66018
331
66019
331
66023
331
66024
331
6602C
331
6602D
331
66035
331
66036
331
6603E
331
6603F
331
66047
331
66048
331
66050
331
66051
331
66059
331
6605A
331
66062
331
66063
331
6606B
331
6606C
331
66074
331
66075
331
6607D
331
6607E
331
66088
331
66089
331
66093
331
66094
331
6609C
331
6609D
331
660A5
331
660A6
331
66AC5
331
66AC6
331
66ACE
331
66ACF
331
66AD7
331
66AD8
331
66AE0
331
66AE1
331
66AE9
331
66AEA
331
66AF2
331
66AF3
331
66AFB
331
66AFC
331
66B04
331
66B05
331
66B0D
331
66B0E
331
66B16
331
66B17
331
66B21
331
66B22
331
66B2A
331
66B2B
331
66B33
331
66B34
331
66B3E
331
66B3F
331
66B49
331
66B4A
331
66B52
331
66B53
331
67530
331
67531
331
6753B
331
6753C
331
67544
331
67545
331
6754F
331
67550
331
6755A
331
6755B
331
67563
331
67564
331
6756C
331
6756D
331
67575
331
67576
331
6757E
331
6757F
331
67587
331
67588
331
67590
331
67591
331
67599
331
6759A
331
675A2
331
675A3
331
675AB
331
675AC
331
675B4
331
675B5
331
675BD
331
675BE
331
67FC2
331
67FC3
331
67FCB
331
67FCC
331
67FD4
331
67FD5
331
67FDD
331
67FDE
331
67FE6
331
67FE7
331
67FEF
331
67FF0
331
67FF8
331
67FF9
331
68001
331
68002
331
6800A
331
6800B
331
68013
331
68014
331
6801C
331
6801D
331
68027
331
68028
331
68032
331
68033
331
6803B
331
6803C
331
68046
331
68047
331
6804F
331
68050
102
}
  0
ENDTAB
  0
ENDSEC
  0
SECTION
  2
BLOCKS
  0
BLOCK
  5
52
330
18
100
AcDbEntity
  8
0
100
AcDbBlockBegin
  2
*MODEL_SPACE
 70
     0
 10
0.0
 20
0.0
 30
0.0
  3
*MODEL_SPACE
  1
*MODEL_SPACE
  0
ENDBLK
  5
53
330
18
100
AcDbEntity
  8
0
100
AcDbBlockEnd
  0
BLOCK
  5
50
330
15
100
AcDbEntity
 67
     1
  8
0
100
AcDbBlockBegin
  2
*PAPER_SPACE
 70
     0
 10
0.0
 20
0.0
 30
0.0
  3
*PAPER_SPACE
  1
*PAPER_SPACE
  0
ENDBLK
  5
51
330
15
100
AcDbEntity
 67
     1
  8
0
100
AcDbBlockEnd
  0
BLOCK
  5
49C7
330
49C3
100
AcDbEntity
  8
0
100
AcDbBlockBegin
  2
_OPEN
 70
     0
 10
0.0
 20
0.0
 30
0.0
  3
_OPEN
  1
_OPEN
  0
LINE
  5
49C4
330
49C3
100
AcDbEntity
  8
0
  6
ByBlock
 62
     0
100
AcDbLine
 10
-1.0
 20
0.1666666666666667
 30
0.0
 11
0.0
 21
0.0
 31
0.0
  0
LINE
  5
49C5
330
49C3
100
AcDbEntity
  8
0
  6
ByBlock
 62
     0
100
AcDbLine
 10
0.0
 20
0.0
 30
0.0
 11
-1.0
 21
-0.1666666666666667
 31
0.0
  0
LINE
  5
49C6
330
49C3
100
AcDbEntity
  8
0
  6
ByBlock
 62
     0
100
AcDbLine
 10
0.0
 20
0.0
 30
0.0
 11
-1.0
 21
0.0
 31
0.0
  0
ENDBLK
  5
49C8
330
49C3
100
AcDbEntity
  8
0
100
AcDbBlockEnd
  0
ENDSEC
  0
SECTION
  2
ENTITIES
  0
TEXT
  5
67790
330
18
100
AcDbEntity
  8
文字
100
AcDbText
 10
11414.3790108402
 20
-8859.392266384197
 30
0.0
 40
29.997
  1
SX-LB140S/900
100
AcDbText
  0
LINE
  5
67BDB
330
18
100
AcDbEntity
  8
姿図
100
AcDbLine
 10
11634.28670707793
 20
-8772.383390627201
 30
0.0
 11
11650.04628790654
 21
-8769.583603418967
 31
0.0
  0
LINE
  5
67BDC
330
18
100
AcDbEntity
  8
姿図
100
AcDbLine
 10
11632.48311196383
 20
-8537.34143038783
 30
0.0
 11
11746.23149021504
 21
-8636.01826081725
 31
0.0
  0
LINE
  5
67BDD
330
18
100
AcDbEntity
  8
姿図
100
AcDbLine
 10
11632.48311196383
 20
-8534.71665523637
 30
0.0
 11
11746.23149021504
 21
-8633.39348566579
 31
0.0
  0
LINE
  5
67BDE
330
18
100
AcDbEntity
  8
姿図
100
AcDbLine
 10
11632.48311196383
 20
-8545.215755842208
 30
0.0
 11
11746.23149021504
 21
-8643.892586271631
 31
0.0
  0
LINE
  5
67BDF
330
18
100
AcDbEntity
  8
姿図
100
AcDbLine
 10
11759.4680349873
 20
-8744.340657991357
 30
0.0
 11
11616.98490919407
 21
-8623.24163923485
 31
0.0
  0
LINE
  5
67BE0
330
18
100
AcDbEntity
  8
姿図
100
AcDbLine
 10
11759.4680349873
 20
-8741.580540422383
 30
0.0
 11
11616.98490919407
 21
-8620.481521665875
 31
0.0
  0
LINE
  5
67BE1
330
18
100
AcDbEntity
  8
姿図
100
AcDbLine
 10
11759.4680349873
 20
-8733.917789505882
 30
0.0
 11
11616.98490919407
 21
-8612.818770749374
 31
0.0
  0
LINE
  5
67BE2
330
18
100
AcDbEntity
  8
姿図
100
AcDbLine
 10
11759.4680349873
 20
-8730.467014258717
 30
0.0
 11
11616.98490919407
 21
-8609.367995502209
 31
0.0
  0
LINE
  5
67BE3
330
18
100
AcDbEntity
  8
姿図
100
AcDbLine
 10
11759.4680349873
 20
-8725.595331556837
 30
0.0
 11
11616.98490919407
 21
-8604.49631280033
 31
0.0
  0
LINE
  5
67BE4
330
18
100
AcDbEntity
  8
姿図
100
AcDbLine
 10
11759.4680349873
 20
-8720.723648854953
 30
0.0
 11
11616.98490919407
 21
-8599.62463009845
 31
0.0
  0
LINE
  5
67BE5
330
18
100
AcDbEntity
  8
姿図
100
AcDbLine
 10
11759.4680349873
 20
-8715.851966153074
 30
0.0
 11
11616.98490919407
 21
-8594.752947396566
 31
0.0
  0
LINE
  5
67BE6
330
18
100
AcDbEntity
  8
姿図
100
AcDbLine
 10
11759.4680349873
 20
-8710.980283451194
 30
0.0
 11
11616.98490919407
 21
-8589.881264694686
 31
0.0
  0
LINE
  5
67BE7
330
18
100
AcDbEntity
  8
姿図
100
AcDbLine
 10
11759.4680349873
 20
-8706.10860074931
 30
0.0
 11
11616.98490919407
 21
-8585.009581992806
 31
0.0
  0
LINE
  5
67BE8
330
18
100
AcDbEntity
  8
姿図
100
AcDbLine
 10
11759.4680349873
 20
-8701.541398216297
 30
0.0
 11
11616.98490919407
 21
-8580.44237945979
 31
0.0
  0
LINE
  5
67BE9
330
18
100
AcDbEntity
  8
姿図
100
AcDbLine
 10
11759.4680349873
 20
-8732.14165518749
 30
0.0
 11
11616.98490919407
 21
-8611.042636430982
 31
0.0
  0
LINE
  5
67BEA
330
18
100
AcDbEntity
  8
姿図
100
AcDbLine
 10
11759.4680349873
 20
-8727.269972485607
 30
0.0
 11
11616.98490919407
 21
-8606.170953729103
 31
0.0
  0
LINE
  5
67BEB
330
18
100
AcDbEntity
  8
姿図
100
AcDbLine
 10
11759.4680349873
 20
-8722.398289783727
 30
0.0
 11
11616.98490919407
 21
-8601.299271027223
 31
0.0
  0
LINE
  5
67BEC
330
18
100
AcDbEntity
  8
姿図
100
AcDbLine
 10
11759.4680349873
 20
-8717.526607081847
 30
0.0
 11
11616.98490919407
 21
-8596.42758832534
 31
0.0
  0
LINE
  5
67BED
330
18
100
AcDbEntity
  8
姿図
100
AcDbLine
 10
11759.4680349873
 20
-8712.654924379964
 30
0.0
 11
11616.98490919407
 21
-8591.55590562346
 31
0.0
  0
LINE
  5
67BEE
330
18
100
AcDbEntity
  8
姿図
100
AcDbLine
 10
11759.4680349873
 20
-8707.783241678084
 30
0.0
 11
11616.98490919407
 21
-8586.68422292158
 31
0.0
  0
LINE
  5
67BEF
330
18
100
AcDbEntity
  8
姿図
100
AcDbLine
 10
11759.4680349873
 20
-8703.571266008748
 30
0.0
 11
11616.98490919407
 21
-8582.472247252244
 31
0.0
  0
LINE
  5
67BF0
330
18
100
AcDbEntity
  8
姿図
100
AcDbLine
 10
11758.17010722012
 20
-8703.712364255724
 30
0.0
 11
11616.98490919407
 21
-8583.71647808525
 31
0.0
  0
LINE
  5
67BF1
330
18
100
AcDbEntity
  8
姿図
100
AcDbLine
 10
11758.290365012
 20
-8735.693923824278
 30
0.0
 11
11616.98490919407
 21
-8615.595828353478
 31
0.0
  0
LINE
  5
67BF2
330
18
100
AcDbEntity
  8
姿図
100
AcDbLine
 10
11758.41149143976
 20
-8695.654781618192
 30
0.0
 11
11616.98490919407
 21
-8575.453738577533
 31
0.0
  0
LINE
  5
67BF3
330
18
100
AcDbEntity
  8
姿図
100
AcDbLine
 10
11759.4680349873
 20
-8695.654781618192
 30
0.0
 11
11616.98490919407
 21
-8574.555762861684
 31
0.0
  0
LINE
  5
67BF4
330
18
100
AcDbEntity
  8
姿図
100
AcDbLine
 10
11759.4680349873
 20
-8693.62491382574
 30
0.0
 11
11616.98490919407
 21
-8572.525895069233
 31
0.0
  0
LINE
  5
67BF5
330
18
100
AcDbEntity
  8
姿図
100
AcDbLine
 10
11758.31849728007
 20
-8723.521494268625
 30
0.0
 11
11616.98490919407
 21
-8603.399488667841
 31
0.0
  0
LINE
  5
67BF6
330
18
100
AcDbEntity
  8
姿図
100
AcDbLine
 10
11650.04628790654
 20
-8769.583603418967
 30
0.0
 11
11508.85128304671
 21
-8649.675988001301
 31
0.0
  0
LINE
  5
67BF7
330
18
100
AcDbEntity
  8
姿図
100
AcDbLine
 10
11650.04628790655
 20
-8766.823485849993
 30
0.0
 11
11508.85128304671
 21
-8646.915870432324
 31
0.0
  0
LINE
  5
67BF8
330
18
100
AcDbEntity
  8
姿図
100
AcDbLine
 10
11728.25077691061
 20
-8755.690091255088
 30
0.0
 11
11586.15482472452
 21
-8635.032029565344
 31
0.0
  0
LINE
  5
67BF9
330
18
100
AcDbEntity
  8
姿図
100
AcDbLine
 10
11728.25077691059
 20
-8748.466351359493
 30
0.0
 11
11586.15482472452
 21
-8627.808289669756
 31
0.0
  0
LINE
  5
67BFA
330
18
100
AcDbEntity
  8
姿図
100
AcDbLine
 10
11571.97512031018
 20
-8638.461647085329
 30
0.0
 11
11713.07611178323
 21
-8758.385964563833
 31
0.0
  0
LINE
  5
67BFB
330
18
100
AcDbEntity
  8
姿図
100
AcDbLine
 10
11616.98490919407
 20
-8518.919673639703
 30
0.0
 11
11457.39960454264
 21
-8551.27099208175
 31
0.0
  0
LINE
  5
67BFC
330
18
100
AcDbEntity
  8
姿図
100
AcDbLine
 10
11595.06699409237
 20
-8543.603318960428
 30
0.0
 11
11472.91736983577
 21
-8567.303956763131
 31
0.0
  0
LINE
  5
67BFD
330
18
100
AcDbEntity
  8
姿図
100
AcDbLine
 10
11594.98490919407
 20
-8543.14127542165
 30
0.0
 11
11472.39960454264
 21
-8566.91931454674
 31
0.0
  0
LINE
  5
67BFE
330
18
100
AcDbEntity
  8
姿図
100
AcDbLine
 10
11634.28670707793
 20
-8772.383390627201
 30
0.0
 11
11493.0917022181
 21
-8652.475775209536
 31
0.0
  0
LINE
  5
67BFF
330
18
100
AcDbEntity
  8
姿図
100
AcDbLine
 10
11594.45826841128
 20
-8773.655665713795
 30
0.0
 11
11451.87995967259
 21
-8652.573556797466
 31
0.0
  0
LINE
  5
67C00
330
18
100
AcDbEntity
  8
姿図
100
AcDbLine
 10
11472.91736983576
 20
-8567.303956763131
 30
0.0
 11
11593.99397144779
 21
-8670.085754587024
 31
0.0
  0
LINE
  5
67C01
330
18
100
AcDbEntity
  8
姿図
100
AcDbLine
 10
11508.85128304671
 20
-8649.675988001301
 30
0.0
 11
11493.0917022181
 21
-8652.475775209536
 31
0.0
  0
LINE
  5
67C02
330
18
100
AcDbEntity
  8
姿図
100
AcDbLine
 10
11495.85181978707
 20
-8642.001565752314
 30
0.0
 11
11457.39960454264
 21
-8648.83284010792
 31
0.0
  0
LINE
  5
67C03
330
18
100
AcDbEntity
  8
姿図
100
AcDbLine
 10
11472.39960454264
 20
-8644.136680598454
 30
0.0
 11
11457.39960454264
 21
-8646.801523564787
 31
0.0
  0
LINE
  5
67C04
330
18
100
AcDbEntity
  8
姿図
100
AcDbLine
 10
11493.0917022181
 20
-8645.252035313948
 30
0.0
 11
11451.87995967259
 21
-8652.573556797466
 31
0.0
  0
ELLIPSE
  5
67C05
330
18
100
AcDbEntity
  8
姿図
100
AcDbEllipse
 10
11464.61691765893
 20
-8605.311851412553
 30
0.0
 11
0.0
 21
-3.508473521634005
 31
0.0
210
0.0
220
0.0
230
1.0
 40
0.6840581766403772
 41
0.0
 42
6.283185307179586
  0
ELLIPSE
  5
67C06
330
18
100
AcDbEntity
  8
姿図
100
AcDbEllipse
 10
11464.61691765893
 20
-8636.52359384565
 30
0.0
 11
0.0
 21
-3.508473521634005
 31
0.0
210
0.0
220
0.0
230
1.0
 40
0.6840581766403772
 41
0.0
 42
6.283185307179586
  0
LINE
  5
67C07
330
18
100
AcDbEntity
  8
姿図
100
AcDbLine
 10
11451.87995967259
 20
-8652.573556797466
 30
0.0
 11
11451.87995967259
 21
-8649.813439228496
 31
0.0
  0
ELLIPSE
  5
67C08
330
18
100
AcDbEntity
  8
姿図
100
AcDbEllipse
 10
11465.01691765893
 20
-8605.311851412553
 30
0.0
 11
1.557139847723761E-15
 21
3.508473521634053
 31
0.0
210
0.0
220
0.0
230
1.0
 40
0.6840581766403936
 41
0.0834300866107265
 42
3.058162566979068
  0
LINE
  5
67C09
330
18
100
AcDbEntity
  8
姿図
100
AcDbLine
 10
11454.04904539558
 20
-8604.715286566276
 30
0.0
 11
11454.04904539558
 21
-8609.388945500257
 31
0.0
  0
LINE
  5
67C0A
330
18
100
AcDbEntity
  8
姿図
100
AcDbLine
 10
11457.39960454264
 20
-8624.778906767384
 30
0.0
 11
11451.87995967259
 21
-8625.759505887956
 31
0.0
  0
LINE
  5
67C0B
330
18
100
AcDbEntity
  8
姿図
100
AcDbLine
 10
11457.39960454264
 20
-8642.946223509814
 30
0.0
 11
11451.87995967259
 21
-8643.926822630387
 31
0.0
  0
LINE
  5
67C0C
330
18
100
AcDbEntity
  8
姿図
100
AcDbLine
 10
11457.39960454264
 20
-8643.865648867632
 30
0.0
 11
11452.9819262763
 21
-8644.650476791336
 31
0.0
  0
LINE
  5
67C0D
330
18
100
AcDbEntity
  8
姿図
100
AcDbLine
 10
11457.39960454264
 20
-8642.946223509814
 30
0.0
 11
11451.87995967259
 21
-8643.926822630387
 31
0.0
  0
LINE
  5
67C0E
330
18
100
AcDbEntity
  8
姿図
100
AcDbLine
 10
11457.39960454264
 20
-8641.170089191422
 30
0.0
 11
11451.87995967259
 21
-8642.150688311995
 31
0.0
  0
LINE
  5
67C0F
330
18
100
AcDbEntity
  8
姿図
100
AcDbLine
 10
11457.39960454264
 20
-8639.393954873027
 30
0.0
 11
11451.87995967259
 21
-8640.374553993599
 31
0.0
  0
LINE
  5
67C10
330
18
100
AcDbEntity
  8
姿図
100
AcDbLine
 10
11457.39960454264
 20
-8637.719313944253
 30
0.0
 11
11451.87995967259
 21
-8638.69991306483
 31
0.0
  0
LINE
  5
67C11
330
18
100
AcDbEntity
  8
姿図
100
AcDbLine
 10
11457.39960454264
 20
-8636.622489811765
 30
0.0
 11
11453.69872590375
 21
-8637.279973839104
 31
0.0
  0
LINE
  5
67C12
330
18
100
AcDbEntity
  8
姿図
100
AcDbLine
 10
11457.39960454264
 20
-8634.522272171147
 30
0.0
 11
11451.87995967259
 21
-8635.50287129172
 31
0.0
  0
LINE
  5
67C13
330
18
100
AcDbEntity
  8
姿図
100
AcDbLine
 10
11457.39960454264
 20
-8632.847631242374
 30
0.0
 11
11451.87995967259
 21
-8633.828230362946
 31
0.0
  0
LINE
  5
67C14
330
18
100
AcDbEntity
  8
姿図
100
AcDbLine
 10
11457.39960454264
 20
-8631.750807109885
 30
0.0
 11
11453.69872590375
 21
-8632.408291137224
 31
0.0
  0
LINE
  5
67C15
330
18
100
AcDbEntity
  8
姿図
100
AcDbLine
 10
11457.39960454264
 20
-8629.650589469264
 30
0.0
 11
11451.87995967259
 21
-8630.63118858984
 31
0.0
  0
LINE
  5
67C16
330
18
100
AcDbEntity
  8
姿図
100
AcDbLine
 10
11457.39960454264
 20
-8627.975948540494
 30
0.0
 11
11451.87995967259
 21
-8628.956547661066
 31
0.0
  0
LINE
  5
67C17
330
18
100
AcDbEntity
  8
姿図
100
AcDbLine
 10
11457.39960454264
 20
-8626.879124408006
 30
0.0
 11
11453.69872590375
 21
-8627.536608435345
 31
0.0
  0
LINE
  5
67C18
330
18
100
AcDbEntity
  8
姿図
100
AcDbLine
 10
11457.39960454264
 20
-8618.23258313673
 30
0.0
 11
11451.87995967259
 21
-8619.213182257306
 31
0.0
  0
LINE
  5
67C19
330
18
100
AcDbEntity
  8
姿図
100
AcDbLine
 10
11457.39960454264
 20
-8615.03554136362
 30
0.0
 11
11451.87995967259
 21
-8616.016140484197
 31
0.0
  0
LINE
  5
67C1A
330
18
100
AcDbEntity
  8
姿図
100
AcDbLine
 10
11457.39960454264
 20
-8617.135759004243
 30
0.0
 11
11453.69872590375
 21
-8617.793243031581
 31
0.0
  0
LINE
  5
67C1B
330
18
100
AcDbEntity
  8
姿図
100
AcDbLine
 10
11457.39960454264
 20
-8612.036523358413
 30
0.0
 11
11453.33373601911
 21
-8612.758850100876
 31
0.0
  0
LINE
  5
67C1C
330
18
100
AcDbEntity
  8
姿図
100
AcDbLine
 10
11457.39960454264
 20
-8613.360900434851
 30
0.0
 11
11451.87995967259
 21
-8614.341499555423
 31
0.0
  0
LINE
  5
67C1D
330
18
100
AcDbEntity
  8
姿図
100
AcDbLine
 10
11457.39960454264
 20
-8610.823565694289
 30
0.0
 11
11451.87995967259
 21
-8611.804164814861
 31
0.0
  0
LINE
  5
67C1E
330
18
100
AcDbEntity
  8
姿図
100
AcDbLine
 10
11457.39960454264
 20
-8608.793697901838
 30
0.0
 11
11451.87995967259
 21
-8609.77429702241
 31
0.0
  0
LINE
  5
67C1F
330
18
100
AcDbEntity
  8
姿図
100
AcDbLine
 10
11457.39960454264
 20
-8623.10426583861
 30
0.0
 11
11451.87995967259
 21
-8624.084864959186
 31
0.0
  0
LINE
  5
67C20
330
18
100
AcDbEntity
  8
姿図
100
AcDbLine
 10
11457.39960454264
 20
-8622.007441706122
 30
0.0
 11
11453.69872590375
 21
-8622.664925733461
 31
0.0
  0
LINE
  5
67C21
330
18
100
AcDbEntity
  8
姿図
100
AcDbLine
 10
11457.39960454264
 20
-8619.9072240655
 30
0.0
 11
11451.87995967259
 21
-8620.887823186076
 31
0.0
  0
LINE
  5
67C22
330
18
100
AcDbEntity
  8
姿図
100
AcDbLine
 10
11451.87995967259
 20
-8625.759505887956
 30
0.0
 11
11451.87995967259
 21
-8624.084864959186
 31
0.0
  0
LINE
  5
67C23
330
18
100
AcDbEntity
  8
姿図
100
AcDbLine
 10
11451.87995967259
 20
-8630.63118858984
 30
0.0
 11
11453.69872590375
 21
-8632.408291137224
 31
0.0
  0
LINE
  5
67C24
330
18
100
AcDbEntity
  8
姿図
100
AcDbLine
 10
11451.87995967259
 20
-8625.759505887956
 30
0.0
 11
11453.69872590375
 21
-8627.536608435345
 31
0.0
  0
LINE
  5
67C25
330
18
100
AcDbEntity
  8
姿図
100
AcDbLine
 10
11453.69872590375
 20
-8627.536608435345
 30
0.0
 11
11451.87995967259
 21
-8628.956547661066
 31
0.0
  0
LINE
  5
67C26
330
18
100
AcDbEntity
  8
姿図
100
AcDbLine
 10
11453.69872590375
 20
-8632.408291137224
 30
0.0
 11
11451.87995967259
 21
-8633.828230362946
 31
0.0
  0
LINE
  5
67C27
330
18
100
AcDbEntity
  8
姿図
100
AcDbLine
 10
11451.87995967259
 20
-8635.50287129172
 30
0.0
 11
11453.69872590375
 21
-8637.279973839104
 31
0.0
  0
LINE
  5
67C28
330
18
100
AcDbEntity
  8
姿図
100
AcDbLine
 10
11453.69872590375
 20
-8637.279973839104
 30
0.0
 11
11451.87995967259
 21
-8638.69991306483
 31
0.0
  0
LINE
  5
67C29
330
18
100
AcDbEntity
  8
姿図
100
AcDbLine
 10
11451.87995967259
 20
-8630.63118858984
 30
0.0
 11
11451.87995967259
 21
-8628.956547661066
 31
0.0
  0
LINE
  5
67C2A
330
18
100
AcDbEntity
  8
姿図
100
AcDbLine
 10
11451.87995967259
 20
-8635.50287129172
 30
0.0
 11
11451.87995967259
 21
-8633.828230362946
 31
0.0
  0
LINE
  5
67C2B
330
18
100
AcDbEntity
  8
姿図
100
AcDbLine
 10
11451.87995967259
 20
-8640.374553993599
 30
0.0
 11
11451.87995967259
 21
-8638.69991306483
 31
0.0
  0
LINE
  5
67C2C
330
18
100
AcDbEntity
  8
姿図
100
AcDbLine
 10
11451.87995967259
 20
-8642.150688311995
 30
0.0
 11
11451.87995967259
 21
-8643.926822630387
 31
0.0
  0
LINE
  5
67C2D
330
18
100
AcDbEntity
  8
姿図
100
AcDbLine
 10
11451.87995967259
 20
-8643.926822630387
 30
0.0
 11
11452.9819262763
 21
-8644.650476791336
 31
0.0
  0
LINE
  5
67C2E
330
18
100
AcDbEntity
  8
姿図
100
AcDbLine
 10
11451.87995967259
 20
-8640.374553993599
 30
0.0
 11
11453.33373601911
 21
-8641.329239279614
 31
0.0
  0
LINE
  5
67C2F
330
18
100
AcDbEntity
  8
姿図
100
AcDbLine
 10
11453.33373601911
 20
-8641.329239279614
 30
0.0
 11
11453.33373601911
 21
-8641.892415933886
 31
0.0
  0
LINE
  5
67C30
330
18
100
AcDbEntity
  8
姿図
100
AcDbLine
 10
11451.87995967259
 20
-8611.804164814861
 30
0.0
 11
11451.87995967259
 21
-8609.77429702241
 31
0.0
  0
LINE
  5
67C31
330
18
100
AcDbEntity
  8
姿図
100
AcDbLine
 10
11451.87995967259
 20
-8616.016140484197
 30
0.0
 11
11451.87995967259
 21
-8614.341499555423
 31
0.0
  0
LINE
  5
67C32
330
18
100
AcDbEntity
  8
姿図
100
AcDbLine
 10
11453.33373601911
 20
-8612.758850100876
 30
0.0
 11
11453.33373601911
 21
-8614.083227177314
 31
0.0
  0
LINE
  5
67C33
330
18
100
AcDbEntity
  8
姿図
100
AcDbLine
 10
11451.87995967259
 20
-8616.016140484197
 30
0.0
 11
11453.69872590375
 21
-8617.793243031581
 31
0.0
  0
LINE
  5
67C34
330
18
100
AcDbEntity
  8
姿図
100
AcDbLine
 10
11451.87995967259
 20
-8611.804164814861
 30
0.0
 11
11453.33373601911
 21
-8612.758850100876
 31
0.0
  0
LINE
  5
67C35
330
18
100
AcDbEntity
  8
姿図
100
AcDbLine
 10
11453.69872590375
 20
-8617.793243031581
 30
0.0
 11
11451.87995967259
 21
-8619.213182257303
 31
0.0
  0
LINE
  5
67C36
330
18
100
AcDbEntity
  8
姿図
100
AcDbLine
 10
11451.87995967259
 20
-8620.887823186076
 30
0.0
 11
11453.69872590375
 21
-8622.664925733461
 31
0.0
  0
LINE
  5
67C37
330
18
100
AcDbEntity
  8
姿図
100
AcDbLine
 10
11453.69872590375
 20
-8622.664925733461
 30
0.0
 11
11451.87995967259
 21
-8624.084864959186
 31
0.0
  0
LINE
  5
67C38
330
18
100
AcDbEntity
  8
姿図
100
AcDbLine
 10
11451.87995967259
 20
-8620.887823186076
 30
0.0
 11
11451.87995967259
 21
-8619.213182257303
 31
0.0
  0
ELLIPSE
  5
67C39
330
18
100
AcDbEntity
  8
姿図
100
AcDbEllipse
 10
11465.01691765893
 20
-8636.52359384565
 30
0.0
 11
1.557139847723761E-15
 21
3.508473521634053
 31
0.0
210
0.0
220
0.0
230
1.0
 40
0.6840581766403936
 41
0.0834300866107265
 42
3.058162566979068
  0
LINE
  5
67C3A
330
18
100
AcDbEntity
  8
姿図
100
AcDbLine
 10
11457.39960454264
 20
-8600.877213511281
 30
0.0
 11
11451.87995967259
 21
-8601.857812631853
 31
0.0
  0
LINE
  5
67C3B
330
18
100
AcDbEntity
  8
姿図
100
AcDbLine
 10
11457.39960454264
 20
-8604.120038967856
 30
0.0
 11
11453.33373601911
 21
-8604.84236571032
 31
0.0
  0
LINE
  5
67C3C
330
18
100
AcDbEntity
  8
姿図
100
AcDbLine
 10
11457.39960454264
 20
-8602.907081303729
 30
0.0
 11
11451.87995967259
 21
-8603.887680424305
 31
0.0
  0
LINE
  5
67C3D
330
18
100
AcDbEntity
  8
姿図
100
AcDbLine
 10
11451.87995967259
 20
-8603.887680424305
 30
0.0
 11
11451.87995967259
 21
-8601.857812631853
 31
0.0
  0
LINE
  5
67C3E
330
18
100
AcDbEntity
  8
姿図
100
AcDbLine
 10
11451.87995967259
 20
-8603.887680424305
 30
0.0
 11
11453.33373601911
 21
-8604.84236571032
 31
0.0
  0
LINE
  5
67C3F
330
18
100
AcDbEntity
  8
姿図
100
AcDbLine
 10
11457.39960454264
 20
-8648.83284010792
 30
0.0
 11
11451.87995967259
 21
-8649.813439228496
 31
0.0
  0
LINE
  5
67C40
330
18
100
AcDbEntity
  8
姿図
100
AcDbLine
 10
11452.9819262763
 20
-8644.650476791336
 30
0.0
 11
11452.9819262763
 21
-8649.617668031624
 31
0.0
  0
LINE
  5
67C41
330
18
100
AcDbEntity
  8
姿図
100
AcDbLine
 10
11457.39960454264
 20
-8648.83284010792
 30
0.0
 11
11457.39960454264
 21
-8551.27099208175
 31
0.0
  0
LINE
  5
67C42
330
18
100
AcDbEntity
  8
姿図
100
AcDbLine
 10
11493.0917022181
 20
-8645.252035313948
 30
0.0
 11
11493.0917022181
 21
-8652.475775209536
 31
0.0
  0
LINE
  5
67C43
330
18
100
AcDbEntity
  8
姿図
100
AcDbLine
 10
11472.91736983577
 20
-8643.77413743718
 30
0.0
 11
11472.39960454264
 21
-8644.136680598454
 31
0.0
  0
LINE
  5
67C44
330
18
100
AcDbEntity
  8
姿図
100
AcDbLine
 10
11472.91736983577
 20
-8643.77413743718
 30
0.0
 11
11472.91736983577
 21
-8567.303956763131
 31
0.0
  0
LINE
  5
67C45
330
18
100
AcDbEntity
  8
姿図
100
AcDbLine
 10
11472.39960454264
 20
-8644.136680598454
 30
0.0
 11
11472.39960454264
 21
-8566.91931454674
 31
0.0
  0
LINE
  5
67C46
330
18
100
AcDbEntity
  8
姿図
100
AcDbLine
 10
11498.45724078862
 20
-8642.740088181381
 30
0.0
 11
11508.85128304671
 21
-8646.915870432324
 31
0.0
  0
LINE
  5
67C47
330
18
100
AcDbEntity
  8
姿図
100
AcDbLine
 10
11498.08445252379
 20
-8643.668004615982
 30
0.0
 11
11504.21600448335
 21
-8646.131341324424
 31
0.0
  0
LINE
  5
67C48
330
18
100
AcDbEntity
  8
姿図
100
AcDbLine
 10
11495.85181978708
 20
-8644.761683321285
 30
0.0
 11
11500.57851988648
 21
-8648.385578080302
 31
0.0
  0
LINE
  5
67C49
330
18
100
AcDbEntity
  8
姿図
100
AcDbLine
 10
11504.43067486614
 20
-8647.701218873452
 30
0.0
 11
11496.4392784347
 21
-8649.12093997822
 31
0.0
  0
LINE
  5
67C4A
330
18
100
AcDbEntity
  8
姿図
100
AcDbLine
 10
11495.85181978707
 20
-8642.001565752314
 30
0.0
 11
11495.85181978708
 21
-8648.628648413232
 31
0.0
  0
LINE
  5
67C4B
330
18
100
AcDbEntity
  8
姿図
100
AcDbLine
 10
11498.08445252379
 20
-8643.668004615982
 30
0.0
 11
11498.45724078862
 21
-8642.740088181381
 31
0.0
  0
ARC
  5
67C4C
330
18
100
AcDbEntity
  8
姿図
100
AcDbCircle
 10
11496.35181978708
 20
-8648.628648413232
 30
0.0
 40
0.5
100
AcDbArc
 50
180.0
 51
280.0738452396548
  0
LINE
  5
67C4D
330
18
100
AcDbEntity
  8
姿図
100
AcDbLine
 10
11504.84321621852
 20
-8647.059257759029
 30
0.0
 11
11504.84321621852
 21
-8647.208927308468
 31
0.0
  0
ARC
  5
67C4E
330
18
100
AcDbEntity
  8
姿図
100
AcDbCircle
 10
11504.34321621852
 20
-8647.208927308468
 30
0.0
 40
0.5
100
AcDbArc
 50
280.0738452396548
 51
0.0
  0
ARC
  5
67C4F
330
18
100
AcDbEntity
  8
姿図
100
AcDbCircle
 10
11503.84321621852
 20
-8647.059257759029
 30
0.0
 40
1.0
100
AcDbArc
 50
0.0
 51
68.11232009498295
  0
LINE
  5
67C50
330
18
100
AcDbEntity
  8
姿図
100
AcDbLine
 10
11508.85128304671
 20
-8646.915870432324
 30
0.0
 11
11508.85128304671
 21
-8649.675988001301
 31
0.0
  0
LINE
  5
67C51
330
18
100
AcDbEntity
  8
姿図
100
AcDbLine
 10
11611.98490919407
 20
-8621.369802654655
 30
0.0
 11
11584.15482472451
 21
-8625.403484496295
 31
0.0
  0
LINE
  5
67C52
330
18
100
AcDbEntity
  8
姿図
100
AcDbLine
 10
11616.98490919407
 20
-8623.24163923485
 30
0.0
 11
11586.15482472452
 21
-8627.808289669756
 31
0.0
  0
LINE
  5
67C53
330
18
100
AcDbEntity
  8
姿図
100
AcDbLine
 10
11586.15482472451
 20
-8635.032029565344
 30
0.0
 11
11571.97512031018
 21
-8638.461647085329
 31
0.0
  0
LINE
  5
67C54
330
18
100
AcDbEntity
  8
姿図
100
AcDbLine
 10
11576.30091339738
 20
-8634.798249108764
 30
0.0
 11
11576.95649960524
 21
-8633.840628505848
 31
0.0
  0
ARC
  5
67C55
330
18
100
AcDbEntity
  8
姿図
100
AcDbCircle
 10
11576.71349229864
 20
-8635.080700255392
 30
0.0
 40
0.5
100
AcDbArc
 50
145.6044933459071
 51
280.0738452396548
  0
LINE
  5
67C56
330
18
100
AcDbEntity
  8
姿図
100
AcDbLine
 10
11578.70884615494
 20
-8635.234042411888
 30
0.0
 11
11575.75025570796
 21
-8632.881459201788
 31
0.0
  0
LINE
  5
67C57
330
18
100
AcDbEntity
  8
姿図
100
AcDbLine
 10
11577.98126748886
 20
-8632.11319480226
 30
0.0
 11
11575.71555350598
 21
-8632.515712933659
 31
0.0
  0
LINE
  5
67C58
330
18
100
AcDbEntity
  8
姿図
100
AcDbLine
 10
11577.98126748886
 20
-8632.31632645657
 30
0.0
 11
11575.79500270717
 21
-8632.704729944973
 31
0.0
  0
LINE
  5
67C59
330
18
100
AcDbEntity
  8
姿図
100
AcDbLine
 10
11575.71555350598
 20
-8632.515712933659
 30
0.0
 11
11575.71555350598
 21
-8632.778643279806
 31
0.0
  0
ARC
  5
67C5A
330
18
100
AcDbEntity
  8
姿図
100
AcDbCircle
 10
11575.81249443669
 20
-8632.80318825797
 30
0.0
 40
0.1
100
AcDbArc
 50
100.0738452396548
 51
231.509322808635
  0
LINE
  5
67C5B
330
18
100
AcDbEntity
  8
姿図
100
AcDbLine
 10
11578.01203090437
 20
-8629.643478103691
 30
0.0
 11
11579.17974022723
 21
-8630.593121161543
 31
0.0
  0
LINE
  5
67C5C
330
18
100
AcDbEntity
  8
姿図
100
AcDbLine
 10
11579.17974022723
 20
-8630.593121161546
 30
0.0
 11
11579.64667314506
 21
-8633.221416282879
 31
0.0
  0
LINE
  5
67C5D
330
18
100
AcDbEntity
  8
姿図
100
AcDbLine
 10
11578.14080131458
 20
-8632.110708468888
 30
0.0
 11
11579.17974022723
 21
-8630.593121161543
 31
0.0
  0
LINE
  5
67C5E
330
18
100
AcDbEntity
  8
姿図
100
AcDbLine
 10
11581.33544676084
 20
-8634.76741053522
 30
0.0
 11
11578.70884615494
 21
-8635.234042411888
 31
0.0
  0
LINE
  5
67C5F
330
18
100
AcDbEntity
  8
姿図
100
AcDbLine
 10
11578.70884615494
 20
-8635.234042411888
 30
0.0
 11
11576.80095094627
 21
-8635.572991820376
 31
0.0
  0
LINE
  5
67C60
330
18
100
AcDbEntity
  8
姿図
100
AcDbLine
 10
11578.37991978015
 20
-8632.41726330248
 30
0.0
 11
11578.37991978015
 21
-8632.214131648165
 31
0.0
  0
ARC
  5
67C61
330
18
100
AcDbEntity
  8
姿図
100
AcDbCircle
 10
11578.06872613648
 20
-8632.605486367243
 30
0.0
 40
0.5
100
AcDbArc
 50
51.50932280863501
 51
100.0738452396548
  0
LINE
  5
67C62
330
18
100
AcDbEntity
  8
姿図
100
AcDbLine
 10
11581.33544676084
 20
-8634.76741053522
 30
0.0
 11
11578.37991978015
 21
-8632.41726330248
 31
0.0
  0
ARC
  5
67C63
330
18
100
AcDbEntity
  8
姿図
100
AcDbCircle
 10
11578.06872613648
 20
-8632.808618021558
 30
0.0
 40
0.5
100
AcDbArc
 50
51.50932280863501
 51
100.0738452396548
  0
LINE
  5
67C64
330
18
100
AcDbEntity
  8
姿図
100
AcDbLine
 10
11584.15482472452
 20
-8625.403484496295
 30
0.0
 11
11584.15482472452
 21
-8633.356025417721
 31
0.0
  0
LINE
  5
67C65
330
18
100
AcDbEntity
  8
姿図
100
AcDbLine
 10
11584.15482472452
 20
-8633.356025417721
 30
0.0
 11
11581.33544676084
 21
-8634.76741053522
 31
0.0
  0
LINE
  5
67C66
330
18
100
AcDbEntity
  8
姿図
100
AcDbLine
 10
11581.4922117414
 20
-8634.688933735244
 30
0.0
 11
11578.37991978015
 21
-8632.214131648165
 31
0.0
  0
LINE
  5
67C67
330
18
100
AcDbEntity
  8
姿図
100
AcDbLine
 10
11576.0914150175
 20
-8632.448938806643
 30
0.0
 11
11578.01203090437
 21
-8629.643478103691
 31
0.0
  0
LINE
  5
67C68
330
18
100
AcDbEntity
  8
姿図
100
AcDbLine
 10
11571.97512031018
 20
-8638.461647085329
 30
0.0
 11
11575.77943016126
 21
-8632.904657860145
 31
0.0
  0
LINE
  5
67C69
330
18
100
AcDbEntity
  8
姿図
100
AcDbLine
 10
11586.15482472452
 20
-8627.808289669756
 30
0.0
 11
11586.15482472452
 21
-8635.032029565344
 31
0.0
  0
LINE
  5
67C6A
330
18
100
AcDbEntity
  8
姿図
100
AcDbLine
 10
11616.98490919407
 20
-8518.919673639703
 30
0.0
 11
11632.48311196383
 21
-8532.09188008491
 31
0.0
  0
LINE
  5
67C6B
330
18
100
AcDbEntity
  8
姿図
100
AcDbLine
 10
11594.45826841128
 20
-8773.655665713795
 30
0.0
 11
11628.63416831095
 21
-8767.584105282742
 31
0.0
  0
LINE
  5
67C6C
330
18
100
AcDbEntity
  8
姿図
100
AcDbLine
 10
11608.99397144779
 20
-8731.960458090423
 30
0.0
 11
11608.99397144779
 21
-8669.924646814598
 31
0.0
  0
LINE
  5
67C6D
330
18
100
AcDbEntity
  8
姿図
100
AcDbLine
 10
11609.51173674092
 20
-8732.400162042464
 30
0.0
 11
11609.51173674092
 21
-8670.364705022159
 31
0.0
  0
LINE
  5
67C6E
330
18
100
AcDbEntity
  8
姿図
100
AcDbLine
 10
11616.98490919407
 20
-8572.525895069237
 30
0.0
 11
11613.63435004702
 21
-8573.121142667656
 31
0.0
  0
LINE
  5
67C6F
330
18
100
AcDbEntity
  8
姿図
100
AcDbLine
 10
11616.98490919407
 20
-8623.24163923485
 30
0.0
 11
11616.98490919407
 21
-8575.453738577533
 31
0.0
  0
LINE
  5
67C70
330
18
100
AcDbEntity
  8
姿図
100
AcDbLine
 10
11615.45311627818
 20
-8603.56518506357
 30
0.0
 11
11615.45311627818
 21
-8604.768445305515
 31
0.0
  0
LINE
  5
67C71
330
18
100
AcDbEntity
  8
姿図
100
AcDbLine
 10
11614.74083358338
 20
-8584.08387885684
 30
0.0
 11
11614.74083358338
 21
-8585.408255933275
 31
0.0
  0
LINE
  5
67C72
330
18
100
AcDbEntity
  8
姿図
100
AcDbLine
 10
11615.45311627819
 20
-8598.799938471144
 30
0.0
 11
11615.45311627818
 21
-8599.896762603632
 31
0.0
  0
LINE
  5
67C73
330
18
100
AcDbEntity
  8
姿図
100
AcDbLine
 10
11615.45311627818
 20
-8593.928255769264
 30
0.0
 11
11615.45311627818
 21
-8595.025079901752
 31
0.0
  0
LINE
  5
67C74
330
18
100
AcDbEntity
  8
姿図
100
AcDbLine
 10
11616.98490919407
 20
-8583.685204916368
 30
0.0
 11
11614.74083358338
 21
-8584.08387885684
 31
0.0
  0
LINE
  5
67C75
330
18
100
AcDbEntity
  8
姿図
100
AcDbLine
 10
11616.98490919407
 20
-8588.784440562198
 30
0.0
 11
11615.45311627818
 21
-8589.05657306738
 31
0.0
  0
LINE
  5
67C76
330
18
100
AcDbEntity
  8
姿図
100
AcDbLine
 10
11616.98490919407
 20
-8598.527805965958
 30
0.0
 11
11615.45311627818
 21
-8598.799938471144
 31
0.0
  0
LINE
  5
67C77
330
18
100
AcDbEntity
  8
姿図
100
AcDbLine
 10
11616.98490919407
 20
-8608.27117136972
 30
0.0
 11
11615.45311627818
 21
-8608.543303874907
 31
0.0
  0
LINE
  5
67C78
330
18
100
AcDbEntity
  8
姿図
100
AcDbLine
 10
11616.98490919407
 20
-8603.399488667841
 30
0.0
 11
11615.45311627818
 21
-8603.671621173024
 31
0.0
  0
LINE
  5
67C79
330
18
100
AcDbEntity
  8
姿図
100
AcDbLine
 10
11616.98490919407
 20
-8615.514330425583
 30
0.0
 11
11614.73631665073
 21
-8615.913806827135
 31
0.0
  0
LINE
  5
67C7A
330
18
100
AcDbEntity
  8
姿図
100
AcDbLine
 10
11615.56817623945
 20
-8593.90781465403
 30
0.0
 11
11615.45311627818
 21
-8593.928255769264
 31
0.0
  0
LINE
  5
67C7B
330
18
100
AcDbEntity
  8
姿図
100
AcDbLine
 10
11615.42530373761
 20
-8593.796271858631
 30
0.0
 11
11615.45311627819
 21
-8593.821819659814
 31
0.0
  0
LINE
  5
67C7C
330
18
100
AcDbEntity
  8
姿図
100
AcDbLine
 10
11615.45311627818
 20
-8589.05657306738
 30
0.0
 11
11615.45311627818
 21
-8589.758249958875
 31
0.0
  0
LINE
  5
67C7D
330
18
100
AcDbEntity
  8
姿図
100
AcDbLine
 10
11616.98490919407
 20
-8589.881264694686
 30
0.0
 11
11615.86542727184
 21
-8590.080147596444
 31
0.0
  0
LINE
  5
67C7E
330
18
100
AcDbEntity
  8
姿図
100
AcDbLine
 10
11616.98490919407
 20
-8609.367995502209
 30
0.0
 11
11615.86542727184
 21
-8609.566878403966
 31
0.0
  0
LINE
  5
67C7F
330
18
100
AcDbEntity
  8
姿図
100
AcDbLine
 10
11615.45311627819
 20
-8608.436867765446
 30
0.0
 11
11615.45311627819
 21
-8609.244980766402
 31
0.0
  0
LINE
  5
67C80
330
18
100
AcDbEntity
  8
姿図
100
AcDbLine
 10
11616.98490919407
 20
-8575.453738577533
 30
0.0
 11
11614.74083358339
 21
-8575.852412518005
 31
0.0
  0
LINE
  5
67C81
330
18
100
AcDbEntity
  8
姿図
100
AcDbLine
 10
11614.83741419063
 20
-8575.835254374546
 30
0.0
 11
11614.83741419063
 21
-8580.823895256799
 31
0.0
  0
LINE
  5
67C82
330
18
100
AcDbEntity
  8
姿図
100
AcDbLine
 10
11611.98490919407
 20
-8619.338486111523
 30
0.0
 11
11594.98490919407
 21
-8622.358641473369
 31
0.0
  0
ELLIPSE
  5
67C83
330
18
100
AcDbEntity
  8
姿図
100
AcDbEllipse
 10
11602.81879611274
 20
-8612.042236075962
 30
0.0
 11
1.557139847723761E-15
 21
3.508473521634053
 31
0.0
210
0.0
220
0.0
230
1.0
 40
0.6840581766403936
 41
0.0834300866107265
 42
3.058162566979068
  0
ELLIPSE
  5
67C84
330
18
100
AcDbEntity
  8
姿図
100
AcDbEllipse
 10
11602.41879611274
 20
-8612.042236075962
 30
0.0
 11
0.0
 21
-3.508473521634005
 31
0.0
210
0.0
220
0.0
230
1.0
 40
0.6840581766403772
 41
0.0
 42
6.283185307179586
  0
ELLIPSE
  5
67C85
330
18
100
AcDbEntity
  8
姿図
100
AcDbEllipse
 10
11602.81879611274
 20
-8580.830493642869
 30
0.0
 11
0.0
 21
-3.508473521634005
 31
0.0
210
0.0
220
0.0
230
1.0
 40
0.6840581766403772
 41
0.0
 42
6.283185307179586
  0
ELLIPSE
  5
67C86
330
18
100
AcDbEntity
  8
姿図
100
AcDbEllipse
 10
11603.21879611274
 20
-8580.830493642869
 30
0.0
 11
1.557139847723761E-15
 21
3.508473521634053
 31
0.0
210
0.0
220
0.0
230
1.0
 40
0.6840581766403936
 41
0.0834300866107265
 42
3.058162566979068
  0
ARC
  5
67C87
330
18
100
AcDbEntity
  8
姿図
  6
Continuous
370
     0
100
AcDbCircle
 10
11610.22592082557
 20
-8586.414795314395
 30
0.0
 40
0.5871021973724699
100
AcDbArc
 50
43.97061442796876
 51
173.0481439441934
  0
LINE
  5
67C88
330
18
100
AcDbEntity
  8
姿図
  6
Continuous
370
     0
100
AcDbLine
 10
11609.46866725763
 20
-8588.458451590497
 30
0.0
 11
11609.64313488353
 21
-8586.343735227689
 31
0.0
  0
ARC
  5
67C89
330
18
100
AcDbEntity
  8
姿図
  6
Continuous
370
     0
100
AcDbCircle
 10
11610.66460407296
 20
-8588.557118371806
 30
0.0
 40
1.2
100
AcDbArc
 50
175.2836838794859
 51
232.0202851621353
  0
LINE
  5
67C8A
330
18
100
AcDbEntity
  8
姿図
  6
Continuous
370
     0
100
AcDbLine
 10
11609.66799006019
 20
-8588.47489605405
 30
0.0
 11
11609.84245768609
 21
-8586.36017969124
 31
0.0
  0
ARC
  5
67C8B
330
18
100
AcDbEntity
  8
姿図
  6
Continuous
370
     0
100
AcDbCircle
 10
11610.34076469248
 20
-8586.401290850117
 30
0.0
 40
0.5
100
AcDbArc
 50
52.02028516213533
 51
175.2836838794859
  0
ARC
  5
67C8C
330
18
100
AcDbEntity
  8
姿図
  6
Continuous
370
     0
100
AcDbCircle
 10
11610.66460407296
 20
-8588.557118371806
 30
0.0
 40
1.0
100
AcDbArc
 50
175.2836838795905
 51
232.0202851621353
  0
ARC
  5
67C8D
330
18
100
AcDbEntity
  8
姿図
  6
Continuous
370
     0
100
AcDbCircle
 10
11610.66460407296
 20
-8608.043849179328
 30
0.0
 40
1.0
100
AcDbArc
 50
175.2836838795905
 51
232.0202851621353
  0
ARC
  5
67C8E
330
18
100
AcDbEntity
  8
姿図
  6
Continuous
370
     0
100
AcDbCircle
 10
11610.34076469248
 20
-8605.88802165764
 30
0.0
 40
0.5
100
AcDbArc
 50
52.02028516213533
 51
175.2836838794859
  0
LINE
  5
67C8F
330
18
100
AcDbEntity
  8
姿図
  6
Continuous
370
     0
100
AcDbLine
 10
11609.66799006018
 20
-8607.961626861572
 30
0.0
 11
11609.84245768609
 21
-8605.84691049876
 31
0.0
  0
ARC
  5
67C90
330
18
100
AcDbEntity
  8
姿図
  6
Continuous
370
     0
100
AcDbCircle
 10
11610.66460407296
 20
-8608.043849179328
 30
0.0
 40
1.2
100
AcDbArc
 50
175.2836838794859
 51
232.0202851621353
  0
LINE
  5
67C91
330
18
100
AcDbEntity
  8
姿図
  6
Continuous
370
     0
100
AcDbLine
 10
11609.46866725763
 20
-8607.94518239802
 30
0.0
 11
11609.64313488353
 21
-8605.830466035211
 31
0.0
  0
ARC
  5
67C92
330
18
100
AcDbEntity
  8
姿図
  6
Continuous
370
     0
100
AcDbCircle
 10
11610.22592082557
 20
-8605.901526121917
 30
0.0
 40
0.5871021973724699
100
AcDbArc
 50
43.97061442796876
 51
173.0481439441934
  0
LINE
  5
67C93
330
18
100
AcDbEntity
  8
姿図
100
AcDbLine
 10
11611.98490919407
 20
-8621.369802654655
 30
0.0
 11
11611.98490919407
 21
-8610.597032869344
 31
0.0
  0
LINE
  5
67C94
330
18
100
AcDbEntity
  8
姿図
100
AcDbLine
 10
11613.63435004702
 20
-8613.414018347794
 30
0.0
 11
11613.63435004702
 21
-8615.19015266619
 31
0.0
  0
LINE
  5
67C95
330
18
100
AcDbEntity
  8
姿図
100
AcDbLine
 10
11613.63435004702
 20
-8597.022835923759
 30
0.0
 11
11613.63435004702
 21
-8595.348194994986
 31
0.0
  0
LINE
  5
67C96
330
18
100
AcDbEntity
  8
姿図
100
AcDbLine
 10
11613.63435004702
 20
-8587.279470519996
 30
0.0
 11
11613.63435004702
 21
-8585.604829591226
 31
0.0
  0
LINE
  5
67C97
330
18
100
AcDbEntity
  8
姿図
100
AcDbLine
 10
11613.63435004702
 20
-8606.766201327519
 30
0.0
 11
11613.63435004702
 21
-8605.091560398749
 31
0.0
  0
LINE
  5
67C98
330
18
100
AcDbEntity
  8
姿図
100
AcDbLine
 10
11613.63435004702
 20
-8601.894518625639
 30
0.0
 11
11613.63435004702
 21
-8600.219877696869
 31
0.0
  0
LINE
  5
67C99
330
18
100
AcDbEntity
  8
姿図
100
AcDbLine
 10
11613.63435004702
 20
-8583.06749485066
 30
0.0
 11
11613.63435004702
 21
-8581.03762705821
 31
0.0
  0
LINE
  5
67C9A
330
18
100
AcDbEntity
  8
姿図
100
AcDbLine
 10
11611.98490919407
 20
-8606.537297284445
 30
0.0
 11
11611.98490919407
 21
-8591.110302061817
 31
0.0
  0
LINE
  5
67C9B
330
18
100
AcDbEntity
  8
姿図
  6
Continuous
370
     0
100
AcDbLine
 10
11616.98490919407
 20
-8595.013880216593
 30
0.0
 11
11609.92614513637
 21
-8589.50299278153
 31
0.0
  0
LINE
  5
67C9C
330
18
100
AcDbEntity
  8
姿図
  6
Continuous
370
     0
100
AcDbLine
 10
11616.98490919407
 20
-8594.760146742537
 30
0.0
 11
11610.0492216258
 21
-8589.345347046576
 31
0.0
  0
LINE
  5
67C9D
330
18
100
AcDbEntity
  8
姿図
  6
Continuous
370
     0
100
AcDbLine
 10
11616.98490919407
 20
-8590.954144631694
 30
0.0
 11
11610.64845591605
 21
-8586.007176512732
 31
0.0
  0
LINE
  5
67C9E
330
18
100
AcDbEntity
  8
姿図
  6
Continuous
370
     0
100
AcDbLine
 10
11616.98490919407
 20
-8610.440875439217
 30
0.0
 11
11610.64845591605
 21
-8605.493907320255
 31
0.0
  0
LINE
  5
67C9F
330
18
100
AcDbEntity
  8
姿図
  6
Continuous
370
     0
100
AcDbLine
 10
11616.98490919407
 20
-8614.24687755006
 30
0.0
 11
11610.0492216258
 21
-8608.832077854098
 31
0.0
  0
LINE
  5
67CA0
330
18
100
AcDbEntity
  8
姿図
  6
Continuous
370
     0
100
AcDbLine
 10
11616.98490919407
 20
-8614.500611024116
 30
0.0
 11
11609.92614513637
 21
-8608.98972358905
 31
0.0
  0
LINE
  5
67CA1
330
18
100
AcDbEntity
  8
姿図
100
AcDbLine
 10
11613.63435004702
 20
-8606.766201327519
 30
0.0
 11
11615.45311627819
 21
-8608.436867765453
 31
0.0
  0
LINE
  5
67CA2
330
18
100
AcDbEntity
  8
姿図
100
AcDbLine
 10
11613.63435004702
 20
-8601.894518625639
 30
0.0
 11
11615.45311627819
 21
-8603.565185063573
 31
0.0
  0
LINE
  5
67CA3
330
18
100
AcDbEntity
  8
姿図
100
AcDbLine
 10
11613.63435004702
 20
-8597.022835923755
 30
0.0
 11
11615.45311627819
 21
-8598.69350236169
 31
0.0
  0
LINE
  5
67CA4
330
18
100
AcDbEntity
  8
姿図
100
AcDbLine
 10
11613.63435004702
 20
-8587.279470519996
 30
0.0
 11
11615.45311627818
 21
-8589.05657306738
 31
0.0
  0
LINE
  5
67CA5
330
18
100
AcDbEntity
  8
姿図
100
AcDbLine
 10
11613.63435004702
 20
-8583.067494850664
 30
0.0
 11
11614.74083358338
 21
-8584.08387885684
 31
0.0
  0
LINE
  5
67CA6
330
18
100
AcDbEntity
  8
姿図
100
AcDbLine
 10
11613.63435004702
 20
-8615.19015266619
 30
0.0
 11
11614.73631665073
 21
-8615.913806827135
 31
0.0
  0
LINE
  5
67CA7
330
18
100
AcDbEntity
  8
姿図
100
AcDbLine
 10
11616.98490919407
 20
-8614.59490506777
 30
0.0
 11
11613.63435004702
 21
-8615.190152666193
 31
0.0
  0
LINE
  5
67CA8
330
18
100
AcDbEntity
  8
姿図
100
AcDbLine
 10
11616.98490919407
 20
-8606.170953729099
 30
0.0
 11
11613.63435004702
 21
-8606.766201327522
 31
0.0
  0
LINE
  5
67CA9
330
18
100
AcDbEntity
  8
姿図
100
AcDbLine
 10
11616.98490919407
 20
-8604.49631280033
 30
0.0
 11
11613.63435004702
 21
-8605.091560398749
 31
0.0
  0
LINE
  5
67CAA
330
18
100
AcDbEntity
  8
姿図
100
AcDbLine
 10
11616.98490919407
 20
-8601.29927102722
 30
0.0
 11
11613.63435004702
 21
-8601.894518625639
 31
0.0
  0
LINE
  5
67CAB
330
18
100
AcDbEntity
  8
姿図
100
AcDbLine
 10
11616.98490919407
 20
-8599.624630098446
 30
0.0
 11
11613.63435004702
 21
-8600.219877696869
 31
0.0
  0
LINE
  5
67CAC
330
18
100
AcDbEntity
  8
姿図
100
AcDbLine
 10
11616.98490919407
 20
-8596.427588325336
 30
0.0
 11
11613.63435004702
 21
-8597.022835923755
 31
0.0
  0
LINE
  5
67CAD
330
18
100
AcDbEntity
  8
姿図
100
AcDbLine
 10
11616.98490919407
 20
-8594.752947396566
 30
0.0
 11
11613.63435004702
 21
-8595.34819499499
 31
0.0
  0
LINE
  5
67CAE
330
18
100
AcDbEntity
  8
姿図
100
AcDbLine
 10
11616.98490919407
 20
-8586.684222921576
 30
0.0
 11
11613.63435004702
 21
-8587.279470519996
 31
0.0
  0
LINE
  5
67CAF
330
18
100
AcDbEntity
  8
姿図
100
AcDbLine
 10
11616.98490919407
 20
-8585.009581992803
 30
0.0
 11
11613.63435004702
 21
-8585.604829591226
 31
0.0
  0
LINE
  5
67CB0
330
18
100
AcDbEntity
  8
姿図
100
AcDbLine
 10
11616.98490919407
 20
-8582.47224725224
 30
0.0
 11
11613.63435004702
 21
-8583.067494850664
 31
0.0
  0
LINE
  5
67CB1
330
18
100
AcDbEntity
  8
姿図
100
AcDbLine
 10
11616.98490919407
 20
-8614.59490506777
 30
0.0
 11
11613.63435004702
 21
-8615.190152666193
 31
0.0
  0
LINE
  5
67CB2
330
18
100
AcDbEntity
  8
姿図
100
AcDbLine
 10
11616.98490919407
 20
-8580.44237945979
 30
0.0
 11
11613.63435004702
 21
-8581.03762705821
 31
0.0
  0
LINE
  5
67CB3
330
18
100
AcDbEntity
  8
姿図
100
AcDbLine
 10
11615.23001592159
 20
-8613.130538415633
 30
0.0
 11
11613.63435004702
 21
-8613.414018347798
 31
0.0
  0
LINE
  5
67CB4
330
18
100
AcDbEntity
  8
姿図
100
AcDbLine
 10
11616.98490919407
 20
-8574.555762861688
 30
0.0
 11
11613.63435004702
 21
-8575.151010460107
 31
0.0
  0
LINE
  5
67CB5
330
18
100
AcDbEntity
  8
姿図
100
AcDbLine
 10
11613.63435004702
 20
-8575.151010460107
 30
0.0
 11
11614.74083358339
 21
-8575.852412518005
 31
0.0
  0
LINE
  5
67CB6
330
18
100
AcDbEntity
  8
姿図
100
AcDbLine
 10
11606.55742290251
 20
-8667.85377957089
 30
0.0
 11
11593.99397144779
 21
-8670.085754587024
 31
0.0
  0
LINE
  5
67CB7
330
18
100
AcDbEntity
  8
姿図
100
AcDbLine
 10
11593.99397144779
 20
-8670.085754587024
 30
0.0
 11
11593.99397144779
 21
-8719.221946320475
 31
0.0
  0
LINE
  5
67CB8
330
18
100
AcDbEntity
  8
姿図
100
AcDbLine
 10
11616.98490919407
 20
-8575.453738577533
 30
0.0
 11
11616.98490919407
 21
-8518.919673639703
 31
0.0
  0
LINE
  5
67CB9
330
18
100
AcDbEntity
  8
姿図
100
AcDbLine
 10
11594.98490919407
 20
-8622.358641473369
 30
0.0
 11
11594.98490919407
 21
-8543.14127542165
 31
0.0
  0
LINE
  5
67CBA
330
18
100
AcDbEntity
  8
姿図
100
AcDbLine
 10
11611.98490919407
 20
-8587.050566476923
 30
0.0
 11
11611.98490919407
 21
-8519.807954628483
 31
0.0
  0
LINE
  5
67CBB
330
18
100
AcDbEntity
  8
姿図
100
AcDbLine
 10
11613.63435004702
 20
-8575.151010460107
 30
0.0
 11
11613.63435004702
 21
-8573.121142667656
 31
0.0
  0
LINE
  5
67CBC
330
18
100
AcDbEntity
  8
姿図
100
AcDbLine
 10
11632.48311196383
 20
-8585.698101514441
 30
0.0
 11
11632.48311196383
 21
-8532.09188008491
 31
0.0
  0
LINE
  5
67CBD
330
18
100
AcDbEntity
  8
姿図
100
AcDbLine
 10
11746.23149021504
 20
-8630.656421619107
 30
0.0
 11
11743.3990340642
 21
-8630.986129295492
 31
0.0
  0
LINE
  5
67CBE
330
18
100
AcDbEntity
  8
姿図
100
AcDbLine
 10
11728.25077691059
 20
-8749.886597365621
 30
0.0
 11
11759.4680349873
 21
-8744.340657991357
 31
0.0
  0
LINE
  5
67CBF
330
18
100
AcDbEntity
  8
姿図
100
AcDbLine
 10
11650.04628790654
 20
-8766.823485849993
 30
0.0
 11
11650.04628790654
 21
-8769.583603418967
 31
0.0
  0
LINE
  5
67CC0
330
18
100
AcDbEntity
  8
姿図
100
AcDbLine
 10
11728.25077691059
 20
-8755.690091255092
 30
0.0
 11
11713.07611178324
 21
-8758.38596456383
 31
0.0
  0
LINE
  5
67CC1
330
18
100
AcDbEntity
  8
姿図
100
AcDbLine
 10
11728.25077691059
 20
-8748.466351359508
 30
0.0
 11
11728.25077691059
 21
-8755.690091255092
 31
0.0
  0
LINE
  5
67CC2
330
18
100
AcDbEntity
  8
姿図
100
AcDbLine
 10
11746.23149021504
 20
-8630.656421619107
 30
0.0
 11
11757.13828660063
 21
-8639.92630766855
 31
0.0
  0
LINE
  5
67CC3
330
18
100
AcDbEntity
  8
姿図
100
AcDbLine
 10
11746.23149021504
 20
-8682.374931943865
 30
0.0
 11
11746.23149021504
 21
-8630.656421619111
 31
0.0
  0
LINE
  5
67CC4
330
18
100
AcDbEntity
  8
姿図
100
AcDbLine
 10
11759.4680349873
 20
-8732.141655187486
 30
0.0
 11
11759.4680349873
 21
-8730.467014258717
 31
0.0
  0
LINE
  5
67CC5
330
18
100
AcDbEntity
  8
姿図
100
AcDbLine
 10
11759.4680349873
 20
-8732.141655187486
 30
0.0
 11
11757.19302697161
 21
-8732.141655187486
 31
0.0
  0
LINE
  5
67CC6
330
18
100
AcDbEntity
  8
姿図
100
AcDbLine
 10
11757.13828660063
 20
-8694.660770698876
 30
0.0
 11
11757.13828660063
 21
-8699.722527234633
 31
0.0
  0
LINE
  5
67CC7
330
18
100
AcDbEntity
  8
姿図
100
AcDbLine
 10
11759.4680349873
 20
-8717.526607081843
 30
0.0
 11
11759.4680349873
 21
-8715.851966153074
 31
0.0
  0
LINE
  5
67CC8
330
18
100
AcDbEntity
  8
姿図
100
AcDbLine
 10
11759.4680349873
 20
-8722.398289783727
 30
0.0
 11
11759.4680349873
 21
-8720.723648854953
 31
0.0
  0
LINE
  5
67CC9
330
18
100
AcDbEntity
  8
姿図
100
AcDbLine
 10
11759.4680349873
 20
-8727.269972485607
 30
0.0
 11
11759.4680349873
 21
-8725.595331556837
 31
0.0
  0
LINE
  5
67CCA
330
18
100
AcDbEntity
  8
姿図
100
AcDbLine
 10
11759.4680349873
 20
-8727.269972485607
 30
0.0
 11
11757.64926875613
 21
-8729.047075032991
 31
0.0
  0
LINE
  5
67CCB
330
18
100
AcDbEntity
  8
姿図
100
AcDbLine
 10
11759.4680349873
 20
-8722.398289783727
 30
0.0
 11
11757.64926875613
 21
-8724.175392331112
 31
0.0
  0
LINE
  5
67CCC
330
18
100
AcDbEntity
  8
姿図
100
AcDbLine
 10
11759.4680349873
 20
-8717.526607081843
 30
0.0
 11
11757.64926875613
 21
-8719.303709629232
 31
0.0
  0
LINE
  5
67CCD
330
18
100
AcDbEntity
  8
姿図
100
AcDbLine
 10
11759.4680349873
 20
-8703.571266008748
 30
0.0
 11
11759.4680349873
 21
-8701.541398216297
 31
0.0
  0
LINE
  5
67CCE
330
18
100
AcDbEntity
  8
姿図
100
AcDbLine
 10
11759.4680349873
 20
-8707.783241678084
 30
0.0
 11
11759.4680349873
 21
-8706.10860074931
 31
0.0
  0
LINE
  5
67CCF
330
18
100
AcDbEntity
  8
姿図
100
AcDbLine
 10
11759.4680349873
 20
-8712.654924379964
 30
0.0
 11
11759.4680349873
 21
-8710.980283451194
 31
0.0
  0
LINE
  5
67CD0
330
18
100
AcDbEntity
  8
姿図
100
AcDbLine
 10
11758.17010722012
 20
-8703.712364255724
 30
0.0
 11
11758.17010722012
 21
-8705.095288253622
 31
0.0
  0
LINE
  5
67CD1
330
18
100
AcDbEntity
  8
姿図
100
AcDbLine
 10
11759.4680349873
 20
-8712.654924379964
 30
0.0
 11
11757.64926875613
 21
-8714.432026927348
 31
0.0
  0
LINE
  5
67CD2
330
18
100
AcDbEntity
  8
姿図
100
AcDbLine
 10
11759.4680349873
 20
-8703.571266008748
 30
0.0
 11
11758.17010722012
 21
-8703.712364255724
 31
0.0
  0
LINE
  5
67CD3
330
18
100
AcDbEntity
  8
姿図
100
AcDbLine
 10
11759.4680349873
 20
-8707.783241678084
 30
0.0
 11
11757.64926875613
 21
-8709.560344225469
 31
0.0
  0
LINE
  5
67CD4
330
18
100
AcDbEntity
  8
姿図
100
AcDbLine
 10
11759.4680349873
 20
-8695.654781618192
 30
0.0
 11
11759.4680349873
 21
-8693.62491382574
 31
0.0
  0
LINE
  5
67CD5
330
18
100
AcDbEntity
  8
姿図
100
AcDbLine
 10
11759.4680349873
 20
-8695.654781618192
 30
0.0
 11
11758.41149143976
 21
-8695.654781618192
 31
0.0
  0
LINE
  5
67CD6
330
18
100
AcDbEntity
  8
姿図
100
AcDbLine
 10
11759.4680349873
 20
-8744.340657991357
 30
0.0
 11
11759.4680349873
 21
-8741.580540422383
 31
0.0
  0
LINE
  5
67CD7
330
18
100
AcDbEntity
  8
姿図
100
AcDbLine
 10
11759.4680349873
 20
-8735.693923824278
 30
0.0
 11
11758.290365012
 21
-8735.693923824278
 31
0.0
  0
LINE
  5
67CD8
330
18
100
AcDbEntity
  8
姿図
100
AcDbLine
 10
11757.13828660063
 20
-8734.794478200427
 30
0.0
 11
11757.13828660063
 21
-8739.761669440719
 31
0.0
  0
LINE
  5
67CD9
330
18
100
AcDbEntity
  8
姿図
100
AcDbLine
 10
11759.4680349873
 20
-8735.693923824278
 30
0.0
 11
11759.4680349873
 21
-8733.917789505882
 31
0.0
  0
LINE
  5
67CDA
330
18
100
AcDbEntity
  8
姿図
100
AcDbLine
 10
11757.13828660063
 20
-8639.92630766855
 30
0.0
 11
11757.13828660063
 21
-8691.644817993307
 31
0.0
  0
ENDSEC
  0
SECTION
  2
OBJECTS
  0
DICTIONARY
  5
C
330
0
100
AcDbDictionary
281
     1
  3
ACAD_GROUP
350
D
  3
ACAD_IMAGE_VARS
350
680C2
  3
ACAD_LAYOUT
350
40CB
  3
ACAD_MLINESTYLE
350
E
  3
ACAD_PLOTSETTINGS
350
40CC
  3
ACAD_PLOTSTYLENAME
350
40C9
  3
ACAD_SCALELIST
350
6475F
  3
AcadDim
350
FCCB
  3
AcDbVariableDictionary
350
6377
  3
APPDATA
350
680C1
  3
DWGPROPS
350
680E5
  0
DICTIONARY
  5
63C2C
330
2
100
AcDbDictionary
280
     1
281
     1
  3
ACAD_LAYERSTATES
360
63C2D
  0
DICTIONARY
  5
655B6
330
F
100
AcDbDictionary
280
     1
281
     1
  3
ADSK_XREC_LAYER_RECONCILED
360
655B7
  0
DICTIONARY
  5
655BC
330
4B
100
AcDbDictionary
280
     1
281
     1
  3
ADSK_XREC_LAYER_RECONCILED
360
655BD
  0
DICTIONARY
  5
655BE
330
4C
100
AcDbDictionary
280
     1
281
     1
  3
ADSK_XREC_LAYER_RECONCILED
360
655BF
  0
DICTIONARY
  5
655C0
330
4D
100
AcDbDictionary
280
     1
281
     1
  3
ADSK_XREC_LAYER_RECONCILED
360
655C1
  0
DICTIONARY
  5
655C4
330
40D4
100
AcDbDictionary
280
     1
281
     1
  3
ADSK_XREC_LAYER_RECONCILED
360
655C5
  0
DICTIONARY
  5
655CA
330
64727
100
AcDbDictionary
280
     1
281
     1
  3
ADSK_XREC_LAYER_RECONCILED
360
655CB
  0
DICTIONARY
  5
9FD5
330
18
100
AcDbDictionary
280
     1
281
     1
  3
ACAD_SORTENTS
360
62691
  0
DICTIONARY
  5
D
102
{ACAD_REACTORS
330
C
102
}
330
C
100
AcDbDictionary
281
     1
  0
RASTERVARIABLES
  5
680C2
102
{ACAD_REACTORS
330
C
102
}
330
C
100
AcDbRasterVariables
 90
        0
 70
     1
 71
     1
 72
     0
  0
DICTIONARY
  5
40CB
102
{ACAD_REACTORS
330
C
102
}
330
C
100
AcDbDictionary
281
     1
  3
Model
350
40CD
  3
ﾚｲｱｳﾄ1
350
40CE
  0
DICTIONARY
  5
E
102
{ACAD_REACTORS
330
C
102
}
330
C
100
AcDbDictionary
281
     1
  3
STANDARD
350
1B
  0
DICTIONARY
  5
40CC
102
{ACAD_REACTORS
330
C
102
}
330
C
100
AcDbDictionary
281
     1
  0
ACDBDICTIONARYWDFLT
  5
40C9
102
{ACAD_REACTORS
330
C
102
}
330
C
100
AcDbDictionary
281
     1
  3
Normal
350
40CA
100
AcDbDictionaryWithDefault
340
40CA
  0
DICTIONARY
  5
6475F
102
{ACAD_REACTORS
330
C
102
}
330
C
100
AcDbDictionary
281
     1
  3
A0
350
64760
  3
A1
350
64761
  3
A2
350
64762
  3
A3
350
64763
  3
A4
350
64764
  3
A5
350
64765
  3
A6
350
64766
  3
A7
350
64767
  3
A8
350
64768
  3
A9
350
64769
  3
B0
350
6476A
  3
B1
350
6476B
  3
B2
350
6476C
  3
B3
350
6476D
  3
B4
350
6476E
  3
B5
350
6476F
  3
B6
350
64770
  3
B7
350
64771
  3
B8
350
64772
  3
B9
350
64773
  3
C0
350
64774
  3
C1
350
64775
  3
C2
350
64776
  3
C3
350
64777
  3
C4
350
64778
  3
C5
350
64779
  3
C6
350
6477A
  3
C7
350
6477B
  3
C8
350
6477C
  3
C9
350
6477D
  3
D0
350
6477E
  3
D1
350
6477F
  3
D2
350
64780
  0
XRECORD
  5
FCCB
102
{ACAD_REACTORS
330
C
102
}
330
C
100
AcDbXrecord
280
     1
 90
   990106
  3

 60
     0
 61
     0
 62
     1
 63
     3
 64
     0
 65
     0
 66
     0
 67
     3
 68
     1
 69
     0
 70
     0
 71
     0
 72
     0
 40
2.0
170
     0
  0
DICTIONARY
  5
6377
102
{ACAD_REACTORS
330
C
102
}
330
C
100
AcDbDictionary
281
     1
  3
DIMASSOC
350
73F2
  3
INDEXCTL
350
655DF
  3
PROJECTNAME
350
61970
  3
SORTENTS
350
6378
  0
DICTIONARY
  5
680C1
102
{ACAD_REACTORS
330
C
102
}
330
C
100
AcDbDictionary
281
     1
  0
XRECORD
  5
680E5
102
{ACAD_REACTORS
330
C
102
}
330
C
100
AcDbXrecord
280
     1
  1
DWGPROPS COOKIE
  2

  3

  4

  6

  7

  8
SPAX
  9

300
=
301
=
302
=
303
=
304
=
305
=
306
=
307
=
308
=
309
=
 40
0.0
 41
2449505.547222222
 42
2456822.117673935
  1

 90
        0
  0
DICTIONARY
  5
63C2D
102
{ACAD_REACTORS
330
63C2C
102
}
330
63C2C
100
AcDbDictionary
281
     1
  0
XRECORD
  5
655B7
102
{ACAD_REACTORS
330
655B6
102
}
330
655B6
100
AcDbXrecord
280
     1
290
     1
  0
XRECORD
  5
655BD
102
{ACAD_REACTORS
330
655BC
102
}
330
655BC
100
AcDbXrecord
280
     1
290
     1
  0
XRECORD
  5
655BF
102
{ACAD_REACTORS
330
655BE
102
}
330
655BE
100
AcDbXrecord
280
     1
290
     1
  0
XRECORD
  5
655C1
102
{ACAD_REACTORS
330
655C0
102
}
330
655C0
100
AcDbXrecord
280
     1
290
     1
  0
XRECORD
  5
655C5
102
{ACAD_REACTORS
330
655C4
102
}
330
655C4
100
AcDbXrecord
280
     1
290
     1
  0
XRECORD
  5
655CB
102
{ACAD_REACTORS
330
655CA
102
}
330
655CA
100
AcDbXrecord
280
     1
290
     1
  0
SORTENTSTABLE
  5
62691
102
{ACAD_REACTORS
330
9FD5
102
}
330
9FD5
100
AcDbSortentsTable
330
18
331
0
  5
58A5A
  0
LAYOUT
  5
40CD
102
{ACAD_REACTORS
330
40CB
102
}
330
40CB
100
AcDbPlotSettings
  1

  2
JUST PDF 2.pc3
  4
A4
  6
CUT1
 40
3.174999952316284
 41
3.174999952316284
 42
3.175003051757812
 43
3.17498779296875
 44
209.8886566162109
 45
297.0530090332031
 46
14.27
 47
9.86
 48
11363.43015406058
 49
-7566.553700475487
140
13113.38233900965
141
-4856.626949088822
142
1.0
143
10.0
 70
 11940
 72
     1
 73
     0
 74
     4
  7
spax form.ctb
 75
     0
147
0.1
148
-11363.43015406058
149
7566.553700475487
100
AcDbLayout
  1
Model
 70
     1
 71
     0
 10
0.0
 20
0.0
 11
12.0
 21
9.0
 12
0.0
 22
0.0
 32
0.0
 14
11414.3790108402
 24
-8859.392266384197
 34
0.0
 15
11794.34101084019
 25
-8518.919673639703
 35
0.0
146
0.0
 13
0.0
 23
0.0
 33
0.0
 16
1.0
 26
0.0
 36
0.0
 17
0.0
 27
1.0
 37
0.0
 76
     0
330
18
331
675F2
1001
ACAD_PSEXT
1000
DWG To PDF.pc3
1000
PDF
1000
ファイル
1000

1070
     0
  0
LAYOUT
  5
40CE
102
{ACAD_REACTORS
330
40CB
102
}
330
40CB
100
AcDbPlotSettings
  1

  2
なし
  4

  6

 40
0.0
 41
0.0
 42
0.0
 43
0.0
 44
0.0
 45
0.0
 46
0.0
 47
0.0
 48
0.0
 49
0.0
140
0.0
141
0.0
142
1.0
143
1.0
 70
   688
 72
     0
 73
     0
 74
     5
  7
monochrome.ctb
 75
    16
147
1.0
148
0.0
149
0.0
100
AcDbLayout
  1
ﾚｲｱｳﾄ1
 70
     0
 71
     1
 10
0.0
 20
0.0
 11
12.0
 21
9.0
 12
0.0
 22
0.0
 32
0.0
 14
1.000000000000000E+20
 24
1.000000000000000E+20
 34
1.000000000000000E+20
 15
-1.000000000000000E+20
 25
-1.000000000000000E+20
 35
-1.000000000000000E+20
146
0.0
 13
0.0
 23
0.0
 33
0.0
 16
1.0
 26
0.0
 36
0.0
 17
0.0
 27
1.0
 37
0.0
 76
     0
330
15
  0
MLINESTYLE
  5
1B
102
{ACAD_REACTORS
330
E
102
}
330
E
100
AcDbMlineStyle
  2
STANDARD
 70
     0
  3

 62
     0
 51
90.0
 52
90.0
 71
     2
 49
0.5
 62
   256
  6
BYLAYER
 49
-0.5
 62
   256
  6
BYLAYER
  0
ACDBPLACEHOLDER
  5
40CA
102
{ACAD_REACTORS
330
40C9
102
}
330
40C9
  0
SCALE
  5
64760
102
{ACAD_REACTORS
330
6475F
102
}
330
6475F
100
AcDbScale
 70
     0
300
1:1
140
1.0
141
1.0
290
     1
1001
ACAD
1000
AcRTDxfName
1000
SCALE
1000
AcRTDxfName
1000
SCALE
  0
SCALE
  5
64761
102
{ACAD_REACTORS
330
6475F
102
}
330
6475F
100
AcDbScale
 70
     0
300
1:2
140
1.0
141
2.0
290
     0
1001
ACAD
1000
AcRTDxfName
1000
SCALE
1000
AcRTDxfName
1000
SCALE
  0
SCALE
  5
64762
102
{ACAD_REACTORS
330
6475F
102
}
330
6475F
100
AcDbScale
 70
     0
300
1:4
140
1.0
141
4.0
290
     0
1001
ACAD
1000
AcRTDxfName
1000
SCALE
1000
AcRTDxfName
1000
SCALE
  0
SCALE
  5
64763
102
{ACAD_REACTORS
330
6475F
102
}
330
6475F
100
AcDbScale
 70
     0
300
1:5
140
1.0
141
5.0
290
     0
1001
ACAD
1000
AcRTDxfName
1000
SCALE
1000
AcRTDxfName
1000
SCALE
  0
SCALE
  5
64764
102
{ACAD_REACTORS
330
6475F
102
}
330
6475F
100
AcDbScale
 70
     0
300
1:8
140
1.0
141
8.0
290
     0
1001
ACAD
1000
AcRTDxfName
1000
SCALE
1000
AcRTDxfName
1000
SCALE
  0
SCALE
  5
64765
102
{ACAD_REACTORS
330
6475F
102
}
330
6475F
100
AcDbScale
 70
     0
300
1:10
140
1.0
141
10.0
290
     0
1001
ACAD
1000
AcRTDxfName
1000
SCALE
1000
AcRTDxfName
1000
SCALE
  0
SCALE
  5
64766
102
{ACAD_REACTORS
330
6475F
102
}
330
6475F
100
AcDbScale
 70
     0
300
1:16
140
1.0
141
16.0
290
     0
1001
ACAD
1000
AcRTDxfName
1000
SCALE
1000
AcRTDxfName
1000
SCALE
  0
SCALE
  5
64767
102
{ACAD_REACTORS
330
6475F
102
}
330
6475F
100
AcDbScale
 70
     0
300
1:20
140
1.0
141
20.0
290
     0
1001
ACAD
1000
AcRTDxfName
1000
SCALE
1000
AcRTDxfName
1000
SCALE
  0
SCALE
  5
64768
102
{ACAD_REACTORS
330
6475F
102
}
330
6475F
100
AcDbScale
 70
     0
300
1:30
140
1.0
141
30.0
290
     0
1001
ACAD
1000
AcRTDxfName
1000
SCALE
1000
AcRTDxfName
1000
SCALE
  0
SCALE
  5
64769
102
{ACAD_REACTORS
330
6475F
102
}
330
6475F
100
AcDbScale
 70
     0
300
1:40
140
1.0
141
40.0
290
     0
1001
ACAD
1000
AcRTDxfName
1000
SCALE
1000
AcRTDxfName
1000
SCALE
  0
SCALE
  5
6476A
102
{ACAD_REACTORS
330
6475F
102
}
330
6475F
100
AcDbScale
 70
     0
300
1:50
140
1.0
141
50.0
290
     0
1001
ACAD
1000
AcRTDxfName
1000
SCALE
1000
AcRTDxfName
1000
SCALE
  0
SCALE
  5
6476B
102
{ACAD_REACTORS
330
6475F
102
}
330
6475F
100
AcDbScale
 70
     0
300
1:100
140
1.0
141
100.0
290
     0
1001
ACAD
1000
AcRTDxfName
1000
SCALE
1000
AcRTDxfName
1000
SCALE
  0
SCALE
  5
6476C
102
{ACAD_REACTORS
330
6475F
102
}
330
6475F
100
AcDbScale
 70
     0
300
2:1
140
2.0
141
1.0
290
     0
1001
ACAD
1000
AcRTDxfName
1000
SCALE
1000
AcRTDxfName
1000
SCALE
  0
SCALE
  5
6476D
102
{ACAD_REACTORS
330
6475F
102
}
330
6475F
100
AcDbScale
 70
     0
300
4:1
140
4.0
141
1.0
290
     0
1001
ACAD
1000
AcRTDxfName
1000
SCALE
1000
AcRTDxfName
1000
SCALE
  0
SCALE
  5
6476E
102
{ACAD_REACTORS
330
6475F
102
}
330
6475F
100
AcDbScale
 70
     0
300
8:1
140
8.0
141
1.0
290
     0
1001
ACAD
1000
AcRTDxfName
1000
SCALE
1000
AcRTDxfName
1000
SCALE
  0
SCALE
  5
6476F
102
{ACAD_REACTORS
330
6475F
102
}
330
6475F
100
AcDbScale
 70
     0
300
10:1
140
10.0
141
1.0
290
     0
1001
ACAD
1000
AcRTDxfName
1000
SCALE
1000
AcRTDxfName
1000
SCALE
  0
SCALE
  5
64770
102
{ACAD_REACTORS
330
6475F
102
}
330
6475F
100
AcDbScale
 70
     0
300
100:1
140
100.0
141
1.0
290
     0
1001
ACAD
1000
AcRTDxfName
1000
SCALE
1000
AcRTDxfName
1000
SCALE
  0
SCALE
  5
64771
102
{ACAD_REACTORS
330
6475F
102
}
330
6475F
100
AcDbScale
 70
     0
300
1/128" = 1'-0"
140
0.0078125
141
12.0
290
     0
1001
ACAD
1000
AcRTDxfName
1000
SCALE
1000
AcRTDxfName
1000
SCALE
  0
SCALE
  5
64772
102
{ACAD_REACTORS
330
6475F
102
}
330
6475F
100
AcDbScale
 70
     0
300
1/64" = 1'-0"
140
0.015625
141
12.0
290
     0
1001
ACAD
1000
AcRTDxfName
1000
SCALE
1000
AcRTDxfName
1000
SCALE
  0
SCALE
  5
64773
102
{ACAD_REACTORS
330
6475F
102
}
330
6475F
100
AcDbScale
 70
     0
300
1/32" = 1'-0"
140
0.03125
141
12.0
290
     0
1001
ACAD
1000
AcRTDxfName
1000
SCALE
1000
AcRTDxfName
1000
SCALE
  0
SCALE
  5
64774
102
{ACAD_REACTORS
330
6475F
102
}
330
6475F
100
AcDbScale
 70
     0
300
1/16" = 1'-0"
140
0.0625
141
12.0
290
     0
1001
ACAD
1000
AcRTDxfName
1000
SCALE
1000
AcRTDxfName
1000
SCALE
  0
SCALE
  5
64775
102
{ACAD_REACTORS
330
6475F
102
}
330
6475F
100
AcDbScale
 70
     0
300
3/32" = 1'-0"
140
0.09375
141
12.0
290
     0
1001
ACAD
1000
AcRTDxfName
1000
SCALE
1000
AcRTDxfName
1000
SCALE
  0
SCALE
  5
64776
102
{ACAD_REACTORS
330
6475F
102
}
330
6475F
100
AcDbScale
 70
     0
300
1/8" = 1'-0"
140
0.125
141
12.0
290
     0
1001
ACAD
1000
AcRTDxfName
1000
SCALE
1000
AcRTDxfName
1000
SCALE
  0
SCALE
  5
64777
102
{ACAD_REACTORS
330
6475F
102
}
330
6475F
100
AcDbScale
 70
     0
300
3/16" = 1'-0"
140
0.1875
141
12.0
290
     0
1001
ACAD
1000
AcRTDxfName
1000
SCALE
1000
AcRTDxfName
1000
SCALE
  0
SCALE
  5
64778
102
{ACAD_REACTORS
330
6475F
102
}
330
6475F
100
AcDbScale
 70
     0
300
1/4" = 1'-0"
140
0.25
141
12.0
290
     0
1001
ACAD
1000
AcRTDxfName
1000
SCALE
1000
AcRTDxfName
1000
SCALE
  0
SCALE
  5
64779
102
{ACAD_REACTORS
330
6475F
102
}
330
6475F
100
AcDbScale
 70
     0
300
3/8" = 1'-0"
140
0.375
141
12.0
290
     0
1001
ACAD
1000
AcRTDxfName
1000
SCALE
1000
AcRTDxfName
1000
SCALE
  0
SCALE
  5
6477A
102
{ACAD_REACTORS
330
6475F
102
}
330
6475F
100
AcDbScale
 70
     0
300
1/2" = 1'-0"
140
0.5
141
12.0
290
     0
1001
ACAD
1000
AcRTDxfName
1000
SCALE
1000
AcRTDxfName
1000
SCALE
  0
SCALE
  5
6477B
102
{ACAD_REACTORS
330
6475F
102
}
330
6475F
100
AcDbScale
 70
     0
300
3/4" = 1'-0"
140
0.75
141
12.0
290
     0
1001
ACAD
1000
AcRTDxfName
1000
SCALE
1000
AcRTDxfName
1000
SCALE
  0
SCALE
  5
6477C
102
{ACAD_REACTORS
330
6475F
102
}
330
6475F
100
AcDbScale
 70
     0
300
1" = 1'-0"
140
1.0
141
12.0
290
     0
1001
ACAD
1000
AcRTDxfName
1000
SCALE
1000
AcRTDxfName
1000
SCALE
  0
SCALE
  5
6477D
102
{ACAD_REACTORS
330
6475F
102
}
330
6475F
100
AcDbScale
 70
     0
300
1-1/2" = 1'-0"
140
1.5
141
12.0
290
     0
1001
ACAD
1000
AcRTDxfName
1000
SCALE
1000
AcRTDxfName
1000
SCALE
  0
SCALE
  5
6477E
102
{ACAD_REACTORS
330
6475F
102
}
330
6475F
100
AcDbScale
 70
     0
300
3" = 1'-0"
140
3.0
141
12.0
290
     0
1001
ACAD
1000
AcRTDxfName
1000
SCALE
1000
AcRTDxfName
1000
SCALE
  0
SCALE
  5
6477F
102
{ACAD_REACTORS
330
6475F
102
}
330
6475F
100
AcDbScale
 70
     0
300
6" = 1'-0"
140
6.0
141
12.0
290
     0
1001
ACAD
1000
AcRTDxfName
1000
SCALE
1000
AcRTDxfName
1000
SCALE
  0
SCALE
  5
64780
102
{ACAD_REACTORS
330
6475F
102
}
330
6475F
100
AcDbScale
 70
     0
300
1'-0" = 1'-0"
140
12.0
141
12.0
290
     0
1001
ACAD
1000
AcRTDxfName
1000
SCALE
1000
AcRTDxfName
1000
SCALE
  0
DICTIONARYVAR
  5
73F2
102
{ACAD_REACTORS
330
6377
102
}
330
6377
100
DictionaryVariables
280
     0
  1
1
  0
DICTIONARYVAR
  5
655DF
102
{ACAD_REACTORS
330
6377
102
}
330
6377
100
DictionaryVariables
280
     0
  1
0
  0
DICTIONARYVAR
  5
61970
102
{ACAD_REACTORS
330
6377
102
}
330
6377
100
DictionaryVariables
280
     0
  1

  0
DICTIONARYVAR
  5
6378
102
{ACAD_REACTORS
330
6377
102
}
330
6377
100
DictionaryVariables
280
     0
  1
127
  0
ENDSEC
  0
EOF
